  0
SECTION
  2
HEADER
  9
$ACADVER
  1
AC1015
  9
$ACADMAINTVER
 70
    20
  9
$DWGCODEPAGE
  3
ANSI_932
  9
$INSBASE
 10
0.0
 20
0.0
 30
0.0
  9
$EXTMIN
 10
-316.1414967339283
 20
-238.9997818181818
 30
0.0
  9
$EXTMAX
 10
333.5575555214962
 20
167.6007221176862
 30
0.0
  9
$LIMMIN
 10
0.0
 20
0.0
  9
$LIMMAX
 10
12.0
 20
9.0
  9
$ORTHOMODE
 70
     0
  9
$REGENMODE
 70
     1
  9
$FILLMODE
 70
     1
  9
$QTEXTMODE
 70
     0
  9
$MIRRTEXT
 70
     1
  9
$LTSCALE
 40
1.0
  9
$ATTMODE
 70
     1
  9
$TEXTSIZE
 40
0.2
  9
$TRACEWID
 40
0.05
  9
$TEXTSTYLE
  7
CONVERTER_8
  9
$CLAYER
  8
0
  9
$CELTYPE
  6
ByLayer
  9
$CECOLOR
 62
     4
  9
$CELTSCALE
 40
1.0
  9
$DISPSILH
 70
     0
  9
$DIMSCALE
 40
1.0
  9
$DIMASZ
 40
0.18
  9
$DIMEXO
 40
0.0625
  9
$DIMDLI
 40
0.38
  9
$DIMRND
 40
0.0
  9
$DIMDLE
 40
0.0
  9
$DIMEXE
 40
0.18
  9
$DIMTP
 40
0.0
  9
$DIMTM
 40
0.0
  9
$DIMTXT
 40
0.18
  9
$DIMCEN
 40
0.09
  9
$DIMTSZ
 40
0.0
  9
$DIMTOL
 70
     0
  9
$DIMLIM
 70
     0
  9
$DIMTIH
 70
     1
  9
$DIMTOH
 70
     1
  9
$DIMSE1
 70
     0
  9
$DIMSE2
 70
     0
  9
$DIMTAD
 70
     0
  9
$DIMZIN
 70
     0
  9
$DIMBLK
  1

  9
$DIMASO
 70
     1
  9
$DIMSHO
 70
     1
  9
$DIMPOST
  1

  9
$DIMAPOST
  1

  9
$DIMALT
 70
     0
  9
$DIMALTD
 70
     2
  9
$DIMALTF
 40
25.4
  9
$DIMLFAC
 40
1.0
  9
$DIMTOFL
 70
     0
  9
$DIMTVP
 40
0.0
  9
$DIMTIX
 70
     0
  9
$DIMSOXD
 70
     0
  9
$DIMSAH
 70
     0
  9
$DIMBLK1
  1

  9
$DIMBLK2
  1

  9
$DIMSTYLE
  2
Standard
  9
$DIMCLRD
 70
     0
  9
$DIMCLRE
 70
     0
  9
$DIMCLRT
 70
     0
  9
$DIMTFAC
 40
1.0
  9
$DIMGAP
 40
0.09
  9
$DIMJUST
 70
     0
  9
$DIMSD1
 70
     0
  9
$DIMSD2
 70
     0
  9
$DIMTOLJ
 70
     1
  9
$DIMTZIN
 70
     0
  9
$DIMALTZ
 70
     0
  9
$DIMALTTZ
 70
     0
  9
$DIMUPT
 70
     0
  9
$DIMDEC
 70
     4
  9
$DIMTDEC
 70
     4
  9
$DIMALTU
 70
     2
  9
$DIMALTTD
 70
     2
  9
$DIMTXSTY
  7
Standard
  9
$DIMAUNIT
 70
     0
  9
$DIMADEC
 70
     0
  9
$DIMALTRND
 40
0.0
  9
$DIMAZIN
 70
     0
  9
$DIMDSEP
 70
    46
  9
$DIMATFIT
 70
     3
  9
$DIMFRAC
 70
     0
  9
$DIMLDRBLK
  1

  9
$DIMLUNIT
 70
     2
  9
$DIMLWD
 70
    -2
  9
$DIMLWE
 70
    -2
  9
$DIMTMOVE
 70
     0
  9
$LUNITS
 70
     2
  9
$LUPREC
 70
     4
  9
$SKETCHINC
 40
0.1
  9
$FILLETRAD
 40
0.5
  9
$AUNITS
 70
     0
  9
$AUPREC
 70
     0
  9
$MENU
  1
.
  9
$ELEVATION
 40
0.0
  9
$PELEVATION
 40
0.0
  9
$THICKNESS
 40
0.0
  9
$LIMCHECK
 70
     0
  9
$CHAMFERA
 40
0.5
  9
$CHAMFERB
 40
0.5
  9
$CHAMFERC
 40
1.0
  9
$CHAMFERD
 40
0.0
  9
$SKPOLY
 70
     0
  9
$TDCREATE
 40
2455092.433860127
  9
$TDUCREATE
 40
2455092.058860127
  9
$TDUPDATE
 40
2456737.543189572
  9
$TDUUPDATE
 40
2456737.168189572
  9
$TDINDWG
 40
0.2725518519
  9
$TDUSRTIMER
 40
0.2725500347
  9
$USRTIMER
 70
     1
  9
$ANGBASE
 50
0.0
  9
$ANGDIR
 70
     0
  9
$PDMODE
 70
     0
  9
$PDSIZE
 40
0.0
  9
$PLINEWID
 40
0.0
  9
$SPLFRAME
 70
     0
  9
$SPLINETYPE
 70
     6
  9
$SPLINESEGS
 70
     8
  9
$HANDSEED
  5
1451
  9
$SURFTAB1
 70
     6
  9
$SURFTAB2
 70
     6
  9
$SURFTYPE
 70
     6
  9
$SURFU
 70
     6
  9
$SURFV
 70
     6
  9
$UCSBASE
  2

  9
$UCSNAME
  2

  9
$UCSORG
 10
0.0
 20
0.0
 30
0.0
  9
$UCSXDIR
 10
1.0
 20
0.0
 30
0.0
  9
$UCSYDIR
 10
0.0
 20
1.0
 30
0.0
  9
$UCSORTHOREF
  2

  9
$UCSORTHOVIEW
 70
     0
  9
$UCSORGTOP
 10
0.0
 20
0.0
 30
0.0
  9
$UCSORGBOTTOM
 10
0.0
 20
0.0
 30
0.0
  9
$UCSORGLEFT
 10
0.0
 20
0.0
 30
0.0
  9
$UCSORGRIGHT
 10
0.0
 20
0.0
 30
0.0
  9
$UCSORGFRONT
 10
0.0
 20
0.0
 30
0.0
  9
$UCSORGBACK
 10
0.0
 20
0.0
 30
0.0
  9
$PUCSBASE
  2

  9
$PUCSNAME
  2

  9
$PUCSORG
 10
0.0
 20
0.0
 30
0.0
  9
$PUCSXDIR
 10
1.0
 20
0.0
 30
0.0
  9
$PUCSYDIR
 10
0.0
 20
1.0
 30
0.0
  9
$PUCSORTHOREF
  2

  9
$PUCSORTHOVIEW
 70
     0
  9
$PUCSORGTOP
 10
0.0
 20
0.0
 30
0.0
  9
$PUCSORGBOTTOM
 10
0.0
 20
0.0
 30
0.0
  9
$PUCSORGLEFT
 10
0.0
 20
0.0
 30
0.0
  9
$PUCSORGRIGHT
 10
0.0
 20
0.0
 30
0.0
  9
$PUCSORGFRONT
 10
0.0
 20
0.0
 30
0.0
  9
$PUCSORGBACK
 10
0.0
 20
0.0
 30
0.0
  9
$USERI1
 70
     0
  9
$USERI2
 70
     0
  9
$USERI3
 70
     0
  9
$USERI4
 70
     0
  9
$USERI5
 70
     0
  9
$USERR1
 40
14.0
  9
$USERR2
 40
0.0
  9
$USERR3
 40
0.0
  9
$USERR4
 40
0.0
  9
$USERR5
 40
0.0
  9
$WORLDVIEW
 70
     1
  9
$SHADEDGE
 70
     3
  9
$SHADEDIF
 70
    70
  9
$TILEMODE
 70
     1
  9
$MAXACTVP
 70
    64
  9
$PINSBASE
 10
0.0
 20
0.0
 30
0.0
  9
$PLIMCHECK
 70
     0
  9
$PEXTMIN
 10
1.000000000000000E+20
 20
1.000000000000000E+20
 30
1.000000000000000E+20
  9
$PEXTMAX
 10
-1.000000000000000E+20
 20
-1.000000000000000E+20
 30
-1.000000000000000E+20
  9
$PLIMMIN
 10
0.0
 20
0.0
  9
$PLIMMAX
 10
12.0
 20
9.0
  9
$UNITMODE
 70
     0
  9
$VISRETAIN
 70
     1
  9
$PLINEGEN
 70
     0
  9
$PSLTSCALE
 70
     1
  9
$TREEDEPTH
 70
  3020
  9
$CMLSTYLE
  2
Standard
  9
$CMLJUST
 70
     0
  9
$CMLSCALE
 40
1.0
  9
$PROXYGRAPHICS
 70
     1
  9
$MEASUREMENT
 70
     1
  9
$CELWEIGHT
370
    -1
  9
$ENDCAPS
280
     0
  9
$JOINSTYLE
280
     0
  9
$LWDISPLAY
290
     0
  9
$INSUNITS
 70
     1
  9
$HYPERLINKBASE
  1

  9
$STYLESHEET
  1
P社図面.CTB
  9
$XEDIT
290
     1
  9
$CEPSNTYPE
380
     0
  9
$PSTYLEMODE
290
     1
  9
$FINGERPRINTGUID
  2
{87BB2C0D-92CB-4104-BA20-BFCE061C8940}
  9
$VERSIONGUID
  2
{FF2FB4D4-370C-4D85-9D47-E16AFD9B6C03}
  9
$EXTNAMES
290
     1
  9
$PSVPSCALE
 40
0.0
  9
$OLESTARTUP
290
     0
  0
ENDSEC
  0
SECTION
  2
CLASSES
  0
CLASS
  1
ACDBDICTIONARYWDFLT
  2
AcDbDictionaryWithDefault
  3
ObjectDBX Classes
 90
        0
280
     0
281
     0
  0
CLASS
  1

  2
exOdDbSpline
  3

 90
    32768
280
     0
281
     1
  0
CLASS
  1

  2
exOdDbPolyline
  3

 90
    32768
280
     0
281
     1
  0
CLASS
  1

  2
exOdDbCircle
  3

 90
    32768
280
     0
281
     1
  0
CLASS
  1
ACDBPLACEHOLDER
  2
AcDbPlaceHolder
  3
ObjectDBX Classes
 90
        0
280
     0
281
     0
  0
CLASS
  1
LAYOUT
  2
AcDbLayout
  3
ObjectDBX Classes
 90
        0
280
     0
281
     0
  0
CLASS
  1
DICTIONARYVAR
  2
AcDbDictionaryVar
  3
ObjectDBX Classes
 90
        0
280
     0
281
     0
  0
ENDSEC
  0
SECTION
  2
TABLES
  0
TABLE
  2
VPORT
  5
8
330
0
100
AcDbSymbolTable
 70
     5
  0
VPORT
  5
1447
330
8
100
AcDbSymbolTableRecord
100
AcDbViewportTableRecord
  2
*Active
 70
     0
 10
0.0
 20
0.0
 11
1.0
 21
1.0
 12
7.448659943800066
 22
-7.781132430814693
 13
0.0
 23
0.0
 14
0.5
 24
0.5
 15
0.5
 25
0.5
 16
0.0
 26
0.0
 36
1.0
 17
0.0
 27
0.0
 37
0.0
 40
451.6009666918002
 41
1.714078374455732
 42
50.0
 43
0.0
 44
0.0
 50
0.0
 51
0.0
 71
     0
 72
   100
 73
     1
 74
     3
 75
     0
 76
     0
 77
     0
 78
     0
281
     0
 65
     1
110
0.0
120
0.0
130
0.0
111
1.0
121
0.0
131
0.0
112
0.0
122
1.0
132
0.0
 79
     0
146
0.0
  0
ENDTAB
  0
TABLE
  2
LTYPE
  5
5
330
0
100
AcDbSymbolTable
 70
     5
  0
LTYPE
  5
14
330
5
100
AcDbSymbolTableRecord
100
AcDbLinetypeTableRecord
  2
ByBlock
 70
     0
  3

 72
    65
 73
     0
 40
0.0
  0
LTYPE
  5
15
330
5
100
AcDbSymbolTableRecord
100
AcDbLinetypeTableRecord
  2
ByLayer
 70
     0
  3

 72
    65
 73
     0
 40
0.0
  0
LTYPE
  5
16
330
5
100
AcDbSymbolTableRecord
100
AcDbLinetypeTableRecord
  2
Continuous
 70
     0
  3
Solid line
 72
    65
 73
     0
 40
0.0
  0
LTYPE
  5
2A
330
5
100
AcDbSymbolTableRecord
100
AcDbLinetypeTableRecord
  2
DASHED
 70
     0
  3
Dashed
 72
    65
 73
     2
 40
15.0
 49
7.0
 74
     0
 49
-8.0
 74
     0
  0
LTYPE
  5
2C
330
5
100
AcDbSymbolTableRecord
100
AcDbLinetypeTableRecord
  2
DOT_CENTER
 70
     0
  3
Dot_Center
 72
    65
 73
     4
 40
14.0
 49
12.0
 74
     0
 49
-1.0
 74
     0
 49
0.0
 74
     0
 49
-1.0
 74
     0
  0
LTYPE
  5
2E
330
5
100
AcDbSymbolTableRecord
100
AcDbLinetypeTableRecord
  2
DASH_CENTER
 70
     0
  3
Dash_Center
 72
    65
 73
     4
 40
14.0
 49
11.0
 74
     0
 49
-1.0
 74
     0
 49
1.0
 74
     0
 49
-1.0
 74
     0
  0
LTYPE
  5
30
330
5
100
AcDbSymbolTableRecord
100
AcDbLinetypeTableRecord
  2
CENTER_DASH_DASH
 70
     0
  3
Center_Dash_Dash
 72
    65
 73
     6
 40
14.0
 49
9.0
 74
     0
 49
-1.0
 74
     0
 49
1.0
 74
     0
 49
-1.0
 74
     0
 49
1.0
 74
     0
 49
-1.0
 74
     0
  0
ENDTAB
  0
TABLE
  2
LAYER
  5
2
330
0
100
AcDbSymbolTable
 70
     3
  0
LAYER
  5
10
330
2
100
AcDbSymbolTableRecord
100
AcDbLayerTableRecord
  2
0
 70
     0
 62
     7
  6
Continuous
370
    -3
390
F
  0
LAYER
  5
31
330
2
100
AcDbSymbolTableRecord
100
AcDbLayerTableRecord
  2
1
 70
     0
 62
     7
  6
Continuous
370
    -3
390
F
  0
LAYER
  5
F70
330
2
100
AcDbSymbolTableRecord
100
AcDbLayerTableRecord
  2
Defpoints
 70
     0
 62
     7
  6
Continuous
290
     0
370
    -3
390
F
  0
ENDTAB
  0
TABLE
  2
STYLE
  5
3
330
0
100
AcDbSymbolTable
 70
     6
  0
STYLE
  5
11
330
3
100
AcDbSymbolTableRecord
100
AcDbTextStyleTableRecord
  2
Standard
 70
     0
 40
0.0
 41
1.0
 50
0.0
 71
     0
 42
0.2
  3
txt
  4

  0
STYLE
  5
639
330
3
100
AcDbSymbolTableRecord
100
AcDbTextStyleTableRecord
  2
CONVERTER_4
 70
     0
 40
0.0
 41
0.89
 50
0.0
 71
     0
 42
0.2
  3
simplex.shx
  4
bigfont.shx
  0
STYLE
  5
870
330
3
100
AcDbSymbolTableRecord
100
AcDbTextStyleTableRecord
  2
CONVERTER_8
 70
     0
 40
0.0
 41
1.0235
 50
0.0
 71
     0
 42
0.2
  3
simplex.shx
  4
bigfont.shx
  0
STYLE
  5
872
330
3
100
AcDbSymbolTableRecord
100
AcDbTextStyleTableRecord
  2
CONVERTER_9
 70
     0
 40
0.0
 41
0.8009999999999999
 50
0.0
 71
     0
 42
0.2
  3
simplex.shx
  4
bigfont.shx
  0
STYLE
  5
895
330
3
100
AcDbSymbolTableRecord
100
AcDbTextStyleTableRecord
  2
CONVERTER_17
 70
     0
 40
0.0
 41
0.6230000000000002
 50
0.0
 71
     0
 42
0.2
  3
txt.shx
  4

  0
ENDTAB
  0
TABLE
  2
VIEW
  5
6
330
0
100
AcDbSymbolTable
 70
     0
  0
ENDTAB
  0
TABLE
  2
UCS
  5
7
330
0
100
AcDbSymbolTable
 70
     0
  0
ENDTAB
  0
TABLE
  2
APPID
  5
9
330
0
100
AcDbSymbolTable
 70
     1
  0
APPID
  5
12
330
9
100
AcDbSymbolTableRecord
100
AcDbRegAppTableRecord
  2
ACAD
 70
     0
  0
ENDTAB
  0
TABLE
  2
DIMSTYLE
  5
A
330
0
100
AcDbSymbolTable
 70
     1
100
AcDbDimStyleTable
 71
     1
340
27
  0
DIMSTYLE
105
27
330
A
100
AcDbSymbolTableRecord
100
AcDbDimStyleTableRecord
  2
Standard
 70
     0
340
11
  0
ENDTAB
  0
TABLE
  2
BLOCK_RECORD
  5
1
330
0
100
AcDbSymbolTable
 70
     7
  0
BLOCK_RECORD
  5
1F
330
1
100
AcDbSymbolTableRecord
100
AcDbBlockTableRecord
  2
*Model_Space
340
22
  0
BLOCK_RECORD
  5
1B
330
1
100
AcDbSymbolTableRecord
100
AcDbBlockTableRecord
  2
*Paper_Space
340
1E
  0
BLOCK_RECORD
  5
23
330
1
100
AcDbSymbolTableRecord
100
AcDbBlockTableRecord
  2
*Paper_Space0
340
26
  0
ENDTAB
  0
ENDSEC
  0
SECTION
  2
BLOCKS
  0
BLOCK
  5
20
330
1F
100
AcDbEntity
  8
0
100
AcDbBlockBegin
  2
*Model_Space
 70
     0
 10
0.0
 20
0.0
 30
0.0
  3
*Model_Space
  1

  0
ENDBLK
  5
21
330
1F
100
AcDbEntity
  8
0
100
AcDbBlockEnd
  0
BLOCK
  5
1C
330
1B
100
AcDbEntity
 67
     1
  8
0
100
AcDbBlockBegin
  2
*Paper_Space
 70
     0
 10
0.0
 20
0.0
 30
0.0
  3
*Paper_Space
  1

  0
ENDBLK
  5
1D
330
1B
100
AcDbEntity
 67
     1
  8
0
100
AcDbBlockEnd
  0
BLOCK
  5
24
330
23
100
AcDbEntity
  8
0
100
AcDbBlockBegin
  2
*Paper_Space0
 70
     0
 10
0.0
 20
0.0
 30
0.0
  3
*Paper_Space0
  1

  0
ENDBLK
  5
25
330
23
100
AcDbEntity
  8
0
100
AcDbBlockEnd
  0
ENDSEC
  0
SECTION
  2
ENTITIES
  0
TEXT
  5
91C
330
1F
100
AcDbEntity
  8
0
 62
     2
100
AcDbText
 10
-8.777112721254312
 20
-191.5894280738342
 30
0.0
 40
8.0
  1
ABS1412P200W
 41
0.8009999999999999
  7
CONVERTER_9
100
AcDbText
  0
MTEXT
  5
935
330
1F
100
AcDbEntity
  8
0
 62
     2
100
AcDbMText
 10
205.5000000000006
 20
-255.4997860470252
 30
0.0
 40
4.0
 41
0.0
 71
     5
 72
     1
  1
 
  7
CONVERTER_17
 73
     1
 44
1.32052821128451
1001
ACAD
1000
MTEXTBEGIN
1070
    73
1070
     1
1070
    44
1040
1.32052821128451
1070
    74
1070
     0
1000
MTEXTEND
  0
MTEXT
  5
93D
330
1F
100
AcDbEntity
  8
0
 62
     2
100
AcDbMText
 10
131.5002
 20
-267.9996999999998
 30
0.0
 40
6.0
 41
0.0
 71
     5
 72
     1
  1
 
  7
CONVERTER_4
 73
     1
 44
1.32052821128451
1001
ACAD
1000
MTEXTBEGIN
1070
    73
1070
     1
1070
    44
1040
1.32052821128451
1070
    74
1070
     0
1000
MTEXTEND
  0
MTEXT
  5
93E
330
1F
100
AcDbEntity
  8
0
 62
     2
100
AcDbMText
 10
170.5002
 20
-267.9996999999998
 30
0.0
 40
6.0
 41
0.0
 71
     5
 72
     1
  1
 
  7
CONVERTER_4
 73
     1
 44
1.32052821128451
1001
ACAD
1000
MTEXTBEGIN
1070
    73
1070
     1
1070
    44
1040
1.32052821128451
1070
    74
1070
     0
1000
MTEXTEND
  0
MTEXT
  5
93F
330
1F
100
AcDbEntity
  8
0
 62
     2
100
AcDbMText
 10
92.50020000000002
 20
-267.9996999999998
 30
0.0
 40
6.0
 41
0.0
 71
     5
 72
     1
  1
 
  7
CONVERTER_4
 73
     1
 44
1.32052821128451
1001
ACAD
1000
MTEXTBEGIN
1070
    73
1070
     1
1070
    44
1040
1.32052821128451
1070
    74
1070
     0
1000
MTEXTEND
  0
MTEXT
  5
940
330
1F
100
AcDbEntity
  8
0
 62
     2
100
AcDbMText
 10
205.5000000000006
 20
-279.9996999999998
 30
0.0
 40
4.0
 41
0.0
 71
     5
 72
     1
  1
 
  7
CONVERTER_17
 73
     1
 44
1.32052821128451
1001
ACAD
1000
MTEXTBEGIN
1070
    73
1070
     1
1070
    44
1040
1.32052821128451
1070
    74
1070
     0
1000
MTEXTEND
  0
MTEXT
  5
941
330
1F
100
AcDbEntity
  8
0
 62
     2
100
AcDbMText
 10
166.5002
 20
-279.9996999999998
 30
0.0
 40
4.0
 41
0.0
 71
     5
 72
     1
  1
 
  7
CONVERTER_17
 73
     1
 44
1.32052821128451
1001
ACAD
1000
MTEXTBEGIN
1070
    73
1070
     1
1070
    44
1040
1.32052821128451
1070
    74
1070
     0
1000
MTEXTEND
  0
MTEXT
  5
942
330
1F
100
AcDbEntity
  8
0
 62
     2
100
AcDbMText
 10
127.5002
 20
-279.9996999999998
 30
0.0
 40
4.0
 41
0.0
 71
     5
 72
     1
  1
 
  7
CONVERTER_17
 73
     1
 44
1.32052821128451
1001
ACAD
1000
MTEXTBEGIN
1070
    73
1070
     1
1070
    44
1040
1.32052821128451
1070
    74
1070
     0
1000
MTEXTEND
  0
MTEXT
  5
943
330
1F
100
AcDbEntity
  8
0
 62
     2
100
AcDbMText
 10
49.50020000000002
 20
-279.9996999999998
 30
0.0
 40
4.0
 41
0.0
 71
     5
 72
     1
  1
 
  7
CONVERTER_17
 73
     1
 44
1.32052821128451
1001
ACAD
1000
MTEXTBEGIN
1070
    73
1070
     1
1070
    44
1040
1.32052821128451
1070
    74
1070
     0
1000
MTEXTEND
  0
MTEXT
  5
944
330
1F
100
AcDbEntity
  8
0
 62
     2
100
AcDbMText
 10
88.50020000000002
 20
-279.9996999999998
 30
0.0
 40
4.0
 41
0.0
 71
     5
 72
     1
  1
 
  7
CONVERTER_17
 73
     1
 44
1.32052821128451
1001
ACAD
1000
MTEXTBEGIN
1070
    73
1070
     1
1070
    44
1040
1.32052821128451
1070
    74
1070
     0
1000
MTEXTEND
  0
MTEXT
  5
945
330
1F
100
AcDbEntity
  8
0
 62
     2
100
AcDbMText
 10
209.5000000000006
 20
-267.9996999999998
 30
0.0
 40
6.0
 41
0.0
 71
     5
 72
     1
  1
 
  7
CONVERTER_4
 73
     1
 44
1.32052821128451
1001
ACAD
1000
MTEXTBEGIN
1070
    73
1070
     1
1070
    44
1040
1.32052821128451
1070
    74
1070
     0
1000
MTEXTEND
  0
MTEXT
  5
946
330
1F
100
AcDbEntity
  8
0
 62
     2
100
AcDbMText
 10
205.5000000000006
 20
-240.9997577209246
 30
0.0
 40
6.0
 41
0.0
 71
     5
 72
     1
  1
 
  7
CONVERTER_4
 73
     1
 44
1.32052821128451
1001
ACAD
1000
MTEXTBEGIN
1070
    73
1070
     1
1070
    44
1040
1.32052821128451
1070
    74
1070
     0
1000
MTEXTEND
  0
LINE
  5
BC3
330
1F
100
AcDbEntity
  8
1
  6
DASH_CENTER
 62
     2
100
AcDbLine
 10
195.8879647948942
 20
-125.9390277549894
 30
0.0
 11
186.3447863983928
 21
-116.395849358488
 31
0.0
  0
LINE
  5
BC4
330
1F
100
AcDbEntity
  8
1
  6
DASH_CENTER
 62
     2
100
AcDbLine
 10
119.6405883261234
 20
-125.9390277549894
 30
0.0
 11
129.1837667226248
 21
-116.395849358488
 31
0.0
  0
LINE
  5
BC5
330
1F
100
AcDbEntity
  8
1
  6
DASH_CENTER
 62
     2
100
AcDbLine
 10
119.6405883261234
 20
-49.6916512862185
 30
0.0
 11
129.1837667226248
 21
-59.23482968271992
 31
0.0
  0
LINE
  5
BC6
330
1F
100
AcDbEntity
  8
1
  6
DASH_CENTER
 62
     2
100
AcDbLine
 10
195.8879647948942
 20
-49.69165128621851
 30
0.0
 11
186.3447863983928
 21
-59.23482968271992
 31
0.0
  0
LINE
  5
BC7
330
1F
100
AcDbEntity
  8
1
  6
DOT_CENTER
 62
     2
100
AcDbLine
 10
-233.0540698635135
 20
-146.589428073834
 30
0.0
 11
-233.0540698635135
 21
-144.2894280738338
 31
0.0
  0
LINE
  5
BC8
330
1F
100
AcDbEntity
  8
1
  6
DOT_CENTER
 62
     2
100
AcDbLine
 10
-222.0540698635135
 20
-144.2894280738338
 30
0.0
 11
-222.0540698635135
 21
-146.589428073834
 31
0.0
  0
LINE
  5
BC9
330
1F
100
AcDbEntity
  8
1
  6
DOT_CENTER
 62
     2
100
AcDbLine
 10
-113.0540698635135
 20
-146.589428073834
 30
0.0
 11
-113.0540698635135
 21
-144.2894280738338
 31
0.0
  0
LINE
  5
BCA
330
1F
100
AcDbEntity
  8
1
  6
DOT_CENTER
 62
     2
100
AcDbLine
 10
-102.0540698635135
 20
-144.2894280738338
 30
0.0
 11
-102.0540698635135
 21
-146.589428073834
 31
0.0
  0
LINE
  5
BCB
330
1F
100
AcDbEntity
  8
0
  6
Continuous
 62
     7
100
AcDbLine
 10
-203.2540698635133
 20
-131.589428073834
 30
0.0
 11
-167.5540698635135
 21
-131.589428073834
 31
0.0
  0
LINE
  5
BCC
330
1F
100
AcDbEntity
  8
0
  6
Continuous
 62
     7
100
AcDbLine
 10
274.0557232342151
 20
-51.88942807383413
 30
0.0
 11
285.7642765605088
 21
-144.2894280738341
 31
0.0
  0
LINE
  5
BCE
330
1F
100
AcDbEntity
  8
0
  6
Continuous
 62
     7
100
AcDbLine
 10
277.277390770494
 20
-77.31375438096804
 30
0.0
 11
282.9270892327341
 21
-77.31375438096804
 31
0.0
  0
LINE
  5
BCF
330
1F
100
AcDbEntity
  8
0
  6
Continuous
 62
     7
100
AcDbLine
 10
277.1506748254042
 20
-76.31375438096805
 30
0.0
 11
282.5965920162921
 21
-76.31375438096805
 31
0.0
  0
LINE
  5
BD0
330
1F
100
AcDbEntity
  8
0
  6
Continuous
 62
     7
100
AcDbLine
 10
283.7642765605088
 20
-52.88942807383413
 30
0.0
 11
274.1892291739812
 21
-52.88942807383413
 31
0.0
  0
LINE
  5
BE7
330
1F
100
AcDbEntity
  8
0
  6
Continuous
 62
     7
100
AcDbLine
 10
282.9270892327341
 20
-77.31375438096804
 30
0.0
 11
285.7642765605088
 21
-77.31375438096804
 31
0.0
  0
LINE
  5
BE8
330
1F
100
AcDbEntity
  8
0
  6
Continuous
 62
     7
100
AcDbLine
 10
282.5965920162921
 20
-76.31375438096805
 30
0.0
 11
284.7642765605088
 21
-76.31375438096805
 31
0.0
  0
LINE
  5
BEA
330
1F
100
AcDbEntity
  8
0
  6
Continuous
 62
     7
100
AcDbLine
 10
284.7642765605088
 20
-76.31375438096805
 30
0.0
 11
284.7642765605088
 21
-53.88942807383413
 31
0.0
  0
LINE
  5
BEB
330
1F
100
AcDbEntity
  8
0
  6
Continuous
 62
     7
100
AcDbLine
 10
273.7642765605087
 20
-48.43848467760775
 30
0.0
 11
273.7642765605087
 21
-49.58942807383417
 31
0.0
  0
LINE
  5
BF1
330
1F
100
AcDbEntity
  8
0
  6
Continuous
 62
     7
100
AcDbLine
 10
284.7642765605088
 20
-68.31375438096805
 30
0.0
 11
284.7642765605088
 21
-76.31375438096805
 31
0.0
  0
LINE
  5
BF2
330
1F
100
AcDbEntity
  8
0
  6
Continuous
 62
     7
100
AcDbLine
 10
284.7642765605088
 20
-68.31375438096805
 30
0.0
 11
285.7642765605088
 21
-68.31375438096805
 31
0.0
  0
LINE
  5
BF3
330
1F
100
AcDbEntity
  8
0
  6
Continuous
 62
     7
100
AcDbLine
 10
285.7642765605088
 20
-68.31375438096805
 30
0.0
 11
285.7642765605088
 21
-77.31375438096804
 31
0.0
  0
LINE
  5
C51
330
1F
100
AcDbEntity
  8
0
  6
Continuous
 62
     7
100
AcDbLine
 10
198.7642765605088
 20
-14.68589778191399
 30
0.0
 11
198.7642765605088
 21
-14.06868408774103
 31
0.0
  0
LINE
  5
C52
330
1F
100
AcDbEntity
  8
0
  6
Continuous
 62
     7
100
AcDbLine
 10
196.7642765605088
 20
3.746211609770168
 30
0.0
 11
196.7642765605088
 21
23.41057192616587
 31
0.0
  0
LINE
  5
C54
330
1F
100
AcDbEntity
  8
0
  6
DASH_CENTER
 62
     2
100
AcDbLine
 10
157.7642765605088
 20
-34.61533952060396
 30
0.0
 11
157.7642765605088
 21
-141.0153395206039
 31
0.0
  0
LINE
  5
C55
330
1F
100
AcDbEntity
  8
0
  6
DASH_CENTER
 62
     2
100
AcDbLine
 10
97.1642765605088
 20
-87.81533952060392
 30
0.0
 11
218.3642765605088
 21
-87.81533952060392
 31
0.0
  0
LINE
  5
C56
330
1F
100
AcDbEntity
  8
0
  6
Continuous
 62
     7
100
AcDbLine
 10
154.2287426545761
 20
-86.40112595823088
 30
0.0
 11
131.1907519866278
 21
-63.36313529028263
 31
0.0
  0
LINE
  5
C57
330
1F
100
AcDbEntity
  8
0
  6
Continuous
 62
     7
100
AcDbLine
 10
131.1907519866278
 20
-112.2675437509253
 30
0.0
 11
154.2287426545761
 21
-89.22955308297705
 31
0.0
  0
LINE
  5
C58
330
1F
100
AcDbEntity
  8
0
  6
Continuous
 62
     7
100
AcDbLine
 10
156.3500629981357
 20
-91.35087342653669
 30
0.0
 11
133.3120723301875
 21
-114.3888640944849
 31
0.0
  0
LINE
  5
C59
330
1F
100
AcDbEntity
  8
0
  6
Continuous
 62
     7
100
AcDbLine
 10
182.2164807908301
 20
-114.3888640944849
 30
0.0
 11
159.1784901228819
 21
-91.35087342653671
 31
0.0
  0
LINE
  5
C5A
330
1F
100
AcDbEntity
  8
0
  6
Continuous
 62
     7
100
AcDbLine
 10
161.2998104664415
 20
-89.22955308297705
 30
0.0
 11
184.3378011343898
 21
-112.2675437509253
 31
0.0
  0
LINE
  5
C5B
330
1F
100
AcDbEntity
  8
0
  6
Continuous
 62
     7
100
AcDbLine
 10
184.3378011343897
 20
-63.36313529028263
 30
0.0
 11
161.2998104664415
 21
-86.40112595823088
 31
0.0
  0
LINE
  5
C5C
330
1F
100
AcDbEntity
  8
0
  6
Continuous
 62
     7
100
AcDbLine
 10
159.1784901228818
 20
-84.27980561467121
 30
0.0
 11
182.2164807908301
 21
-61.241814946723
 31
0.0
  0
LINE
  5
C5D
330
1F
100
AcDbEntity
  8
0
  6
Continuous
 62
     7
100
AcDbLine
 10
133.3120723301875
 20
-61.24181494672296
 30
0.0
 11
156.3500629981357
 21
-84.27980561467121
 31
0.0
  0
LINE
  5
C5E
330
1F
100
AcDbEntity
  8
0
  6
Continuous
 62
     7
100
AcDbLine
 10
118.1642765605088
 20
-26.11351662706439
 30
0.0
 11
118.1642765605088
 21
-36.61351662706439
 31
0.0
  0
LINE
  5
C5F
330
1F
100
AcDbEntity
  8
0
  6
Continuous
 62
     7
100
AcDbLine
 10
114.2643765605089
 20
-34.53131662706447
 30
0.0
 11
114.2643765605089
 21
-28.19581662706439
 31
0.0
  0
LINE
  5
C60
330
1F
100
AcDbEntity
  8
0
  6
Continuous
 62
     7
100
AcDbLine
 10
115.9987765605087
 20
-26.30301662706457
 30
0.0
 11
118.1642765605088
 21
-26.11351662706439
 31
0.0
  0
LINE
  5
C61
330
1F
100
AcDbEntity
  8
0
  6
Continuous
 62
     7
100
AcDbLine
 10
115.9987765605087
 20
-36.42411662706438
 30
0.0
 11
118.1642765605088
 21
-36.61351662706439
 31
0.0
  0
LINE
  5
C62
330
1F
100
AcDbEntity
  8
0
  6
Continuous
 62
     7
100
AcDbLine
 10
118.1642765605088
 20
23.41057192616586
 30
0.0
 11
118.1642765605088
 21
17.31047192616577
 31
0.0
  0
LINE
  5
C63
330
1F
100
AcDbEntity
  8
0
  6
Continuous
 62
     7
100
AcDbLine
 10
118.1642765605088
 20
28.66057192616586
 30
0.0
 11
118.1642765605088
 21
18.16057192616586
 31
0.0
  0
LINE
  5
C64
330
1F
100
AcDbEntity
  8
0
  6
Continuous
 62
     7
100
AcDbLine
 10
114.2643765605089
 20
20.24277192616577
 30
0.0
 11
114.2643765605089
 21
26.57827192616585
 31
0.0
  0
LINE
  5
C65
330
1F
100
AcDbEntity
  8
0
  6
Continuous
 62
     7
100
AcDbLine
 10
115.9987765605087
 20
28.47107192616568
 30
0.0
 11
118.1642765605088
 21
28.66057192616586
 31
0.0
  0
LINE
  5
C66
330
1F
100
AcDbEntity
  8
0
  6
Continuous
 62
     7
100
AcDbLine
 10
115.9987765605087
 20
18.34997192616586
 30
0.0
 11
118.1642765605088
 21
18.16057192616586
 31
0.0
  0
LINE
  5
C67
330
1F
100
AcDbEntity
  8
0
  6
Continuous
 62
     7
100
AcDbLine
 10
118.1642765605088
 20
78.1846604793961
 30
0.0
 11
118.1642765605088
 21
72.08456047939602
 31
0.0
  0
LINE
  5
C68
330
1F
100
AcDbEntity
  8
0
  6
Continuous
 62
     7
100
AcDbLine
 10
118.1642765605088
 20
83.4346604793961
 30
0.0
 11
118.1642765605088
 21
72.9346604793961
 31
0.0
  0
LINE
  5
C69
330
1F
100
AcDbEntity
  8
0
  6
Continuous
 62
     7
100
AcDbLine
 10
114.2643765605089
 20
75.016860479396
 30
0.0
 11
114.2643765605089
 21
81.3523604793961
 31
0.0
  0
LINE
  5
C6A
330
1F
100
AcDbEntity
  8
0
  6
Continuous
 62
     7
100
AcDbLine
 10
115.9987765605087
 20
83.2451604793959
 30
0.0
 11
118.1642765605088
 21
83.4346604793961
 31
0.0
  0
LINE
  5
C6B
330
1F
100
AcDbEntity
  8
0
  6
Continuous
 62
     7
100
AcDbLine
 10
115.9987765605087
 20
73.12406047939609
 30
0.0
 11
118.1642765605088
 21
72.9346604793961
 31
0.0
  0
LINE
  5
C6C
330
1F
100
AcDbEntity
  8
0
  6
Continuous
 62
     7
100
AcDbLine
 10
119.7642765605088
 20
-36.08942807383414
 30
0.0
 11
119.7642765605088
 21
23.41057192616586
 31
0.0
  0
LINE
  5
C6D
330
1F
100
AcDbEntity
  8
0
  6
Continuous
 62
     7
100
AcDbLine
 10
118.1642765605088
 20
-36.08942807383414
 30
0.0
 11
119.7642765605088
 21
-36.08942807383414
 31
0.0
  0
LINE
  5
C6E
330
1F
100
AcDbEntity
  8
0
  6
Continuous
 62
     7
100
AcDbLine
 10
119.7642765605088
 20
82.91057192616589
 30
0.0
 11
119.7642765605088
 21
83.41057192616579
 31
0.0
  0
LINE
  5
C6F
330
1F
100
AcDbEntity
  8
0
  6
Continuous
 62
     7
100
AcDbLine
 10
118.1642765605088
 20
82.91057192616589
 30
0.0
 11
119.7642765605088
 21
82.91057192616589
 31
0.0
  0
LINE
  5
C70
330
1F
100
AcDbEntity
  8
0
  6
Continuous
 62
     7
100
AcDbLine
 10
118.1642765605088
 20
82.91057192616589
 30
0.0
 11
118.1642765605088
 21
-36.08942807383414
 31
0.0
  0
LINE
  5
C71
330
1F
100
AcDbEntity
  8
0
  6
Continuous
 62
     7
100
AcDbLine
 10
195.2642765605088
 20
-146.5894280738342
 30
0.0
 11
206.2642765605088
 21
-146.5894280738342
 31
0.0
  0
LINE
  5
C72
330
1F
100
AcDbEntity
  8
0
  6
Continuous
 62
     7
100
AcDbLine
 10
195.2642765605088
 20
-144.2894280738341
 30
0.0
 11
206.2642765605088
 21
-144.2894280738341
 31
0.0
  0
LINE
  5
C73
330
1F
100
AcDbEntity
  8
0
  6
DOT_CENTER
 62
     2
100
AcDbLine
 10
195.2642765605088
 20
-144.2894280738341
 30
0.0
 11
195.2642765605088
 21
-146.5894280738342
 31
0.0
  0
LINE
  5
C74
330
1F
100
AcDbEntity
  8
0
  6
DOT_CENTER
 62
     2
100
AcDbLine
 10
206.2642765605088
 20
-144.2894280738341
 30
0.0
 11
206.2642765605088
 21
-146.5894280738342
 31
0.0
  0
LINE
  5
C75
330
1F
100
AcDbEntity
  8
0
  6
Continuous
 62
     7
100
AcDbLine
 10
230.2642765605088
 20
-146.5894280738342
 30
0.0
 11
241.2642765605088
 21
-146.5894280738342
 31
0.0
  0
LINE
  5
C76
330
1F
100
AcDbEntity
  8
0
  6
Continuous
 62
     7
100
AcDbLine
 10
230.2642765605088
 20
-144.2894280738341
 30
0.0
 11
241.2642765605088
 21
-144.2894280738341
 31
0.0
  0
LINE
  5
C77
330
1F
100
AcDbEntity
  8
0
  6
DOT_CENTER
 62
     2
100
AcDbLine
 10
230.2642765605088
 20
-144.2894280738341
 30
0.0
 11
230.2642765605088
 21
-146.5894280738342
 31
0.0
  0
LINE
  5
C78
330
1F
100
AcDbEntity
  8
0
  6
DOT_CENTER
 62
     2
100
AcDbLine
 10
241.2642765605088
 20
-144.2894280738341
 30
0.0
 11
241.2642765605088
 21
-146.5894280738342
 31
0.0
  0
LINE
  5
C79
330
1F
100
AcDbEntity
  8
0
  6
Continuous
 62
     7
100
AcDbLine
 10
265.2642765605088
 20
-146.5894280738342
 30
0.0
 11
270.7642765605088
 21
-146.5894280738342
 31
0.0
  0
LINE
  5
C7A
330
1F
100
AcDbEntity
  8
0
  6
Continuous
 62
     7
100
AcDbLine
 10
265.2642765605088
 20
-144.2894280738341
 30
0.0
 11
276.2642765605088
 21
-144.2894280738341
 31
0.0
  0
LINE
  5
C7B
330
1F
100
AcDbEntity
  8
0
  6
DOT_CENTER
 62
     2
100
AcDbLine
 10
265.2642765605088
 20
-144.2894280738341
 30
0.0
 11
265.2642765605088
 21
-146.5894280738342
 31
0.0
  0
LINE
  5
C7C
330
1F
100
AcDbEntity
  8
0
  6
Continuous
 62
     7
100
AcDbLine
 10
276.2642765605088
 20
-146.5894280738342
 30
0.0
 11
285.7642765605088
 21
-146.5894280738342
 31
0.0
  0
LINE
  5
C7D
330
1F
100
AcDbEntity
  8
0
  6
Continuous
 62
     7
100
AcDbLine
 10
276.2642765605088
 20
-144.2894280738341
 30
0.0
 11
285.7642765605088
 21
-144.2894280738341
 31
0.0
  0
LINE
  5
C7E
330
1F
100
AcDbEntity
  8
0
  6
DOT_CENTER
 62
     2
100
AcDbLine
 10
276.2642765605088
 20
-144.2894280738341
 30
0.0
 11
276.2642765605088
 21
-146.5894280738342
 31
0.0
  0
LINE
  5
C7F
330
1F
100
AcDbEntity
  8
0
  6
DASH_CENTER
 62
     2
100
AcDbLine
 10
270.7642765605088
 20
-137.0628299991978
 30
0.0
 11
270.7642765605088
 21
-146.5894280738342
 31
0.0
  0
LINE
  5
C80
330
1F
100
AcDbEntity
  8
0
  6
DASH_CENTER
 62
     2
100
AcDbLine
 10
235.7642765605088
 20
-137.0628299991978
 30
0.0
 11
235.7642765605088
 21
-155.3354909070398
 31
0.0
  0
LINE
  5
C81
330
1F
100
AcDbEntity
  8
0
  6
Continuous
 62
     7
100
AcDbLine
 10
200.7642765605088
 20
-136.0615883056178
 30
0.0
 11
200.7642765605088
 21
-144.2894280738341
 31
0.0
  0
LINE
  5
C82
330
1F
100
AcDbEntity
  8
0
  6
DASH_CENTER
 62
     2
100
AcDbLine
 10
200.7642765605088
 20
-136.0615883056178
 30
0.0
 11
200.7642765605088
 21
-154.8348700602498
 31
0.0
  0
LINE
  5
C83
330
1F
100
AcDbEntity
  8
0
  6
Continuous
 62
     7
100
AcDbLine
 10
200.7642765605088
 20
-144.2894280738341
 30
0.0
 11
265.2642765605088
 21
-144.2894280738341
 31
0.0
  0
LINE
  5
C84
330
1F
100
AcDbEntity
  8
0
  6
Continuous
 62
     7
100
AcDbLine
 10
200.7642765605088
 20
-118.7992062902633
 30
0.0
 11
200.7642765605088
 21
-136.0615883056178
 31
0.0
  0
LINE
  5
C85
330
1F
100
AcDbEntity
  8
0
  6
Continuous
 62
     7
100
AcDbLine
 10
205.7642765605088
 20
-55.58942807383417
 30
0.0
 11
205.7642765605088
 21
-63.58942807383417
 31
0.0
  0
LINE
  5
C86
330
1F
100
AcDbEntity
  8
0
  6
Continuous
 62
     7
100
AcDbLine
 10
205.7642765605088
 20
-63.58942807383417
 30
0.0
 11
204.9034875697447
 21
-63.58942807383417
 31
0.0
  0
LINE
  5
C87
330
1F
100
AcDbEntity
  8
0
  6
Continuous
 62
     7
100
AcDbLine
 10
205.7642765605088
 20
-49.58942807383415
 30
0.0
 11
204.7642765605088
 21
-49.58942807383417
 31
0.0
  0
LINE
  5
C88
330
1F
100
AcDbEntity
  8
0
  6
Continuous
 62
     7
100
AcDbLine
 10
205.7642765605088
 20
-49.58942807383415
 30
0.0
 11
205.7642765605088
 21
-55.58942807383417
 31
0.0
  0
LINE
  5
C89
330
1F
100
AcDbEntity
  8
0
  6
Continuous
 62
     7
100
AcDbLine
 10
285.7642765605088
 20
-146.5894280738342
 30
0.0
 11
285.7642765605088
 21
-144.2894280738341
 31
0.0
  0
LINE
  5
C8A
330
1F
100
AcDbEntity
  8
0
  6
Continuous
 62
     7
100
AcDbLine
 10
185.7642765605088
 20
-146.5894280738342
 30
0.0
 11
265.2642765605088
 21
-146.5894280738342
 31
0.0
  0
LINE
  5
C8B
330
1F
100
AcDbEntity
  8
0
  6
Continuous
 62
     7
100
AcDbLine
 10
185.7642765605088
 20
-144.2894280738341
 30
0.0
 11
185.7642765605088
 21
-146.5894280738342
 31
0.0
  0
LINE
  5
C8C
330
1F
100
AcDbEntity
  8
0
  6
Continuous
 62
     7
100
AcDbLine
 10
185.7642765605088
 20
-144.2894280738341
 30
0.0
 11
200.7642765605088
 21
-144.2894280738341
 31
0.0
  0
LINE
  5
C8D
330
1F
100
AcDbEntity
  8
0
  6
Continuous
 62
     7
100
AcDbLine
 10
273.7642765605087
 20
-49.58942807383417
 30
0.0
 11
274.0557232342151
 21
-51.88942807383413
 31
0.0
  0
LINE
  5
C8F
330
1F
100
AcDbEntity
  8
0
  6
Continuous
 62
     7
100
AcDbLine
 10
122.030257844741
 20
-55.18132080483621
 30
0.0
 11
122.030257844741
 21
-54.58132080483617
 31
0.0
  0
LINE
  5
C90
330
1F
100
AcDbEntity
  8
0
  6
Continuous
 62
     7
100
AcDbLine
 10
122.930257844741
 20
-55.18132080483621
 30
0.0
 11
122.030257844741
 21
-55.18132080483621
 31
0.0
  0
LINE
  5
C91
330
1F
100
AcDbEntity
  8
0
  6
Continuous
 62
     7
100
AcDbLine
 10
123.930257844741
 20
-57.08132080483621
 30
0.0
 11
123.930257844741
 21
-56.18132080483622
 31
0.0
  0
LINE
  5
C92
330
1F
100
AcDbEntity
  8
0
  6
Continuous
 62
     7
100
AcDbLine
 10
124.530257844741
 20
-57.08132080483621
 30
0.0
 11
123.930257844741
 21
-57.08132080483621
 31
0.0
  0
LINE
  5
C93
330
1F
100
AcDbEntity
  8
0
  6
Continuous
 62
     7
100
AcDbLine
 10
123.930257844741
 20
-52.08132080483617
 30
0.0
 11
124.530257844741
 21
-52.08132080483617
 31
0.0
  0
LINE
  5
C94
330
1F
100
AcDbEntity
  8
0
  6
Continuous
 62
     7
100
AcDbLine
 10
123.930257844741
 20
-52.98132080483618
 30
0.0
 11
123.930257844741
 21
-52.08132080483617
 31
0.0
  0
LINE
  5
C95
330
1F
100
AcDbEntity
  8
0
  6
Continuous
 62
     7
100
AcDbLine
 10
122.030257844741
 20
-53.98132080483619
 30
0.0
 11
122.930257844741
 21
-53.98132080483619
 31
0.0
  0
LINE
  5
C96
330
1F
100
AcDbEntity
  8
0
  6
Continuous
 62
     7
100
AcDbLine
 10
122.030257844741
 20
-54.58132080483617
 30
0.0
 11
122.030257844741
 21
-53.98132080483619
 31
0.0
  0
LINE
  5
C97
330
1F
100
AcDbEntity
  8
0
  6
Continuous
 62
     7
100
AcDbLine
 10
127.030257844741
 20
-53.98132080483619
 30
0.0
 11
127.030257844741
 21
-54.58132080483617
 31
0.0
  0
LINE
  5
C98
330
1F
100
AcDbEntity
  8
0
  6
Continuous
 62
     7
100
AcDbLine
 10
126.130257844741
 20
-53.98132080483619
 30
0.0
 11
127.030257844741
 21
-53.98132080483619
 31
0.0
  0
LINE
  5
C99
330
1F
100
AcDbEntity
  8
0
  6
Continuous
 62
     7
100
AcDbLine
 10
125.130257844741
 20
-52.08132080483617
 30
0.0
 11
125.130257844741
 21
-52.98132080483618
 31
0.0
  0
LINE
  5
C9A
330
1F
100
AcDbEntity
  8
0
  6
Continuous
 62
     7
100
AcDbLine
 10
124.530257844741
 20
-52.08132080483617
 30
0.0
 11
125.130257844741
 21
-52.08132080483617
 31
0.0
  0
LINE
  5
C9B
330
1F
100
AcDbEntity
  8
0
  6
Continuous
 62
     7
100
AcDbLine
 10
125.130257844741
 20
-57.08132080483621
 30
0.0
 11
124.530257844741
 21
-57.08132080483621
 31
0.0
  0
LINE
  5
C9C
330
1F
100
AcDbEntity
  8
0
  6
Continuous
 62
     7
100
AcDbLine
 10
125.130257844741
 20
-56.18132080483616
 30
0.0
 11
125.130257844741
 21
-57.08132080483621
 31
0.0
  0
LINE
  5
C9D
330
1F
100
AcDbEntity
  8
0
  6
Continuous
 62
     7
100
AcDbLine
 10
127.030257844741
 20
-55.18132080483617
 30
0.0
 11
126.130257844741
 21
-55.18132080483617
 31
0.0
  0
LINE
  5
C9E
330
1F
100
AcDbEntity
  8
0
  6
Continuous
 62
     7
100
AcDbLine
 10
127.030257844741
 20
-54.58132080483617
 30
0.0
 11
127.030257844741
 21
-55.18132080483617
 31
0.0
  0
LINE
  5
C9F
330
1F
100
AcDbEntity
  8
0
  6
Continuous
 62
     7
100
AcDbLine
 10
190.3982952762765
 20
-52.08132080483622
 30
0.0
 11
190.9982952762766
 21
-52.08132080483622
 31
0.0
  0
LINE
  5
CA0
330
1F
100
AcDbEntity
  8
0
  6
Continuous
 62
     7
100
AcDbLine
 10
190.3982952762765
 20
-52.98132080483622
 30
0.0
 11
190.3982952762765
 21
-52.08132080483622
 31
0.0
  0
LINE
  5
CA1
330
1F
100
AcDbEntity
  8
0
  6
Continuous
 62
     7
100
AcDbLine
 10
188.4982952762765
 20
-53.98132080483621
 30
0.0
 11
189.3982952762765
 21
-53.98132080483621
 31
0.0
  0
LINE
  5
CA2
330
1F
100
AcDbEntity
  8
0
  6
Continuous
 62
     7
100
AcDbLine
 10
188.4982952762765
 20
-54.58132080483622
 30
0.0
 11
188.4982952762765
 21
-53.98132080483621
 31
0.0
  0
LINE
  5
CA3
330
1F
100
AcDbEntity
  8
0
  6
Continuous
 62
     7
100
AcDbLine
 10
193.4982952762766
 20
-53.98132080483621
 30
0.0
 11
193.4982952762766
 21
-54.58132080483622
 31
0.0
  0
LINE
  5
CA4
330
1F
100
AcDbEntity
  8
0
  6
Continuous
 62
     7
100
AcDbLine
 10
192.5982952762765
 20
-53.98132080483621
 30
0.0
 11
193.4982952762766
 21
-53.98132080483621
 31
0.0
  0
LINE
  5
CA5
330
1F
100
AcDbEntity
  8
0
  6
Continuous
 62
     7
100
AcDbLine
 10
191.5982952762765
 20
-52.08132080483622
 30
0.0
 11
191.5982952762765
 21
-52.98132080483622
 31
0.0
  0
LINE
  5
CA6
330
1F
100
AcDbEntity
  8
0
  6
Continuous
 62
     7
100
AcDbLine
 10
190.9982952762766
 20
-52.08132080483622
 30
0.0
 11
191.5982952762765
 21
-52.08132080483622
 31
0.0
  0
LINE
  5
CA7
330
1F
100
AcDbEntity
  8
0
  6
Continuous
 62
     7
100
AcDbLine
 10
191.5982952762765
 20
-57.08132080483622
 30
0.0
 11
190.9982952762766
 21
-57.08132080483622
 31
0.0
  0
LINE
  5
CA8
330
1F
100
AcDbEntity
  8
0
  6
Continuous
 62
     7
100
AcDbLine
 10
191.5982952762765
 20
-56.18132080483622
 30
0.0
 11
191.5982952762765
 21
-57.08132080483622
 31
0.0
  0
LINE
  5
CA9
330
1F
100
AcDbEntity
  8
0
  6
Continuous
 62
     7
100
AcDbLine
 10
193.4982952762766
 20
-55.18132080483622
 30
0.0
 11
192.5982952762765
 21
-55.18132080483622
 31
0.0
  0
LINE
  5
CAA
330
1F
100
AcDbEntity
  8
0
  6
Continuous
 62
     7
100
AcDbLine
 10
193.4982952762766
 20
-54.58132080483622
 30
0.0
 11
193.4982952762766
 21
-55.18132080483622
 31
0.0
  0
LINE
  5
CAB
330
1F
100
AcDbEntity
  8
0
  6
Continuous
 62
     7
100
AcDbLine
 10
188.4982952762765
 20
-55.18132080483622
 30
0.0
 11
188.4982952762765
 21
-54.58132080483622
 31
0.0
  0
LINE
  5
CAC
330
1F
100
AcDbEntity
  8
0
  6
Continuous
 62
     7
100
AcDbLine
 10
189.3982952762766
 20
-55.18132080483622
 30
0.0
 11
188.4982952762765
 21
-55.18132080483622
 31
0.0
  0
LINE
  5
CAD
330
1F
100
AcDbEntity
  8
0
  6
Continuous
 62
     7
100
AcDbLine
 10
190.3982952762765
 20
-57.08132080483622
 30
0.0
 11
190.3982952762765
 21
-56.18132080483622
 31
0.0
  0
LINE
  5
CAE
330
1F
100
AcDbEntity
  8
0
  6
Continuous
 62
     7
100
AcDbLine
 10
190.9982952762766
 20
-57.08132080483622
 30
0.0
 11
190.3982952762765
 21
-57.08132080483622
 31
0.0
  0
LINE
  5
CAF
330
1F
100
AcDbEntity
  8
0
  6
Continuous
 62
     7
100
AcDbLine
 10
193.4982952762765
 20
-120.4493582363717
 30
0.0
 11
193.4982952762765
 21
-121.0493582363717
 31
0.0
  0
LINE
  5
CB0
330
1F
100
AcDbEntity
  8
0
  6
Continuous
 62
     7
100
AcDbLine
 10
192.5982952762765
 20
-120.4493582363717
 30
0.0
 11
193.4982952762765
 21
-120.4493582363717
 31
0.0
  0
LINE
  5
CB1
330
1F
100
AcDbEntity
  8
0
  6
Continuous
 62
     7
100
AcDbLine
 10
191.5982952762765
 20
-118.5493582363717
 30
0.0
 11
191.5982952762765
 21
-119.4493582363717
 31
0.0
  0
LINE
  5
CB2
330
1F
100
AcDbEntity
  8
0
  6
Continuous
 62
     7
100
AcDbLine
 10
190.9982952762765
 20
-118.5493582363717
 30
0.0
 11
191.5982952762765
 21
-118.5493582363717
 31
0.0
  0
LINE
  5
CB3
330
1F
100
AcDbEntity
  8
0
  6
Continuous
 62
     7
100
AcDbLine
 10
191.5982952762765
 20
-123.5493582363717
 30
0.0
 11
190.9982952762765
 21
-123.5493582363717
 31
0.0
  0
LINE
  5
CB4
330
1F
100
AcDbEntity
  8
0
  6
Continuous
 62
     7
100
AcDbLine
 10
191.5982952762765
 20
-122.6493582363717
 30
0.0
 11
191.5982952762765
 21
-123.5493582363717
 31
0.0
  0
LINE
  5
CB5
330
1F
100
AcDbEntity
  8
0
  6
Continuous
 62
     7
100
AcDbLine
 10
193.4982952762765
 20
-121.6493582363717
 30
0.0
 11
192.5982952762765
 21
-121.6493582363717
 31
0.0
  0
LINE
  5
CB6
330
1F
100
AcDbEntity
  8
0
  6
Continuous
 62
     7
100
AcDbLine
 10
193.4982952762765
 20
-121.0493582363717
 30
0.0
 11
193.4982952762765
 21
-121.6493582363717
 31
0.0
  0
LINE
  5
CB7
330
1F
100
AcDbEntity
  8
0
  6
Continuous
 62
     7
100
AcDbLine
 10
188.4982952762765
 20
-121.6493582363717
 30
0.0
 11
188.4982952762765
 21
-121.0493582363717
 31
0.0
  0
LINE
  5
CB8
330
1F
100
AcDbEntity
  8
0
  6
Continuous
 62
     7
100
AcDbLine
 10
189.3982952762765
 20
-121.6493582363717
 30
0.0
 11
188.4982952762765
 21
-121.6493582363717
 31
0.0
  0
LINE
  5
CB9
330
1F
100
AcDbEntity
  8
0
  6
Continuous
 62
     7
100
AcDbLine
 10
190.3982952762765
 20
-123.5493582363717
 30
0.0
 11
190.3982952762765
 21
-122.6493582363717
 31
0.0
  0
LINE
  5
CBA
330
1F
100
AcDbEntity
  8
0
  6
Continuous
 62
     7
100
AcDbLine
 10
190.9982952762765
 20
-123.5493582363717
 30
0.0
 11
190.3982952762765
 21
-123.5493582363717
 31
0.0
  0
LINE
  5
CBB
330
1F
100
AcDbEntity
  8
0
  6
Continuous
 62
     7
100
AcDbLine
 10
190.3982952762765
 20
-118.5493582363717
 30
0.0
 11
190.9982952762765
 21
-118.5493582363717
 31
0.0
  0
LINE
  5
CBC
330
1F
100
AcDbEntity
  8
0
  6
Continuous
 62
     7
100
AcDbLine
 10
190.3982952762765
 20
-119.4493582363717
 30
0.0
 11
190.3982952762765
 21
-118.5493582363717
 31
0.0
  0
LINE
  5
CBD
330
1F
100
AcDbEntity
  8
0
  6
Continuous
 62
     7
100
AcDbLine
 10
188.4982952762765
 20
-120.4493582363717
 30
0.0
 11
189.3982952762765
 21
-120.4493582363717
 31
0.0
  0
LINE
  5
CBE
330
1F
100
AcDbEntity
  8
0
  6
Continuous
 62
     7
100
AcDbLine
 10
188.4982952762765
 20
-121.0493582363717
 30
0.0
 11
188.4982952762765
 21
-120.4493582363717
 31
0.0
  0
LINE
  5
CBF
330
1F
100
AcDbEntity
  8
0
  6
DASH_CENTER
 62
     2
100
AcDbLine
 10
202.7642765605088
 20
-87.81533952060394
 30
0.0
 11
204.7642765605088
 21
-87.81533952060394
 31
0.0
  0
LINE
  5
CC0
330
1F
100
AcDbEntity
  8
0
  6
Continuous
 62
     7
100
AcDbLine
 10
125.1302578447411
 20
-123.5493582363717
 30
0.0
 11
124.530257844741
 21
-123.5493582363717
 31
0.0
  0
LINE
  5
CC1
330
1F
100
AcDbEntity
  8
0
  6
Continuous
 62
     7
100
AcDbLine
 10
125.1302578447411
 20
-122.6493582363717
 30
0.0
 11
125.1302578447411
 21
-123.5493582363717
 31
0.0
  0
LINE
  5
CC2
330
1F
100
AcDbEntity
  8
0
  6
Continuous
 62
     7
100
AcDbLine
 10
127.0302578447411
 20
-121.6493582363717
 30
0.0
 11
126.1302578447411
 21
-121.6493582363717
 31
0.0
  0
LINE
  5
CC3
330
1F
100
AcDbEntity
  8
0
  6
Continuous
 62
     7
100
AcDbLine
 10
127.0302578447411
 20
-121.0493582363717
 30
0.0
 11
127.0302578447411
 21
-121.6493582363717
 31
0.0
  0
LINE
  5
CC4
330
1F
100
AcDbEntity
  8
0
  6
Continuous
 62
     7
100
AcDbLine
 10
122.030257844741
 20
-121.6493582363717
 30
0.0
 11
122.030257844741
 21
-121.0493582363717
 31
0.0
  0
LINE
  5
CC5
330
1F
100
AcDbEntity
  8
0
  6
Continuous
 62
     7
100
AcDbLine
 10
122.930257844741
 20
-121.6493582363717
 30
0.0
 11
122.030257844741
 21
-121.6493582363717
 31
0.0
  0
LINE
  5
CC6
330
1F
100
AcDbEntity
  8
0
  6
Continuous
 62
     7
100
AcDbLine
 10
123.930257844741
 20
-123.5493582363717
 30
0.0
 11
123.930257844741
 21
-122.6493582363717
 31
0.0
  0
LINE
  5
CC7
330
1F
100
AcDbEntity
  8
0
  6
Continuous
 62
     7
100
AcDbLine
 10
124.530257844741
 20
-123.5493582363717
 30
0.0
 11
123.930257844741
 21
-123.5493582363717
 31
0.0
  0
LINE
  5
CC8
330
1F
100
AcDbEntity
  8
0
  6
Continuous
 62
     7
100
AcDbLine
 10
123.930257844741
 20
-118.5493582363717
 30
0.0
 11
124.530257844741
 21
-118.5493582363717
 31
0.0
  0
LINE
  5
CC9
330
1F
100
AcDbEntity
  8
0
  6
Continuous
 62
     7
100
AcDbLine
 10
123.930257844741
 20
-119.4493582363717
 30
0.0
 11
123.930257844741
 21
-118.5493582363717
 31
0.0
  0
LINE
  5
CCA
330
1F
100
AcDbEntity
  8
0
  6
Continuous
 62
     7
100
AcDbLine
 10
122.030257844741
 20
-120.4493582363717
 30
0.0
 11
122.930257844741
 21
-120.4493582363717
 31
0.0
  0
LINE
  5
CCB
330
1F
100
AcDbEntity
  8
0
  6
Continuous
 62
     7
100
AcDbLine
 10
122.030257844741
 20
-121.0493582363717
 30
0.0
 11
122.030257844741
 21
-120.4493582363717
 31
0.0
  0
LINE
  5
CCC
330
1F
100
AcDbEntity
  8
0
  6
Continuous
 62
     7
100
AcDbLine
 10
127.0302578447411
 20
-120.4493582363717
 30
0.0
 11
127.0302578447411
 21
-121.0493582363717
 31
0.0
  0
LINE
  5
CCD
330
1F
100
AcDbEntity
  8
0
  6
Continuous
 62
     7
100
AcDbLine
 10
126.130257844741
 20
-120.4493582363717
 30
0.0
 11
127.0302578447411
 21
-120.4493582363717
 31
0.0
  0
LINE
  5
CCE
330
1F
100
AcDbEntity
  8
0
  6
Continuous
 62
     7
100
AcDbLine
 10
125.130257844741
 20
-118.5493582363717
 30
0.0
 11
125.130257844741
 21
-119.4493582363717
 31
0.0
  0
LINE
  5
CCF
330
1F
100
AcDbEntity
  8
0
  6
Continuous
 62
     7
100
AcDbLine
 10
124.530257844741
 20
-118.5493582363717
 30
0.0
 11
125.130257844741
 21
-118.5493582363717
 31
0.0
  0
LINE
  5
CD0
330
1F
100
AcDbEntity
  8
0
  6
Continuous
 62
     7
100
AcDbLine
 10
273.7642765605087
 20
-49.58942807383417
 30
0.0
 11
205.7642765605088
 21
-49.58942807383415
 31
0.0
  0
LINE
  5
CD1
330
1F
100
AcDbEntity
  8
0
  6
Continuous
 62
     7
100
AcDbLine
 10
196.7642765605088
 20
-54.22962827311063
 30
0.0
 11
196.7642765605088
 21
-40.71440736588485
 31
0.0
  0
LINE
  5
CD2
330
1F
100
AcDbEntity
  8
0
  6
Continuous
 62
     7
100
AcDbLine
 10
194.7642765605088
 20
-51.92662263075124
 30
0.0
 11
194.7642765605088
 21
-31.39887789800382
 31
0.0
  0
LINE
  5
CD3
330
1F
100
AcDbEntity
  8
0
  6
Continuous
 62
     7
100
AcDbLine
 10
192.7642765605088
 20
-49.8680075985834
 30
0.0
 11
192.7642765605088
 21
23.41057192616586
 31
0.0
  0
LINE
  5
CD4
330
1F
100
AcDbEntity
  8
0
  6
Continuous
 62
     7
100
AcDbLine
 10
121.2642765605088
 20
132.3647371599415
 30
0.0
 11
121.2642765605088
 21
113.4566607033431
 31
0.0
  0
LINE
  5
CD5
330
1F
100
AcDbEntity
  8
0
  6
Continuous
 62
     7
100
AcDbLine
 10
123.2642765605088
 20
113.4566607033431
 30
0.0
 11
123.2642765605088
 21
85.4105719261658
 31
0.0
  0
LINE
  5
CD6
330
1F
100
AcDbEntity
  8
0
  6
Continuous
 62
     7
100
AcDbLine
 10
121.2642765605088
 20
113.4566607033431
 30
0.0
 11
123.2642765605088
 21
113.4566607033431
 31
0.0
  0
LINE
  5
CD7
330
1F
100
AcDbEntity
  8
0
  6
Continuous
 62
     7
100
AcDbLine
 10
123.2642765605088
 20
121.6476304459898
 30
0.0
 11
123.2642765605088
 21
113.4566607033431
 31
0.0
  0
LINE
  5
CD8
330
1F
100
AcDbEntity
  8
0
  6
Continuous
 62
     7
100
AcDbLine
 10
121.2642765605088
 20
121.6476304459898
 30
0.0
 11
123.2642765605088
 21
121.6476304459898
 31
0.0
  0
LINE
  5
CD9
330
1F
100
AcDbEntity
  8
0
  6
Continuous
 62
     7
100
AcDbLine
 10
123.2642765605088
 20
128.1483202177521
 30
0.0
 11
123.2642765605088
 21
121.6476304459898
 31
0.0
  0
LINE
  5
CDA
330
1F
100
AcDbEntity
  8
0
  6
Continuous
 62
     7
100
AcDbLine
 10
121.2642765605088
 20
128.1483202177521
 30
0.0
 11
123.2642765605088
 21
128.1483202177521
 31
0.0
  0
LINE
  5
CDB
330
1F
100
AcDbEntity
  8
0
  6
Continuous
 62
     7
100
AcDbLine
 10
121.2642765605088
 20
132.3647371599415
 30
0.0
 11
123.2642765605088
 21
132.3647371599415
 31
0.0
  0
LINE
  5
CDC
330
1F
100
AcDbEntity
  8
0
  6
Continuous
 62
     7
100
AcDbLine
 10
123.2642765605088
 20
23.41057192616586
 30
0.0
 11
123.2642765605088
 21
-38.58942807383419
 31
0.0
  0
LINE
  5
CDD
330
1F
100
AcDbEntity
  8
0
  6
Continuous
 62
     7
100
AcDbLine
 10
123.2642765605088
 20
-38.58942807383419
 30
0.0
 11
123.2642765605088
 21
-47.58164717202624
 31
0.0
  0
LINE
  5
CDE
330
1F
100
AcDbEntity
  8
0
  6
Continuous
 62
     7
100
AcDbLine
 10
121.2642765605088
 20
-36.58942807383418
 30
0.0
 11
119.7642765605088
 21
-36.58942807383418
 31
0.0
  0
LINE
  5
CDF
330
1F
100
AcDbEntity
  8
0
  6
Continuous
 62
     7
100
AcDbLine
 10
119.7642765605088
 20
-36.58942807383418
 30
0.0
 11
119.7642765605088
 21
-36.08942807383414
 31
0.0
  0
LINE
  5
CE0
330
1F
100
AcDbEntity
  8
0
  6
Continuous
 62
     7
100
AcDbLine
 10
198.7642765605088
 20
-19.20395619859723
 30
0.0
 11
198.7642765605088
 21
-20.81709877660818
 31
0.0
  0
LINE
  5
CE1
330
1F
100
AcDbEntity
  8
0
  6
Continuous
 62
     7
100
AcDbLine
 10
194.7642765605088
 20
-14.06868408774103
 30
0.0
 11
196.7642765605088
 21
-14.06868408774103
 31
0.0
  0
LINE
  5
CE2
330
1F
100
AcDbEntity
  8
0
  6
Continuous
 62
     7
100
AcDbLine
 10
196.7642765605088
 20
23.18466047939606
 30
0.0
 11
196.7642765605088
 21
23.41057192616587
 31
0.0
  0
LINE
  5
CE3
330
1F
100
AcDbEntity
  8
0
  6
Continuous
 62
     7
100
AcDbLine
 10
196.7642765605088
 20
23.6364833729356
 30
0.0
 11
196.7642765605088
 21
23.41057192616587
 31
0.0
  0
LINE
  5
CE4
330
1F
100
AcDbEntity
  8
0
  6
Continuous
 62
     7
100
AcDbLine
 10
196.7642765605088
 20
-14.06868408774103
 30
0.0
 11
196.7642765605088
 21
3.746211609770168
 31
0.0
  0
LINE
  5
CE5
330
1F
100
AcDbEntity
  8
0
  6
Continuous
 62
     7
100
AcDbLine
 10
196.7642765605088
 20
-40.71440736588485
 30
0.0
 11
196.7642765605088
 21
-37.40966827764282
 31
0.0
  0
LINE
  5
CE6
330
1F
100
AcDbEntity
  8
0
  6
Continuous
 62
     7
100
AcDbLine
 10
196.7642765605088
 20
-14.06868408774103
 30
0.0
 11
198.7642765605088
 21
-14.06868408774103
 31
0.0
  0
LINE
  5
CE7
330
1F
100
AcDbEntity
  8
0
  6
Continuous
 62
     7
100
AcDbLine
 10
198.7642765605088
 20
-20.81709877660818
 30
0.0
 11
198.7642765605088
 21
-37.40966827764282
 31
0.0
  0
LINE
  5
CE8
330
1F
100
AcDbEntity
  8
0
  6
Continuous
 62
     7
100
AcDbLine
 10
196.7642765605088
 20
-37.40966827764282
 30
0.0
 11
194.7642765605088
 21
-37.40966827764282
 31
0.0
  0
LINE
  5
CE9
330
1F
100
AcDbEntity
  8
0
  6
Continuous
 62
     7
100
AcDbLine
 10
194.7642765605088
 20
-37.40966827764282
 30
0.0
 11
194.7642765605088
 21
-37.73595608847131
 31
0.0
  0
LINE
  5
CEA
330
1F
100
AcDbEntity
  8
0
  6
Continuous
 62
     7
100
AcDbLine
 10
198.7642765605088
 20
-24.21212333157621
 30
0.0
 11
198.7642765605088
 21
-24.68798171433613
 31
0.0
  0
LINE
  5
CEB
330
1F
100
AcDbEntity
  8
0
  6
Continuous
 62
     7
100
AcDbLine
 10
198.7642765605088
 20
-27.01222333157611
 30
0.0
 11
198.7642765605088
 21
-24.68798171433613
 31
0.0
  0
LINE
  5
CEC
330
1F
100
AcDbEntity
  8
0
  6
Continuous
 62
     7
100
AcDbLine
 10
198.7642765605088
 20
-24.68798171433613
 30
0.0
 11
198.7642765605088
 21
-29.91032333157621
 31
0.0
  0
LINE
  5
CED
330
1F
100
AcDbEntity
  8
0
  6
Continuous
 62
     7
100
AcDbLine
 10
198.7642765605088
 20
-30.31222333157632
 30
0.0
 11
198.7642765605088
 21
-36.41212333157621
 31
0.0
  0
LINE
  5
CEE
330
1F
100
AcDbEntity
  8
0
  6
Continuous
 62
     7
100
AcDbLine
 10
200.2642765605088
 20
-24.21212333157621
 30
0.0
 11
200.2642765605088
 21
-30.31222333157632
 31
0.0
  0
LINE
  5
CEF
330
1F
100
AcDbEntity
  8
0
  6
Continuous
 62
     7
100
AcDbLine
 10
200.2642765605088
 20
-30.71412333157612
 30
0.0
 11
200.2642765605088
 21
-36.41212333157621
 31
0.0
  0
LINE
  5
CF0
330
1F
100
AcDbEntity
  8
0
  6
Continuous
 62
     7
100
AcDbLine
 10
198.7642765605088
 20
-29.91032333157621
 30
0.0
 11
200.2642765605088
 21
-30.31222333157632
 31
0.0
  0
LINE
  5
CF1
330
1F
100
AcDbEntity
  8
0
  6
Continuous
 62
     7
100
AcDbLine
 10
198.7642765605088
 20
-30.31222333157632
 30
0.0
 11
200.2642765605088
 21
-30.71412333157612
 31
0.0
  0
LINE
  5
CF2
330
1F
100
AcDbEntity
  8
0
  6
Continuous
 62
     7
100
AcDbLine
 10
198.7642765605088
 20
-24.21212333157621
 30
0.0
 11
200.2642765605088
 21
-24.21212333157621
 31
0.0
  0
LINE
  5
CF3
330
1F
100
AcDbEntity
  8
0
  6
Continuous
 62
     7
100
AcDbLine
 10
198.7642765605088
 20
-36.41212333157621
 30
0.0
 11
200.2642765605088
 21
-36.41212333157621
 31
0.0
  0
LINE
  5
CF4
330
1F
100
AcDbEntity
  8
0
  6
Continuous
 62
     7
100
AcDbLine
 10
200.2642765605088
 20
-25.06222333157632
 30
0.0
 11
200.2642765605088
 21
-35.56222333157632
 31
0.0
  0
LINE
  5
CF5
330
1F
100
AcDbEntity
  8
0
  6
Continuous
 62
     7
100
AcDbLine
 10
204.1641765605087
 20
-27.14442333157611
 30
0.0
 11
204.1641765605087
 21
-33.47992333157622
 31
0.0
  0
LINE
  5
CF6
330
1F
100
AcDbEntity
  8
0
  6
Continuous
 62
     7
100
AcDbLine
 10
202.4297765605089
 20
-35.37272333157611
 30
0.0
 11
200.2642765605088
 21
-35.56222333157632
 31
0.0
  0
LINE
  5
CF7
330
1F
100
AcDbEntity
  8
0
  6
Continuous
 62
     7
100
AcDbLine
 10
202.4297765605089
 20
-25.25162333157621
 30
0.0
 11
200.2642765605088
 21
-25.06222333157632
 31
0.0
  0
LINE
  5
CF8
330
1F
100
AcDbEntity
  8
0
  6
CENTER_DASH_DASH
 62
   171
100
AcDbLine
 10
198.8797305149118
 20
-23.29596425240611
 30
0.0
 11
198.8797305149118
 21
-23.31222333157632
 31
0.0
  0
LINE
  5
CF9
330
1F
100
AcDbEntity
  8
0
  6
Continuous
 62
     7
100
AcDbLine
 10
198.7642765605088
 20
-24.68798171433613
 30
0.0
 11
198.7642765605088
 21
-23.29785694018422
 31
0.0
  0
LINE
  5
CFA
330
1F
100
AcDbEntity
  8
0
  6
Continuous
 62
     7
100
AcDbLine
 10
198.7642765605088
 20
-36.31222333157632
 30
0.0
 11
198.7642765605088
 21
-33.61222333157622
 31
0.0
  0
LINE
  5
CFB
330
1F
100
AcDbEntity
  8
0
  6
Continuous
 62
     7
100
AcDbLine
 10
198.7642765605088
 20
-24.68798171433613
 30
0.0
 11
198.7642765605088
 21
-34.91032333157621
 31
0.0
  0
LINE
  5
CFC
330
1F
100
AcDbEntity
  8
0
  6
Continuous
 62
     7
100
AcDbLine
 10
198.7642765605088
 20
-19.20395619859723
 30
0.0
 11
198.7642765605088
 21
-14.68589778191399
 31
0.0
  0
LINE
  5
CFD
330
1F
100
AcDbEntity
  8
0
  6
Continuous
 62
     7
100
AcDbLine
 10
196.7642765605088
 20
23.41057192616587
 30
0.0
 11
196.7642765605088
 21
23.6364833729356
 31
0.0
  0
LINE
  5
CFE
330
1F
100
AcDbEntity
  8
0
  6
Continuous
 62
     7
100
AcDbLine
 10
196.7642765605088
 20
-50.86351662706441
 30
0.0
 11
196.7642765605088
 21
-44.15808296650995
 31
0.0
  0
LINE
  5
CFF
330
1F
100
AcDbEntity
  8
0
  6
Continuous
 62
     7
100
AcDbLine
 10
198.7642765605088
 20
-37.40966827764282
 30
0.0
 11
196.7642765605088
 21
-37.40966827764282
 31
0.0
  0
LINE
  5
D00
330
1F
100
AcDbEntity
  8
0
  6
Continuous
 62
     7
100
AcDbLine
 10
194.7642765605088
 20
-20.81709877660818
 30
0.0
 11
194.7642765605088
 21
23.41057192616586
 31
0.0
  0
LINE
  5
D01
330
1F
100
AcDbEntity
  8
0
  6
Continuous
 62
     7
100
AcDbLine
 10
194.7642765605088
 20
-37.40966827764282
 30
0.0
 11
194.7642765605088
 21
-14.06868408774103
 31
0.0
  0
LINE
  5
D02
330
1F
100
AcDbEntity
  8
0
  6
Continuous
 62
     7
100
AcDbLine
 10
196.7642765605088
 20
23.41057192616587
 30
0.0
 11
196.7642765605088
 21
23.18466047939606
 31
0.0
  0
LINE
  5
D03
330
1F
100
AcDbEntity
  8
0
  6
DASH_CENTER
 62
     2
100
AcDbLine
 10
123.2642765605088
 20
23.41057192616586
 30
0.0
 11
119.7642765605088
 21
23.41057192616586
 31
0.0
  0
LINE
  5
D04
330
1F
100
AcDbEntity
  8
0
  6
Continuous
 62
     7
100
AcDbLine
 10
123.2642765605088
 20
85.4105719261658
 30
0.0
 11
123.2642765605088
 21
23.41057192616586
 31
0.0
  0
LINE
  5
D05
330
1F
100
AcDbEntity
  8
0
  6
Continuous
 62
     7
100
AcDbLine
 10
191.6756829402831
 20
138.6513668576597
 30
0.0
 11
194.7642765605088
 21
138.6513668576597
 31
0.0
  0
LINE
  5
D06
330
1F
100
AcDbEntity
  8
0
  6
Continuous
 62
     7
100
AcDbLine
 10
174.7642765605088
 20
152.1430100190229
 30
0.0
 11
143.2642765605088
 21
152.1430100190229
 31
0.0
  0
LINE
  5
D07
330
1F
100
AcDbEntity
  8
0
  6
DASH_CENTER
 62
     2
100
AcDbLine
 10
192.7642765605088
 20
23.41057192616586
 30
0.0
 11
121.2642765605088
 21
23.41057192616586
 31
0.0
  0
LINE
  5
D08
330
1F
100
AcDbEntity
  8
0
  6
Continuous
 62
     7
100
AcDbLine
 10
123.2642765605088
 20
132.1430100190229
 30
0.0
 11
123.2642765605088
 21
128.1483202177521
 31
0.0
  0
LINE
  5
D09
330
1F
100
AcDbEntity
  8
0
  6
Continuous
 62
     7
100
AcDbLine
 10
119.7642765605088
 20
83.41057192616579
 30
0.0
 11
121.2642765605088
 21
83.41057192616579
 31
0.0
  0
LINE
  5
D0A
330
1F
100
AcDbEntity
  8
0
  6
Continuous
 62
     7
100
AcDbLine
 10
119.7642765605088
 20
23.41057192616586
 30
0.0
 11
119.7642765605088
 21
82.91057192616589
 31
0.0
  0
LINE
  5
D0B
330
1F
100
AcDbEntity
  8
0
  6
Continuous
 62
     7
100
AcDbLine
 10
204.7642765605088
 20
67.63824262893982
 30
0.0
 11
204.7642765605088
 21
23.18466047939606
 31
0.0
  0
LINE
  5
D0C
330
1F
100
AcDbEntity
  8
0
  6
Continuous
 62
     7
100
AcDbLine
 10
204.7642765605088
 20
87.5355512182165
 30
0.0
 11
204.7642765605088
 21
67.63824262893982
 31
0.0
  0
LINE
  5
D0D
330
1F
100
AcDbEntity
  8
0
  6
DASH_CENTER
 62
     2
100
AcDbLine
 10
192.7642765605088
 20
23.41057192616586
 30
0.0
 11
194.7642765605088
 21
23.41057192616586
 31
0.0
  0
LINE
  5
D0E
330
1F
100
AcDbEntity
  8
0
  6
Continuous
 62
     7
100
AcDbLine
 10
192.7642765605088
 20
23.41057192616586
 30
0.0
 11
192.7642765605088
 21
132.1430100190229
 31
0.0
  0
LINE
  5
D0F
330
1F
100
AcDbEntity
  8
0
  6
Continuous
 62
     7
100
AcDbLine
 10
196.7642765605088
 20
60.88982794007268
 30
0.0
 11
194.7642765605088
 21
60.88982794007268
 31
0.0
  0
LINE
  5
D10
330
1F
100
AcDbEntity
  8
0
  6
Continuous
 62
     7
100
AcDbLine
 10
196.7642765605088
 20
23.41057192616587
 30
0.0
 11
196.7642765605088
 21
23.6364833729356
 31
0.0
  0
LINE
  5
D11
330
1F
100
AcDbEntity
  8
0
  6
Continuous
 62
     7
100
AcDbLine
 10
196.7642765605088
 20
23.41057192616587
 30
0.0
 11
196.7642765605088
 21
23.18466047939606
 31
0.0
  0
LINE
  5
D12
330
1F
100
AcDbEntity
  8
0
  6
DASH_CENTER
 62
     2
100
AcDbLine
 10
196.7642765605088
 20
23.41057192616587
 30
0.0
 11
194.7642765605088
 21
23.41057192616586
 31
0.0
  0
LINE
  5
D13
330
1F
100
AcDbEntity
  8
0
  6
Continuous
 62
     7
100
AcDbLine
 10
196.7642765605088
 20
23.41057192616587
 30
0.0
 11
196.7642765605088
 21
60.88982794007268
 31
0.0
  0
LINE
  5
D14
330
1F
100
AcDbEntity
  8
0
  6
Continuous
 62
     7
100
AcDbLine
 10
196.7642765605088
 20
118.7628912306471
 30
0.0
 11
198.7642765605088
 21
118.7628912306471
 31
0.0
  0
LINE
  5
D15
330
1F
100
AcDbEntity
  8
0
  6
Continuous
 62
     7
100
AcDbLine
 10
196.7642765605088
 20
84.2308121299745
 30
0.0
 11
196.7642765605088
 21
118.7628912306471
 31
0.0
  0
LINE
  5
D16
330
1F
100
AcDbEntity
  8
0
  6
Continuous
 62
     7
100
AcDbLine
 10
198.7642765605088
 20
60.88982794007268
 30
0.0
 11
196.7642765605088
 21
60.88982794007268
 31
0.0
  0
LINE
  5
D17
330
1F
100
AcDbEntity
  8
0
  6
Continuous
 62
     7
100
AcDbLine
 10
194.7642765605088
 20
138.6513668576597
 30
0.0
 11
194.7642765605088
 21
118.7628912306471
 31
0.0
  0
LINE
  5
D18
330
1F
100
AcDbEntity
  8
0
  6
Continuous
 62
     7
100
AcDbLine
 10
198.7642765605088
 20
138.6513668576597
 30
0.0
 11
194.7642765605088
 21
138.6513668576597
 31
0.0
  0
LINE
  5
D19
330
1F
100
AcDbEntity
  8
0
  6
Continuous
 62
     7
100
AcDbLine
 10
198.7642765605088
 20
138.6513668576597
 30
0.0
 11
198.7642765605088
 21
118.7628912306471
 31
0.0
  0
LINE
  5
D1A
330
1F
100
AcDbEntity
  8
0
  6
Continuous
 62
     7
100
AcDbLine
 10
198.7642765605088
 20
84.2308121299745
 30
0.0
 11
198.7642765605088
 21
66.02510005092887
 31
0.0
  0
LINE
  5
D1B
330
1F
100
AcDbEntity
  8
0
  6
Continuous
 62
     7
100
AcDbLine
 10
194.7642765605088
 20
84.2308121299745
 30
0.0
 11
196.7642765605088
 21
84.2308121299745
 31
0.0
  0
LINE
  5
D1C
330
1F
100
AcDbEntity
  8
0
  6
Continuous
 62
     7
100
AcDbLine
 10
194.7642765605088
 20
84.55709994080299
 30
0.0
 11
194.7642765605088
 21
84.2308121299745
 31
0.0
  0
LINE
  5
D1D
330
1F
100
AcDbEntity
  8
0
  6
Continuous
 62
     7
100
AcDbLine
 10
194.7642765605088
 20
118.7628912306471
 30
0.0
 11
196.7642765605088
 21
118.7628912306471
 31
0.0
  0
LINE
  5
D1E
330
1F
100
AcDbEntity
  8
0
  6
Continuous
 62
     7
100
AcDbLine
 10
198.7642765605088
 20
125.7031137936499
 30
0.0
 11
198.7642765605088
 21
125.2272554108899
 31
0.0
  0
LINE
  5
D1F
330
1F
100
AcDbEntity
  8
0
  6
Continuous
 62
     7
100
AcDbLine
 10
198.7642765605088
 20
125.7031137936499
 30
0.0
 11
198.7642765605088
 21
128.0273554108898
 31
0.0
  0
LINE
  5
D20
330
1F
100
AcDbEntity
  8
0
  6
Continuous
 62
     7
100
AcDbLine
 10
198.7642765605088
 20
130.92545541089
 30
0.0
 11
198.7642765605088
 21
125.7031137936499
 31
0.0
  0
LINE
  5
D21
330
1F
100
AcDbEntity
  8
0
  6
Continuous
 62
     7
100
AcDbLine
 10
198.7642765605088
 20
137.42725541089
 30
0.0
 11
198.7642765605088
 21
131.32735541089
 31
0.0
  0
LINE
  5
D22
330
1F
100
AcDbEntity
  8
0
  6
Continuous
 62
     7
100
AcDbLine
 10
200.2642765605088
 20
131.32735541089
 30
0.0
 11
200.2642765605088
 21
125.2272554108899
 31
0.0
  0
LINE
  5
D23
330
1F
100
AcDbEntity
  8
0
  6
Continuous
 62
     7
100
AcDbLine
 10
200.2642765605088
 20
137.42725541089
 30
0.0
 11
200.2642765605088
 21
131.7292554108899
 31
0.0
  0
LINE
  5
D24
330
1F
100
AcDbEntity
  8
0
  6
Continuous
 62
     7
100
AcDbLine
 10
200.2642765605088
 20
131.32735541089
 30
0.0
 11
198.7642765605088
 21
130.92545541089
 31
0.0
  0
LINE
  5
D25
330
1F
100
AcDbEntity
  8
0
  6
Continuous
 62
     7
100
AcDbLine
 10
200.2642765605088
 20
131.7292554108899
 30
0.0
 11
198.7642765605088
 21
131.32735541089
 31
0.0
  0
LINE
  5
D26
330
1F
100
AcDbEntity
  8
0
  6
Continuous
 62
     7
100
AcDbLine
 10
200.2642765605088
 20
125.2272554108899
 30
0.0
 11
198.7642765605088
 21
125.2272554108899
 31
0.0
  0
LINE
  5
D27
330
1F
100
AcDbEntity
  8
0
  6
Continuous
 62
     7
100
AcDbLine
 10
200.2642765605088
 20
137.42725541089
 30
0.0
 11
198.7642765605088
 21
137.42725541089
 31
0.0
  0
LINE
  5
D28
330
1F
100
AcDbEntity
  8
0
  6
Continuous
 62
     7
100
AcDbLine
 10
200.2642765605088
 20
136.57735541089
 30
0.0
 11
200.2642765605088
 21
126.07735541089
 31
0.0
  0
LINE
  5
D29
330
1F
100
AcDbEntity
  8
0
  6
Continuous
 62
     7
100
AcDbLine
 10
204.1641765605087
 20
134.49505541089
 30
0.0
 11
204.1641765605087
 21
128.1595554108899
 31
0.0
  0
LINE
  5
D2A
330
1F
100
AcDbEntity
  8
0
  6
Continuous
 62
     7
100
AcDbLine
 10
200.2642765605088
 20
136.57735541089
 30
0.0
 11
202.4297765605089
 21
136.3878554108898
 31
0.0
  0
LINE
  5
D2B
330
1F
100
AcDbEntity
  8
0
  6
Continuous
 62
     7
100
AcDbLine
 10
200.2642765605088
 20
126.07735541089
 30
0.0
 11
202.4297765605089
 21
126.26675541089
 31
0.0
  0
LINE
  5
D2C
330
1F
100
AcDbEntity
  8
0
  6
CENTER_DASH_DASH
 62
   171
100
AcDbLine
 10
198.8797305149118
 20
124.32735541089
 30
0.0
 11
198.8797305149118
 21
124.3110963317199
 31
0.0
  0
LINE
  5
D2D
330
1F
100
AcDbEntity
  8
0
  6
Continuous
 62
     7
100
AcDbLine
 10
198.7642765605088
 20
124.312989019498
 30
0.0
 11
198.7642765605088
 21
125.7031137936499
 31
0.0
  0
LINE
  5
D2E
330
1F
100
AcDbEntity
  8
0
  6
Continuous
 62
     7
100
AcDbLine
 10
198.7642765605088
 20
134.6273554108899
 30
0.0
 11
198.7642765605088
 21
137.32735541089
 31
0.0
  0
LINE
  5
D2F
330
1F
100
AcDbEntity
  8
0
  6
Continuous
 62
     7
100
AcDbLine
 10
198.7642765605088
 20
135.92545541089
 30
0.0
 11
198.7642765605088
 21
125.7031137936499
 31
0.0
  0
LINE
  5
D30
330
1F
100
AcDbEntity
  8
0
  6
Continuous
 62
     7
100
AcDbLine
 10
204.7642765605088
 20
74.99725839675879
 30
0.0
 11
204.7642765605088
 21
74.52140001399881
 31
0.0
  0
LINE
  5
D31
330
1F
100
AcDbEntity
  8
0
  6
Continuous
 62
     7
100
AcDbLine
 10
204.7642765605088
 20
74.99725839675879
 30
0.0
 11
204.7642765605088
 21
77.3215000139988
 31
0.0
  0
LINE
  5
D32
330
1F
100
AcDbEntity
  8
0
  6
Continuous
 62
     7
100
AcDbLine
 10
204.7642765605088
 20
80.21960001399891
 30
0.0
 11
204.7642765605088
 21
74.99725839675879
 31
0.0
  0
LINE
  5
D33
330
1F
100
AcDbEntity
  8
0
  6
Continuous
 62
     7
100
AcDbLine
 10
204.7642765605088
 20
86.7214000139989
 30
0.0
 11
204.7642765605088
 21
80.6215000139989
 31
0.0
  0
LINE
  5
D34
330
1F
100
AcDbEntity
  8
0
  6
Continuous
 62
     7
100
AcDbLine
 10
206.2642765605088
 20
80.6215000139989
 30
0.0
 11
206.2642765605088
 21
74.52140001399881
 31
0.0
  0
LINE
  5
D35
330
1F
100
AcDbEntity
  8
0
  6
Continuous
 62
     7
100
AcDbLine
 10
206.2642765605088
 20
86.7214000139989
 30
0.0
 11
206.2642765605088
 21
81.02340001399879
 31
0.0
  0
LINE
  5
D36
330
1F
100
AcDbEntity
  8
0
  6
Continuous
 62
     7
100
AcDbLine
 10
206.2642765605088
 20
80.6215000139989
 30
0.0
 11
204.7642765605088
 21
80.21960001399891
 31
0.0
  0
LINE
  5
D37
330
1F
100
AcDbEntity
  8
0
  6
Continuous
 62
     7
100
AcDbLine
 10
206.2642765605088
 20
81.02340001399879
 30
0.0
 11
204.7642765605088
 21
80.6215000139989
 31
0.0
  0
LINE
  5
D38
330
1F
100
AcDbEntity
  8
0
  6
Continuous
 62
     7
100
AcDbLine
 10
206.2642765605088
 20
74.52140001399881
 30
0.0
 11
204.7642765605088
 21
74.52140001399881
 31
0.0
  0
LINE
  5
D39
330
1F
100
AcDbEntity
  8
0
  6
Continuous
 62
     7
100
AcDbLine
 10
206.2642765605088
 20
86.7214000139989
 30
0.0
 11
204.7642765605088
 21
86.7214000139989
 31
0.0
  0
LINE
  5
D3A
330
1F
100
AcDbEntity
  8
0
  6
Continuous
 62
     7
100
AcDbLine
 10
206.2642765605088
 20
85.87150001399891
 30
0.0
 11
206.2642765605088
 21
75.37150001399891
 31
0.0
  0
LINE
  5
D3B
330
1F
100
AcDbEntity
  8
0
  6
Continuous
 62
     7
100
AcDbLine
 10
210.1641765605087
 20
83.7892000139989
 30
0.0
 11
210.1641765605087
 21
77.4537000139988
 31
0.0
  0
LINE
  5
D3C
330
1F
100
AcDbEntity
  8
0
  6
Continuous
 62
     7
100
AcDbLine
 10
206.2642765605088
 20
85.87150001399891
 30
0.0
 11
208.4297765605089
 21
85.68200001399878
 31
0.0
  0
LINE
  5
D3D
330
1F
100
AcDbEntity
  8
0
  6
Continuous
 62
     7
100
AcDbLine
 10
206.2642765605088
 20
75.37150001399891
 30
0.0
 11
208.4297765605089
 21
75.56090001399891
 31
0.0
  0
LINE
  5
D3E
330
1F
100
AcDbEntity
  8
0
  6
CENTER_DASH_DASH
 62
   171
100
AcDbLine
 10
204.8797305149118
 20
73.62150001399894
 30
0.0
 11
204.8797305149118
 21
73.60524093482879
 31
0.0
  0
LINE
  5
D3F
330
1F
100
AcDbEntity
  8
0
  6
Continuous
 62
     7
100
AcDbLine
 10
204.7642765605088
 20
73.60713362260688
 30
0.0
 11
204.7642765605088
 21
74.99725839675879
 31
0.0
  0
LINE
  5
D40
330
1F
100
AcDbEntity
  8
0
  6
Continuous
 62
     7
100
AcDbLine
 10
204.7642765605088
 20
83.92150001399889
 30
0.0
 11
204.7642765605088
 21
86.62150001399892
 31
0.0
  0
LINE
  5
D41
330
1F
100
AcDbEntity
  8
0
  6
Continuous
 62
     7
100
AcDbLine
 10
204.7642765605088
 20
85.21960001399891
 30
0.0
 11
204.7642765605088
 21
74.99725839675879
 31
0.0
  0
LINE
  5
D42
330
1F
100
AcDbEntity
  8
0
  6
Continuous
 62
     7
100
AcDbLine
 10
198.7642765605088
 20
71.50912556666776
 30
0.0
 11
198.7642765605088
 21
71.03326718390784
 31
0.0
  0
LINE
  5
D43
330
1F
100
AcDbEntity
  8
0
  6
Continuous
 62
     7
100
AcDbLine
 10
198.7642765605088
 20
71.50912556666776
 30
0.0
 11
198.7642765605088
 21
73.83336718390776
 31
0.0
  0
LINE
  5
D44
330
1F
100
AcDbEntity
  8
0
  6
Continuous
 62
     7
100
AcDbLine
 10
198.7642765605088
 20
76.73146718390791
 30
0.0
 11
198.7642765605088
 21
71.50912556666776
 31
0.0
  0
LINE
  5
D45
330
1F
100
AcDbEntity
  8
0
  6
Continuous
 62
     7
100
AcDbLine
 10
198.7642765605088
 20
83.23326718390791
 30
0.0
 11
198.7642765605088
 21
77.13336718390802
 31
0.0
  0
LINE
  5
D46
330
1F
100
AcDbEntity
  8
0
  6
Continuous
 62
     7
100
AcDbLine
 10
200.2642765605088
 20
77.13336718390802
 30
0.0
 11
200.2642765605088
 21
71.03326718390784
 31
0.0
  0
LINE
  5
D47
330
1F
100
AcDbEntity
  8
0
  6
Continuous
 62
     7
100
AcDbLine
 10
200.2642765605088
 20
83.23326718390791
 30
0.0
 11
200.2642765605088
 21
77.53526718390782
 31
0.0
  0
LINE
  5
D48
330
1F
100
AcDbEntity
  8
0
  6
Continuous
 62
     7
100
AcDbLine
 10
200.2642765605088
 20
77.13336718390802
 30
0.0
 11
198.7642765605088
 21
76.73146718390791
 31
0.0
  0
LINE
  5
D49
330
1F
100
AcDbEntity
  8
0
  6
Continuous
 62
     7
100
AcDbLine
 10
200.2642765605088
 20
77.53526718390782
 30
0.0
 11
198.7642765605088
 21
77.13336718390802
 31
0.0
  0
LINE
  5
D4A
330
1F
100
AcDbEntity
  8
0
  6
Continuous
 62
     7
100
AcDbLine
 10
200.2642765605088
 20
71.03326718390784
 30
0.0
 11
198.7642765605088
 21
71.03326718390784
 31
0.0
  0
LINE
  5
D4B
330
1F
100
AcDbEntity
  8
0
  6
Continuous
 62
     7
100
AcDbLine
 10
200.2642765605088
 20
83.23326718390791
 30
0.0
 11
198.7642765605088
 21
83.23326718390791
 31
0.0
  0
LINE
  5
D4C
330
1F
100
AcDbEntity
  8
0
  6
Continuous
 62
     7
100
AcDbLine
 10
200.2642765605088
 20
82.38336718390803
 30
0.0
 11
200.2642765605088
 21
71.88336718390795
 31
0.0
  0
LINE
  5
D4D
330
1F
100
AcDbEntity
  8
0
  6
Continuous
 62
     7
100
AcDbLine
 10
204.1641765605087
 20
80.3010671839079
 30
0.0
 11
204.1641765605087
 21
73.96556718390775
 31
0.0
  0
LINE
  5
D4E
330
1F
100
AcDbEntity
  8
0
  6
Continuous
 62
     7
100
AcDbLine
 10
200.2642765605088
 20
82.38336718390803
 30
0.0
 11
202.4297765605089
 21
82.19386718390779
 31
0.0
  0
LINE
  5
D4F
330
1F
100
AcDbEntity
  8
0
  6
Continuous
 62
     7
100
AcDbLine
 10
200.2642765605088
 20
71.88336718390795
 30
0.0
 11
202.4297765605089
 21
72.07276718390786
 31
0.0
  0
LINE
  5
D50
330
1F
100
AcDbEntity
  8
0
  6
CENTER_DASH_DASH
 62
   171
100
AcDbLine
 10
198.8797305149118
 20
70.13336718390795
 30
0.0
 11
198.8797305149118
 21
70.11710810473775
 31
0.0
  0
LINE
  5
D51
330
1F
100
AcDbEntity
  8
0
  6
Continuous
 62
     7
100
AcDbLine
 10
198.7642765605088
 20
70.11900079251586
 30
0.0
 11
198.7642765605088
 21
71.50912556666776
 31
0.0
  0
LINE
  5
D52
330
1F
100
AcDbEntity
  8
0
  6
Continuous
 62
     7
100
AcDbLine
 10
198.7642765605088
 20
80.4333671839079
 30
0.0
 11
198.7642765605088
 21
83.13336718390802
 31
0.0
  0
LINE
  5
D53
330
1F
100
AcDbEntity
  8
0
  6
Continuous
 62
     7
100
AcDbLine
 10
198.7642765605088
 20
81.73146718390791
 30
0.0
 11
198.7642765605088
 21
71.50912556666776
 31
0.0
  0
LINE
  5
D54
330
1F
100
AcDbEntity
  8
0
  6
Continuous
 62
     7
100
AcDbLine
 10
204.7642765605088
 20
96.6846604793961
 30
0.0
 11
204.7642765605088
 21
95.91057192616579
 31
0.0
  0
LINE
  5
D55
330
1F
100
AcDbEntity
  8
0
  6
Continuous
 62
     7
100
AcDbLine
 10
204.7642765605088
 20
95.91057192616579
 30
0.0
 11
225.7642765605088
 21
95.71245871861872
 31
0.0
  0
LINE
  5
D56
330
1F
100
AcDbEntity
  8
0
  6
Continuous
 62
     7
100
AcDbLine
 10
204.7642765605088
 20
95.91057192616579
 30
0.0
 11
204.7642765605088
 21
87.5355512182165
 31
0.0
  0
LINE
  5
D57
330
1F
100
AcDbEntity
  8
0
  6
Continuous
 62
     7
100
AcDbLine
 10
313.7071202925422
 20
91.62912234858772
 30
0.0
 11
323.2090073743237
 21
81.03394088811548
 31
0.0
  0
LINE
  5
D58
330
1F
100
AcDbEntity
  8
0
  6
Continuous
 62
     7
100
AcDbLine
 10
306.3567249035526
 20
-48.13100874984319
 30
0.0
 11
273.7642765605087
 21
-48.43848467760775
 31
0.0
  0
LINE
  5
D59
330
1F
100
AcDbEntity
  8
0
  6
Continuous
 62
     7
100
AcDbLine
 10
323.2090073743237
 20
-34.21279703578384
 30
0.0
 11
313.7071202925422
 21
-44.8079784962561
 31
0.0
  0
LINE
  5
D5A
330
1F
100
AcDbEntity
  8
0
  6
Continuous
 62
     7
100
AcDbLine
 10
325.7642765605088
 20
-27.53627225788962
 30
0.0
 11
325.7642765605088
 21
74.35741611022128
 31
0.0
  0
LINE
  5
D5B
330
1F
100
AcDbEntity
  8
0
  6
Continuous
 62
     7
100
AcDbLine
 10
198.7642765605088
 20
60.88982794007268
 30
0.0
 11
198.7642765605088
 21
66.02510005092887
 31
0.0
  0
LINE
  5
D5C
330
1F
100
AcDbEntity
  8
0
  6
Continuous
 62
     7
100
AcDbLine
 10
196.7642765605088
 20
23.18466047939606
 30
0.0
 11
196.7642765605088
 21
23.41057192616587
 31
0.0
  0
LINE
  5
D5D
330
1F
100
AcDbEntity
  8
0
  6
Continuous
 62
     7
100
AcDbLine
 10
196.7642765605088
 20
90.9792268188416
 30
0.0
 11
196.7642765605088
 21
97.68466047939613
 31
0.0
  0
LINE
  5
D5E
330
1F
100
AcDbEntity
  8
0
  6
Continuous
 62
     7
100
AcDbLine
 10
196.7642765605088
 20
84.2308121299745
 30
0.0
 11
198.7642765605088
 21
84.2308121299745
 31
0.0
  0
LINE
  5
D5F
330
1F
100
AcDbEntity
  8
0
  6
Continuous
 62
     7
100
AcDbLine
 10
194.7642765605088
 20
78.22002175033552
 30
0.0
 11
194.7642765605088
 21
118.7628912306471
 31
0.0
  0
LINE
  5
D60
330
1F
100
AcDbEntity
  8
0
  6
DASH_CENTER
 62
     2
100
AcDbLine
 10
105.834345459508
 20
23.41057192616583
 30
0.0
 11
119.7642765605088
 21
23.41057192616586
 31
0.0
  0
LINE
  5
D61
330
1F
100
AcDbEntity
  8
0
  6
Continuous
 62
     7
100
AcDbLine
 10
194.7642765605088
 20
23.41057192616586
 30
0.0
 11
194.7642765605088
 21
67.63824262893982
 31
0.0
  0
LINE
  5
D62
330
1F
100
AcDbEntity
  8
0
  6
Continuous
 62
     7
100
AcDbLine
 10
194.7642765605088
 20
60.88982794007268
 30
0.0
 11
194.7642765605088
 21
84.2308121299745
 31
0.0
  0
LINE
  5
D63
330
1F
100
AcDbEntity
  8
0
  6
Continuous
 62
     7
100
AcDbLine
 10
204.7642765605088
 20
-27.70025616166716
 30
0.0
 11
204.7642765605088
 21
-28.17611454442712
 31
0.0
  0
LINE
  5
D64
330
1F
100
AcDbEntity
  8
0
  6
Continuous
 62
     7
100
AcDbLine
 10
204.7642765605088
 20
-30.50035616166709
 30
0.0
 11
204.7642765605088
 21
-28.17611454442712
 31
0.0
  0
LINE
  5
D65
330
1F
100
AcDbEntity
  8
0
  6
Continuous
 62
     7
100
AcDbLine
 10
204.7642765605088
 20
-28.17611454442712
 30
0.0
 11
204.7642765605088
 21
-33.39845616166721
 31
0.0
  0
LINE
  5
D66
330
1F
100
AcDbEntity
  8
0
  6
Continuous
 62
     7
100
AcDbLine
 10
204.7642765605088
 20
-33.80035616166728
 30
0.0
 11
204.7642765605088
 21
-39.90025616166722
 31
0.0
  0
LINE
  5
D67
330
1F
100
AcDbEntity
  8
0
  6
Continuous
 62
     7
100
AcDbLine
 10
206.2642765605088
 20
-27.70025616166716
 30
0.0
 11
206.2642765605088
 21
-33.80035616166728
 31
0.0
  0
LINE
  5
D68
330
1F
100
AcDbEntity
  8
0
  6
Continuous
 62
     7
100
AcDbLine
 10
206.2642765605088
 20
-34.20225616166713
 30
0.0
 11
206.2642765605088
 21
-39.90025616166722
 31
0.0
  0
LINE
  5
D69
330
1F
100
AcDbEntity
  8
0
  6
Continuous
 62
     7
100
AcDbLine
 10
204.7642765605088
 20
-33.39845616166721
 30
0.0
 11
206.2642765605088
 21
-33.80035616166728
 31
0.0
  0
LINE
  5
D6A
330
1F
100
AcDbEntity
  8
0
  6
Continuous
 62
     7
100
AcDbLine
 10
204.7642765605088
 20
-33.80035616166728
 30
0.0
 11
206.2642765605088
 21
-34.20225616166713
 31
0.0
  0
LINE
  5
D6B
330
1F
100
AcDbEntity
  8
0
  6
Continuous
 62
     7
100
AcDbLine
 10
204.7642765605088
 20
-27.70025616166716
 30
0.0
 11
206.2642765605088
 21
-27.70025616166716
 31
0.0
  0
LINE
  5
D6C
330
1F
100
AcDbEntity
  8
0
  6
Continuous
 62
     7
100
AcDbLine
 10
204.7642765605088
 20
-39.90025616166722
 30
0.0
 11
206.2642765605088
 21
-39.90025616166722
 31
0.0
  0
LINE
  5
D6D
330
1F
100
AcDbEntity
  8
0
  6
Continuous
 62
     7
100
AcDbLine
 10
206.2642765605088
 20
-28.55035616166727
 30
0.0
 11
206.2642765605088
 21
-39.05035616166728
 31
0.0
  0
LINE
  5
D6E
330
1F
100
AcDbEntity
  8
0
  6
Continuous
 62
     7
100
AcDbLine
 10
210.1641765605087
 20
-30.6325561616671
 30
0.0
 11
210.1641765605087
 21
-36.96805616166725
 31
0.0
  0
LINE
  5
D6F
330
1F
100
AcDbEntity
  8
0
  6
Continuous
 62
     7
100
AcDbLine
 10
208.4297765605089
 20
-38.8608561616671
 30
0.0
 11
206.2642765605088
 21
-39.05035616166728
 31
0.0
  0
LINE
  5
D70
330
1F
100
AcDbEntity
  8
0
  6
Continuous
 62
     7
100
AcDbLine
 10
208.4297765605089
 20
-28.73975616166725
 30
0.0
 11
206.2642765605088
 21
-28.55035616166727
 31
0.0
  0
LINE
  5
D71
330
1F
100
AcDbEntity
  8
0
  6
CENTER_DASH_DASH
 62
   171
100
AcDbLine
 10
204.8797305149118
 20
-26.78409708249713
 30
0.0
 11
204.8797305149118
 21
-26.80035616166727
 31
0.0
  0
LINE
  5
D72
330
1F
100
AcDbEntity
  8
0
  6
Continuous
 62
     7
100
AcDbLine
 10
204.7642765605088
 20
-28.17611454442712
 30
0.0
 11
204.7642765605088
 21
-26.78598977027522
 31
0.0
  0
LINE
  5
D73
330
1F
100
AcDbEntity
  8
0
  6
Continuous
 62
     7
100
AcDbLine
 10
204.7642765605088
 20
-39.80035616166728
 30
0.0
 11
204.7642765605088
 21
-37.10035616166724
 31
0.0
  0
LINE
  5
D74
330
1F
100
AcDbEntity
  8
0
  6
Continuous
 62
     7
100
AcDbLine
 10
204.7642765605088
 20
-28.17611454442712
 30
0.0
 11
204.7642765605088
 21
-38.39845616166721
 31
0.0
  0
LINE
  5
D75
330
1F
100
AcDbEntity
  8
0
  6
Continuous
 62
     7
100
AcDbLine
 10
204.7642765605088
 20
-49.08942807383417
 30
0.0
 11
204.7642765605088
 21
-49.58942807383417
 31
0.0
  0
LINE
  5
D76
330
1F
100
AcDbEntity
  8
0
  6
Continuous
 62
     7
100
AcDbLine
 10
204.7642765605088
 20
-49.08942807383417
 30
0.0
 11
204.7642765605088
 21
23.6364833729356
 31
0.0
  0
LINE
  5
D77
330
1F
100
AcDbEntity
  8
0
  6
Continuous
 62
     7
100
AcDbLine
 10
196.7642765605088
 20
23.6364833729356
 30
0.0
 11
196.7642765605088
 21
23.41057192616587
 31
0.0
  0
LINE
  5
D78
330
1F
100
AcDbEntity
  8
0
  6
Continuous
 62
     7
100
AcDbLine
 10
273.7642765605087
 20
-48.43848467760775
 30
0.0
 11
273.7642765605087
 21
-49.58942807383417
 31
0.0
  0
LINE
  5
D79
330
1F
100
AcDbEntity
  8
0
  6
Continuous
 62
     7
100
AcDbLine
 10
273.7642765605087
 20
-48.43848467760775
 30
0.0
 11
204.7642765605088
 21
-49.08942807383417
 31
0.0
  0
LINE
  5
D7A
330
1F
100
AcDbEntity
  8
0
  6
Continuous
 62
     7
100
AcDbLine
 10
204.7642765605088
 20
-49.58942807383417
 30
0.0
 11
204.7642765605088
 21
-49.86351662706439
 31
0.0
  0
LINE
  5
D7B
330
1F
100
AcDbEntity
  8
0
  6
DASH_CENTER
 62
     2
100
AcDbLine
 10
333.5575555214962
 20
23.41057192616583
 30
0.0
 11
176.7642765605088
 21
23.41057192616587
 31
0.0
  0
LINE
  5
D7F
330
1F
100
AcDbEntity
  8
0
  6
Continuous
 62
     7
100
AcDbLine
 10
265.7642765605088
 20
95.33510022805259
 30
0.0
 11
306.3567249035526
 21
94.95215260217479
 31
0.0
  0
LINE
  5
D80
330
1F
100
AcDbEntity
  8
0
  6
Continuous
 62
     7
100
AcDbLine
 10
265.7642765605088
 20
95.33510022805259
 30
0.0
 11
225.7642765605088
 21
95.71245871861872
 31
0.0
  0
LINE
  5
D81
330
1F
100
AcDbEntity
  8
0
  6
Continuous
 62
     7
100
AcDbLine
 10
196.7642765605088
 20
97.68466047939613
 30
0.0
 11
203.7642765605088
 21
97.68466047939613
 31
0.0
  0
LINE
  5
D82
330
1F
100
AcDbEntity
  8
0
  6
Continuous
 62
     2
100
AcDbLine
 10
196.7642765605088
 20
87.5355512182165
 30
0.0
 11
204.7642765605088
 21
87.5355512182165
 31
0.0
  0
LINE
  5
D83
330
1F
100
AcDbEntity
  8
0
  6
Continuous
 62
     2
100
AcDbLine
 10
198.7642765605088
 20
67.63824262893983
 30
0.0
 11
204.7642765605088
 21
67.63824262893982
 31
0.0
  0
LINE
  5
D84
330
1F
100
AcDbEntity
  8
0
  6
Continuous
 62
     7
100
AcDbLine
 10
196.7642765605088
 20
-50.86351662706441
 30
0.0
 11
203.7642765605088
 21
-50.8635166270644
 31
0.0
  0
LINE
  5
D85
330
1F
100
AcDbEntity
  8
0
  6
DASH_CENTER
 62
     2
100
AcDbLine
 10
157.7642765605088
 20
-34.61533952060396
 30
0.0
 11
157.7642765605088
 21
-141.0153395206039
 31
0.0
  0
LINE
  5
D86
330
1F
100
AcDbEntity
  8
0
  6
DASH_CENTER
 62
     2
100
AcDbLine
 10
157.7642765605088
 20
-141.0153395206039
 30
0.0
 11
157.7642765605088
 21
-149.6320007059254
 31
0.0
  0
LINE
  5
D87
330
1F
100
AcDbEntity
  8
0
  6
DASH_CENTER
 62
     2
100
AcDbLine
 10
157.7642765605088
 20
-34.61533952060396
 30
0.0
 11
157.7642765605088
 21
167.6007221176862
 31
0.0
  0
LINE
  5
D88
330
1F
100
AcDbEntity
  8
0
  6
DASH_CENTER
 62
     2
100
AcDbLine
 10
-307.4687207697665
 20
23.18466047939606
 30
0.0
 11
-316.1414967339283
 21
23.18466047939606
 31
0.0
  0
LINE
  5
D95
330
1F
100
AcDbEntity
  8
0
  6
Continuous
 62
     7
100
AcDbLine
 10
-49.05406986351352
 20
28.68466047939606
 30
0.0
 11
-49.05406986351302
 21
26.68466047939606
 31
0.0
  0
LINE
  5
D96
330
1F
100
AcDbEntity
  8
0
  6
Continuous
 62
     7
100
AcDbLine
 10
-71.69799844112332
 20
-47.31533952060393
 30
0.0
 11
-30.55406986351352
 21
-47.31533952060393
 31
0.0
  0
LINE
  5
D97
330
1F
100
AcDbEntity
  8
0
  6
Continuous
 62
     7
100
AcDbLine
 10
-28.55406986351352
 20
-31.81533952060394
 30
0.0
 11
-28.55406986351352
 21
-45.31533952060393
 31
0.0
  0
LINE
  5
D98
330
1F
100
AcDbEntity
  8
0
  6
Continuous
 62
     7
100
AcDbLine
 10
-26.55406986351352
 20
-29.81533952060394
 30
0.0
 11
-22.55406986351352
 21
-29.81533952060394
 31
0.0
  0
LINE
  5
D99
330
1F
100
AcDbEntity
  8
0
  6
Continuous
 62
     7
100
AcDbLine
 10
-22.55406986351352
 20
-29.81533952060394
 30
0.0
 11
-22.55406986351352
 21
-145.8153395206039
 31
0.0
  0
LINE
  5
D9A
330
1F
100
AcDbEntity
  8
0
  6
Continuous
 62
     7
100
AcDbLine
 10
-26.55406986351352
 20
-145.8153395206039
 30
0.0
 11
-22.55406986351352
 21
-145.8153395206039
 31
0.0
  0
LINE
  5
D9B
330
1F
100
AcDbEntity
  8
0
  6
Continuous
 62
     7
100
AcDbLine
 10
-304.3674808832853
 20
48.56876909350209
 30
0.0
 11
-304.6818023787674
 21
47.052020118383
 31
0.0
  0
LINE
  5
D9C
330
1F
100
AcDbEntity
  8
0
  6
DASH_CENTER
 62
     2
100
AcDbLine
 10
-227.0540698635135
 20
23.18466047939606
 30
0.0
 11
-222.5540698635135
 21
23.18466047939606
 31
0.0
  0
LINE
  5
D9D
330
1F
100
AcDbEntity
  8
0
  6
Continuous
 62
     7
100
AcDbLine
 10
-28.55406986351352
 20
-130.3153395206039
 30
0.0
 11
-28.55406986351352
 21
-143.8153395206039
 31
0.0
  0
LINE
  5
D9E
330
1F
100
AcDbEntity
  8
0
  6
Continuous
 62
     7
100
AcDbLine
 10
-28.55406986351352
 20
-130.3153395206039
 30
0.0
 11
-28.55406986351352
 21
-45.31533952060393
 31
0.0
  0
LINE
  5
D9F
330
1F
100
AcDbEntity
  8
0
  6
DASH_CENTER
 62
     2
100
AcDbLine
 10
-94.20439419121143
 20
-87.81533952060394
 30
0.0
 11
8.850238660230498
 21
-87.81533952060394
 31
0.0
  0
LINE
  5
DA0
330
1F
100
AcDbEntity
  8
0
  6
Continuous
 62
     7
100
AcDbLine
 10
-192.2977193049354
 20
114.9057148361791
 30
0.0
 11
-180.9596976380795
 21
132.364737159941
 31
0.0
  0
LINE
  5
DA1
330
1F
100
AcDbEntity
  8
0
  6
Continuous
 62
     7
100
AcDbLine
 10
-180.9596976380795
 20
132.364737159941
 30
0.0
 11
-179.7410042040284
 21
122.4392756435281
 31
0.0
  0
LINE
  5
DA2
330
1F
100
AcDbEntity
  8
0
  6
Continuous
 62
     7
100
AcDbLine
 10
-168.9651595233635
 20
123.174704113609
 30
0.0
 11
-164.7918000847604
 21
128.1483202177521
 31
0.0
  0
LINE
  5
DA3
330
1F
100
AcDbEntity
  8
0
  6
Continuous
 62
     7
100
AcDbLine
 10
-137.9573474847144
 20
113.4566607033431
 30
0.0
 11
-131.0843077946755
 21
121.6476304459901
 31
0.0
  0
LINE
  5
DA4
330
1F
100
AcDbEntity
  8
0
  6
DASH_CENTER
 62
     2
100
AcDbLine
 10
-167.5540698635135
 20
160.4486508979882
 30
0.0
 11
-167.5540698635135
 21
32.42226478643002
 31
0.0
  0
LINE
  5
DA5
330
1F
100
AcDbEntity
  8
0
  6
Continuous
 62
     7
100
AcDbLine
 10
-30.55406986351352
 20
-128.3153395206039
 30
0.0
 11
-119.5540698635135
 21
-128.3153395206039
 31
0.0
  0
LINE
  5
DA6
330
1F
100
AcDbEntity
  8
0
  6
DASH_CENTER
 62
     2
100
AcDbLine
 10
-227.5540698635135
 20
23.18466047939606
 30
0.0
 11
-307.4687207697665
 21
23.18466047939606
 31
0.0
  0
LINE
  5
DAB
330
1F
100
AcDbEntity
  8
0
  6
Continuous
 62
     7
100
AcDbLine
 10
-215.5540698635135
 20
-117.8006328430809
 30
0.0
 11
-215.5540698635135
 21
-142.2894280738338
 31
0.0
  0
LINE
  5
DAC
330
1F
100
AcDbEntity
  8
0
  6
Continuous
 62
     7
100
AcDbLine
 10
-217.5540698635135
 20
-144.2894280738338
 30
0.0
 11
-241.0540698635135
 21
-144.2894280738338
 31
0.0
  0
LINE
  5
DAD
330
1F
100
AcDbEntity
  8
0
  6
Continuous
 62
     7
100
AcDbLine
 10
-241.0540698635135
 20
-144.2894280738338
 30
0.0
 11
-241.0540698635135
 21
-146.589428073834
 31
0.0
  0
LINE
  5
DAE
330
1F
100
AcDbEntity
  8
0
  6
Continuous
 62
     7
100
AcDbLine
 10
-241.0540698635135
 20
-146.589428073834
 30
0.0
 11
-217.2540698635133
 21
-146.589428073834
 31
0.0
  0
LINE
  5
DAF
330
1F
100
AcDbEntity
  8
0
  6
Continuous
 62
     7
100
AcDbLine
 10
-213.2540698635133
 20
-141.589428073834
 30
0.0
 11
-213.2540698635133
 21
-142.589428073834
 31
0.0
  0
LINE
  5
DB0
330
1F
100
AcDbEntity
  8
0
  6
DASH_CENTER
 62
     2
100
AcDbLine
 10
-167.5540698635135
 20
-131.589428073834
 30
0.0
 11
-167.5540698635135
 21
-156.9707940842739
 31
0.0
  0
LINE
  5
DB1
330
1F
100
AcDbEntity
  8
0
  6
DASH_CENTER
 62
     2
100
AcDbLine
 10
-227.5540698635135
 20
-137.0502325092989
 30
0.0
 11
-227.5540698635135
 21
-153.6015826751098
 31
0.0
  0
LINE
  5
DB2
330
1F
100
AcDbEntity
  8
0
  6
Continuous
 62
     7
100
AcDbLine
 10
-94.0540698635135
 20
-144.2894280738338
 30
0.0
 11
-117.5540698635135
 21
-144.2894280738338
 31
0.0
  0
LINE
  5
DB3
330
1F
100
AcDbEntity
  8
0
  6
Continuous
 62
     7
100
AcDbLine
 10
-94.0540698635135
 20
-146.589428073834
 30
0.0
 11
-94.0540698635135
 21
-144.2894280738338
 31
0.0
  0
LINE
  5
DB4
330
1F
100
AcDbEntity
  8
0
  6
Continuous
 62
     7
100
AcDbLine
 10
-117.8540698635135
 20
-146.589428073834
 30
0.0
 11
-94.0540698635135
 21
-146.589428073834
 31
0.0
  0
LINE
  5
DB5
330
1F
100
AcDbEntity
  8
0
  6
Continuous
 62
     7
100
AcDbLine
 10
-121.8540698635135
 20
-142.589428073834
 30
0.0
 11
-121.8540698635135
 21
-141.589428073834
 31
0.0
  0
LINE
  5
DB6
330
1F
100
AcDbEntity
  8
0
  6
DASH_CENTER
 62
     2
100
AcDbLine
 10
-107.5540698635135
 20
-153.6015826751098
 30
0.0
 11
-107.5540698635135
 21
-137.0502325092989
 31
0.0
  0
LINE
  5
DB7
330
1F
100
AcDbEntity
  8
0
  6
Continuous
 62
     7
100
AcDbLine
 10
-167.5540698635135
 20
-131.589428073834
 30
0.0
 11
-131.8540698635135
 21
-131.589428073834
 31
0.0
  0
LINE
  5
DB8
330
1F
100
AcDbEntity
  8
0
  6
Continuous
 62
     7
100
AcDbLine
 10
-119.5540698635135
 20
-128.3153395206039
 30
0.0
 11
-119.5540698635135
 21
-142.2894280738338
 31
0.0
  0
LINE
  5
DB9
330
1F
100
AcDbEntity
  8
0
  6
Continuous
 62
     7
100
AcDbLine
 10
-119.5540698635135
 20
-128.3153395206039
 30
0.0
 11
-161.0540698635135
 21
-128.3153395206039
 31
0.0
  0
LINE
  5
DBA
330
1F
100
AcDbEntity
  8
0
  6
DASH_CENTER
 62
     2
100
AcDbLine
 10
-227.0540698635135
 20
23.18466047939606
 30
0.0
 11
-227.5540698635135
 21
23.18466047939606
 31
0.0
  0
LINE
  5
DBB
330
1F
100
AcDbEntity
  8
0
  6
DASH_CENTER
 62
     2
100
AcDbLine
 10
-167.5540698635135
 20
84.484660479396
 30
0.0
 11
-167.5540698635135
 21
80.6846604793961
 31
0.0
  0
LINE
  5
DBC
330
1F
100
AcDbEntity
  8
0
  6
Continuous
 62
     7
100
AcDbLine
 10
-167.5540698635135
 20
80.6846604793961
 30
0.0
 11
-166.9540698635134
 21
80.6846604793961
 31
0.0
  0
LINE
  5
DBD
330
1F
100
AcDbEntity
  8
0
  6
DASH_CENTER
 62
     2
100
AcDbLine
 10
-167.5540698635135
 20
80.6846604793961
 30
0.0
 11
-167.5540698635135
 21
71.88466047939609
 31
0.0
  0
LINE
  5
DBE
330
1F
100
AcDbEntity
  8
0
  6
Continuous
 62
     7
100
AcDbLine
 10
-166.9540698635134
 20
80.6846604793961
 30
0.0
 11
-166.9540698635134
 21
79.78466047939619
 31
0.0
  0
LINE
  5
DBF
330
1F
100
AcDbEntity
  8
0
  6
Continuous
 62
     7
100
AcDbLine
 10
-165.9540698635134
 20
78.78466047939619
 30
0.0
 11
-165.0540698635135
 21
78.78466047939619
 31
0.0
  0
LINE
  5
DC0
330
1F
100
AcDbEntity
  8
0
  6
Continuous
 62
     7
100
AcDbLine
 10
-170.0540698635135
 20
78.1846604793961
 30
0.0
 11
-170.0540698635135
 21
78.78466047939619
 31
0.0
  0
LINE
  5
DC1
330
1F
100
AcDbEntity
  8
0
  6
Continuous
 62
     7
100
AcDbLine
 10
-170.0540698635135
 20
78.78466047939619
 30
0.0
 11
-169.1540698635134
 21
78.78466047939619
 31
0.0
  0
LINE
  5
DC2
330
1F
100
AcDbEntity
  8
0
  6
Continuous
 62
     7
100
AcDbLine
 10
-168.1540698635134
 20
79.78466047939619
 30
0.0
 11
-168.1540698635134
 21
80.6846604793961
 31
0.0
  0
LINE
  5
DC3
330
1F
100
AcDbEntity
  8
0
  6
Continuous
 62
     7
100
AcDbLine
 10
-168.1540698635134
 20
80.6846604793961
 30
0.0
 11
-167.5540698635135
 21
80.6846604793961
 31
0.0
  0
LINE
  5
DC4
330
1F
100
AcDbEntity
  8
0
  6
Continuous
 62
     7
100
AcDbLine
 10
-167.5540698635135
 20
75.6846604793961
 30
0.0
 11
-168.1540698635134
 21
75.6846604793961
 31
0.0
  0
LINE
  5
DC5
330
1F
100
AcDbEntity
  8
0
  6
Continuous
 62
     7
100
AcDbLine
 10
-168.1540698635134
 20
75.6846604793961
 30
0.0
 11
-168.1540698635134
 21
76.58466047939611
 31
0.0
  0
LINE
  5
DC6
330
1F
100
AcDbEntity
  8
0
  6
Continuous
 62
     7
100
AcDbLine
 10
-169.1540698635134
 20
77.58466047939609
 30
0.0
 11
-170.0540698635135
 21
77.58466047939609
 31
0.0
  0
LINE
  5
DC7
330
1F
100
AcDbEntity
  8
0
  6
Continuous
 62
     7
100
AcDbLine
 10
-170.0540698635135
 20
77.58466047939609
 30
0.0
 11
-170.0540698635135
 21
78.1846604793961
 31
0.0
  0
LINE
  5
DC8
330
1F
100
AcDbEntity
  8
0
  6
Continuous
 62
     7
100
AcDbLine
 10
-165.0540698635135
 20
77.58466047939609
 30
0.0
 11
-165.0540698635135
 21
78.78466047939619
 31
0.0
  0
LINE
  5
DC9
330
1F
100
AcDbEntity
  8
0
  6
Continuous
 62
     7
100
AcDbLine
 10
-165.0540698635135
 20
77.58466047939609
 30
0.0
 11
-165.9540698635134
 21
77.58466047939609
 31
0.0
  0
LINE
  5
DCA
330
1F
100
AcDbEntity
  8
0
  6
Continuous
 62
     7
100
AcDbLine
 10
-166.9540698635134
 20
76.58466047939611
 30
0.0
 11
-166.9540698635134
 21
75.6846604793961
 31
0.0
  0
LINE
  5
DCB
330
1F
100
AcDbEntity
  8
0
  6
Continuous
 62
     7
100
AcDbLine
 10
-166.9540698635134
 20
75.6846604793961
 30
0.0
 11
-167.5540698635135
 21
75.6846604793961
 31
0.0
  0
LINE
  5
DCC
330
1F
100
AcDbEntity
  8
0
  6
Continuous
 62
     7
100
AcDbLine
 10
-225.0540698635135
 20
23.78466047939619
 30
0.0
 11
-224.1540698635134
 21
23.78466047939619
 31
0.0
  0
LINE
  5
DCD
330
1F
100
AcDbEntity
  8
0
  6
Continuous
 62
     7
100
AcDbLine
 10
-223.1540698635134
 20
24.78466047939619
 30
0.0
 11
-223.1540698635134
 21
25.68466047939606
 31
0.0
  0
LINE
  5
DCE
330
1F
100
AcDbEntity
  8
0
  6
Continuous
 62
     7
100
AcDbLine
 10
-222.5540698635135
 20
20.68466047939606
 30
0.0
 11
-223.1540698635134
 21
20.68466047939606
 31
0.0
  0
LINE
  5
DCF
330
1F
100
AcDbEntity
  8
0
  6
Continuous
 62
     7
100
AcDbLine
 10
-223.1540698635134
 20
20.68466047939606
 30
0.0
 11
-223.1540698635134
 21
21.58466047939615
 31
0.0
  0
LINE
  5
DD0
330
1F
100
AcDbEntity
  8
0
  6
Continuous
 62
     7
100
AcDbLine
 10
-224.1540698635134
 20
22.58466047939615
 30
0.0
 11
-225.0540698635135
 21
22.58466047939615
 31
0.0
  0
LINE
  5
DD1
330
1F
100
AcDbEntity
  8
0
  6
Continuous
 62
     7
100
AcDbLine
 10
-225.0540698635135
 20
22.58466047939615
 30
0.0
 11
-225.0540698635135
 21
23.78466047939619
 31
0.0
  0
LINE
  5
DD2
330
1F
100
AcDbEntity
  8
0
  6
Continuous
 62
     7
100
AcDbLine
 10
-220.0540698635135
 20
23.18466047939606
 30
0.0
 11
-220.0540698635135
 21
22.58466047939615
 31
0.0
  0
LINE
  5
DD3
330
1F
100
AcDbEntity
  8
0
  6
Continuous
 62
     7
100
AcDbLine
 10
-220.0540698635135
 20
22.58466047939615
 30
0.0
 11
-220.9540698635134
 21
22.58466047939615
 31
0.0
  0
LINE
  5
DD4
330
1F
100
AcDbEntity
  8
0
  6
Continuous
 62
     7
100
AcDbLine
 10
-221.9540698635134
 20
21.58466047939615
 30
0.0
 11
-221.9540698635134
 21
20.68466047939606
 31
0.0
  0
LINE
  5
DD5
330
1F
100
AcDbEntity
  8
0
  6
Continuous
 62
     7
100
AcDbLine
 10
-221.9540698635134
 20
20.68466047939606
 30
0.0
 11
-222.5540698635135
 21
20.68466047939606
 31
0.0
  0
LINE
  5
DD6
330
1F
100
AcDbEntity
  8
0
  6
Continuous
 62
     7
100
AcDbLine
 10
-221.9540698635134
 20
25.68466047939606
 30
0.0
 11
-223.1540698635134
 21
25.68466047939606
 31
0.0
  0
LINE
  5
DD7
330
1F
100
AcDbEntity
  8
0
  6
Continuous
 62
     7
100
AcDbLine
 10
-221.9540698635134
 20
25.68466047939606
 30
0.0
 11
-221.9540698635134
 21
24.78466047939619
 31
0.0
  0
LINE
  5
DD8
330
1F
100
AcDbEntity
  8
0
  6
Continuous
 62
     7
100
AcDbLine
 10
-220.9540698635134
 20
23.78466047939619
 30
0.0
 11
-220.0540698635135
 21
23.78466047939619
 31
0.0
  0
LINE
  5
DD9
330
1F
100
AcDbEntity
  8
0
  6
Continuous
 62
     7
100
AcDbLine
 10
-220.0540698635135
 20
23.78466047939619
 30
0.0
 11
-220.0540698635135
 21
23.18466047939606
 31
0.0
  0
LINE
  5
DDA
330
1F
100
AcDbEntity
  8
0
  6
DASH_CENTER
 62
     2
100
AcDbLine
 10
-167.5540698635135
 20
-38.1153395206039
 30
0.0
 11
-167.5540698635135
 21
-34.31533952060394
 31
0.0
  0
LINE
  5
DDB
330
1F
100
AcDbEntity
  8
0
  6
Continuous
 62
     7
100
AcDbLine
 10
-167.5540698635135
 20
-34.31533952060394
 30
0.0
 11
-168.1540698635134
 21
-34.31533952060394
 31
0.0
  0
LINE
  5
DDC
330
1F
100
AcDbEntity
  8
0
  6
DASH_CENTER
 62
     2
100
AcDbLine
 10
-167.5540698635135
 20
-34.31533952060394
 30
0.0
 11
-167.5540698635135
 21
-25.51533952060399
 31
0.0
  0
LINE
  5
DDD
330
1F
100
AcDbEntity
  8
0
  6
Continuous
 62
     7
100
AcDbLine
 10
-168.1540698635134
 20
-34.31533952060394
 30
0.0
 11
-168.1540698635134
 21
-33.41533952060385
 31
0.0
  0
LINE
  5
DDE
330
1F
100
AcDbEntity
  8
0
  6
Continuous
 62
     7
100
AcDbLine
 10
-169.1540698635134
 20
-32.41533952060385
 30
0.0
 11
-170.0540698635135
 21
-32.41533952060385
 31
0.0
  0
LINE
  5
DDF
330
1F
100
AcDbEntity
  8
0
  6
Continuous
 62
     7
100
AcDbLine
 10
-165.0540698635135
 20
-31.81533952060394
 30
0.0
 11
-165.0540698635135
 21
-32.41533952060385
 31
0.0
  0
LINE
  5
DE0
330
1F
100
AcDbEntity
  8
0
  6
Continuous
 62
     7
100
AcDbLine
 10
-165.0540698635135
 20
-32.41533952060385
 30
0.0
 11
-165.9540698635134
 21
-32.41533952060385
 31
0.0
  0
LINE
  5
DE1
330
1F
100
AcDbEntity
  8
0
  6
Continuous
 62
     7
100
AcDbLine
 10
-166.9540698635134
 20
-33.41533952060385
 30
0.0
 11
-166.9540698635134
 21
-34.31533952060394
 31
0.0
  0
LINE
  5
DE2
330
1F
100
AcDbEntity
  8
0
  6
Continuous
 62
     7
100
AcDbLine
 10
-166.9540698635134
 20
-34.31533952060394
 30
0.0
 11
-167.5540698635135
 21
-34.31533952060394
 31
0.0
  0
LINE
  5
DE3
330
1F
100
AcDbEntity
  8
0
  6
Continuous
 62
     7
100
AcDbLine
 10
-167.5540698635135
 20
-29.31533952060394
 30
0.0
 11
-166.9540698635134
 21
-29.31533952060394
 31
0.0
  0
LINE
  5
DE4
330
1F
100
AcDbEntity
  8
0
  6
Continuous
 62
     7
100
AcDbLine
 10
-166.9540698635134
 20
-29.31533952060394
 30
0.0
 11
-166.9540698635134
 21
-30.21533952060381
 31
0.0
  0
LINE
  5
DE5
330
1F
100
AcDbEntity
  8
0
  6
Continuous
 62
     7
100
AcDbLine
 10
-165.9540698635134
 20
-31.21533952060381
 30
0.0
 11
-165.0540698635135
 21
-31.21533952060381
 31
0.0
  0
LINE
  5
DE6
330
1F
100
AcDbEntity
  8
0
  6
Continuous
 62
     7
100
AcDbLine
 10
-165.0540698635135
 20
-31.21533952060381
 30
0.0
 11
-165.0540698635135
 21
-31.81533952060394
 31
0.0
  0
LINE
  5
DE7
330
1F
100
AcDbEntity
  8
0
  6
Continuous
 62
     7
100
AcDbLine
 10
-170.0540698635135
 20
-31.21533952060381
 30
0.0
 11
-170.0540698635135
 21
-32.41533952060385
 31
0.0
  0
LINE
  5
DE8
330
1F
100
AcDbEntity
  8
0
  6
Continuous
 62
     7
100
AcDbLine
 10
-170.0540698635135
 20
-31.21533952060381
 30
0.0
 11
-169.1540698635134
 21
-31.21533952060381
 31
0.0
  0
LINE
  5
DE9
330
1F
100
AcDbEntity
  8
0
  6
Continuous
 62
     7
100
AcDbLine
 10
-168.1540698635134
 20
-30.21533952060381
 30
0.0
 11
-168.1540698635134
 21
-29.31533952060394
 31
0.0
  0
LINE
  5
DEA
330
1F
100
AcDbEntity
  8
0
  6
Continuous
 62
     7
100
AcDbLine
 10
-168.1540698635134
 20
-29.31533952060394
 30
0.0
 11
-167.5540698635135
 21
-29.31533952060394
 31
0.0
  0
LINE
  5
DEB
330
1F
100
AcDbEntity
  8
0
  6
DASH_CENTER
 62
     2
100
AcDbLine
 10
-106.2540698635133
 20
23.18466047939606
 30
0.0
 11
-110.0540698635135
 21
23.18466047939606
 31
0.0
  0
LINE
  5
DEC
330
1F
100
AcDbEntity
  8
0
  6
Continuous
 62
     7
100
AcDbLine
 10
-110.0540698635135
 20
23.18466047939606
 30
0.0
 11
-110.0540698635135
 21
22.58466047939615
 31
0.0
  0
LINE
  5
DED
330
1F
100
AcDbEntity
  8
0
  6
DASH_CENTER
 62
     2
100
AcDbLine
 10
-110.0540698635135
 20
23.18466047939606
 30
0.0
 11
-118.8540698635135
 21
23.18466047939606
 31
0.0
  0
LINE
  5
DEE
330
1F
100
AcDbEntity
  8
0
  6
Continuous
 62
     7
100
AcDbLine
 10
-110.0540698635135
 20
22.58466047939615
 30
0.0
 11
-110.9540698635134
 21
22.58466047939615
 31
0.0
  0
LINE
  5
DEF
330
1F
100
AcDbEntity
  8
0
  6
Continuous
 62
     7
100
AcDbLine
 10
-111.9540698635134
 20
21.58466047939615
 30
0.0
 11
-111.9540698635134
 21
20.68466047939606
 31
0.0
  0
LINE
  5
DF0
330
1F
100
AcDbEntity
  8
0
  6
Continuous
 62
     7
100
AcDbLine
 10
-112.5540698635135
 20
25.68466047939606
 30
0.0
 11
-111.9540698635134
 21
25.68466047939606
 31
0.0
  0
LINE
  5
DF1
330
1F
100
AcDbEntity
  8
0
  6
Continuous
 62
     7
100
AcDbLine
 10
-111.9540698635134
 20
25.68466047939606
 30
0.0
 11
-111.9540698635134
 21
24.78466047939619
 31
0.0
  0
LINE
  5
DF2
330
1F
100
AcDbEntity
  8
0
  6
Continuous
 62
     7
100
AcDbLine
 10
-110.9540698635134
 20
23.78466047939619
 30
0.0
 11
-110.0540698635135
 21
23.78466047939619
 31
0.0
  0
LINE
  5
DF3
330
1F
100
AcDbEntity
  8
0
  6
Continuous
 62
     7
100
AcDbLine
 10
-110.0540698635135
 20
23.78466047939619
 30
0.0
 11
-110.0540698635135
 21
23.18466047939606
 31
0.0
  0
LINE
  5
DF4
330
1F
100
AcDbEntity
  8
0
  6
Continuous
 62
     7
100
AcDbLine
 10
-115.0540698635135
 20
23.18466047939606
 30
0.0
 11
-115.0540698635135
 21
23.78466047939619
 31
0.0
  0
LINE
  5
DF5
330
1F
100
AcDbEntity
  8
0
  6
Continuous
 62
     7
100
AcDbLine
 10
-115.0540698635135
 20
23.78466047939619
 30
0.0
 11
-114.1540698635134
 21
23.78466047939619
 31
0.0
  0
LINE
  5
DF6
330
1F
100
AcDbEntity
  8
0
  6
Continuous
 62
     7
100
AcDbLine
 10
-113.1540698635134
 20
24.78466047939619
 30
0.0
 11
-113.1540698635134
 21
25.68466047939606
 31
0.0
  0
LINE
  5
DF7
330
1F
100
AcDbEntity
  8
0
  6
Continuous
 62
     7
100
AcDbLine
 10
-113.1540698635134
 20
25.68466047939606
 30
0.0
 11
-112.5540698635135
 21
25.68466047939606
 31
0.0
  0
LINE
  5
DF8
330
1F
100
AcDbEntity
  8
0
  6
Continuous
 62
     7
100
AcDbLine
 10
-113.1540698635134
 20
20.68466047939606
 30
0.0
 11
-111.9540698635134
 21
20.68466047939606
 31
0.0
  0
LINE
  5
DF9
330
1F
100
AcDbEntity
  8
0
  6
Continuous
 62
     7
100
AcDbLine
 10
-113.1540698635134
 20
20.68466047939606
 30
0.0
 11
-113.1540698635134
 21
21.58466047939615
 31
0.0
  0
LINE
  5
DFA
330
1F
100
AcDbEntity
  8
0
  6
Continuous
 62
     7
100
AcDbLine
 10
-114.1540698635134
 20
22.58466047939615
 30
0.0
 11
-115.0540698635135
 21
22.58466047939615
 31
0.0
  0
LINE
  5
DFB
330
1F
100
AcDbEntity
  8
0
  6
Continuous
 62
     7
100
AcDbLine
 10
-115.0540698635135
 20
22.58466047939615
 30
0.0
 11
-115.0540698635135
 21
23.18466047939606
 31
0.0
  0
LINE
  5
DFC
330
1F
100
AcDbEntity
  8
0
  6
DASH_CENTER
 62
     2
100
AcDbLine
 10
-215.0540698635135
 20
23.18466047939606
 30
0.0
 11
-214.5540698635135
 21
23.18466047939606
 31
0.0
  0
LINE
  5
DFD
330
1F
100
AcDbEntity
  8
0
  6
DASHED
 62
     2
 48
0.5
100
AcDbLine
 10
-205.8519980536365
 20
50.42926905328014
 30
0.0
 11
-205.8519980536365
 21
-4.059948094488929
 31
0.0
  0
LINE
  5
DFE
330
1F
100
AcDbEntity
  8
0
  6
DASHED
 62
     2
 48
0.5
100
AcDbLine
 10
-196.8519980536365
 20
59.93559793364912
 30
0.0
 11
-196.8519980536365
 21
-13.56627697485701
 31
0.0
  0
LINE
  5
DFF
330
1F
100
AcDbEntity
  8
0
  6
DASHED
 62
     2
 48
0.5
100
AcDbLine
 10
-187.8519980536365
 20
65.57562780957906
 30
0.0
 11
-187.8519980536365
 21
-19.20630685078695
 31
0.0
  0
LINE
  5
E00
330
1F
100
AcDbEntity
  8
0
  6
DASHED
 62
     2
 48
0.5
100
AcDbLine
 10
-178.8519980536365
 20
68.80655016637402
 30
0.0
 11
-178.8519980536365
 21
-22.43722920758191
 31
0.0
  0
LINE
  5
E01
330
1F
100
AcDbEntity
  8
0
  6
DASHED
 62
     2
 48
0.5
100
AcDbLine
 10
-169.8519980536365
 20
70.12845161340002
 30
0.0
 11
-169.8519980536365
 21
-23.75913065460881
 31
0.0
  0
LINE
  5
E02
330
1F
100
AcDbEntity
  8
0
  6
DASHED
 62
     2
 48
0.5
100
AcDbLine
 10
-160.8519980536365
 20
69.70435774254716
 30
0.0
 11
-160.8519980536365
 21
-23.33503678375595
 31
0.0
  0
LINE
  5
E03
330
1F
100
AcDbEntity
  8
0
  6
DASHED
 62
     2
 48
0.5
100
AcDbLine
 10
-151.8519980536365
 20
67.484151908502
 30
0.0
 11
-151.8519980536365
 21
-21.1148309497099
 31
0.0
  0
LINE
  5
E04
330
1F
100
AcDbEntity
  8
0
  6
DASHED
 62
     2
 48
0.5
100
AcDbLine
 10
-142.8519980536365
 20
-16.8004323465519
 30
0.0
 11
-142.8519980536365
 21
62.97291841980214
 31
0.0
  0
LINE
  5
E05
330
1F
100
AcDbEntity
  8
0
  6
DASHED
 62
     2
 48
0.5
100
AcDbLine
 10
-133.8519980536365
 20
55.94393940494402
 30
0.0
 11
-133.8519980536365
 21
-9.574618446152811
 31
0.0
  0
LINE
  5
E06
330
1F
100
AcDbEntity
  8
0
  6
DASHED
 62
     2
 48
0.5
100
AcDbLine
 10
-124.8519980536365
 20
42.8196563577791
 30
0.0
 11
-124.8519980536365
 21
3.549664601013009
 31
0.0
  0
LINE
  5
E07
330
1F
100
AcDbEntity
  8
0
  6
DASHED
 62
     2
 48
0.5
100
AcDbLine
 10
-192.5719540679723
 20
62.97291841980214
 30
0.0
 11
-142.5361856590545
 21
62.97291841980214
 31
0.0
  0
LINE
  5
E08
330
1F
100
AcDbEntity
  8
0
  6
DASHED
 62
     2
 48
0.5
100
AcDbLine
 10
-132.0423369714814
 20
53.97291841980214
 30
0.0
 11
-203.0658027555454
 21
53.97291841980214
 31
0.0
  0
LINE
  5
E09
330
1F
100
AcDbEntity
  8
0
  6
DASHED
 62
     2
 48
0.5
100
AcDbLine
 10
-122.3273028018535
 20
35.97291841980214
 30
0.0
 11
-212.7808369251735
 21
35.97291841980214
 31
0.0
  0
LINE
  5
E0A
330
1F
100
AcDbEntity
  8
0
  6
DASHED
 62
     2
 48
0.5
100
AcDbLine
 10
-214.4011519687734
 20
26.97291841980214
 30
0.0
 11
-120.7069877582534
 21
26.97291841980214
 31
0.0
  0
LINE
  5
E0B
330
1F
100
AcDbEntity
  8
0
  6
DASHED
 62
     2
 48
0.5
100
AcDbLine
 10
-120.8439238061065
 20
17.97291841980214
 30
0.0
 11
-214.2642159209205
 21
17.97291841980214
 31
0.0
  0
LINE
  5
E0C
330
1F
100
AcDbEntity
  8
0
  6
DASHED
 62
     2
 48
0.5
100
AcDbLine
 10
-212.3539179395005
 20
8.972918419802141
 30
0.0
 11
-122.7542217875254
 21
8.972918419802141
 31
0.0
  0
LINE
  5
E0D
330
1F
100
AcDbEntity
  8
0
  6
DASHED
 62
     2
 48
0.5
100
AcDbLine
 10
-208.4223342083425
 20
-0.02708158019786
 30
0.0
 11
-126.6858055186834
 21
-0.02708158019786
 31
0.0
  0
LINE
  5
E0E
330
1F
100
AcDbEntity
  8
0
  6
DASHED
 62
     2
 48
0.5
100
AcDbLine
 10
-133.3282948761424
 20
-9.027081580197856
 30
0.0
 11
-201.7798448508844
 21
-9.027081580197856
 31
0.0
  0
LINE
  5
E0F
330
1F
100
AcDbEntity
  8
0
  6
DASHED
 62
     2
 48
0.5
100
AcDbLine
 10
-209.1986591389804
 20
44.97291841980214
 30
0.0
 11
-125.9094805880464
 21
44.97291841980214
 31
0.0
  0
LINE
  5
E10
330
1F
100
AcDbEntity
  8
0
  6
DASHED
 62
     2
 48
0.5
100
AcDbLine
 10
-190.1503597451175
 20
-18.02708158019786
 30
0.0
 11
-144.9577799819095
 21
-18.02708158019786
 31
0.0
  0
LINE
  5
E11
330
1F
100
AcDbEntity
  8
0
  6
Continuous
 62
     7
100
AcDbLine
 10
-22.55406986351352
 20
-29.81533952060394
 30
0.0
 11
-20.95406986351338
 21
-29.81533952060394
 31
0.0
  0
LINE
  5
E12
330
1F
100
AcDbEntity
  8
0
  6
Continuous
 62
     7
100
AcDbLine
 10
-20.95406986351338
 20
-29.81533952060394
 30
0.0
 11
-20.95406986351338
 21
-145.8153395206039
 31
0.0
  0
LINE
  5
E13
330
1F
100
AcDbEntity
  8
0
  6
Continuous
 62
     7
100
AcDbLine
 10
-20.95406986351338
 20
-145.8153395206039
 30
0.0
 11
-22.55406986351352
 21
-145.8153395206039
 31
0.0
  0
LINE
  5
E14
330
1F
100
AcDbEntity
  8
0
  6
Continuous
 62
     7
100
AcDbLine
 10
-20.95406986351338
 20
-60.2332208048359
 30
0.0
 11
-18.78856986351354
 21
-60.04382080483591
 31
0.0
  0
LINE
  5
E15
330
1F
100
AcDbEntity
  8
0
  6
Continuous
 62
     7
100
AcDbLine
 10
-20.95406986351338
 20
-49.7332208048359
 30
0.0
 11
-18.78856986351354
 21
-49.92272080483585
 31
0.0
  0
LINE
  5
E16
330
1F
100
AcDbEntity
  8
0
  6
Continuous
 62
     7
100
AcDbLine
 10
-17.05416986351349
 20
-51.81552080483593
 30
0.0
 11
-17.05416986351349
 21
-58.15102080483584
 31
0.0
  0
LINE
  5
E17
330
1F
100
AcDbEntity
  8
0
  6
Continuous
 62
     7
100
AcDbLine
 10
-20.95406986351338
 20
-49.7332208048359
 30
0.0
 11
-20.95406986351338
 21
-60.2332208048359
 31
0.0
  0
LINE
  5
E18
330
1F
100
AcDbEntity
  8
0
  6
Continuous
 62
     7
100
AcDbLine
 10
-20.95406986351338
 20
-48.88332080483596
 30
0.0
 11
-20.95406986351338
 21
-54.58132080483583
 31
0.0
  0
LINE
  5
E19
330
1F
100
AcDbEntity
  8
0
  6
Continuous
 62
     7
100
AcDbLine
 10
-20.95406986351338
 20
-54.9832208048359
 30
0.0
 11
-20.95406986351338
 21
-61.083320804836
 31
0.0
  0
LINE
  5
E1A
330
1F
100
AcDbEntity
  8
0
  6
Continuous
 62
     7
100
AcDbLine
 10
-18.78856986351354
 20
-115.9888082363719
 30
0.0
 11
-20.95406986351338
 21
-115.7994082363719
 31
0.0
  0
LINE
  5
E1B
330
1F
100
AcDbEntity
  8
0
  6
Continuous
 62
     7
100
AcDbLine
 10
-17.05416986351349
 20
-117.881608236372
 30
0.0
 11
-17.05416986351349
 21
-124.2171082363719
 31
0.0
  0
LINE
  5
E1C
330
1F
100
AcDbEntity
  8
0
  6
Continuous
 62
     7
100
AcDbLine
 10
-18.78856986351354
 20
-126.109908236372
 30
0.0
 11
-20.95406986351338
 21
-126.2994082363719
 31
0.0
  0
LINE
  5
E1D
330
1F
100
AcDbEntity
  8
0
  6
Continuous
 62
     7
100
AcDbLine
 10
-20.95406986351338
 20
-115.7994082363719
 30
0.0
 11
-20.95406986351338
 21
-126.2994082363719
 31
0.0
  0
LINE
  5
E2A
330
1F
100
AcDbEntity
  8
0
  6
DASH_CENTER
 62
     2
100
AcDbLine
 10
-222.5540698635135
 20
23.18466047939606
 30
0.0
 11
-215.0540698635135
 21
23.18466047939606
 31
0.0
  0
LINE
  5
E3D
330
1F
100
AcDbEntity
  8
0
  6
DASH_CENTER
 62
     2
100
AcDbLine
 10
-172.5540698635135
 20
23.18466047939606
 30
0.0
 11
-171.9540698635134
 21
23.18466047939606
 31
0.0
  0
LINE
  5
E3E
330
1F
100
AcDbEntity
  8
0
  6
DASH_CENTER
 62
     2
100
AcDbLine
 10
-171.9540698635134
 20
23.18466047939606
 30
0.0
 11
-42.60030434512542
 21
23.18466047939605
 31
0.0
  0
LINE
  5
E3F
330
1F
100
AcDbEntity
  8
0
  6
DASH_CENTER
 62
     2
100
AcDbLine
 10
-167.5540698635135
 20
32.42226478643002
 30
0.0
 11
-167.5540698635135
 21
13.94705617236209
 31
0.0
  0
LINE
  5
E43
330
1F
100
AcDbEntity
  8
0
  6
DASH_CENTER
 62
     2
100
AcDbLine
 10
-167.5540698635135
 20
13.94705617236209
 30
0.0
 11
-167.5540698635135
 21
-131.589428073834
 31
0.0
  0
LINE
  5
E47
330
1F
100
AcDbEntity
  8
0
  6
DASH_CENTER
 62
     2
100
AcDbLine
 10
-175.5540698635135
 20
23.18466047939606
 30
0.0
 11
-178.0540698635135
 21
23.18466047939606
 31
0.0
  0
LINE
  5
E49
330
1F
100
AcDbEntity
  8
0
  6
DASH_CENTER
 62
     2
100
AcDbLine
 10
-175.5540698635135
 20
23.18466047939606
 30
0.0
 11
-172.5540698635135
 21
23.18466047939606
 31
0.0
  0
LINE
  5
E4A
330
1F
100
AcDbEntity
  8
0
  6
DASH_CENTER
 62
     2
100
AcDbLine
 10
-178.0540698635135
 20
23.18466047939606
 30
0.0
 11
-178.5540698635135
 21
23.18466047939606
 31
0.0
  0
LINE
  5
E4B
330
1F
100
AcDbEntity
  8
0
  6
DASH_CENTER
 62
     2
100
AcDbLine
 10
-178.5540698635135
 20
23.18466047939606
 30
0.0
 11
-214.5540698635135
 21
23.18466047939606
 31
0.0
  0
LINE
  5
E4C
330
1F
100
AcDbEntity
  8
0
  6
Continuous
 62
     7
100
AcDbLine
 10
270.7642765605088
 20
-146.5894280738342
 30
0.0
 11
276.2642765605088
 21
-146.5894280738342
 31
0.0
  0
LINE
  5
E4D
330
1F
100
AcDbEntity
  8
0
  6
DASH_CENTER
 62
     2
100
AcDbLine
 10
270.7642765605088
 20
-146.5894280738342
 30
0.0
 11
270.7642765605088
 21
-156.5870430240148
 31
0.0
  0
ARC
  5
E60
330
1F
100
AcDbEntity
  8
0
  6
Continuous
 62
     7
100
AcDbCircle
 10
157.7642765605088
 20
-87.81533952060394
 30
0.0
 40
38.24999999999998
100
AcDbArc
 50
140.5406376665652
 51
219.4593623334349
  0
ARC
  5
E61
330
1F
100
AcDbEntity
  8
0
  6
Continuous
 62
     7
100
AcDbCircle
 10
157.7642765605088
 20
-87.81533952060398
 30
0.0
 40
38.24999999999998
100
AcDbArc
 50
230.5406376665652
 51
309.4593623334349
  0
ARC
  5
E62
330
1F
100
AcDbEntity
  8
0
  6
Continuous
 62
     7
100
AcDbCircle
 10
157.7642765605088
 20
-87.81533952060394
 30
0.0
 40
38.25000000000004
100
AcDbArc
 50
320.5406376665651
 51
39.45936233343486
  0
ARC
  5
E63
330
1F
100
AcDbEntity
  8
0
  6
Continuous
 62
     7
100
AcDbCircle
 10
157.7642765605088
 20
-87.81533952060394
 30
0.0
 40
38.24999999999998
100
AcDbArc
 50
50.54063766656514
 51
129.459362333435
  0
ARC
  5
E64
330
1F
100
AcDbEntity
  8
0
  6
Continuous
 62
     7
100
AcDbCircle
 10
116.1642960771748
 20
-28.19579532674418
 30
0.0
 40
1.900019516785245
100
AcDbArc
 50
95.00369012528771
 51
180.0006423189023
  0
ARC
  5
E65
330
1F
100
AcDbEntity
  8
0
  6
Continuous
 62
     7
100
AcDbCircle
 10
116.1642462673453
 20
-34.53128356711491
 30
0.0
 40
1.899969707124041
100
AcDbArc
 50
180.0009969609375
 51
264.9976861809496
  0
ARC
  5
E66
330
1F
100
AcDbEntity
  8
0
  6
Continuous
 62
     7
100
AcDbCircle
 10
116.1642960771748
 20
26.57829322648607
 30
0.0
 40
1.900019516785249
100
AcDbArc
 50
95.00369012528771
 51
180.0006423189025
  0
ARC
  5
E67
330
1F
100
AcDbEntity
  8
0
  6
Continuous
 62
     7
100
AcDbCircle
 10
116.1642462673453
 20
20.24280498611534
 30
0.0
 40
1.899969707124025
100
AcDbArc
 50
180.0009969609378
 51
264.99768618095
  0
ARC
  5
E68
330
1F
100
AcDbEntity
  8
0
  6
Continuous
 62
     7
100
AcDbCircle
 10
116.1642960771748
 20
81.35238177971631
 30
0.0
 40
1.90001951678523
100
AcDbArc
 50
95.00369012528734
 51
180.0006423189024
  0
ARC
  5
E69
330
1F
100
AcDbEntity
  8
0
  6
Continuous
 62
     7
100
AcDbCircle
 10
116.1642462673453
 20
75.01689353934556
 30
0.0
 40
1.899969707124025
100
AcDbArc
 50
180.0009969609381
 51
264.99768618095
  0
ARC
  5
E6A
330
1F
100
AcDbEntity
  8
0
  6
Continuous
 62
     7
100
AcDbCircle
 10
157.7642765605088
 20
-87.81533952060394
 30
0.0
 40
53.0
100
AcDbArc
 50
324.2251741611747
 51
27.19966126644126
  0
ARC
  5
E6B
330
1F
100
AcDbEntity
  8
0
  6
Continuous
 62
     7
100
AcDbCircle
 10
157.7642765605088
 20
-87.81533952060394
 30
0.0
 40
52.99999999999999
100
AcDbArc
 50
27.19966126644126
 51
324.2251741611747
  0
ARC
  5
E6C
330
1F
100
AcDbEntity
  8
0
  6
DASH_CENTER
 62
     2
100
AcDbCircle
 10
157.7642765605088
 20
-87.81533952060394
 30
0.0
 40
46.99999999999998
100
AcDbArc
 50
115.989602616655
 51
160.4558415645525
  0
ARC
  5
E6D
330
1F
100
AcDbEntity
  8
0
  6
DASH_CENTER
 62
     2
100
AcDbCircle
 10
157.7642765605088
 20
-87.81533952060394
 30
0.0
 40
47.00000000000001
100
AcDbArc
 50
25.98960261665505
 51
70.45584156455252
  0
ARC
  5
E6E
330
1F
100
AcDbEntity
  8
0
  6
DASH_CENTER
 62
     2
100
AcDbCircle
 10
157.7642765605088
 20
-87.81533952060394
 30
0.0
 40
46.99999999999993
100
AcDbArc
 50
295.9896026166551
 51
340.4558415645524
  0
ARC
  5
E6F
330
1F
100
AcDbEntity
  8
0
  6
DASH_CENTER
 62
     2
100
AcDbCircle
 10
157.7642765605088
 20
-87.81533952060394
 30
0.0
 40
46.99999999999999
100
AcDbArc
 50
205.9896026166551
 51
250.4558415645526
  0
ARC
  5
E70
330
1F
100
AcDbEntity
  8
0
  6
Continuous
 62
     7
100
AcDbCircle
 10
202.2642570438428
 20
-33.47994463189645
 30
0.0
 40
1.900019516785296
100
AcDbArc
 50
275.0036901252884
 51
0.00064231890303
  0
ARC
  5
E71
330
1F
100
AcDbEntity
  8
0
  6
Continuous
 62
     7
100
AcDbCircle
 10
202.2643068536723
 20
-27.1444563915257
 30
0.0
 40
1.899969707124025
100
AcDbArc
 50
0.0009969609385
 51
84.9976861809505
  0
ARC
  5
E72
330
1F
100
AcDbEntity
  8
0
  6
Continuous
 62
     7
100
AcDbCircle
 10
202.2642570438429
 20
134.4950767112102
 30
0.0
 40
1.900019516785245
100
AcDbArc
 50
359.9993576810984
 51
84.99630987471322
  0
ARC
  5
E73
330
1F
100
AcDbEntity
  8
0
  6
Continuous
 62
     7
100
AcDbCircle
 10
202.2643068536723
 20
128.1595884708395
 30
0.0
 40
1.899969707124041
100
AcDbArc
 50
275.0023138190504
 51
359.999003039062
  0
ARC
  5
E74
330
1F
100
AcDbEntity
  8
0
  6
Continuous
 62
     7
100
AcDbCircle
 10
208.2642570438428
 20
83.78922131431915
 30
0.0
 40
1.9000195167853
100
AcDbArc
 50
359.9993576810968
 51
84.99630987471155
  0
ARC
  5
E75
330
1F
100
AcDbEntity
  8
0
  6
Continuous
 62
     7
100
AcDbCircle
 10
208.2643068536723
 20
77.4537330739484
 30
0.0
 40
1.899969707124038
100
AcDbArc
 50
275.0023138190495
 51
359.9990030390616
  0
ARC
  5
E76
330
1F
100
AcDbEntity
  8
0
  6
Continuous
 62
     7
100
AcDbCircle
 10
202.2642570438428
 20
80.30108848422813
 30
0.0
 40
1.9000195167853
100
AcDbArc
 50
359.9993576810972
 51
84.99630987471158
  0
ARC
  5
E77
330
1F
100
AcDbEntity
  8
0
  6
Continuous
 62
     7
100
AcDbCircle
 10
202.2643068536723
 20
73.96560024385735
 30
0.0
 40
1.899969707124038
100
AcDbArc
 50
275.0023138190495
 51
359.9990030390616
  0
ARC
  5
E78
330
1F
100
AcDbEntity
  8
0
  6
Continuous
 62
     7
100
AcDbCircle
 10
208.2642570438428
 20
-36.96807746198746
 30
0.0
 40
1.900019516785279
100
AcDbArc
 50
275.0036901252876
 51
0.00064231890217
  0
ARC
  5
E79
330
1F
100
AcDbEntity
  8
0
  6
Continuous
 62
     7
100
AcDbCircle
 10
208.2643068536723
 20
-30.6325892216167
 30
0.0
 40
1.899969707124025
100
AcDbArc
 50
0.00099696093882
 51
84.99768618095044
  0
ARC
  5
E7A
330
1F
100
AcDbEntity
  8
0
  6
DASH_CENTER
 62
     2
100
AcDbCircle
 10
-167.5540698635135
 20
23.18466047939606
 30
0.0
 40
55.00000000000049
100
AcDbArc
 50
246.5871566854435
 51
294.8750028394611
  0
ARC
  5
E7B
330
1F
100
AcDbEntity
  8
0
  6
DASH_CENTER
 62
     2
100
AcDbCircle
 10
-167.5540698635135
 20
23.18466047939606
 30
0.0
 40
54.99999999999975
100
AcDbArc
 50
66.58715668544292
 51
114.8750028394601
  0
ARC
  5
E7C
330
1F
100
AcDbEntity
  8
0
  6
DASH_CENTER
 62
     2
100
AcDbCircle
 10
-167.5540698635135
 20
23.18466047939606
 30
0.0
 40
54.9999999999996
100
AcDbArc
 50
336.5871566854432
 51
24.87500283946116
  0
ARC
  5
E8A
330
1F
100
AcDbEntity
  8
0
  6
Continuous
 62
     7
100
AcDbCircle
 10
-172.5540698635134
 20
28.68466047939607
 30
0.0
 40
123.4999999999999
100
AcDbArc
 50
0.0000000000000082
 51
89.99999999999978
  0
ARC
  5
E8B
330
1F
100
AcDbEntity
  8
0
  6
Continuous
 62
     7
100
AcDbCircle
 10
-164.5540698635135
 20
26.68466047939606
 30
0.0
 40
115.5000000000001
100
AcDbArc
 50
322.2102304702679
 51
0.0
  0
ARC
  5
E8C
330
1F
100
AcDbEntity
  8
0
  6
Continuous
 62
     7
100
AcDbCircle
 10
-175.0540698635134
 20
19.68466047939605
 30
0.0
 40
132.5
100
AcDbArc
 50
87.91194036009523
 51
167.4088044741444
  0
ARC
  5
E8D
330
1F
100
AcDbEntity
  8
0
  6
Continuous
 62
     7
100
AcDbCircle
 10
-167.5540698635135
 20
23.18466047939606
 30
0.0
 40
95.0
100
AcDbArc
 50
71.84766934455883
 51
105.0973270773179
  0
ARC
  5
E8E
330
1F
100
AcDbEntity
  8
0
  6
Continuous
 62
     7
100
AcDbCircle
 10
-167.5540698635135
 20
23.18466047939606
 30
0.0
 40
99.99999999999971
100
AcDbArc
 50
90.80852165354214
 51
97.00000000000013
  0
ARC
  5
E8F
330
1F
100
AcDbEntity
  8
0
  6
Continuous
 62
     7
100
AcDbCircle
 10
-167.5540698635135
 20
23.18466047939606
 30
0.0
 40
105.0000000000003
100
AcDbArc
 50
69.67584210633432
 51
88.49252703548158
  0
ARC
  5
E90
330
1F
100
AcDbEntity
  8
0
  6
Continuous
 62
     7
100
AcDbCircle
 10
-161.0540698635135
 20
18.18466047939606
 30
0.0
 40
146.5000000000003
100
AcDbArc
 50
248.1601418779482
 51
271.5096212559494
  0
ARC
  5
E91
330
1F
100
AcDbEntity
  8
0
  6
Continuous
 62
     7
100
AcDbCircle
 10
-161.0540698635135
 20
18.18466047939606
 30
0.0
 40
146.4999999999998
100
AcDbArc
 50
168.6356818082833
 51
180.0
  0
ARC
  5
E92
330
1F
100
AcDbEntity
  8
0
  6
Continuous
 62
     7
100
AcDbCircle
 10
-161.0540698635135
 20
18.18466047939606
 30
0.0
 40
146.5
100
AcDbArc
 50
180.0
 51
248.1601418779482
  0
ARC
  5
E93
330
1F
100
AcDbEntity
  8
0
  6
DASH_CENTER
 62
     2
100
AcDbCircle
 10
-167.5540698635135
 20
23.18466047939606
 30
0.0
 40
55.0
100
AcDbArc
 50
180.0
 51
203.4128433145569
  0
ARC
  5
E94
330
1F
100
AcDbEntity
  8
0
  6
Continuous
 62
     7
100
AcDbCircle
 10
-167.5540698635135
 20
23.18466047939606
 30
0.0
 40
46.99999999999999
100
AcDbArc
 50
139.0750937876142
 51
144.5724870629391
  0
ARC
  5
E95
330
1F
100
AcDbEntity
  8
0
  6
Continuous
 62
     7
100
AcDbCircle
 10
-167.5540698635135
 20
23.18466047939606
 30
0.0
 40
47.00000000000014
100
AcDbArc
 50
175.376874559236
 51
180.0
  0
ARC
  5
E96
330
1F
100
AcDbEntity
  8
0
  6
Continuous
 62
     7
100
AcDbCircle
 10
-167.5540698635135
 20
23.18466047939606
 30
0.0
 40
46.99999999999938
100
AcDbArc
 50
209.5950570214845
 51
215.427512937062
  0
ARC
  5
E97
330
1F
100
AcDbEntity
  8
0
  6
Continuous
 62
     7
100
AcDbCircle
 10
-167.5540698635135
 20
23.18466047939606
 30
0.0
 40
46.99999999999998
100
AcDbArc
 50
122.1606779304459
 51
128.5619295634078
  0
ARC
  5
E98
330
1F
100
AcDbEntity
  8
0
  6
Continuous
 62
     7
100
AcDbCircle
 10
-167.5540698635135
 20
23.18466047939606
 30
0.0
 40
46.99999999999952
100
AcDbArc
 50
223.2636278055088
 51
231.4380704365921
  0
ARC
  5
E99
330
1F
100
AcDbEntity
  8
0
  6
Continuous
 62
     7
100
AcDbCircle
 10
-167.5540698635135
 20
23.18466047939606
 30
0.0
 40
46.9999999999996
100
AcDbArc
 50
103.9090549862937
 51
115.5863453174669
  0
ARC
  5
E9A
330
1F
100
AcDbEntity
  8
0
  6
Continuous
 62
     7
100
AcDbCircle
 10
-167.5540698635135
 20
23.18466047939606
 30
0.0
 40
46.9999999999998
100
AcDbArc
 50
241.2641571281681
 51
244.4136546825331
  0
ARC
  5
E9B
330
1F
100
AcDbEntity
  8
0
  6
Continuous
 62
     7
100
AcDbCircle
 10
-167.5540698635135
 20
23.18466047939606
 30
0.0
 40
46.99999999999945
100
AcDbArc
 50
92.80242762124649
 51
103.9090549862937
  0
ARC
  5
E9C
330
1F
100
AcDbEntity
  8
0
  6
Continuous
 62
     7
100
AcDbCircle
 10
-167.5540698635135
 20
23.18466047939606
 30
0.0
 40
47.00000000000036
100
AcDbArc
 50
244.4136546825331
 51
256.0909450137064
  0
ARC
  5
E9D
330
1F
100
AcDbEntity
  8
0
  6
Continuous
 62
     7
100
AcDbCircle
 10
-167.5540698635135
 20
23.18466047939606
 30
0.0
 40
46.99999999999974
100
AcDbArc
 50
81.80183278433556
 51
92.80242762124649
  0
ARC
  5
E9E
330
1F
100
AcDbEntity
  8
0
  6
Continuous
 62
     7
100
AcDbCircle
 10
-167.5540698635135
 20
23.18466047939606
 30
0.0
 40
46.99999999999961
100
AcDbArc
 50
256.0909450137064
 51
267.1975723787536
  0
ARC
  5
E9F
330
1F
100
AcDbEntity
  8
0
  6
Continuous
 62
     7
100
AcDbCircle
 10
-167.5540698635135
 20
23.18466047939606
 30
0.0
 40
46.99999999999962
100
AcDbArc
 50
70.48299377795006
 51
81.80183278433556
  0
ARC
  5
EA0
330
1F
100
AcDbEntity
  8
0
  6
Continuous
 62
     7
100
AcDbCircle
 10
-167.5540698635135
 20
23.18466047939606
 30
0.0
 40
47.00000000000038
100
AcDbArc
 50
267.1975723787536
 51
278.1981672156643
  0
ARC
  5
EA1
330
1F
100
AcDbEntity
  8
0
  6
Continuous
 62
     7
100
AcDbCircle
 10
-167.5540698635135
 20
23.18466047939606
 30
0.0
 40
47.00000000000006
100
AcDbArc
 50
57.83932206955391
 51
70.48299377795006
  0
ARC
  5
EA2
330
1F
100
AcDbEntity
  8
0
  6
Continuous
 62
     7
100
AcDbCircle
 10
-167.5540698635135
 20
23.18466047939606
 30
0.0
 40
47.00000000000065
100
AcDbArc
 50
278.1981672156643
 51
289.5170062220499
  0
ARC
  5
EA3
330
1F
100
AcDbEntity
  8
0
  6
Continuous
 62
     7
100
AcDbCircle
 10
-167.5540698635135
 20
23.18466047939606
 30
0.0
 40
46.99999999999954
100
AcDbArc
 50
44.18728058182749
 51
57.83932206955391
  0
ARC
  5
EA4
330
1F
100
AcDbEntity
  8
0
  6
Continuous
 62
     7
100
AcDbCircle
 10
-167.5540698635135
 20
23.18466047939606
 30
0.0
 40
46.99999999999977
100
AcDbArc
 50
298.7358428718319
 51
301.7070271153869
  0
ARC
  5
EA5
330
1F
100
AcDbEntity
  8
0
  6
Continuous
 62
     7
100
AcDbCircle
 10
-167.5540698635135
 20
23.18466047939606
 30
0.0
 40
47.0000000000001
100
AcDbArc
 50
40.92490621238571
 51
44.18728058182749
  0
ARC
  5
EA6
330
1F
100
AcDbEntity
  8
0
  6
Continuous
 62
     7
100
AcDbCircle
 10
-167.5540698635135
 20
23.18466047939606
 30
0.0
 40
46.99999999999993
100
AcDbArc
 50
301.7070271153869
 51
315.8127194181718
  0
ARC
  5
EA7
330
1F
100
AcDbEntity
  8
0
  6
Continuous
 62
     7
100
AcDbCircle
 10
-167.5540698635135
 20
23.18466047939606
 30
0.0
 40
47.00000000000013
100
AcDbArc
 50
15.7887073525779
 51
24.69361765094854
  0
ARC
  5
EA8
330
1F
100
AcDbEntity
  8
0
  6
Continuous
 62
     7
100
AcDbCircle
 10
-167.5540698635135
 20
23.18466047939606
 30
0.0
 40
47.00000000000033
100
AcDbArc
 50
330.4049429785162
 51
335.3063823490515
  0
ARC
  5
EA9
330
1F
100
AcDbEntity
  8
0
  6
Continuous
 62
     7
100
AcDbCircle
 10
-167.5540698635135
 20
23.18466047939606
 30
0.0
 40
47.00000000000035
100
AcDbArc
 50
115.5863453174669
 51
122.1606779304459
  0
ARC
  5
EAA
330
1F
100
AcDbEntity
  8
0
  6
Continuous
 62
     7
100
AcDbCircle
 10
-167.5540698635135
 20
23.18466047939606
 30
0.0
 40
47.00000000000025
100
AcDbArc
 50
128.5619295634078
 51
139.0750937876142
  0
ARC
  5
EAB
330
1F
100
AcDbEntity
  8
0
  6
Continuous
 62
     7
100
AcDbCircle
 10
-167.5540698635135
 20
23.18466047939606
 30
0.0
 40
47.00000000000018
100
AcDbArc
 50
27.61835790511775
 51
40.92490621238571
  0
ARC
  5
EAC
330
1F
100
AcDbEntity
  8
0
  6
Continuous
 62
     7
100
AcDbCircle
 10
-167.5540698635135
 20
23.18466047939606
 30
0.0
 40
47.00000000000031
100
AcDbArc
 50
4.62312544076398
 51
15.7887073525779
  0
ARC
  5
EAD
330
1F
100
AcDbEntity
  8
0
  6
Continuous
 62
     7
100
AcDbCircle
 10
-167.5540698635135
 20
23.18466047939606
 30
0.0
 40
47.00000000000001
100
AcDbArc
 50
152.3816420948822
 51
164.2112926474221
  0
ARC
  5
EAE
330
1F
100
AcDbEntity
  8
0
  6
Continuous
 62
     7
100
AcDbCircle
 10
-167.5540698635135
 20
23.18466047939606
 30
0.0
 40
47.00000000000015
100
AcDbArc
 50
164.2112926474221
 51
175.376874559236
  0
ARC
  5
EAF
330
1F
100
AcDbEntity
  8
0
  6
Continuous
 62
     7
100
AcDbCircle
 10
-167.5540698635135
 20
23.18466047939606
 30
0.0
 40
47.00000000000036
100
AcDbArc
 50
353.6334851700813
 51
4.62312544076398
  0
ARC
  5
EB0
330
1F
100
AcDbEntity
  8
0
  6
Continuous
 62
     7
100
AcDbCircle
 10
-167.5540698635135
 20
23.18466047939606
 30
0.0
 40
47.00000000000048
100
AcDbArc
 50
342.3995431747615
 51
353.6334851700813
  0
ARC
  5
EB1
330
1F
100
AcDbEntity
  8
0
  6
Continuous
 62
     7
100
AcDbCircle
 10
-167.5540698635135
 20
23.18466047939606
 30
0.0
 40
47.0
100
AcDbArc
 50
180.0
 51
186.3665148299186
  0
ARC
  5
EB2
330
1F
100
AcDbEntity
  8
0
  6
Continuous
 62
     7
100
AcDbCircle
 10
-167.5540698635135
 20
23.18466047939606
 30
0.0
 40
47.00000000000037
100
AcDbArc
 50
186.3665148299186
 51
197.600456825239
  0
ARC
  5
EB3
330
1F
100
AcDbEntity
  8
0
  6
Continuous
 62
     7
100
AcDbCircle
 10
-167.5540698635135
 20
23.18466047939606
 30
0.0
 40
47.0000000000001
100
AcDbArc
 50
335.3063823490515
 51
342.3995431747615
  0
ARC
  5
EB4
330
1F
100
AcDbEntity
  8
0
  6
Continuous
 62
     7
100
AcDbCircle
 10
-167.5540698635135
 20
23.18466047939606
 30
0.0
 40
46.99999999999967
100
AcDbArc
 50
316.7363721944914
 51
330.4049429785162
  0
ARC
  5
EB5
330
1F
100
AcDbEntity
  8
0
  6
Continuous
 62
     7
100
AcDbCircle
 10
-167.5540698635135
 20
23.18466047939606
 30
0.0
 40
47.00000000000018
100
AcDbArc
 50
315.8127194181718
 51
316.7363721944914
  0
ARC
  5
EB6
330
1F
100
AcDbEntity
  8
0
  6
Continuous
 62
     7
100
AcDbCircle
 10
-167.5540698635135
 20
23.18466047939606
 30
0.0
 40
47.00000000000027
100
AcDbArc
 50
215.427512937062
 51
223.2636278055088
  0
ARC
  5
EB7
330
1F
100
AcDbEntity
  8
0
  6
Continuous
 62
     7
100
AcDbCircle
 10
-167.5540698635135
 20
23.18466047939606
 30
0.0
 40
46.99999999999974
100
AcDbArc
 50
144.5724870629391
 51
152.3816420948822
  0
ARC
  5
EB8
330
1F
100
AcDbEntity
  8
0
  6
Continuous
 62
     7
100
AcDbCircle
 10
-167.5540698635135
 20
23.18466047939606
 30
0.0
 40
47.0000000000001
100
AcDbArc
 50
24.69361765094854
 51
27.61835790511775
  0
ARC
  5
EB9
330
1F
100
AcDbEntity
  8
0
  6
Continuous
 62
     7
100
AcDbCircle
 10
-167.5540698635135
 20
23.18466047939606
 30
0.0
 40
47.00000000000025
100
AcDbArc
 50
231.4380704365921
 51
241.2641571281681
  0
ARC
  5
EBA
330
1F
100
AcDbEntity
  8
0
  6
Continuous
 62
     7
100
AcDbCircle
 10
-167.5540698635135
 20
23.18466047939606
 30
0.0
 40
46.99999999999963
100
AcDbArc
 50
289.5170062220499
 51
298.7358428718319
  0
ARC
  5
EBB
330
1F
100
AcDbEntity
  8
0
  6
Continuous
 62
     7
100
AcDbCircle
 10
-18.95403957035001
 20
-58.1509877448864
 30
0.0
 40
1.899969707124114
100
AcDbArc
 50
275.0023138190536
 51
359.999003039066
  0
ARC
  5
EBC
330
1F
100
AcDbEntity
  8
0
  6
Continuous
 62
     7
100
AcDbCircle
 10
-18.95408938017949
 20
-51.81549950451556
 30
0.0
 40
1.90001951678536
100
AcDbArc
 50
359.9993576810931
 51
84.9963098747083
  0
ARC
  5
EBD
330
1F
100
AcDbEntity
  8
0
  6
Continuous
 62
     7
100
AcDbCircle
 10
-18.95403957035001
 20
-117.8816412963215
 30
0.0
 40
1.899969707124114
100
AcDbArc
 50
0.00099696093421
 51
84.99768618094639
  0
ARC
  5
EBE
330
1F
100
AcDbEntity
  8
0
  6
Continuous
 62
     7
100
AcDbCircle
 10
-18.95408938017949
 20
-124.2171295366923
 30
0.0
 40
1.90001951678537
100
AcDbArc
 50
275.0036901252918
 51
0.0006423189071
  0
ARC
  5
EBF
330
1F
100
AcDbEntity
  8
0
  6
Continuous
 62
     7
100
AcDbCircle
 10
-18.95408938017949
 20
-124.2171295366923
 30
0.0
 40
1.90001951678537
100
AcDbArc
 50
275.0036901252918
 51
0.0006423189071
  0
ARC
  5
EC0
330
1F
100
AcDbEntity
  8
0
  6
DASH_CENTER
 62
     2
100
AcDbCircle
 10
-167.5540698635135
 20
23.18466047939606
 30
0.0
 40
54.99999999999985
100
AcDbArc
 50
155.1249971605389
 51
180.0
  0
CIRCLE
  5
EC8
330
1F
100
AcDbEntity
  8
0
  6
Continuous
 62
     7
100
AcDbCircle
 10
124.530257844741
 20
-54.58132080483617
 30
0.0
 40
4.5
  0
CIRCLE
  5
EC9
330
1F
100
AcDbEntity
  8
0
  6
Continuous
 62
     7
100
AcDbCircle
 10
190.9982952762766
 20
-54.58132080483622
 30
0.0
 40
4.5
  0
CIRCLE
  5
ECA
330
1F
100
AcDbEntity
  8
0
  6
Continuous
 62
     7
100
AcDbCircle
 10
190.9982952762765
 20
-121.0493582363717
 30
0.0
 40
4.5
  0
CIRCLE
  5
ECB
330
1F
100
AcDbEntity
  8
0
  6
Continuous
 62
     7
100
AcDbCircle
 10
124.530257844741
 20
-121.0493582363717
 30
0.0
 40
4.5
  0
CIRCLE
  5
ECC
330
1F
100
AcDbEntity
  8
0
  6
Continuous
 62
     7
100
AcDbCircle
 10
-167.5540698635135
 20
23.18466047939606
 30
0.0
 40
60.0
  0
CIRCLE
  5
ECD
330
1F
100
AcDbEntity
  8
0
  6
Continuous
 62
     7
100
AcDbCircle
 10
-167.5540698635135
 20
23.18466047939606
 30
0.0
 40
59.5
  0
CIRCLE
  5
ECE
330
1F
100
AcDbEntity
  8
0
  6
Continuous
 62
     7
100
AcDbCircle
 10
-167.5540698635135
 20
78.1846604793961
 30
0.0
 40
4.5
  0
CIRCLE
  5
ECF
330
1F
100
AcDbEntity
  8
0
  6
Continuous
 62
     7
100
AcDbCircle
 10
-222.5540698635135
 20
23.18466047939606
 30
0.0
 40
4.5
  0
CIRCLE
  5
ED0
330
1F
100
AcDbEntity
  8
0
  6
Continuous
 62
     7
100
AcDbCircle
 10
-167.5540698635135
 20
-31.81533952060394
 30
0.0
 40
4.5
  0
CIRCLE
  5
ED1
330
1F
100
AcDbEntity
  8
0
  6
Continuous
 62
     7
100
AcDbCircle
 10
-112.5540698635135
 20
23.18466047939606
 30
0.0
 40
4.5
  0
CIRCLE
  5
ED2
330
1F
100
AcDbEntity
  8
0
  6
Continuous
 62
     7
100
AcDbCircle
 10
-167.5540698635135
 20
23.18466047939606
 30
0.0
 40
47.5
  0
CIRCLE
  5
ED9
330
1F
100
AcDbEntity
  8
0
  6
Continuous
 62
     7
100
AcDbCircle
 10
-167.5540698635135
 20
23.18466047939606
 30
0.0
 40
47.0
  0
ARC
  5
EDA
330
1F
100
AcDbEntity
  8
0
  6
Continuous
 62
     7
100
AcDbCircle
 10
283.7642765605088
 20
-53.88942807383413
 30
0.0
 40
1.0
100
AcDbArc
 50
0.0
 51
90.0
  0
ARC
  5
EE1
330
1F
100
AcDbEntity
  8
0
  6
Continuous
 62
     7
100
AcDbCircle
 10
129.7765384242547
 20
-64.77734885265572
 30
0.0
 40
1.999999999999995
100
AcDbArc
 50
45.00000000000057
 51
140.5406376665645
  0
ARC
  5
EE2
330
1F
100
AcDbEntity
  8
0
  6
Continuous
 62
     7
100
AcDbCircle
 10
152.8145290922029
 20
-87.81533952060394
 30
0.0
 40
2.000000000000095
100
AcDbArc
 50
315.0000000000023
 51
44.99999999999712
  0
ARC
  5
EE3
330
1F
100
AcDbEntity
  8
0
  6
Continuous
 62
     7
100
AcDbCircle
 10
129.7765384242547
 20
-110.8533301885522
 30
0.0
 40
1.999999999999975
100
AcDbArc
 50
219.4593623334352
 51
314.9999999999998
  0
ARC
  5
EE4
330
1F
100
AcDbEntity
  8
0
  6
Continuous
 62
     7
100
AcDbCircle
 10
180.802267228457
 20
-115.803077656858
 30
0.0
 40
1.999999999999985
100
AcDbArc
 50
309.4593623334355
 51
44.99999999999972
  0
ARC
  5
EE5
330
1F
100
AcDbEntity
  8
0
  6
Continuous
 62
     7
100
AcDbCircle
 10
134.7262858925606
 20
-115.803077656858
 30
0.0
 40
2.000000000000045
100
AcDbArc
 50
135.0000000000003
 51
230.5406376665649
  0
ARC
  5
EE6
330
1F
100
AcDbEntity
  8
0
  6
Continuous
 62
     7
100
AcDbCircle
 10
157.7642765605088
 20
-92.7650869889098
 30
0.0
 40
1.999999999999995
100
AcDbArc
 50
44.99999999999942
 51
134.9999999999997
  0
ARC
  5
EE7
330
1F
100
AcDbEntity
  8
0
  6
Continuous
 62
     7
100
AcDbCircle
 10
185.7520146967628
 20
-64.77734885265572
 30
0.0
 40
2.00000000000007
100
AcDbArc
 50
39.45936233343463
 51
135.0
  0
ARC
  5
EE8
330
1F
100
AcDbEntity
  8
0
  6
Continuous
 62
     7
100
AcDbCircle
 10
185.7520146967628
 20
-110.8533301885522
 30
0.0
 40
1.999999999999945
100
AcDbArc
 50
225.0000000000014
 51
320.5406376665663
  0
ARC
  5
EE9
330
1F
100
AcDbEntity
  8
0
  6
Continuous
 62
     7
100
AcDbCircle
 10
162.7140240288146
 20
-87.81533952060394
 30
0.0
 40
1.999999999999995
100
AcDbArc
 50
135.0000000000006
 51
225.0
  0
ARC
  5
EEA
330
1F
100
AcDbEntity
  8
0
  6
Continuous
 62
     7
100
AcDbCircle
 10
157.7642765605088
 20
-82.86559205229812
 30
0.0
 40
1.999999999999974
100
AcDbArc
 50
225.0
 51
314.9999999999988
  0
ARC
  5
EEB
330
1F
100
AcDbEntity
  8
0
  6
Continuous
 62
     7
100
AcDbCircle
 10
180.802267228457
 20
-59.82760138434989
 30
0.0
 40
2.000000000000015
100
AcDbArc
 50
315.0
 51
50.54063766656482
  0
ARC
  5
EEC
330
1F
100
AcDbEntity
  8
0
  6
Continuous
 62
     7
100
AcDbCircle
 10
134.7262858925606
 20
-59.82760138434989
 30
0.0
 40
2.00000000000007
100
AcDbArc
 50
129.4593623334378
 51
224.9999999999997
  0
ARC
  5
EED
330
1F
100
AcDbEntity
  8
0
  6
Continuous
 62
     7
100
AcDbCircle
 10
206.0642765605088
 20
-60.88942807383417
 30
0.0
 40
2.999999999999996
100
AcDbArc
 50
95.73917047726698
 51
170.1510551017572
  0
ARC
  5
EEE
330
1F
100
AcDbEntity
  8
0
  6
Continuous
 62
     7
100
AcDbCircle
 10
205.7642765605088
 20
-60.58942807383417
 30
0.0
 40
5.0
100
AcDbArc
 50
90.0
 51
147.8186173289279
  0
ARC
  5
EEF
330
1F
100
AcDbEntity
  8
0
  6
Continuous
 62
     7
100
AcDbCircle
 10
122.930257844741
 20
-56.18132080483622
 30
0.0
 40
1.0
100
AcDbArc
 50
0.0
 51
90.0
  0
ARC
  5
EF0
330
1F
100
AcDbEntity
  8
0
  6
Continuous
 62
     7
100
AcDbCircle
 10
122.930257844741
 20
-52.98132080483618
 30
0.0
 40
1.0
100
AcDbArc
 50
270.0
 51
0.0
  0
ARC
  5
EF1
330
1F
100
AcDbEntity
  8
0
  6
Continuous
 62
     7
100
AcDbCircle
 10
126.130257844741
 20
-52.98132080483618
 30
0.0
 40
1.0
100
AcDbArc
 50
180.0
 51
270.0
  0
ARC
  5
EF2
330
1F
100
AcDbEntity
  8
0
  6
Continuous
 62
     7
100
AcDbCircle
 10
126.130257844741
 20
-56.18132080483616
 30
0.0
 40
0.9999999999999788
100
AcDbArc
 50
90.0
 51
180.0
  0
ARC
  5
EF3
330
1F
100
AcDbEntity
  8
0
  6
Continuous
 62
     7
100
AcDbCircle
 10
189.3982952762765
 20
-52.98132080483622
 30
0.0
 40
1.0
100
AcDbArc
 50
270.0
 51
0.0
  0
ARC
  5
EF4
330
1F
100
AcDbEntity
  8
0
  6
Continuous
 62
     7
100
AcDbCircle
 10
192.5982952762765
 20
-52.98132080483622
 30
0.0
 40
1.0
100
AcDbArc
 50
180.0
 51
270.0
  0
ARC
  5
EF5
330
1F
100
AcDbEntity
  8
0
  6
Continuous
 62
     7
100
AcDbCircle
 10
192.5982952762765
 20
-56.18132080483622
 30
0.0
 40
1.0
100
AcDbArc
 50
90.0
 51
180.0
  0
ARC
  5
EF6
330
1F
100
AcDbEntity
  8
0
  6
Continuous
 62
     7
100
AcDbCircle
 10
189.3982952762766
 20
-56.18132080483622
 30
0.0
 40
0.9999999999999149
100
AcDbArc
 50
0.0
 51
90.0
  0
ARC
  5
EF7
330
1F
100
AcDbEntity
  8
0
  6
Continuous
 62
     7
100
AcDbCircle
 10
192.5982952762765
 20
-119.4493582363717
 30
0.0
 40
1.0
100
AcDbArc
 50
180.0
 51
270.0
  0
ARC
  5
EF8
330
1F
100
AcDbEntity
  8
0
  6
Continuous
 62
     7
100
AcDbCircle
 10
192.5982952762765
 20
-122.6493582363717
 30
0.0
 40
1.0
100
AcDbArc
 50
90.0
 51
180.0
  0
ARC
  5
EF9
330
1F
100
AcDbEntity
  8
0
  6
Continuous
 62
     7
100
AcDbCircle
 10
189.3982952762765
 20
-122.6493582363717
 30
0.0
 40
1.0
100
AcDbArc
 50
0.0
 51
90.0
  0
ARC
  5
EFA
330
1F
100
AcDbEntity
  8
0
  6
Continuous
 62
     7
100
AcDbCircle
 10
189.3982952762765
 20
-119.4493582363717
 30
0.0
 40
1.0
100
AcDbArc
 50
270.0
 51
0.0
  0
ARC
  5
EFB
330
1F
100
AcDbEntity
  8
0
  6
Continuous
 62
     7
100
AcDbCircle
 10
126.1302578447411
 20
-122.6493582363717
 30
0.0
 40
1.0
100
AcDbArc
 50
90.0
 51
180.0
  0
ARC
  5
EFC
330
1F
100
AcDbEntity
  8
0
  6
Continuous
 62
     7
100
AcDbCircle
 10
122.930257844741
 20
-122.6493582363717
 30
0.0
 40
1.0
100
AcDbArc
 50
0.0
 51
90.0
  0
ARC
  5
EFD
330
1F
100
AcDbEntity
  8
0
  6
Continuous
 62
     7
100
AcDbCircle
 10
122.930257844741
 20
-119.4493582363717
 30
0.0
 40
1.0
100
AcDbArc
 50
270.0
 51
0.0
  0
ARC
  5
EFE
330
1F
100
AcDbEntity
  8
0
  6
Continuous
 62
     7
100
AcDbCircle
 10
126.130257844741
 20
-119.4493582363717
 30
0.0
 40
1.0
100
AcDbArc
 50
180.0
 51
270.0
  0
ARC
  5
EFF
330
1F
100
AcDbEntity
  8
0
  6
Continuous
 62
     7
100
AcDbCircle
 10
121.2642765605088
 20
-38.58942807383419
 30
0.0
 40
2.0
100
AcDbArc
 50
0.0
 51
90.0
  0
ARC
  5
F00
330
1F
100
AcDbEntity
  8
0
  6
Continuous
 62
     7
100
AcDbCircle
 10
121.2642765605088
 20
85.4105719261658
 30
0.0
 40
2.0
100
AcDbArc
 50
270.0
 51
0.0
  0
ARC
  5
F01
330
1F
100
AcDbEntity
  8
0
  6
Continuous
 62
     7
100
AcDbCircle
 10
172.7642765605088
 20
132.1430100190229
 30
0.0
 40
20.0
100
AcDbArc
 50
0.0
 51
18.99089173088042
  0
ARC
  5
F02
330
1F
100
AcDbEntity
  8
0
  6
Continuous
 62
     7
100
AcDbCircle
 10
143.2642765605088
 20
132.1430100190229
 30
0.0
 40
20.0
100
AcDbArc
 50
90.0
 51
180.0
  0
ARC
  5
F03
330
1F
100
AcDbEntity
  8
0
  6
Continuous
 62
     7
100
AcDbCircle
 10
172.7642765605088
 20
132.1430100190229
 30
0.0
 40
19.99999999999998
100
AcDbArc
 50
18.99089173088042
 51
90.0
  0
ARC
  5
F04
330
1F
100
AcDbEntity
  8
0
  6
Continuous
 62
     7
100
AcDbCircle
 10
203.7642765605088
 20
96.6846604793961
 30
0.0
 40
1.0
100
AcDbArc
 50
0.0
 51
90.0
  0
ARC
  5
F05
330
1F
100
AcDbEntity
  8
0
  6
Continuous
 62
     7
100
AcDbCircle
 10
315.7642765605088
 20
74.35741611022128
 30
0.0
 40
10.0
100
AcDbArc
 50
0.0
 51
41.88613944434947
  0
ARC
  5
F06
330
1F
100
AcDbEntity
  8
0
  6
Continuous
 62
     7
100
AcDbCircle
 10
306.2623894787273
 20
84.9525975706935
 30
0.0
 40
10.0
100
AcDbArc
 50
41.8861394443494
 51
89.45948981286925
  0
ARC
  5
F07
330
1F
100
AcDbEntity
  8
0
  6
Continuous
 62
     7
100
AcDbCircle
 10
315.7642765605088
 20
-27.53627225788962
 30
0.0
 40
10.00000000000001
100
AcDbArc
 50
318.1138605556506
 51
0.0
  0
ARC
  5
F08
330
1F
100
AcDbEntity
  8
0
  6
Continuous
 62
     7
100
AcDbCircle
 10
306.2623894787273
 20
-38.13145371836188
 30
0.0
 40
10.00000000000001
100
AcDbArc
 50
270.5405101871307
 51
318.1138605556506
  0
ARC
  5
F09
330
1F
100
AcDbEntity
  8
0
  6
Continuous
 62
     7
100
AcDbCircle
 10
203.7642765605088
 20
-49.86351662706439
 30
0.0
 40
1.0
100
AcDbArc
 50
270.0
 51
0.0
  0
ARC
  5
F0A
330
1F
100
AcDbEntity
  8
0
  6
Continuous
 62
     7
100
AcDbCircle
 10
-71.69799844112332
 20
-45.31533952060393
 30
0.0
 40
1.999999999999991
100
AcDbArc
 50
142.2102304702883
 51
270.0
  0
ARC
  5
F15
330
1F
100
AcDbEntity
  8
0
  6
Continuous
 62
     7
100
AcDbCircle
 10
-26.55406986351352
 20
-31.81533952060394
 30
0.0
 40
2.0
100
AcDbArc
 50
90.0
 51
180.0
  0
ARC
  5
F16
330
1F
100
AcDbEntity
  8
0
  6
Continuous
 62
     7
100
AcDbCircle
 10
-26.55406986351352
 20
-143.8153395206039
 30
0.0
 40
2.0
100
AcDbArc
 50
180.0
 51
270.0
  0
ARC
  5
F17
330
1F
100
AcDbEntity
  8
0
  6
Continuous
 62
     7
100
AcDbCircle
 10
-30.55406986351352
 20
-45.31533952060393
 30
0.0
 40
2.0
100
AcDbArc
 50
270.0
 51
0.0
  0
ARC
  5
F18
330
1F
100
AcDbEntity
  8
0
  6
Continuous
 62
     7
100
AcDbCircle
 10
-30.55406986351352
 20
-130.3153395206039
 30
0.0
 40
2.0
100
AcDbArc
 50
0.0
 51
90.0
  0
ARC
  5
F19
330
1F
100
AcDbEntity
  8
0
  6
Continuous
 62
     7
100
AcDbCircle
 10
-217.5540698635135
 20
-142.2894280738338
 30
0.0
 40
2.0
100
AcDbArc
 50
270.0
 51
0.0
  0
ARC
  5
F1A
330
1F
100
AcDbEntity
  8
0
  6
Continuous
 62
     7
100
AcDbCircle
 10
-217.2540698635133
 20
-142.589428073834
 30
0.0
 40
4.0
100
AcDbArc
 50
270.0
 51
0.0
  0
ARC
  5
F1B
330
1F
100
AcDbEntity
  8
0
  6
Continuous
 62
     7
100
AcDbCircle
 10
-203.2540698635133
 20
-141.589428073834
 30
0.0
 40
10.0
100
AcDbArc
 50
90.0
 51
180.0
  0
ARC
  5
F1C
330
1F
100
AcDbEntity
  8
0
  6
Continuous
 62
     7
100
AcDbCircle
 10
-117.5540698635135
 20
-142.2894280738338
 30
0.0
 40
2.0
100
AcDbArc
 50
180.0
 51
270.0
  0
ARC
  5
F1D
330
1F
100
AcDbEntity
  8
0
  6
Continuous
 62
     7
100
AcDbCircle
 10
-117.8540698635135
 20
-142.589428073834
 30
0.0
 40
4.0
100
AcDbArc
 50
180.0
 51
270.0
  0
ARC
  5
F1E
330
1F
100
AcDbEntity
  8
0
  6
Continuous
 62
     7
100
AcDbCircle
 10
-131.8540698635135
 20
-141.589428073834
 30
0.0
 40
9.999999999999767
100
AcDbArc
 50
7.2029843485838
 51
90.0
  0
ARC
  5
F1F
330
1F
100
AcDbEntity
  8
0
  6
Continuous
 62
     7
100
AcDbCircle
 10
-165.9540698635134
 20
79.78466047939619
 30
0.0
 40
1.0
100
AcDbArc
 50
180.0
 51
270.0
  0
ARC
  5
F20
330
1F
100
AcDbEntity
  8
0
  6
Continuous
 62
     7
100
AcDbCircle
 10
-169.1540698635134
 20
79.78466047939619
 30
0.0
 40
1.0
100
AcDbArc
 50
270.0
 51
0.0
  0
ARC
  5
F21
330
1F
100
AcDbEntity
  8
0
  6
Continuous
 62
     7
100
AcDbCircle
 10
-169.1540698635134
 20
76.58466047939611
 30
0.0
 40
1.0
100
AcDbArc
 50
0.0
 51
90.0
  0
ARC
  5
F22
330
1F
100
AcDbEntity
  8
0
  6
Continuous
 62
     7
100
AcDbCircle
 10
-165.9540698635134
 20
76.58466047939611
 30
0.0
 40
1.0
100
AcDbArc
 50
90.0
 51
180.0
  0
ARC
  5
F23
330
1F
100
AcDbEntity
  8
0
  6
Continuous
 62
     7
100
AcDbCircle
 10
-224.1540698635134
 20
24.78466047939619
 30
0.0
 40
1.0
100
AcDbArc
 50
270.0
 51
0.0
  0
ARC
  5
F24
330
1F
100
AcDbEntity
  8
0
  6
Continuous
 62
     7
100
AcDbCircle
 10
-224.1540698635134
 20
21.58466047939615
 30
0.0
 40
1.0
100
AcDbArc
 50
0.0
 51
90.0
  0
ARC
  5
F25
330
1F
100
AcDbEntity
  8
0
  6
Continuous
 62
     7
100
AcDbCircle
 10
-220.9540698635134
 20
21.58466047939615
 30
0.0
 40
1.0
100
AcDbArc
 50
90.0
 51
180.0
  0
ARC
  5
F26
330
1F
100
AcDbEntity
  8
0
  6
Continuous
 62
     7
100
AcDbCircle
 10
-220.9540698635134
 20
24.78466047939619
 30
0.0
 40
1.0
100
AcDbArc
 50
180.0
 51
270.0
  0
ARC
  5
F27
330
1F
100
AcDbEntity
  8
0
  6
Continuous
 62
     7
100
AcDbCircle
 10
-169.1540698635134
 20
-33.41533952060385
 30
0.0
 40
1.0
100
AcDbArc
 50
0.0
 51
90.0
  0
ARC
  5
F28
330
1F
100
AcDbEntity
  8
0
  6
Continuous
 62
     7
100
AcDbCircle
 10
-165.9540698635134
 20
-33.41533952060385
 30
0.0
 40
1.0
100
AcDbArc
 50
90.0
 51
180.0
  0
ARC
  5
F29
330
1F
100
AcDbEntity
  8
0
  6
Continuous
 62
     7
100
AcDbCircle
 10
-165.9540698635134
 20
-30.21533952060381
 30
0.0
 40
1.0
100
AcDbArc
 50
180.0
 51
270.0
  0
ARC
  5
F2A
330
1F
100
AcDbEntity
  8
0
  6
Continuous
 62
     7
100
AcDbCircle
 10
-169.1540698635134
 20
-30.21533952060381
 30
0.0
 40
1.0
100
AcDbArc
 50
270.0
 51
0.0
  0
ARC
  5
F2B
330
1F
100
AcDbEntity
  8
0
  6
Continuous
 62
     7
100
AcDbCircle
 10
-110.9540698635134
 20
21.58466047939615
 30
0.0
 40
1.0
100
AcDbArc
 50
90.0
 51
180.0
  0
ARC
  5
F2C
330
1F
100
AcDbEntity
  8
0
  6
Continuous
 62
     7
100
AcDbCircle
 10
-110.9540698635134
 20
24.78466047939619
 30
0.0
 40
1.0
100
AcDbArc
 50
180.0
 51
270.0
  0
ARC
  5
F2D
330
1F
100
AcDbEntity
  8
0
  6
Continuous
 62
     7
100
AcDbCircle
 10
-114.1540698635134
 20
24.78466047939619
 30
0.0
 40
1.0
100
AcDbArc
 50
270.0
 51
0.0
  0
ARC
  5
F2E
330
1F
100
AcDbEntity
  8
0
  6
Continuous
 62
     7
100
AcDbCircle
 10
-114.1540698635134
 20
21.58466047939615
 30
0.0
 40
1.0
100
AcDbArc
 50
0.0
 51
90.0
  0
ARC
  5
F2F
330
1F
100
AcDbEntity
  8
0
  6
Continuous
 62
     7
100
AcDbCircle
 10
-131.8540698635135
 20
-141.589428073834
 30
0.0
 40
10.0
100
AcDbArc
 50
0.0
 51
7.2029843485838
  0
ENDSEC
  0
SECTION
  2
OBJECTS
  0
DICTIONARY
  5
C
330
0
100
AcDbDictionary
281
     1
  3
ACAD_COLOR
350
8AF
  3
ACAD_GROUP
350
D
  3
ACAD_LAYOUT
350
1A
  3
ACAD_MATERIAL
350
8AE
  3
ACAD_MLINESTYLE
350
17
  3
ACAD_PLOTSETTINGS
350
19
  3
ACAD_PLOTSTYLENAME
350
E
  3
ACDBHEADERROUNDTRIPXREC
350
1448
  3
AcDbVariableDictionary
350
137B
  0
DICTIONARY
  5
8AF
102
{ACAD_REACTORS
330
C
102
}
330
C
100
AcDbDictionary
281
     1
  0
DICTIONARY
  5
D
102
{ACAD_REACTORS
330
C
102
}
330
C
100
AcDbDictionary
281
     1
  0
DICTIONARY
  5
1A
102
{ACAD_REACTORS
330
C
102
}
330
C
100
AcDbDictionary
281
     1
  3
Layout1
350
1E
  3
Layout2
350
26
  3
Model
350
22
  0
DICTIONARY
  5
8AE
102
{ACAD_REACTORS
330
C
102
}
330
C
100
AcDbDictionary
281
     1
  0
DICTIONARY
  5
17
102
{ACAD_REACTORS
330
C
102
}
330
C
100
AcDbDictionary
281
     1
  3
Standard
350
18
  0
DICTIONARY
  5
19
102
{ACAD_REACTORS
330
C
102
}
330
C
100
AcDbDictionary
281
     1
  0
ACDBDICTIONARYWDFLT
  5
E
102
{ACAD_REACTORS
330
C
102
}
330
C
100
AcDbDictionary
281
     1
  3
Normal
350
F
100
AcDbDictionaryWithDefault
340
F
  0
DICTIONARY
  5
1448
102
{ACAD_REACTORS
330
C
102
}
330
C
100
AcDbDictionary
281
     1
  3
COLORDICT
350
144A
  3
MATERIALDICT
350
1449
  0
DICTIONARY
  5
137B
102
{ACAD_REACTORS
330
C
102
}
330
C
100
AcDbDictionary
281
     1
  3
DIMASSOC
350
137C
  3
PROJECTNAME
350
137D
  0
LAYOUT
  5
1E
102
{ACAD_XDICTIONARY
360
144B
102
}
102
{ACAD_REACTORS
330
1A
102
}
330
1A
100
AcDbPlotSettings
  1

  2

  4

  6

 40
0.0
 41
0.0
 42
0.0
 43
0.0
 44
0.0
 45
0.0
 46
0.0
 47
0.0
 48
0.0
 49
0.0
140
0.0
141
0.0
142
1.0
143
1.0
 70
   688
 72
     0
 73
     0
 74
     5
  7
P社図面.ctb
 75
    16
147
1.0
148
0.0
149
0.0
100
AcDbLayout
  1
Layout1
 70
     1
 71
     1
 10
0.0
 20
0.0
 11
12.0
 21
9.0
 12
0.0
 22
0.0
 32
0.0
 14
1.000000000000000E+20
 24
1.000000000000000E+20
 34
1.000000000000000E+20
 15
-1.000000000000000E+20
 25
-1.000000000000000E+20
 35
-1.000000000000000E+20
146
0.0
 13
0.0
 23
0.0
 33
0.0
 16
1.0
 26
0.0
 36
0.0
 17
0.0
 27
1.0
 37
0.0
 76
     0
330
1B
  0
LAYOUT
  5
26
102
{ACAD_XDICTIONARY
360
144F
102
}
102
{ACAD_REACTORS
330
1A
102
}
330
1A
100
AcDbPlotSettings
  1

  2

  4

  6

 40
0.0
 41
0.0
 42
0.0
 43
0.0
 44
0.0
 45
0.0
 46
0.0
 47
0.0
 48
0.0
 49
0.0
140
0.0
141
0.0
142
1.0
143
1.0
 70
   688
 72
     0
 73
     0
 74
     5
  7
P社図面.ctb
 75
    16
147
1.0
148
0.0
149
0.0
100
AcDbLayout
  1
Layout2
 70
     1
 71
     2
 10
0.0
 20
0.0
 11
0.0
 21
0.0
 12
0.0
 22
0.0
 32
0.0
 14
0.0
 24
0.0
 34
0.0
 15
0.0
 25
0.0
 35
0.0
146
0.0
 13
0.0
 23
0.0
 33
0.0
 16
1.0
 26
0.0
 36
0.0
 17
0.0
 27
1.0
 37
0.0
 76
     0
330
23
  0
LAYOUT
  5
22
102
{ACAD_XDICTIONARY
360
144D
102
}
102
{ACAD_REACTORS
330
1A
102
}
330
1A
100
AcDbPlotSettings
  1

  2
Acrobat Distiller
  4
A3
  6

 40
3.174999952316283
 41
3.174999952316283
 42
3.17498779296875
 43
3.17498779296875
 44
297.0318298339844
 45
420.1583251953125
 46
0.0
 47
0.0
 48
0.0
 49
0.0
140
0.0
141
0.0
142
1.0
143
1.97923655388145
 70
 11952
 72
     1
 73
     1
 74
     1
  7
P社図面.ctb
 75
     0
147
0.5052453169576499
148
428.0122881700072
149
286.0089219007727
100
AcDbLayout
  1
Model
 70
     1
 71
     0
 10
0.0
 20
0.0
 11
0.0
 21
0.0
 12
0.0
 22
0.0
 32
0.0
 14
-427.9997999999998
 24
-286.0002
 34
0.0
 15
390.9998
 25
285.9998
 35
0.0
146
0.0
 13
0.0
 23
0.0
 33
0.0
 16
1.0
 26
0.0
 36
0.0
 17
0.0
 27
1.0
 37
0.0
 76
     0
330
1F
  0
MLINESTYLE
  5
18
102
{ACAD_REACTORS
330
17
102
}
330
17
100
AcDbMlineStyle
  2
STANDARD
 70
     0
  3

 62
   256
 51
90.0
 52
90.0
 71
     2
 49
0.5
 62
   256
  6
BYLAYER
 49
-0.5
 62
   256
  6
BYLAYER
  0
ACDBPLACEHOLDER
  5
F
102
{ACAD_REACTORS
330
E
102
}
330
E
  0
XRECORD
  5
144A
102
{ACAD_REACTORS
330
1448
102
}
330
1448
100
AcDbXrecord
280
     1
340
8AF
  0
XRECORD
  5
1449
102
{ACAD_REACTORS
330
1448
102
}
330
1448
100
AcDbXrecord
280
     1
340
8AE
  0
DICTIONARYVAR
  5
137C
102
{ACAD_REACTORS
330
137B
102
}
330
137B
100
DictionaryVariables
280
     0
  1
1
  0
DICTIONARYVAR
  5
137D
102
{ACAD_REACTORS
330
137B
102
}
330
137B
100
DictionaryVariables
280
     0
  1

  0
DICTIONARY
  5
144B
330
1E
100
AcDbDictionary
280
     1
281
     1
  3
ACAD_XREC_ROUNDTRIP
360
144C
  0
DICTIONARY
  5
144F
330
26
100
AcDbDictionary
280
     1
281
     1
  3
ACAD_XREC_ROUNDTRIP
360
1450
  0
DICTIONARY
  5
144D
330
22
100
AcDbDictionary
280
     1
281
     1
  3
ACAD_XREC_ROUNDTRIP
360
144E
  0
XRECORD
  5
144C
102
{ACAD_REACTORS
330
144B
102
}
330
144B
100
AcDbXrecord
280
     1
102
SHADEPLOT
 70
     0
102
SHADEPLOTRESLEVEL
 70
     2
102
SHADEPLOTCUSTOMDPI
 70
   300
  0
XRECORD
  5
1450
102
{ACAD_REACTORS
330
144F
102
}
330
144F
100
AcDbXrecord
280
     1
102
SHADEPLOT
 70
     0
102
SHADEPLOTRESLEVEL
 70
     2
102
SHADEPLOTCUSTOMDPI
 70
   300
  0
XRECORD
  5
144E
102
{ACAD_REACTORS
330
144D
102
}
330
144D
100
AcDbXrecord
280
     1
102
SHADEPLOT
 70
     0
102
SHADEPLOTRESLEVEL
 70
     2
102
SHADEPLOTCUSTOMDPI
 70
   300
  0
ENDSEC
  0
EOF
