  0
SECTION
  2
HEADER
  9
$ACADVER
  1
AC1015
  9
$ACADMAINTVER
 70
    20
  9
$DWGCODEPAGE
  3
ANSI_932
  9
$INSBASE
 10
0.0
 20
0.0
 30
0.0
  9
$EXTMIN
 10
-427.9997999999999
 20
-286.0002
 30
0.0
  9
$EXTMAX
 10
390.9998
 20
285.9998
 30
0.0
  9
$LIMMIN
 10
0.0
 20
0.0
  9
$LIMMAX
 10
12.0
 20
9.0
  9
$ORTHOMODE
 70
     0
  9
$REGENMODE
 70
     1
  9
$FILLMODE
 70
     1
  9
$QTEXTMODE
 70
     0
  9
$MIRRTEXT
 70
     1
  9
$LTSCALE
 40
1.0
  9
$ATTMODE
 70
     1
  9
$TEXTSIZE
 40
0.2
  9
$TRACEWID
 40
0.05
  9
$TEXTSTYLE
  7
CONVERTER_4
  9
$CLAYER
  8
0
  9
$CELTYPE
  6
ByLayer
  9
$CECOLOR
 62
     4
  9
$CELTSCALE
 40
1.0
  9
$DISPSILH
 70
     0
  9
$DIMSCALE
 40
1.0
  9
$DIMASZ
 40
0.18
  9
$DIMEXO
 40
0.0625
  9
$DIMDLI
 40
0.38
  9
$DIMRND
 40
0.0
  9
$DIMDLE
 40
0.0
  9
$DIMEXE
 40
0.18
  9
$DIMTP
 40
0.0
  9
$DIMTM
 40
0.0
  9
$DIMTXT
 40
0.18
  9
$DIMCEN
 40
0.09
  9
$DIMTSZ
 40
0.0
  9
$DIMTOL
 70
     0
  9
$DIMLIM
 70
     0
  9
$DIMTIH
 70
     1
  9
$DIMTOH
 70
     1
  9
$DIMSE1
 70
     0
  9
$DIMSE2
 70
     0
  9
$DIMTAD
 70
     0
  9
$DIMZIN
 70
     0
  9
$DIMBLK
  1

  9
$DIMASO
 70
     1
  9
$DIMSHO
 70
     1
  9
$DIMPOST
  1

  9
$DIMAPOST
  1

  9
$DIMALT
 70
     0
  9
$DIMALTD
 70
     2
  9
$DIMALTF
 40
25.4
  9
$DIMLFAC
 40
1.0
  9
$DIMTOFL
 70
     0
  9
$DIMTVP
 40
0.0
  9
$DIMTIX
 70
     0
  9
$DIMSOXD
 70
     0
  9
$DIMSAH
 70
     0
  9
$DIMBLK1
  1

  9
$DIMBLK2
  1

  9
$DIMSTYLE
  2
Standard
  9
$DIMCLRD
 70
     0
  9
$DIMCLRE
 70
     0
  9
$DIMCLRT
 70
     0
  9
$DIMTFAC
 40
1.0
  9
$DIMGAP
 40
0.09
  9
$DIMJUST
 70
     0
  9
$DIMSD1
 70
     0
  9
$DIMSD2
 70
     0
  9
$DIMTOLJ
 70
     1
  9
$DIMTZIN
 70
     0
  9
$DIMALTZ
 70
     0
  9
$DIMALTTZ
 70
     0
  9
$DIMUPT
 70
     0
  9
$DIMDEC
 70
     4
  9
$DIMTDEC
 70
     4
  9
$DIMALTU
 70
     2
  9
$DIMALTTD
 70
     2
  9
$DIMTXSTY
  7
Standard
  9
$DIMAUNIT
 70
     0
  9
$DIMADEC
 70
     0
  9
$DIMALTRND
 40
0.0
  9
$DIMAZIN
 70
     0
  9
$DIMDSEP
 70
    46
  9
$DIMATFIT
 70
     3
  9
$DIMFRAC
 70
     0
  9
$DIMLDRBLK
  1

  9
$DIMLUNIT
 70
     2
  9
$DIMLWD
 70
    -2
  9
$DIMLWE
 70
    -2
  9
$DIMTMOVE
 70
     0
  9
$LUNITS
 70
     2
  9
$LUPREC
 70
     4
  9
$SKETCHINC
 40
0.1
  9
$FILLETRAD
 40
0.5
  9
$AUNITS
 70
     0
  9
$AUPREC
 70
     0
  9
$MENU
  1
.
  9
$ELEVATION
 40
0.0
  9
$PELEVATION
 40
0.0
  9
$THICKNESS
 40
0.0
  9
$LIMCHECK
 70
     0
  9
$CHAMFERA
 40
0.5
  9
$CHAMFERB
 40
0.5
  9
$CHAMFERC
 40
1.0
  9
$CHAMFERD
 40
0.0
  9
$SKPOLY
 70
     0
  9
$TDCREATE
 40
2455092.434467951
  9
$TDUCREATE
 40
2455092.059467951
  9
$TDUPDATE
 40
2456737.565834051
  9
$TDUUPDATE
 40
2456737.190834051
  9
$TDINDWG
 40
0.0672106597
  9
$TDUSRTIMER
 40
0.0672088426
  9
$USRTIMER
 70
     1
  9
$ANGBASE
 50
0.0
  9
$ANGDIR
 70
     0
  9
$PDMODE
 70
     0
  9
$PDSIZE
 40
0.0
  9
$PLINEWID
 40
0.0
  9
$SPLFRAME
 70
     0
  9
$SPLINETYPE
 70
     6
  9
$SPLINESEGS
 70
     8
  9
$HANDSEED
  5
1373
  9
$SURFTAB1
 70
     6
  9
$SURFTAB2
 70
     6
  9
$SURFTYPE
 70
     6
  9
$SURFU
 70
     6
  9
$SURFV
 70
     6
  9
$UCSBASE
  2

  9
$UCSNAME
  2

  9
$UCSORG
 10
0.0
 20
0.0
 30
0.0
  9
$UCSXDIR
 10
1.0
 20
0.0
 30
0.0
  9
$UCSYDIR
 10
0.0
 20
1.0
 30
0.0
  9
$UCSORTHOREF
  2

  9
$UCSORTHOVIEW
 70
     0
  9
$UCSORGTOP
 10
0.0
 20
0.0
 30
0.0
  9
$UCSORGBOTTOM
 10
0.0
 20
0.0
 30
0.0
  9
$UCSORGLEFT
 10
0.0
 20
0.0
 30
0.0
  9
$UCSORGRIGHT
 10
0.0
 20
0.0
 30
0.0
  9
$UCSORGFRONT
 10
0.0
 20
0.0
 30
0.0
  9
$UCSORGBACK
 10
0.0
 20
0.0
 30
0.0
  9
$PUCSBASE
  2

  9
$PUCSNAME
  2

  9
$PUCSORG
 10
0.0
 20
0.0
 30
0.0
  9
$PUCSXDIR
 10
1.0
 20
0.0
 30
0.0
  9
$PUCSYDIR
 10
0.0
 20
1.0
 30
0.0
  9
$PUCSORTHOREF
  2

  9
$PUCSORTHOVIEW
 70
     0
  9
$PUCSORGTOP
 10
0.0
 20
0.0
 30
0.0
  9
$PUCSORGBOTTOM
 10
0.0
 20
0.0
 30
0.0
  9
$PUCSORGLEFT
 10
0.0
 20
0.0
 30
0.0
  9
$PUCSORGRIGHT
 10
0.0
 20
0.0
 30
0.0
  9
$PUCSORGFRONT
 10
0.0
 20
0.0
 30
0.0
  9
$PUCSORGBACK
 10
0.0
 20
0.0
 30
0.0
  9
$USERI1
 70
     0
  9
$USERI2
 70
     0
  9
$USERI3
 70
     0
  9
$USERI4
 70
     0
  9
$USERI5
 70
     0
  9
$USERR1
 40
14.0
  9
$USERR2
 40
0.0
  9
$USERR3
 40
0.0
  9
$USERR4
 40
0.0
  9
$USERR5
 40
0.0
  9
$WORLDVIEW
 70
     1
  9
$SHADEDGE
 70
     3
  9
$SHADEDIF
 70
    70
  9
$TILEMODE
 70
     1
  9
$MAXACTVP
 70
    64
  9
$PINSBASE
 10
0.0
 20
0.0
 30
0.0
  9
$PLIMCHECK
 70
     0
  9
$PEXTMIN
 10
1.000000000000000E+20
 20
1.000000000000000E+20
 30
1.000000000000000E+20
  9
$PEXTMAX
 10
-1.000000000000000E+20
 20
-1.000000000000000E+20
 30
-1.000000000000000E+20
  9
$PLIMMIN
 10
0.0
 20
0.0
  9
$PLIMMAX
 10
12.0
 20
9.0
  9
$UNITMODE
 70
     0
  9
$VISRETAIN
 70
     1
  9
$PLINEGEN
 70
     0
  9
$PSLTSCALE
 70
     1
  9
$TREEDEPTH
 70
  3020
  9
$CMLSTYLE
  2
Standard
  9
$CMLJUST
 70
     0
  9
$CMLSCALE
 40
1.0
  9
$PROXYGRAPHICS
 70
     1
  9
$MEASUREMENT
 70
     1
  9
$CELWEIGHT
370
    -1
  9
$ENDCAPS
280
     0
  9
$JOINSTYLE
280
     0
  9
$LWDISPLAY
290
     0
  9
$INSUNITS
 70
     1
  9
$HYPERLINKBASE
  1

  9
$STYLESHEET
  1
P社図面.ctb
  9
$XEDIT
290
     1
  9
$CEPSNTYPE
380
     0
  9
$PSTYLEMODE
290
     1
  9
$FINGERPRINTGUID
  2
{54A957D8-7075-4C2A-ADBD-D0FFF5AF8A82}
  9
$VERSIONGUID
  2
{1AD727F2-75BA-4E39-A4C7-4E94D8AEE0AF}
  9
$EXTNAMES
290
     1
  9
$PSVPSCALE
 40
0.0
  9
$OLESTARTUP
290
     0
  0
ENDSEC
  0
SECTION
  2
CLASSES
  0
CLASS
  1
ACDBDICTIONARYWDFLT
  2
AcDbDictionaryWithDefault
  3
ObjectDBX Classes
 90
        0
280
     0
281
     0
  0
CLASS
  1

  2
exOdDbSpline
  3

 90
    32768
280
     0
281
     1
  0
CLASS
  1

  2
exOdDbPolyline
  3

 90
    32768
280
     0
281
     1
  0
CLASS
  1

  2
exOdDbCircle
  3

 90
    32768
280
     0
281
     1
  0
CLASS
  1
ACDBPLACEHOLDER
  2
AcDbPlaceHolder
  3
ObjectDBX Classes
 90
        0
280
     0
281
     0
  0
CLASS
  1
LAYOUT
  2
AcDbLayout
  3
ObjectDBX Classes
 90
        0
280
     0
281
     0
  0
CLASS
  1
DICTIONARYVAR
  2
AcDbDictionaryVar
  3
ObjectDBX Classes
 90
        0
280
     0
281
     0
  0
ENDSEC
  0
SECTION
  2
TABLES
  0
TABLE
  2
VPORT
  5
8
330
0
100
AcDbSymbolTable
 70
     7
  0
VPORT
  5
1345
330
8
100
AcDbSymbolTableRecord
100
AcDbViewportTableRecord
  2
*Active
 70
     0
 10
0.0
 20
0.0
 11
1.0
 21
1.0
 12
19.0880996651245
 22
8.651027901558336
 13
0.0
 23
0.0
 14
0.5
 24
0.5
 15
0.5
 25
0.5
 16
0.0
 26
0.0
 36
1.0
 17
0.0
 27
0.0
 37
0.0
 40
434.3789018886472
 41
1.714078374455733
 42
50.0
 43
0.0
 44
0.0
 50
0.0
 51
0.0
 71
     0
 72
   100
 73
     1
 74
     3
 75
     0
 76
     0
 77
     0
 78
     0
281
     0
 65
     1
110
0.0
120
0.0
130
0.0
111
1.0
121
0.0
131
0.0
112
0.0
122
1.0
132
0.0
 79
     0
146
0.0
  0
ENDTAB
  0
TABLE
  2
LTYPE
  5
5
330
0
100
AcDbSymbolTable
 70
     8
  0
LTYPE
  5
14
330
5
100
AcDbSymbolTableRecord
100
AcDbLinetypeTableRecord
  2
ByBlock
 70
     0
  3

 72
    65
 73
     0
 40
0.0
  0
LTYPE
  5
15
330
5
100
AcDbSymbolTableRecord
100
AcDbLinetypeTableRecord
  2
ByLayer
 70
     0
  3

 72
    65
 73
     0
 40
0.0
  0
LTYPE
  5
16
330
5
100
AcDbSymbolTableRecord
100
AcDbLinetypeTableRecord
  2
Continuous
 70
     0
  3
Solid line
 72
    65
 73
     0
 40
0.0
  0
LTYPE
  5
2A
330
5
100
AcDbSymbolTableRecord
100
AcDbLinetypeTableRecord
  2
DASHED
 70
     0
  3
Dashed
 72
    65
 73
     2
 40
15.0
 49
7.0
 74
     0
 49
-8.0
 74
     0
  0
LTYPE
  5
2C
330
5
100
AcDbSymbolTableRecord
100
AcDbLinetypeTableRecord
  2
DOT_CENTER
 70
     0
  3
Dot_Center
 72
    65
 73
     4
 40
14.0
 49
12.0
 74
     0
 49
-1.0
 74
     0
 49
0.0
 74
     0
 49
-1.0
 74
     0
  0
LTYPE
  5
2E
330
5
100
AcDbSymbolTableRecord
100
AcDbLinetypeTableRecord
  2
DASH_CENTER
 70
     0
  3
Dash_Center
 72
    65
 73
     4
 40
14.0
 49
11.0
 74
     0
 49
-1.0
 74
     0
 49
1.0
 74
     0
 49
-1.0
 74
     0
  0
LTYPE
  5
30
330
5
100
AcDbSymbolTableRecord
100
AcDbLinetypeTableRecord
  2
CENTER_DASH_DASH
 70
     0
  3
Center_Dash_Dash
 72
    65
 73
     6
 40
14.0
 49
9.0
 74
     0
 49
-1.0
 74
     0
 49
1.0
 74
     0
 49
-1.0
 74
     0
 49
1.0
 74
     0
 49
-1.0
 74
     0
  0
ENDTAB
  0
TABLE
  2
LAYER
  5
2
330
0
100
AcDbSymbolTable
 70
     4
  0
LAYER
  5
10
330
2
100
AcDbSymbolTableRecord
100
AcDbLayerTableRecord
  2
0
 70
     0
 62
     7
  6
Continuous
370
    -3
390
F
  0
LAYER
  5
31
330
2
100
AcDbSymbolTableRecord
100
AcDbLayerTableRecord
  2
1
 70
     0
 62
     7
  6
Continuous
370
    -3
390
F
  0
LAYER
  5
F16
330
2
100
AcDbSymbolTableRecord
100
AcDbLayerTableRecord
  2
Defpoints
 70
     0
 62
     7
  6
Continuous
290
     0
370
    -3
390
F
  0
ENDTAB
  0
TABLE
  2
STYLE
  5
3
330
0
100
AcDbSymbolTable
 70
    23
  0
STYLE
  5
11
330
3
100
AcDbSymbolTableRecord
100
AcDbTextStyleTableRecord
  2
Standard
 70
     0
 40
0.0
 41
1.0
 50
0.0
 71
     0
 42
0.2
  3
txt
  4

  0
STYLE
  5
60D
330
3
100
AcDbSymbolTableRecord
100
AcDbTextStyleTableRecord
  2
CONVERTER_4
 70
     0
 40
0.0
 41
0.7120000000000001
 50
0.0
 71
     0
 42
0.2
  3
simplex.shx
  4
bigfont.shx
  0
STYLE
  5
61C
330
3
100
AcDbSymbolTableRecord
100
AcDbTextStyleTableRecord
  2
CONVERTER_6
 70
     0
 40
0.0
 41
0.89
 50
0.0
 71
     0
 42
0.2
  3
simplex.shx
  4
bigfont.shx
  0
STYLE
  5
849
330
3
100
AcDbSymbolTableRecord
100
AcDbTextStyleTableRecord
  2
CONVERTER_11
 70
     0
 40
0.0
 41
0.8009999999999999
 50
0.0
 71
     0
 42
0.2
  3
simplex.shx
  4
bigfont.shx
  0
STYLE
  5
86B
330
3
100
AcDbSymbolTableRecord
100
AcDbTextStyleTableRecord
  2
CONVERTER_18
 70
     0
 40
0.0
 41
0.6230000000000001
 50
0.0
 71
     0
 42
0.2
  3
txt.shx
  4

  0
ENDTAB
  0
TABLE
  2
VIEW
  5
6
330
0
100
AcDbSymbolTable
 70
     0
  0
ENDTAB
  0
TABLE
  2
UCS
  5
7
330
0
100
AcDbSymbolTable
 70
     0
  0
ENDTAB
  0
TABLE
  2
APPID
  5
9
330
0
100
AcDbSymbolTable
 70
     1
  0
APPID
  5
12
330
9
100
AcDbSymbolTableRecord
100
AcDbRegAppTableRecord
  2
ACAD
 70
     0
  0
ENDTAB
  0
TABLE
  2
DIMSTYLE
  5
A
330
0
100
AcDbSymbolTable
 70
    30
100
AcDbDimStyleTable
 71
     1
340
27
  0
DIMSTYLE
105
27
330
A
100
AcDbSymbolTableRecord
100
AcDbDimStyleTableRecord
  2
Standard
 70
     0
340
11
  0
ENDTAB
  0
TABLE
  2
BLOCK_RECORD
  5
1
330
0
100
AcDbSymbolTable
 70
    43
  0
BLOCK_RECORD
  5
1F
330
1
100
AcDbSymbolTableRecord
100
AcDbBlockTableRecord
  2
*Model_Space
340
22
  0
BLOCK_RECORD
  5
1B
330
1
100
AcDbSymbolTableRecord
100
AcDbBlockTableRecord
  2
*Paper_Space
340
1E
  0
BLOCK_RECORD
  5
23
330
1
100
AcDbSymbolTableRecord
100
AcDbBlockTableRecord
  2
*Paper_Space0
340
26
  0
ENDTAB
  0
ENDSEC
  0
SECTION
  2
BLOCKS
  0
BLOCK
  5
20
330
1F
100
AcDbEntity
  8
0
100
AcDbBlockBegin
  2
*Model_Space
 70
     0
 10
0.0
 20
0.0
 30
0.0
  3
*Model_Space
  1

  0
ENDBLK
  5
21
330
1F
100
AcDbEntity
  8
0
100
AcDbBlockEnd
  0
BLOCK
  5
1C
330
1B
100
AcDbEntity
 67
     1
  8
0
100
AcDbBlockBegin
  2
*Paper_Space
 70
     0
 10
0.0
 20
0.0
 30
0.0
  3
*Paper_Space
  1

  0
ENDBLK
  5
1D
330
1B
100
AcDbEntity
 67
     1
  8
0
100
AcDbBlockEnd
  0
BLOCK
  5
24
330
23
100
AcDbEntity
  8
0
100
AcDbBlockBegin
  2
*Paper_Space0
 70
     0
 10
0.0
 20
0.0
 30
0.0
  3
*Paper_Space0
  1

  0
ENDBLK
  5
25
330
23
100
AcDbEntity
  8
0
100
AcDbBlockEnd
  0
ENDSEC
  0
SECTION
  2
ENTITIES
  0
TEXT
  5
8F2
330
1F
100
AcDbEntity
  8
0
 62
     2
100
AcDbText
 10
-10.22393025032897
 20
-178.2848344834441
 30
0.0
 40
8.0
  1
ABS3412P200W
 41
0.8009999999999999
  7
CONVERTER_11
100
AcDbText
  0
MTEXT
  5
90B
330
1F
100
AcDbEntity
  8
0
 62
     2
100
AcDbMText
 10
205.5000000000006
 20
-255.4997860470252
 30
0.0
 40
4.0
 41
0.0
 71
     5
 72
     1
  1
 
  7
CONVERTER_18
 73
     1
 44
1.32052821128451
1001
ACAD
1000
MTEXTBEGIN
1070
    73
1070
     1
1070
    44
1040
1.32052821128451
1070
    74
1070
     0
1000
MTEXTEND
  0
MTEXT
  5
913
330
1F
100
AcDbEntity
  8
0
 62
     2
100
AcDbMText
 10
131.5002
 20
-267.9996999999998
 30
0.0
 40
6.0
 41
0.0
 71
     5
 72
     1
  1
 
  7
CONVERTER_6
 73
     1
 44
1.32052821128451
1001
ACAD
1000
MTEXTBEGIN
1070
    73
1070
     1
1070
    44
1040
1.32052821128451
1070
    74
1070
     0
1000
MTEXTEND
  0
MTEXT
  5
914
330
1F
100
AcDbEntity
  8
0
 62
     2
100
AcDbMText
 10
170.5002
 20
-267.9996999999998
 30
0.0
 40
6.0
 41
0.0
 71
     5
 72
     1
  1
 
  7
CONVERTER_6
 73
     1
 44
1.32052821128451
1001
ACAD
1000
MTEXTBEGIN
1070
    73
1070
     1
1070
    44
1040
1.32052821128451
1070
    74
1070
     0
1000
MTEXTEND
  0
MTEXT
  5
915
330
1F
100
AcDbEntity
  8
0
 62
     2
100
AcDbMText
 10
92.50020000000002
 20
-267.9996999999998
 30
0.0
 40
6.0
 41
0.0
 71
     5
 72
     1
  1
 
  7
CONVERTER_6
 73
     1
 44
1.32052821128451
1001
ACAD
1000
MTEXTBEGIN
1070
    73
1070
     1
1070
    44
1040
1.32052821128451
1070
    74
1070
     0
1000
MTEXTEND
  0
MTEXT
  5
916
330
1F
100
AcDbEntity
  8
0
 62
     2
100
AcDbMText
 10
205.5000000000006
 20
-279.9996999999998
 30
0.0
 40
4.0
 41
0.0
 71
     5
 72
     1
  1
 
  7
CONVERTER_18
 73
     1
 44
1.32052821128451
1001
ACAD
1000
MTEXTBEGIN
1070
    73
1070
     1
1070
    44
1040
1.32052821128451
1070
    74
1070
     0
1000
MTEXTEND
  0
MTEXT
  5
917
330
1F
100
AcDbEntity
  8
0
 62
     2
100
AcDbMText
 10
166.5002
 20
-279.9996999999998
 30
0.0
 40
4.0
 41
0.0
 71
     5
 72
     1
  1
 
  7
CONVERTER_18
 73
     1
 44
1.32052821128451
1001
ACAD
1000
MTEXTBEGIN
1070
    73
1070
     1
1070
    44
1040
1.32052821128451
1070
    74
1070
     0
1000
MTEXTEND
  0
MTEXT
  5
918
330
1F
100
AcDbEntity
  8
0
 62
     2
100
AcDbMText
 10
127.5002
 20
-279.9996999999998
 30
0.0
 40
4.0
 41
0.0
 71
     5
 72
     1
  1
 
  7
CONVERTER_18
 73
     1
 44
1.32052821128451
1001
ACAD
1000
MTEXTBEGIN
1070
    73
1070
     1
1070
    44
1040
1.32052821128451
1070
    74
1070
     0
1000
MTEXTEND
  0
MTEXT
  5
919
330
1F
100
AcDbEntity
  8
0
 62
     2
100
AcDbMText
 10
49.50020000000002
 20
-279.9996999999998
 30
0.0
 40
4.0
 41
0.0
 71
     5
 72
     1
  1
 
  7
CONVERTER_18
 73
     1
 44
1.32052821128451
1001
ACAD
1000
MTEXTBEGIN
1070
    73
1070
     1
1070
    44
1040
1.32052821128451
1070
    74
1070
     0
1000
MTEXTEND
  0
MTEXT
  5
91A
330
1F
100
AcDbEntity
  8
0
 62
     2
100
AcDbMText
 10
88.50020000000002
 20
-279.9996999999998
 30
0.0
 40
4.0
 41
0.0
 71
     5
 72
     1
  1
 
  7
CONVERTER_18
 73
     1
 44
1.32052821128451
1001
ACAD
1000
MTEXTBEGIN
1070
    73
1070
     1
1070
    44
1040
1.32052821128451
1070
    74
1070
     0
1000
MTEXTEND
  0
MTEXT
  5
91B
330
1F
100
AcDbEntity
  8
0
 62
     2
100
AcDbMText
 10
209.5000000000006
 20
-267.9996999999998
 30
0.0
 40
6.0
 41
0.0
 71
     5
 72
     1
  1
 
  7
CONVERTER_6
 73
     1
 44
1.32052821128451
1001
ACAD
1000
MTEXTBEGIN
1070
    73
1070
     1
1070
    44
1040
1.32052821128451
1070
    74
1070
     0
1000
MTEXTEND
  0
MTEXT
  5
91C
330
1F
100
AcDbEntity
  8
0
 62
     2
100
AcDbMText
 10
205.5000000000006
 20
-240.9997577209246
 30
0.0
 40
6.0
 41
0.0
 71
     5
 72
     1
  1
 
  7
CONVERTER_6
 73
     1
 44
1.32052821128451
1001
ACAD
1000
MTEXTBEGIN
1070
    73
1070
     1
1070
    44
1040
1.32052821128451
1070
    74
1070
     0
1000
MTEXTEND
  0
LINE
  5
B93
330
1F
100
AcDbEntity
  8
1
  6
DASH_CENTER
 62
     2
100
AcDbLine
 10
195.8998791974155
 20
-112.6463485671206
 30
0.0
 11
185.682633345592
 21
-102.4291027152972
 31
0.0
  0
LINE
  5
B94
330
1F
100
AcDbEntity
  8
1
  6
DASH_CENTER
 62
     2
100
AcDbLine
 10
119.6286739236021
 20
-112.6463485671206
 30
0.0
 11
129.8459197754256
 21
-102.4291027152972
 31
0.0
  0
LINE
  5
B95
330
1F
100
AcDbEntity
  8
1
  6
DASH_CENTER
 62
     2
100
AcDbLine
 10
119.6286739236021
 20
-36.37514329330728
 30
0.0
 11
129.8459197754256
 21
-46.5923891451307
 31
0.0
  0
LINE
  5
B96
330
1F
100
AcDbEntity
  8
1
  6
DASH_CENTER
 62
     2
100
AcDbLine
 10
195.8998791974155
 20
-36.37514329330728
 30
0.0
 11
185.682633345592
 21
-46.59238914513071
 31
0.0
  0
LINE
  5
B97
330
1F
100
AcDbEntity
  8
1
  6
DOT_CENTER
 62
     2
100
AcDbLine
 10
-233.0540698635135
 20
-133.284834483444
 30
0.0
 11
-233.0540698635135
 21
-130.9848344834438
 31
0.0
  0
LINE
  5
B98
330
1F
100
AcDbEntity
  8
1
  6
DOT_CENTER
 62
     2
100
AcDbLine
 10
-222.0540698635135
 20
-130.9848344834438
 30
0.0
 11
-222.0540698635135
 21
-133.284834483444
 31
0.0
  0
LINE
  5
B99
330
1F
100
AcDbEntity
  8
1
  6
DOT_CENTER
 62
     2
100
AcDbLine
 10
-113.0540698635135
 20
-133.284834483444
 30
0.0
 11
-113.0540698635135
 21
-130.9848344834438
 31
0.0
  0
LINE
  5
B9A
330
1F
100
AcDbEntity
  8
1
  6
DOT_CENTER
 62
     2
100
AcDbLine
 10
-102.0540698635135
 20
-130.9848344834438
 30
0.0
 11
-102.0540698635135
 21
-133.284834483444
 31
0.0
  0
LINE
  5
B9B
330
1F
100
AcDbEntity
  8
0
  6
DASH_CENTER
 62
     2
100
AcDbLine
 10
270.7642765605088
 20
-133.2848344834442
 30
0.0
 11
270.7642765605088
 21
-143.2824494336248
 31
0.0
  0
LINE
  5
B9C
330
1F
100
AcDbEntity
  8
0
  6
Continuous
 62
     7
100
AcDbLine
 10
270.7642765605088
 20
-133.2848344834442
 30
0.0
 11
276.2642765605088
 21
-133.2848344834442
 31
0.0
  0
LINE
  5
B9D
330
1F
100
AcDbEntity
  8
0
  6
DASH_CENTER
 62
     2
100
AcDbLine
 10
-178.5540698635135
 20
36.48925406978607
 30
0.0
 11
-214.5540698635135
 21
36.48925406978607
 31
0.0
  0
LINE
  5
BA5
330
1F
100
AcDbEntity
  8
0
  6
DASH_CENTER
 62
     2
100
AcDbLine
 10
-167.5540698635135
 20
27.25164976275209
 30
0.0
 11
-167.5540698635135
 21
-118.284834483444
 31
0.0
  0
LINE
  5
BAA
330
1F
100
AcDbEntity
  8
0
  6
DASH_CENTER
 62
     2
100
AcDbLine
 10
-171.9540698635134
 20
36.48925406978607
 30
0.0
 11
-42.60030434512543
 21
36.48925406978605
 31
0.0
  0
LINE
  5
BB0
330
1F
100
AcDbEntity
  8
0
  6
Continuous
 62
     7
100
AcDbLine
 10
-215.5540698635135
 20
-110.194239252691
 30
0.0
 11
-215.5540698635135
 21
-109.718380869931
 31
0.0
  0
LINE
  5
BB1
330
1F
100
AcDbEntity
  8
0
  6
Continuous
 62
     7
100
AcDbLine
 10
-215.5540698635135
 20
-110.194239252691
 30
0.0
 11
-215.5540698635135
 21
-109.718380869931
 31
0.0
  0
LINE
  5
BB2
330
1F
100
AcDbEntity
  8
0
  6
Continuous
 62
     7
100
AcDbLine
 10
-215.5540698635135
 20
-107.3941392526908
 30
0.0
 11
-215.5540698635135
 21
-109.718380869931
 31
0.0
  0
LINE
  5
BB3
330
1F
100
AcDbEntity
  8
0
  6
Continuous
 62
     7
100
AcDbLine
 10
-215.5540698635135
 20
-109.718380869931
 30
0.0
 11
-215.5540698635135
 21
-104.4960392526909
 31
0.0
  0
LINE
  5
BB4
330
1F
100
AcDbEntity
  8
0
  6
Continuous
 62
     7
100
AcDbLine
 10
-217.0540698635135
 20
-110.194239252691
 30
0.0
 11
-217.0540698635135
 21
-104.0941392526909
 31
0.0
  0
LINE
  5
BB5
330
1F
100
AcDbEntity
  8
0
  6
Continuous
 62
     7
100
AcDbLine
 10
-215.5540698635135
 20
-110.194239252691
 30
0.0
 11
-217.0540698635135
 21
-110.194239252691
 31
0.0
  0
LINE
  5
BB7
330
1F
100
AcDbEntity
  8
0
  6
Continuous
 62
     7
100
AcDbLine
 10
-217.0540698635135
 20
-109.3441392526909
 30
0.0
 11
-217.0540698635135
 21
-104.0941392526909
 31
0.0
  0
LINE
  5
BB8
330
1F
100
AcDbEntity
  8
0
  6
Continuous
 62
     7
100
AcDbLine
 10
-220.9539698635134
 20
-107.2619392526908
 30
0.0
 11
-220.9539698635134
 21
-102.2053680359288
 31
0.0
  0
LINE
  5
BBA
330
1F
100
AcDbEntity
  8
0
  6
Continuous
 62
     7
100
AcDbLine
 10
-219.2195698635134
 20
-109.1547392526909
 30
0.0
 11
-217.0540698635135
 21
-109.3441392526909
 31
0.0
  0
LINE
  5
BBB
330
1F
100
AcDbEntity
  8
0
  6
CENTER_DASH_DASH
 62
   171
100
AcDbLine
 10
-215.6695238179165
 20
-111.110398331861
 30
0.0
 11
-215.6695238179165
 21
-111.0941392526909
 31
0.0
  0
LINE
  5
BCC
330
1F
100
AcDbEntity
  8
0
  6
DASH_CENTER
 62
     2
100
AcDbLine
 10
-222.5540698635135
 20
36.48925406978607
 30
0.0
 11
-215.0540698635135
 21
36.48925406978607
 31
0.0
  0
LINE
  5
BD9
330
1F
100
AcDbEntity
  8
0
  6
Continuous
 62
     7
100
AcDbLine
 10
-20.95406986351338
 20
-102.4948146459819
 30
0.0
 11
-20.95406986351338
 21
-112.9948146459819
 31
0.0
  0
LINE
  5
BDA
330
1F
100
AcDbEntity
  8
0
  6
Continuous
 62
     7
100
AcDbLine
 10
-18.78856986351354
 20
-112.805314645982
 30
0.0
 11
-20.95406986351338
 21
-112.9948146459819
 31
0.0
  0
LINE
  5
BDB
330
1F
100
AcDbEntity
  8
0
  6
Continuous
 62
     7
100
AcDbLine
 10
-17.05416986351349
 20
-104.577014645982
 30
0.0
 11
-17.05416986351349
 21
-110.9125146459819
 31
0.0
  0
LINE
  5
BDC
330
1F
100
AcDbEntity
  8
0
  6
Continuous
 62
     7
100
AcDbLine
 10
-18.78856986351354
 20
-102.6842146459819
 30
0.0
 11
-20.95406986351338
 21
-102.4948146459819
 31
0.0
  0
LINE
  5
BDD
330
1F
100
AcDbEntity
  8
0
  6
Continuous
 62
     7
100
AcDbLine
 10
-20.95406986351338
 20
-41.67862721444589
 30
0.0
 11
-20.95406986351338
 21
-47.77872721444601
 31
0.0
  0
LINE
  5
BDE
330
1F
100
AcDbEntity
  8
0
  6
Continuous
 62
     7
100
AcDbLine
 10
-20.95406986351338
 20
-35.57872721444596
 30
0.0
 11
-20.95406986351338
 21
-41.27672721444582
 31
0.0
  0
LINE
  5
BDF
330
1F
100
AcDbEntity
  8
0
  6
Continuous
 62
     7
100
AcDbLine
 10
-20.95406986351338
 20
-36.4286272144459
 30
0.0
 11
-20.95406986351338
 21
-46.9286272144459
 31
0.0
  0
LINE
  5
BE0
330
1F
100
AcDbEntity
  8
0
  6
Continuous
 62
     7
100
AcDbLine
 10
-17.05416986351349
 20
-38.51092721444593
 30
0.0
 11
-17.05416986351349
 21
-44.84642721444584
 31
0.0
  0
LINE
  5
BE1
330
1F
100
AcDbEntity
  8
0
  6
Continuous
 62
     7
100
AcDbLine
 10
-20.95406986351338
 20
-36.4286272144459
 30
0.0
 11
-18.78856986351354
 21
-36.61812721444586
 31
0.0
  0
LINE
  5
BE2
330
1F
100
AcDbEntity
  8
0
  6
Continuous
 62
     7
100
AcDbLine
 10
-20.95406986351338
 20
-46.9286272144459
 30
0.0
 11
-18.78856986351354
 21
-46.73922721444593
 31
0.0
  0
LINE
  5
BE3
330
1F
100
AcDbEntity
  8
0
  6
Continuous
 62
     7
100
AcDbLine
 10
-20.95406986351338
 20
-132.5107459302139
 30
0.0
 11
-22.55406986351352
 21
-132.5107459302139
 31
0.0
  0
LINE
  5
BE4
330
1F
100
AcDbEntity
  8
0
  6
Continuous
 62
     7
100
AcDbLine
 10
-20.95406986351338
 20
-16.51074593021394
 30
0.0
 11
-20.95406986351338
 21
-132.5107459302139
 31
0.0
  0
LINE
  5
BE5
330
1F
100
AcDbEntity
  8
0
  6
Continuous
 62
     7
100
AcDbLine
 10
-22.55406986351352
 20
-16.51074593021394
 30
0.0
 11
-20.95406986351338
 21
-16.51074593021394
 31
0.0
  0
LINE
  5
BE6
330
1F
100
AcDbEntity
  8
0
  6
DASHED
 62
     2
 48
0.5
100
AcDbLine
 10
-190.1503597451175
 20
-4.72248798980786
 30
0.0
 11
-144.9577799819095
 21
-4.72248798980786
 31
0.0
  0
LINE
  5
BE7
330
1F
100
AcDbEntity
  8
0
  6
DASHED
 62
     2
 48
0.5
100
AcDbLine
 10
-209.1986591389804
 20
58.27751201019214
 30
0.0
 11
-125.9094805880464
 21
58.27751201019214
 31
0.0
  0
LINE
  5
BE8
330
1F
100
AcDbEntity
  8
0
  6
DASHED
 62
     2
 48
0.5
100
AcDbLine
 10
-133.3282948761424
 20
4.27751201019214
 30
0.0
 11
-201.7798448508844
 21
4.27751201019214
 31
0.0
  0
LINE
  5
BE9
330
1F
100
AcDbEntity
  8
0
  6
DASHED
 62
     2
 48
0.5
100
AcDbLine
 10
-208.4223342083425
 20
13.27751201019214
 30
0.0
 11
-126.6858055186834
 21
13.27751201019214
 31
0.0
  0
LINE
  5
BEA
330
1F
100
AcDbEntity
  8
0
  6
DASHED
 62
     2
 48
0.5
100
AcDbLine
 10
-212.3539179395005
 20
22.27751201019214
 30
0.0
 11
-122.7542217875254
 21
22.27751201019214
 31
0.0
  0
LINE
  5
BEB
330
1F
100
AcDbEntity
  8
0
  6
DASHED
 62
     2
 48
0.5
100
AcDbLine
 10
-120.8439238061065
 20
31.27751201019214
 30
0.0
 11
-214.2642159209205
 21
31.27751201019214
 31
0.0
  0
LINE
  5
BEC
330
1F
100
AcDbEntity
  8
0
  6
DASHED
 62
     2
 48
0.5
100
AcDbLine
 10
-214.4011519687734
 20
40.27751201019214
 30
0.0
 11
-120.7069877582534
 21
40.27751201019214
 31
0.0
  0
LINE
  5
BED
330
1F
100
AcDbEntity
  8
0
  6
DASHED
 62
     2
 48
0.5
100
AcDbLine
 10
-122.3273028018535
 20
49.27751201019214
 30
0.0
 11
-212.7808369251735
 21
49.27751201019214
 31
0.0
  0
LINE
  5
BEE
330
1F
100
AcDbEntity
  8
0
  6
DASHED
 62
     2
 48
0.5
100
AcDbLine
 10
-132.0423369714814
 20
67.27751201019214
 30
0.0
 11
-203.0658027555454
 21
67.27751201019214
 31
0.0
  0
LINE
  5
BEF
330
1F
100
AcDbEntity
  8
0
  6
DASHED
 62
     2
 48
0.5
100
AcDbLine
 10
-192.5719540679723
 20
76.27751201019214
 30
0.0
 11
-142.5361856590545
 21
76.27751201019214
 31
0.0
  0
LINE
  5
BF0
330
1F
100
AcDbEntity
  8
0
  6
DASHED
 62
     2
 48
0.5
100
AcDbLine
 10
-124.8519980536365
 20
56.12424994816911
 30
0.0
 11
-124.8519980536365
 21
16.85425819140301
 31
0.0
  0
LINE
  5
BF1
330
1F
100
AcDbEntity
  8
0
  6
DASHED
 62
     2
 48
0.5
100
AcDbLine
 10
-133.8519980536365
 20
69.24853299533403
 30
0.0
 11
-133.8519980536365
 21
3.729975144237189
 31
0.0
  0
LINE
  5
BF2
330
1F
100
AcDbEntity
  8
0
  6
DASHED
 62
     2
 48
0.5
100
AcDbLine
 10
-142.8519980536365
 20
-3.4958387561619
 30
0.0
 11
-142.8519980536365
 21
76.27751201019214
 31
0.0
  0
LINE
  5
BF3
330
1F
100
AcDbEntity
  8
0
  6
DASHED
 62
     2
 48
0.5
100
AcDbLine
 10
-151.8519980536365
 20
80.78874549889201
 30
0.0
 11
-151.8519980536365
 21
-7.810237359319899
 31
0.0
  0
LINE
  5
BF4
330
1F
100
AcDbEntity
  8
0
  6
DASHED
 62
     2
 48
0.5
100
AcDbLine
 10
-160.8519980536365
 20
83.00895133293716
 30
0.0
 11
-160.8519980536365
 21
-10.03044319336595
 31
0.0
  0
LINE
  5
BF5
330
1F
100
AcDbEntity
  8
0
  6
DASHED
 62
     2
 48
0.5
100
AcDbLine
 10
-169.8519980536365
 20
83.43304520379001
 30
0.0
 11
-169.8519980536365
 21
-10.45453706421881
 31
0.0
  0
LINE
  5
BF6
330
1F
100
AcDbEntity
  8
0
  6
DASHED
 62
     2
 48
0.5
100
AcDbLine
 10
-178.8519980536365
 20
82.111143756764
 30
0.0
 11
-178.8519980536365
 21
-9.13263561719191
 31
0.0
  0
LINE
  5
BF7
330
1F
100
AcDbEntity
  8
0
  6
DASHED
 62
     2
 48
0.5
100
AcDbLine
 10
-187.8519980536365
 20
78.88022139996905
 30
0.0
 11
-187.8519980536365
 21
-5.90171326039695
 31
0.0
  0
LINE
  5
BF8
330
1F
100
AcDbEntity
  8
0
  6
DASHED
 62
     2
 48
0.5
100
AcDbLine
 10
-196.8519980536365
 20
73.24019152403912
 30
0.0
 11
-196.8519980536365
 21
-0.26168338446701
 31
0.0
  0
LINE
  5
BF9
330
1F
100
AcDbEntity
  8
0
  6
DASHED
 62
     2
 48
0.5
100
AcDbLine
 10
-205.8519980536365
 20
63.73386264367013
 30
0.0
 11
-205.8519980536365
 21
9.244645495901071
 31
0.0
  0
LINE
  5
BFA
330
1F
100
AcDbEntity
  8
0
  6
DASH_CENTER
 62
     2
100
AcDbLine
 10
-215.0540698635135
 20
36.48925406978607
 30
0.0
 11
-214.5540698635135
 21
36.48925406978607
 31
0.0
  0
LINE
  5
BFB
330
1F
100
AcDbEntity
  8
0
  6
Continuous
 62
     7
100
AcDbLine
 10
-115.0540698635135
 20
35.88925406978615
 30
0.0
 11
-115.0540698635135
 21
36.48925406978607
 31
0.0
  0
LINE
  5
BFC
330
1F
100
AcDbEntity
  8
0
  6
Continuous
 62
     7
100
AcDbLine
 10
-114.1540698635134
 20
35.88925406978615
 30
0.0
 11
-115.0540698635135
 21
35.88925406978615
 31
0.0
  0
LINE
  5
BFD
330
1F
100
AcDbEntity
  8
0
  6
Continuous
 62
     7
100
AcDbLine
 10
-113.1540698635134
 20
33.98925406978606
 30
0.0
 11
-113.1540698635134
 21
34.88925406978615
 31
0.0
  0
LINE
  5
BFE
330
1F
100
AcDbEntity
  8
0
  6
Continuous
 62
     7
100
AcDbLine
 10
-113.1540698635134
 20
33.98925406978606
 30
0.0
 11
-111.9540698635134
 21
33.98925406978606
 31
0.0
  0
LINE
  5
BFF
330
1F
100
AcDbEntity
  8
0
  6
Continuous
 62
     7
100
AcDbLine
 10
-113.1540698635134
 20
38.98925406978607
 30
0.0
 11
-112.5540698635135
 21
38.98925406978607
 31
0.0
  0
LINE
  5
C00
330
1F
100
AcDbEntity
  8
0
  6
Continuous
 62
     7
100
AcDbLine
 10
-113.1540698635134
 20
38.08925406978619
 30
0.0
 11
-113.1540698635134
 21
38.98925406978607
 31
0.0
  0
LINE
  5
C01
330
1F
100
AcDbEntity
  8
0
  6
Continuous
 62
     7
100
AcDbLine
 10
-115.0540698635135
 20
37.08925406978619
 30
0.0
 11
-114.1540698635134
 21
37.08925406978619
 31
0.0
  0
LINE
  5
C02
330
1F
100
AcDbEntity
  8
0
  6
Continuous
 62
     7
100
AcDbLine
 10
-115.0540698635135
 20
36.48925406978607
 30
0.0
 11
-115.0540698635135
 21
37.08925406978619
 31
0.0
  0
LINE
  5
C03
330
1F
100
AcDbEntity
  8
0
  6
Continuous
 62
     7
100
AcDbLine
 10
-110.0540698635135
 20
37.08925406978619
 30
0.0
 11
-110.0540698635135
 21
36.48925406978607
 31
0.0
  0
LINE
  5
C04
330
1F
100
AcDbEntity
  8
0
  6
Continuous
 62
     7
100
AcDbLine
 10
-110.9540698635134
 20
37.08925406978619
 30
0.0
 11
-110.0540698635135
 21
37.08925406978619
 31
0.0
  0
LINE
  5
C05
330
1F
100
AcDbEntity
  8
0
  6
Continuous
 62
     7
100
AcDbLine
 10
-111.9540698635134
 20
38.98925406978607
 30
0.0
 11
-111.9540698635134
 21
38.08925406978619
 31
0.0
  0
LINE
  5
C06
330
1F
100
AcDbEntity
  8
0
  6
Continuous
 62
     7
100
AcDbLine
 10
-112.5540698635135
 20
38.98925406978607
 30
0.0
 11
-111.9540698635134
 21
38.98925406978607
 31
0.0
  0
LINE
  5
C07
330
1F
100
AcDbEntity
  8
0
  6
Continuous
 62
     7
100
AcDbLine
 10
-111.9540698635134
 20
34.88925406978615
 30
0.0
 11
-111.9540698635134
 21
33.98925406978606
 31
0.0
  0
LINE
  5
C08
330
1F
100
AcDbEntity
  8
0
  6
Continuous
 62
     7
100
AcDbLine
 10
-110.0540698635135
 20
35.88925406978615
 30
0.0
 11
-110.9540698635134
 21
35.88925406978615
 31
0.0
  0
LINE
  5
C09
330
1F
100
AcDbEntity
  8
0
  6
DASH_CENTER
 62
     2
100
AcDbLine
 10
-110.0540698635135
 20
36.48925406978607
 30
0.0
 11
-118.8540698635135
 21
36.48925406978607
 31
0.0
  0
LINE
  5
C0A
330
1F
100
AcDbEntity
  8
0
  6
Continuous
 62
     7
100
AcDbLine
 10
-110.0540698635135
 20
36.48925406978607
 30
0.0
 11
-110.0540698635135
 21
35.88925406978615
 31
0.0
  0
LINE
  5
C0B
330
1F
100
AcDbEntity
  8
0
  6
DASH_CENTER
 62
     2
100
AcDbLine
 10
-106.2540698635133
 20
36.48925406978607
 30
0.0
 11
-110.0540698635135
 21
36.48925406978607
 31
0.0
  0
LINE
  5
C0C
330
1F
100
AcDbEntity
  8
0
  6
Continuous
 62
     7
100
AcDbLine
 10
-168.1540698635134
 20
-16.01074593021394
 30
0.0
 11
-167.5540698635135
 21
-16.01074593021394
 31
0.0
  0
LINE
  5
C0D
330
1F
100
AcDbEntity
  8
0
  6
Continuous
 62
     7
100
AcDbLine
 10
-168.1540698635134
 20
-16.91074593021381
 30
0.0
 11
-168.1540698635134
 21
-16.01074593021394
 31
0.0
  0
LINE
  5
C0E
330
1F
100
AcDbEntity
  8
0
  6
Continuous
 62
     7
100
AcDbLine
 10
-170.0540698635135
 20
-17.91074593021381
 30
0.0
 11
-169.1540698635134
 21
-17.91074593021381
 31
0.0
  0
LINE
  5
C0F
330
1F
100
AcDbEntity
  8
0
  6
Continuous
 62
     7
100
AcDbLine
 10
-170.0540698635135
 20
-17.91074593021381
 30
0.0
 11
-170.0540698635135
 21
-19.11074593021385
 31
0.0
  0
LINE
  5
C10
330
1F
100
AcDbEntity
  8
0
  6
Continuous
 62
     7
100
AcDbLine
 10
-165.0540698635135
 20
-17.91074593021381
 30
0.0
 11
-165.0540698635135
 21
-18.51074593021394
 31
0.0
  0
LINE
  5
C11
330
1F
100
AcDbEntity
  8
0
  6
Continuous
 62
     7
100
AcDbLine
 10
-165.9540698635134
 20
-17.91074593021381
 30
0.0
 11
-165.0540698635135
 21
-17.91074593021381
 31
0.0
  0
LINE
  5
C12
330
1F
100
AcDbEntity
  8
0
  6
Continuous
 62
     7
100
AcDbLine
 10
-166.9540698635134
 20
-16.01074593021394
 30
0.0
 11
-166.9540698635134
 21
-16.91074593021381
 31
0.0
  0
LINE
  5
C13
330
1F
100
AcDbEntity
  8
0
  6
Continuous
 62
     7
100
AcDbLine
 10
-167.5540698635135
 20
-16.01074593021394
 30
0.0
 11
-166.9540698635134
 21
-16.01074593021394
 31
0.0
  0
LINE
  5
C14
330
1F
100
AcDbEntity
  8
0
  6
Continuous
 62
     7
100
AcDbLine
 10
-166.9540698635134
 20
-21.01074593021394
 30
0.0
 11
-167.5540698635135
 21
-21.01074593021394
 31
0.0
  0
LINE
  5
C15
330
1F
100
AcDbEntity
  8
0
  6
Continuous
 62
     7
100
AcDbLine
 10
-166.9540698635134
 20
-20.11074593021385
 30
0.0
 11
-166.9540698635134
 21
-21.01074593021394
 31
0.0
  0
LINE
  5
C16
330
1F
100
AcDbEntity
  8
0
  6
Continuous
 62
     7
100
AcDbLine
 10
-165.0540698635135
 20
-19.11074593021385
 30
0.0
 11
-165.9540698635134
 21
-19.11074593021385
 31
0.0
  0
LINE
  5
C17
330
1F
100
AcDbEntity
  8
0
  6
Continuous
 62
     7
100
AcDbLine
 10
-165.0540698635135
 20
-18.51074593021394
 30
0.0
 11
-165.0540698635135
 21
-19.11074593021385
 31
0.0
  0
LINE
  5
C18
330
1F
100
AcDbEntity
  8
0
  6
Continuous
 62
     7
100
AcDbLine
 10
-169.1540698635134
 20
-19.11074593021385
 30
0.0
 11
-170.0540698635135
 21
-19.11074593021385
 31
0.0
  0
LINE
  5
C19
330
1F
100
AcDbEntity
  8
0
  6
Continuous
 62
     7
100
AcDbLine
 10
-168.1540698635134
 20
-21.01074593021394
 30
0.0
 11
-168.1540698635134
 21
-20.11074593021385
 31
0.0
  0
LINE
  5
C1A
330
1F
100
AcDbEntity
  8
0
  6
DASH_CENTER
 62
     2
100
AcDbLine
 10
-167.5540698635135
 20
-21.01074593021394
 30
0.0
 11
-167.5540698635135
 21
-12.21074593021399
 31
0.0
  0
LINE
  5
C1B
330
1F
100
AcDbEntity
  8
0
  6
Continuous
 62
     7
100
AcDbLine
 10
-167.5540698635135
 20
-21.01074593021394
 30
0.0
 11
-168.1540698635134
 21
-21.01074593021394
 31
0.0
  0
LINE
  5
C1C
330
1F
100
AcDbEntity
  8
0
  6
DASH_CENTER
 62
     2
100
AcDbLine
 10
-167.5540698635135
 20
-24.8107459302139
 30
0.0
 11
-167.5540698635135
 21
-21.01074593021394
 31
0.0
  0
LINE
  5
C1D
330
1F
100
AcDbEntity
  8
0
  6
Continuous
 62
     7
100
AcDbLine
 10
-220.0540698635135
 20
37.08925406978619
 30
0.0
 11
-220.0540698635135
 21
36.48925406978607
 31
0.0
  0
LINE
  5
C1E
330
1F
100
AcDbEntity
  8
0
  6
Continuous
 62
     7
100
AcDbLine
 10
-220.9540698635134
 20
37.08925406978619
 30
0.0
 11
-220.0540698635135
 21
37.08925406978619
 31
0.0
  0
LINE
  5
C1F
330
1F
100
AcDbEntity
  8
0
  6
Continuous
 62
     7
100
AcDbLine
 10
-221.9540698635134
 20
38.98925406978607
 30
0.0
 11
-221.9540698635134
 21
38.08925406978619
 31
0.0
  0
LINE
  5
C20
330
1F
100
AcDbEntity
  8
0
  6
Continuous
 62
     7
100
AcDbLine
 10
-221.9540698635134
 20
38.98925406978607
 30
0.0
 11
-223.1540698635134
 21
38.98925406978607
 31
0.0
  0
LINE
  5
C21
330
1F
100
AcDbEntity
  8
0
  6
Continuous
 62
     7
100
AcDbLine
 10
-221.9540698635134
 20
33.98925406978606
 30
0.0
 11
-222.5540698635135
 21
33.98925406978606
 31
0.0
  0
LINE
  5
C22
330
1F
100
AcDbEntity
  8
0
  6
Continuous
 62
     7
100
AcDbLine
 10
-221.9540698635134
 20
34.88925406978615
 30
0.0
 11
-221.9540698635134
 21
33.98925406978606
 31
0.0
  0
LINE
  5
C23
330
1F
100
AcDbEntity
  8
0
  6
Continuous
 62
     7
100
AcDbLine
 10
-220.0540698635135
 20
35.88925406978615
 30
0.0
 11
-220.9540698635134
 21
35.88925406978615
 31
0.0
  0
LINE
  5
C24
330
1F
100
AcDbEntity
  8
0
  6
Continuous
 62
     7
100
AcDbLine
 10
-220.0540698635135
 20
36.48925406978607
 30
0.0
 11
-220.0540698635135
 21
35.88925406978615
 31
0.0
  0
LINE
  5
C25
330
1F
100
AcDbEntity
  8
0
  6
Continuous
 62
     7
100
AcDbLine
 10
-225.0540698635135
 20
35.88925406978615
 30
0.0
 11
-225.0540698635135
 21
37.08925406978619
 31
0.0
  0
LINE
  5
C26
330
1F
100
AcDbEntity
  8
0
  6
Continuous
 62
     7
100
AcDbLine
 10
-224.1540698635134
 20
35.88925406978615
 30
0.0
 11
-225.0540698635135
 21
35.88925406978615
 31
0.0
  0
LINE
  5
C27
330
1F
100
AcDbEntity
  8
0
  6
Continuous
 62
     7
100
AcDbLine
 10
-223.1540698635134
 20
33.98925406978606
 30
0.0
 11
-223.1540698635134
 21
34.88925406978615
 31
0.0
  0
LINE
  5
C28
330
1F
100
AcDbEntity
  8
0
  6
Continuous
 62
     7
100
AcDbLine
 10
-222.5540698635135
 20
33.98925406978606
 30
0.0
 11
-223.1540698635134
 21
33.98925406978606
 31
0.0
  0
LINE
  5
C29
330
1F
100
AcDbEntity
  8
0
  6
Continuous
 62
     7
100
AcDbLine
 10
-223.1540698635134
 20
38.08925406978619
 30
0.0
 11
-223.1540698635134
 21
38.98925406978607
 31
0.0
  0
LINE
  5
C2A
330
1F
100
AcDbEntity
  8
0
  6
Continuous
 62
     7
100
AcDbLine
 10
-225.0540698635135
 20
37.08925406978619
 30
0.0
 11
-224.1540698635134
 21
37.08925406978619
 31
0.0
  0
LINE
  5
C2B
330
1F
100
AcDbEntity
  8
0
  6
Continuous
 62
     7
100
AcDbLine
 10
-166.9540698635134
 20
88.98925406978609
 30
0.0
 11
-167.5540698635135
 21
88.98925406978609
 31
0.0
  0
LINE
  5
C2C
330
1F
100
AcDbEntity
  8
0
  6
Continuous
 62
     7
100
AcDbLine
 10
-166.9540698635134
 20
89.8892540697861
 30
0.0
 11
-166.9540698635134
 21
88.98925406978609
 31
0.0
  0
LINE
  5
C2D
330
1F
100
AcDbEntity
  8
0
  6
Continuous
 62
     7
100
AcDbLine
 10
-165.0540698635135
 20
90.88925406978614
 30
0.0
 11
-165.9540698635134
 21
90.88925406978614
 31
0.0
  0
LINE
  5
C2E
330
1F
100
AcDbEntity
  8
0
  6
Continuous
 62
     7
100
AcDbLine
 10
-165.0540698635135
 20
90.88925406978614
 30
0.0
 11
-165.0540698635135
 21
92.0892540697862
 31
0.0
  0
LINE
  5
C2F
330
1F
100
AcDbEntity
  8
0
  6
Continuous
 62
     7
100
AcDbLine
 10
-170.0540698635135
 20
90.88925406978614
 30
0.0
 11
-170.0540698635135
 21
91.48925406978609
 31
0.0
  0
LINE
  5
C30
330
1F
100
AcDbEntity
  8
0
  6
Continuous
 62
     7
100
AcDbLine
 10
-169.1540698635134
 20
90.88925406978614
 30
0.0
 11
-170.0540698635135
 21
90.88925406978614
 31
0.0
  0
LINE
  5
C31
330
1F
100
AcDbEntity
  8
0
  6
Continuous
 62
     7
100
AcDbLine
 10
-168.1540698635134
 20
88.98925406978609
 30
0.0
 11
-168.1540698635134
 21
89.8892540697861
 31
0.0
  0
LINE
  5
C32
330
1F
100
AcDbEntity
  8
0
  6
Continuous
 62
     7
100
AcDbLine
 10
-167.5540698635135
 20
88.98925406978609
 30
0.0
 11
-168.1540698635134
 21
88.98925406978609
 31
0.0
  0
LINE
  5
C33
330
1F
100
AcDbEntity
  8
0
  6
Continuous
 62
     7
100
AcDbLine
 10
-168.1540698635134
 20
93.98925406978609
 30
0.0
 11
-167.5540698635135
 21
93.98925406978609
 31
0.0
  0
LINE
  5
C34
330
1F
100
AcDbEntity
  8
0
  6
Continuous
 62
     7
100
AcDbLine
 10
-168.1540698635134
 20
93.08925406978621
 30
0.0
 11
-168.1540698635134
 21
93.98925406978609
 31
0.0
  0
LINE
  5
C35
330
1F
100
AcDbEntity
  8
0
  6
Continuous
 62
     7
100
AcDbLine
 10
-170.0540698635135
 20
92.0892540697862
 30
0.0
 11
-169.1540698635134
 21
92.0892540697862
 31
0.0
  0
LINE
  5
C36
330
1F
100
AcDbEntity
  8
0
  6
Continuous
 62
     7
100
AcDbLine
 10
-170.0540698635135
 20
91.48925406978609
 30
0.0
 11
-170.0540698635135
 21
92.0892540697862
 31
0.0
  0
LINE
  5
C37
330
1F
100
AcDbEntity
  8
0
  6
Continuous
 62
     7
100
AcDbLine
 10
-165.9540698635134
 20
92.0892540697862
 30
0.0
 11
-165.0540698635135
 21
92.0892540697862
 31
0.0
  0
LINE
  5
C38
330
1F
100
AcDbEntity
  8
0
  6
Continuous
 62
     7
100
AcDbLine
 10
-166.9540698635134
 20
93.98925406978609
 30
0.0
 11
-166.9540698635134
 21
93.08925406978621
 31
0.0
  0
LINE
  5
C39
330
1F
100
AcDbEntity
  8
0
  6
DASH_CENTER
 62
     2
100
AcDbLine
 10
-167.5540698635135
 20
93.98925406978609
 30
0.0
 11
-167.5540698635135
 21
85.18925406978608
 31
0.0
  0
LINE
  5
C3A
330
1F
100
AcDbEntity
  8
0
  6
Continuous
 62
     7
100
AcDbLine
 10
-167.5540698635135
 20
93.98925406978609
 30
0.0
 11
-166.9540698635134
 21
93.98925406978609
 31
0.0
  0
LINE
  5
C3B
330
1F
100
AcDbEntity
  8
0
  6
DASH_CENTER
 62
     2
100
AcDbLine
 10
-167.5540698635135
 20
97.78925406978601
 30
0.0
 11
-167.5540698635135
 21
93.98925406978609
 31
0.0
  0
LINE
  5
C3C
330
1F
100
AcDbEntity
  8
0
  6
DASH_CENTER
 62
     2
100
AcDbLine
 10
-227.0540698635135
 20
36.48925406978607
 30
0.0
 11
-227.5540698635135
 21
36.48925406978607
 31
0.0
  0
LINE
  5
C3D
330
1F
100
AcDbEntity
  8
0
  6
Continuous
 62
     7
100
AcDbLine
 10
-119.5540698635135
 20
-115.0107459302139
 30
0.0
 11
-161.0540698635135
 21
-115.0107459302139
 31
0.0
  0
LINE
  5
C3E
330
1F
100
AcDbEntity
  8
0
  6
Continuous
 62
     7
100
AcDbLine
 10
-119.5540698635135
 20
-115.0107459302139
 30
0.0
 11
-119.5540698635135
 21
-128.9848344834438
 31
0.0
  0
LINE
  5
C3F
330
1F
100
AcDbEntity
  8
0
  6
Continuous
 62
     7
100
AcDbLine
 10
-167.5540698635135
 20
-118.284834483444
 30
0.0
 11
-131.8540698635135
 21
-118.284834483444
 31
0.0
  0
LINE
  5
C40
330
1F
100
AcDbEntity
  8
0
  6
DASH_CENTER
 62
     2
100
AcDbLine
 10
-107.5540698635135
 20
-140.2969890847198
 30
0.0
 11
-107.5540698635135
 21
-123.745638918909
 31
0.0
  0
LINE
  5
C41
330
1F
100
AcDbEntity
  8
0
  6
Continuous
 62
     7
100
AcDbLine
 10
-121.8540698635135
 20
-129.284834483444
 30
0.0
 11
-121.8540698635135
 21
-128.284834483444
 31
0.0
  0
LINE
  5
C42
330
1F
100
AcDbEntity
  8
0
  6
Continuous
 62
     7
100
AcDbLine
 10
-117.8540698635135
 20
-133.284834483444
 30
0.0
 11
-94.0540698635135
 21
-133.284834483444
 31
0.0
  0
LINE
  5
C43
330
1F
100
AcDbEntity
  8
0
  6
Continuous
 62
     7
100
AcDbLine
 10
-94.0540698635135
 20
-133.284834483444
 30
0.0
 11
-94.0540698635135
 21
-130.9848344834438
 31
0.0
  0
LINE
  5
C44
330
1F
100
AcDbEntity
  8
0
  6
Continuous
 62
     7
100
AcDbLine
 10
-94.0540698635135
 20
-130.9848344834438
 30
0.0
 11
-117.5540698635135
 21
-130.9848344834438
 31
0.0
  0
LINE
  5
C45
330
1F
100
AcDbEntity
  8
0
  6
DASH_CENTER
 62
     2
100
AcDbLine
 10
-227.5540698635135
 20
-123.745638918909
 30
0.0
 11
-227.5540698635135
 21
-140.2969890847198
 31
0.0
  0
LINE
  5
C46
330
1F
100
AcDbEntity
  8
0
  6
DASH_CENTER
 62
     2
100
AcDbLine
 10
-167.5540698635135
 20
-118.284834483444
 30
0.0
 11
-167.5540698635135
 21
-143.6662004938839
 31
0.0
  0
LINE
  5
C47
330
1F
100
AcDbEntity
  8
0
  6
Continuous
 62
     7
100
AcDbLine
 10
-203.2540698635133
 20
-118.284834483444
 30
0.0
 11
-167.5540698635135
 21
-118.284834483444
 31
0.0
  0
LINE
  5
C48
330
1F
100
AcDbEntity
  8
0
  6
Continuous
 62
     7
100
AcDbLine
 10
-213.2540698635133
 20
-128.284834483444
 30
0.0
 11
-213.2540698635133
 21
-129.284834483444
 31
0.0
  0
LINE
  5
C49
330
1F
100
AcDbEntity
  8
0
  6
Continuous
 62
     7
100
AcDbLine
 10
-241.0540698635135
 20
-133.284834483444
 30
0.0
 11
-217.2540698635133
 21
-133.284834483444
 31
0.0
  0
LINE
  5
C4A
330
1F
100
AcDbEntity
  8
0
  6
Continuous
 62
     7
100
AcDbLine
 10
-241.0540698635135
 20
-130.9848344834438
 30
0.0
 11
-241.0540698635135
 21
-133.284834483444
 31
0.0
  0
LINE
  5
C4B
330
1F
100
AcDbEntity
  8
0
  6
Continuous
 62
     7
100
AcDbLine
 10
-217.5540698635135
 20
-130.9848344834438
 30
0.0
 11
-241.0540698635135
 21
-130.9848344834438
 31
0.0
  0
LINE
  5
C4C
330
1F
100
AcDbEntity
  8
0
  6
Continuous
 62
     7
100
AcDbLine
 10
-215.5540698635135
 20
-104.4960392526909
 30
0.0
 11
-215.5540698635135
 21
-128.9848344834438
 31
0.0
  0
LINE
  5
C51
330
1F
100
AcDbEntity
  8
0
  6
DASH_CENTER
 62
     2
100
AcDbLine
 10
-227.5540698635135
 20
36.48925406978607
 30
0.0
 11
-307.4687207697665
 21
36.48925406978607
 31
0.0
  0
LINE
  5
C52
330
1F
100
AcDbEntity
  8
0
  6
Continuous
 62
     7
100
AcDbLine
 10
-30.55406986351352
 20
-115.0107459302139
 30
0.0
 11
-119.5540698635135
 21
-115.0107459302139
 31
0.0
  0
LINE
  5
C53
330
1F
100
AcDbEntity
  8
0
  6
DASH_CENTER
 62
     2
100
AcDbLine
 10
-167.5540698635135
 20
173.7532444883782
 30
0.0
 11
-167.5540698635135
 21
45.72685837682001
 31
0.0
  0
LINE
  5
C54
330
1F
100
AcDbEntity
  8
0
  6
Continuous
 62
     7
100
AcDbLine
 10
-137.9573474847144
 20
126.7612542937331
 30
0.0
 11
-131.0843077946755
 21
134.9522240363801
 31
0.0
  0
LINE
  5
C55
330
1F
100
AcDbEntity
  8
0
  6
Continuous
 62
     7
100
AcDbLine
 10
-168.9651595233635
 20
136.479297703999
 30
0.0
 11
-164.7918000847604
 21
141.4529138081421
 31
0.0
  0
LINE
  5
C56
330
1F
100
AcDbEntity
  8
0
  6
Continuous
 62
     7
100
AcDbLine
 10
-180.9596976380795
 20
145.669330750331
 30
0.0
 11
-179.7410042040284
 21
135.7438692339181
 31
0.0
  0
LINE
  5
C57
330
1F
100
AcDbEntity
  8
0
  6
Continuous
 62
     7
100
AcDbLine
 10
-192.2977193049354
 20
128.2103084265691
 30
0.0
 11
-180.9596976380795
 21
145.669330750331
 31
0.0
  0
LINE
  5
C58
330
1F
100
AcDbEntity
  8
0
  6
DASH_CENTER
 62
     2
100
AcDbLine
 10
-94.20439419121144
 20
-74.51074593021394
 30
0.0
 11
8.850238660230498
 21
-74.51074593021394
 31
0.0
  0
LINE
  5
C59
330
1F
100
AcDbEntity
  8
0
  6
Continuous
 62
     7
100
AcDbLine
 10
-28.55406986351352
 20
-117.0107459302139
 30
0.0
 11
-28.55406986351352
 21
-32.01074593021394
 31
0.0
  0
LINE
  5
C5A
330
1F
100
AcDbEntity
  8
0
  6
Continuous
 62
     7
100
AcDbLine
 10
-28.55406986351352
 20
-117.0107459302139
 30
0.0
 11
-28.55406986351352
 21
-130.5107459302139
 31
0.0
  0
LINE
  5
C5B
330
1F
100
AcDbEntity
  8
0
  6
DASH_CENTER
 62
     2
100
AcDbLine
 10
-227.0540698635135
 20
36.48925406978607
 30
0.0
 11
-222.5540698635135
 21
36.48925406978607
 31
0.0
  0
LINE
  5
C5C
330
1F
100
AcDbEntity
  8
0
  6
Continuous
 62
     7
100
AcDbLine
 10
-304.3674808832853
 20
61.87336268389207
 30
0.0
 11
-304.6818023787674
 21
60.35661370877301
 31
0.0
  0
LINE
  5
C5D
330
1F
100
AcDbEntity
  8
0
  6
Continuous
 62
     7
100
AcDbLine
 10
-26.55406986351352
 20
-132.5107459302139
 30
0.0
 11
-22.55406986351352
 21
-132.5107459302139
 31
0.0
  0
LINE
  5
C5E
330
1F
100
AcDbEntity
  8
0
  6
Continuous
 62
     7
100
AcDbLine
 10
-22.55406986351352
 20
-16.51074593021394
 30
0.0
 11
-22.55406986351352
 21
-132.5107459302139
 31
0.0
  0
LINE
  5
C5F
330
1F
100
AcDbEntity
  8
0
  6
Continuous
 62
     7
100
AcDbLine
 10
-26.55406986351352
 20
-16.51074593021394
 30
0.0
 11
-22.55406986351352
 21
-16.51074593021394
 31
0.0
  0
LINE
  5
C60
330
1F
100
AcDbEntity
  8
0
  6
Continuous
 62
     7
100
AcDbLine
 10
-28.55406986351352
 20
-18.51074593021394
 30
0.0
 11
-28.55406986351352
 21
-32.01074593021394
 31
0.0
  0
LINE
  5
C61
330
1F
100
AcDbEntity
  8
0
  6
Continuous
 62
     7
100
AcDbLine
 10
-71.69799844112332
 20
-34.01074593021395
 30
0.0
 11
-30.55406986351352
 21
-34.01074593021395
 31
0.0
  0
LINE
  5
C62
330
1F
100
AcDbEntity
  8
0
  6
Continuous
 62
     7
100
AcDbLine
 10
-49.05406986351352
 20
41.98925406978606
 30
0.0
 11
-49.05406986351302
 21
39.98925406978607
 31
0.0
  0
LINE
  5
C6F
330
1F
100
AcDbEntity
  8
0
  6
DASH_CENTER
 62
     2
100
AcDbLine
 10
-307.4687207697665
 20
36.48925406978607
 30
0.0
 11
-316.1414967339283
 21
36.48925406978607
 31
0.0
  0
LINE
  5
C71
330
1F
100
AcDbEntity
  8
0
  6
DASH_CENTER
 62
     2
100
AcDbLine
 10
157.7642765605088
 20
-21.31074593021396
 30
0.0
 11
157.7642765605088
 21
180.9053157080761
 31
0.0
  0
LINE
  5
C72
330
1F
100
AcDbEntity
  8
0
  6
DASH_CENTER
 62
     2
100
AcDbLine
 10
157.7642765605088
 20
-127.7107459302139
 30
0.0
 11
157.7642765605088
 21
-136.3274071155354
 31
0.0
  0
LINE
  5
C73
330
1F
100
AcDbEntity
  8
0
  6
DASH_CENTER
 62
     2
100
AcDbLine
 10
157.7642765605088
 20
-21.31074593021396
 30
0.0
 11
157.7642765605088
 21
-127.7107459302139
 31
0.0
  0
LINE
  5
C74
330
1F
100
AcDbEntity
  8
0
  6
Continuous
 62
     7
100
AcDbLine
 10
196.7642765605088
 20
-37.55892303667442
 30
0.0
 11
203.7642765605088
 21
-37.5589230366744
 31
0.0
  0
LINE
  5
C77
330
1F
100
AcDbEntity
  8
0
  6
Continuous
 62
     7
100
AcDbLine
 10
196.7642765605088
 20
110.9892540697861
 30
0.0
 11
203.7642765605088
 21
110.9892540697861
 31
0.0
  0
LINE
  5
C78
330
1F
100
AcDbEntity
  8
0
  6
Continuous
 62
     7
100
AcDbLine
 10
265.7642765605088
 20
108.6396938184426
 30
0.0
 11
225.7642765605088
 21
109.0170523090087
 31
0.0
  0
LINE
  5
C79
330
1F
100
AcDbEntity
  8
0
  6
Continuous
 62
     7
100
AcDbLine
 10
265.7642765605088
 20
108.6396938184426
 30
0.0
 11
306.3567249035526
 21
108.2567461925648
 31
0.0
  0
LINE
  5
C7D
330
1F
100
AcDbEntity
  8
0
  6
DASH_CENTER
 62
     2
100
AcDbLine
 10
333.5575555214962
 20
36.71516551655583
 30
0.0
 11
176.7642765605088
 21
36.71516551655586
 31
0.0
  0
LINE
  5
C7E
330
1F
100
AcDbEntity
  8
0
  6
Continuous
 62
     7
100
AcDbLine
 10
204.7642765605088
 20
-36.28483448344417
 30
0.0
 11
204.7642765605088
 21
-36.5589230366744
 31
0.0
  0
LINE
  5
C7F
330
1F
100
AcDbEntity
  8
0
  6
Continuous
 62
     7
100
AcDbLine
 10
273.7642765605087
 20
-35.13389108721777
 30
0.0
 11
204.7642765605088
 21
-35.78483448344417
 31
0.0
  0
LINE
  5
C80
330
1F
100
AcDbEntity
  8
0
  6
Continuous
 62
     7
100
AcDbLine
 10
273.7642765605087
 20
-35.13389108721777
 30
0.0
 11
273.7642765605087
 21
-36.28483448344417
 31
0.0
  0
LINE
  5
C81
330
1F
100
AcDbEntity
  8
0
  6
Continuous
 62
     7
100
AcDbLine
 10
196.7642765605088
 20
36.9410769633256
 30
0.0
 11
196.7642765605088
 21
36.71516551655586
 31
0.0
  0
LINE
  5
C82
330
1F
100
AcDbEntity
  8
0
  6
Continuous
 62
     7
100
AcDbLine
 10
204.7642765605088
 20
-35.78483448344417
 30
0.0
 11
204.7642765605088
 21
36.9410769633256
 31
0.0
  0
LINE
  5
C83
330
1F
100
AcDbEntity
  8
0
  6
Continuous
 62
     7
100
AcDbLine
 10
204.7642765605088
 20
-35.78483448344417
 30
0.0
 11
204.7642765605088
 21
-36.28483448344417
 31
0.0
  0
LINE
  5
C84
330
1F
100
AcDbEntity
  8
0
  6
Continuous
 62
     7
100
AcDbLine
 10
204.7642765605088
 20
-14.87152095403712
 30
0.0
 11
204.7642765605088
 21
-25.09386257127721
 31
0.0
  0
LINE
  5
C85
330
1F
100
AcDbEntity
  8
0
  6
Continuous
 62
     7
100
AcDbLine
 10
204.7642765605088
 20
-26.49576257127728
 30
0.0
 11
204.7642765605088
 21
-23.79576257127724
 31
0.0
  0
LINE
  5
C86
330
1F
100
AcDbEntity
  8
0
  6
Continuous
 62
     7
100
AcDbLine
 10
204.7642765605088
 20
-14.87152095403712
 30
0.0
 11
204.7642765605088
 21
-13.48139617988522
 31
0.0
  0
LINE
  5
C87
330
1F
100
AcDbEntity
  8
0
  6
CENTER_DASH_DASH
 62
   171
100
AcDbLine
 10
204.8797305149118
 20
-13.47950349210714
 30
0.0
 11
204.8797305149118
 21
-13.49576257127728
 31
0.0
  0
LINE
  5
C88
330
1F
100
AcDbEntity
  8
0
  6
Continuous
 62
     7
100
AcDbLine
 10
208.4297765605089
 20
-15.43516257127725
 30
0.0
 11
206.2642765605088
 21
-15.24576257127728
 31
0.0
  0
LINE
  5
C89
330
1F
100
AcDbEntity
  8
0
  6
Continuous
 62
     7
100
AcDbLine
 10
208.4297765605089
 20
-25.5562625712771
 30
0.0
 11
206.2642765605088
 21
-25.74576257127728
 31
0.0
  0
LINE
  5
C8A
330
1F
100
AcDbEntity
  8
0
  6
Continuous
 62
     7
100
AcDbLine
 10
210.1641765605087
 20
-17.32796257127711
 30
0.0
 11
210.1641765605087
 21
-23.66346257127725
 31
0.0
  0
LINE
  5
C8B
330
1F
100
AcDbEntity
  8
0
  6
Continuous
 62
     7
100
AcDbLine
 10
206.2642765605088
 20
-15.24576257127728
 30
0.0
 11
206.2642765605088
 21
-25.74576257127728
 31
0.0
  0
LINE
  5
C8C
330
1F
100
AcDbEntity
  8
0
  6
Continuous
 62
     7
100
AcDbLine
 10
204.7642765605088
 20
-26.59566257127722
 30
0.0
 11
206.2642765605088
 21
-26.59566257127722
 31
0.0
  0
LINE
  5
C8D
330
1F
100
AcDbEntity
  8
0
  6
Continuous
 62
     7
100
AcDbLine
 10
204.7642765605088
 20
-14.39566257127716
 30
0.0
 11
206.2642765605088
 21
-14.39566257127716
 31
0.0
  0
LINE
  5
C8E
330
1F
100
AcDbEntity
  8
0
  6
Continuous
 62
     7
100
AcDbLine
 10
204.7642765605088
 20
-20.49576257127728
 30
0.0
 11
206.2642765605088
 21
-20.89766257127712
 31
0.0
  0
LINE
  5
C8F
330
1F
100
AcDbEntity
  8
0
  6
Continuous
 62
     7
100
AcDbLine
 10
204.7642765605088
 20
-20.09386257127721
 30
0.0
 11
206.2642765605088
 21
-20.49576257127728
 31
0.0
  0
LINE
  5
C90
330
1F
100
AcDbEntity
  8
0
  6
Continuous
 62
     7
100
AcDbLine
 10
206.2642765605088
 20
-20.89766257127712
 30
0.0
 11
206.2642765605088
 21
-26.59566257127722
 31
0.0
  0
LINE
  5
C91
330
1F
100
AcDbEntity
  8
0
  6
Continuous
 62
     7
100
AcDbLine
 10
206.2642765605088
 20
-14.39566257127716
 30
0.0
 11
206.2642765605088
 21
-20.49576257127728
 31
0.0
  0
LINE
  5
C92
330
1F
100
AcDbEntity
  8
0
  6
Continuous
 62
     7
100
AcDbLine
 10
204.7642765605088
 20
-20.49576257127728
 30
0.0
 11
204.7642765605088
 21
-26.59566257127722
 31
0.0
  0
LINE
  5
C93
330
1F
100
AcDbEntity
  8
0
  6
Continuous
 62
     7
100
AcDbLine
 10
204.7642765605088
 20
-14.87152095403712
 30
0.0
 11
204.7642765605088
 21
-20.09386257127721
 31
0.0
  0
LINE
  5
C94
330
1F
100
AcDbEntity
  8
0
  6
Continuous
 62
     7
100
AcDbLine
 10
204.7642765605088
 20
-17.19576257127709
 30
0.0
 11
204.7642765605088
 21
-14.87152095403712
 31
0.0
  0
LINE
  5
C95
330
1F
100
AcDbEntity
  8
0
  6
Continuous
 62
     7
100
AcDbLine
 10
204.7642765605088
 20
-14.39566257127716
 30
0.0
 11
204.7642765605088
 21
-14.87152095403712
 31
0.0
  0
LINE
  5
C96
330
1F
100
AcDbEntity
  8
0
  6
Continuous
 62
     7
100
AcDbLine
 10
194.7642765605088
 20
74.19442153046269
 30
0.0
 11
194.7642765605088
 21
97.53540572036449
 31
0.0
  0
LINE
  5
C97
330
1F
100
AcDbEntity
  8
0
  6
Continuous
 62
     7
100
AcDbLine
 10
194.7642765605088
 20
36.71516551655586
 30
0.0
 11
194.7642765605088
 21
80.94283621932982
 31
0.0
  0
LINE
  5
C98
330
1F
100
AcDbEntity
  8
0
  6
DASH_CENTER
 62
     2
100
AcDbLine
 10
105.834345459508
 20
36.71516551655583
 30
0.0
 11
119.7642765605088
 21
36.71516551655586
 31
0.0
  0
LINE
  5
C99
330
1F
100
AcDbEntity
  8
0
  6
Continuous
 62
     7
100
AcDbLine
 10
194.7642765605088
 20
91.5246153407255
 30
0.0
 11
194.7642765605088
 21
132.0674848210371
 31
0.0
  0
LINE
  5
C9A
330
1F
100
AcDbEntity
  8
0
  6
Continuous
 62
     7
100
AcDbLine
 10
196.7642765605088
 20
97.53540572036449
 30
0.0
 11
198.7642765605088
 21
97.53540572036449
 31
0.0
  0
LINE
  5
C9B
330
1F
100
AcDbEntity
  8
0
  6
Continuous
 62
     7
100
AcDbLine
 10
196.7642765605088
 20
104.2838204092316
 30
0.0
 11
196.7642765605088
 21
110.9892540697861
 31
0.0
  0
LINE
  5
C9C
330
1F
100
AcDbEntity
  8
0
  6
Continuous
 62
     7
100
AcDbLine
 10
196.7642765605088
 20
36.48925406978607
 30
0.0
 11
196.7642765605088
 21
36.71516551655586
 31
0.0
  0
LINE
  5
C9D
330
1F
100
AcDbEntity
  8
0
  6
Continuous
 62
     7
100
AcDbLine
 10
198.7642765605088
 20
74.19442153046269
 30
0.0
 11
198.7642765605088
 21
79.32969364131887
 31
0.0
  0
LINE
  5
C9E
330
1F
100
AcDbEntity
  8
0
  6
Continuous
 62
     7
100
AcDbLine
 10
325.7642765605088
 20
-14.23167866749962
 30
0.0
 11
325.7642765605088
 21
87.66200970061129
 31
0.0
  0
LINE
  5
C9F
330
1F
100
AcDbEntity
  8
0
  6
Continuous
 62
     7
100
AcDbLine
 10
323.2090073743237
 20
-20.90820344539384
 30
0.0
 11
313.7071202925422
 21
-31.5033849058661
 31
0.0
  0
LINE
  5
CA0
330
1F
100
AcDbEntity
  8
0
  6
Continuous
 62
     7
100
AcDbLine
 10
306.3567249035526
 20
-34.82641515945319
 30
0.0
 11
273.7642765605087
 21
-35.13389108721777
 31
0.0
  0
LINE
  5
CA1
330
1F
100
AcDbEntity
  8
0
  6
Continuous
 62
     7
100
AcDbLine
 10
313.7071202925422
 20
104.9337159389777
 30
0.0
 11
323.2090073743237
 21
94.33853447850548
 31
0.0
  0
LINE
  5
CA2
330
1F
100
AcDbEntity
  8
0
  6
Continuous
 62
     7
100
AcDbLine
 10
204.7642765605088
 20
109.2151655165558
 30
0.0
 11
204.7642765605088
 21
100.8401448086065
 31
0.0
  0
LINE
  5
CA3
330
1F
100
AcDbEntity
  8
0
  6
Continuous
 62
     7
100
AcDbLine
 10
204.7642765605088
 20
109.2151655165558
 30
0.0
 11
225.7642765605088
 21
109.0170523090087
 31
0.0
  0
LINE
  5
CA4
330
1F
100
AcDbEntity
  8
0
  6
Continuous
 62
     7
100
AcDbLine
 10
204.7642765605088
 20
109.9892540697861
 30
0.0
 11
204.7642765605088
 21
109.2151655165558
 31
0.0
  0
LINE
  5
CA5
330
1F
100
AcDbEntity
  8
0
  6
Continuous
 62
     7
100
AcDbLine
 10
198.7642765605088
 20
95.03606077429786
 30
0.0
 11
198.7642765605088
 21
84.81371915705777
 31
0.0
  0
LINE
  5
CA6
330
1F
100
AcDbEntity
  8
0
  6
Continuous
 62
     7
100
AcDbLine
 10
198.7642765605088
 20
93.73796077429791
 30
0.0
 11
198.7642765605088
 21
96.43796077429801
 31
0.0
  0
LINE
  5
CA7
330
1F
100
AcDbEntity
  8
0
  6
Continuous
 62
     7
100
AcDbLine
 10
198.7642765605088
 20
83.42359438290586
 30
0.0
 11
198.7642765605088
 21
84.81371915705777
 31
0.0
  0
LINE
  5
CA8
330
1F
100
AcDbEntity
  8
0
  6
CENTER_DASH_DASH
 62
   171
100
AcDbLine
 10
198.8797305149118
 20
83.43796077429795
 30
0.0
 11
198.8797305149118
 21
83.42170169512774
 31
0.0
  0
LINE
  5
CA9
330
1F
100
AcDbEntity
  8
0
  6
Continuous
 62
     7
100
AcDbLine
 10
200.2642765605088
 20
85.18796077429795
 30
0.0
 11
202.4297765605089
 21
85.37736077429785
 31
0.0
  0
LINE
  5
CAA
330
1F
100
AcDbEntity
  8
0
  6
Continuous
 62
     7
100
AcDbLine
 10
200.2642765605088
 20
95.687960774298
 30
0.0
 11
202.4297765605089
 21
95.4984607742978
 31
0.0
  0
LINE
  5
CAB
330
1F
100
AcDbEntity
  8
0
  6
Continuous
 62
     7
100
AcDbLine
 10
204.1641765605087
 20
93.6056607742979
 30
0.0
 11
204.1641765605087
 21
87.27016077429775
 31
0.0
  0
LINE
  5
CAC
330
1F
100
AcDbEntity
  8
0
  6
Continuous
 62
     7
100
AcDbLine
 10
200.2642765605088
 20
95.687960774298
 30
0.0
 11
200.2642765605088
 21
85.18796077429795
 31
0.0
  0
LINE
  5
CAD
330
1F
100
AcDbEntity
  8
0
  6
Continuous
 62
     7
100
AcDbLine
 10
200.2642765605088
 20
96.53786077429792
 30
0.0
 11
198.7642765605088
 21
96.53786077429792
 31
0.0
  0
LINE
  5
CAE
330
1F
100
AcDbEntity
  8
0
  6
Continuous
 62
     7
100
AcDbLine
 10
200.2642765605088
 20
84.33786077429784
 30
0.0
 11
198.7642765605088
 21
84.33786077429784
 31
0.0
  0
LINE
  5
CAF
330
1F
100
AcDbEntity
  8
0
  6
Continuous
 62
     7
100
AcDbLine
 10
200.2642765605088
 20
90.83986077429779
 30
0.0
 11
198.7642765605088
 21
90.43796077429801
 31
0.0
  0
LINE
  5
CB0
330
1F
100
AcDbEntity
  8
0
  6
Continuous
 62
     7
100
AcDbLine
 10
200.2642765605088
 20
90.43796077429801
 30
0.0
 11
198.7642765605088
 21
90.03606077429788
 31
0.0
  0
LINE
  5
CB1
330
1F
100
AcDbEntity
  8
0
  6
Continuous
 62
     7
100
AcDbLine
 10
200.2642765605088
 20
96.53786077429792
 30
0.0
 11
200.2642765605088
 21
90.83986077429779
 31
0.0
  0
LINE
  5
CB2
330
1F
100
AcDbEntity
  8
0
  6
Continuous
 62
     7
100
AcDbLine
 10
200.2642765605088
 20
90.43796077429801
 30
0.0
 11
200.2642765605088
 21
84.33786077429784
 31
0.0
  0
LINE
  5
CB3
330
1F
100
AcDbEntity
  8
0
  6
Continuous
 62
     7
100
AcDbLine
 10
198.7642765605088
 20
96.53786077429792
 30
0.0
 11
198.7642765605088
 21
90.43796077429801
 31
0.0
  0
LINE
  5
CB4
330
1F
100
AcDbEntity
  8
0
  6
Continuous
 62
     7
100
AcDbLine
 10
198.7642765605088
 20
90.03606077429788
 30
0.0
 11
198.7642765605088
 21
84.81371915705777
 31
0.0
  0
LINE
  5
CB5
330
1F
100
AcDbEntity
  8
0
  6
Continuous
 62
     7
100
AcDbLine
 10
198.7642765605088
 20
84.81371915705777
 30
0.0
 11
198.7642765605088
 21
87.13796077429774
 31
0.0
  0
LINE
  5
CB6
330
1F
100
AcDbEntity
  8
0
  6
Continuous
 62
     7
100
AcDbLine
 10
198.7642765605088
 20
84.81371915705777
 30
0.0
 11
198.7642765605088
 21
84.33786077429784
 31
0.0
  0
LINE
  5
CB7
330
1F
100
AcDbEntity
  8
0
  6
Continuous
 62
     7
100
AcDbLine
 10
204.7642765605088
 20
98.5241936043889
 30
0.0
 11
204.7642765605088
 21
88.30185198714879
 31
0.0
  0
LINE
  5
CB8
330
1F
100
AcDbEntity
  8
0
  6
Continuous
 62
     7
100
AcDbLine
 10
204.7642765605088
 20
97.22609360438887
 30
0.0
 11
204.7642765605088
 21
99.92609360438891
 31
0.0
  0
LINE
  5
CB9
330
1F
100
AcDbEntity
  8
0
  6
Continuous
 62
     7
100
AcDbLine
 10
204.7642765605088
 20
86.91172721299688
 30
0.0
 11
204.7642765605088
 21
88.30185198714879
 31
0.0
  0
LINE
  5
CBA
330
1F
100
AcDbEntity
  8
0
  6
CENTER_DASH_DASH
 62
   171
100
AcDbLine
 10
204.8797305149118
 20
86.92609360438893
 30
0.0
 11
204.8797305149118
 21
86.9098345252188
 31
0.0
  0
LINE
  5
CBB
330
1F
100
AcDbEntity
  8
0
  6
Continuous
 62
     7
100
AcDbLine
 10
206.2642765605088
 20
88.67609360438891
 30
0.0
 11
208.4297765605089
 21
88.86549360438889
 31
0.0
  0
LINE
  5
CBC
330
1F
100
AcDbEntity
  8
0
  6
Continuous
 62
     7
100
AcDbLine
 10
206.2642765605088
 20
99.17609360438891
 30
0.0
 11
208.4297765605089
 21
98.98659360438879
 31
0.0
  0
LINE
  5
CBD
330
1F
100
AcDbEntity
  8
0
  6
Continuous
 62
     7
100
AcDbLine
 10
210.1641765605087
 20
97.09379360438893
 30
0.0
 11
210.1641765605087
 21
90.75829360438879
 31
0.0
  0
LINE
  5
CBE
330
1F
100
AcDbEntity
  8
0
  6
Continuous
 62
     7
100
AcDbLine
 10
206.2642765605088
 20
99.17609360438891
 30
0.0
 11
206.2642765605088
 21
88.67609360438891
 31
0.0
  0
LINE
  5
CBF
330
1F
100
AcDbEntity
  8
0
  6
Continuous
 62
     7
100
AcDbLine
 10
206.2642765605088
 20
100.0259936043889
 30
0.0
 11
204.7642765605088
 21
100.0259936043889
 31
0.0
  0
LINE
  5
CC0
330
1F
100
AcDbEntity
  8
0
  6
Continuous
 62
     7
100
AcDbLine
 10
206.2642765605088
 20
87.82599360438883
 30
0.0
 11
204.7642765605088
 21
87.82599360438883
 31
0.0
  0
LINE
  5
CC1
330
1F
100
AcDbEntity
  8
0
  6
Continuous
 62
     7
100
AcDbLine
 10
206.2642765605088
 20
94.32799360438879
 30
0.0
 11
204.7642765605088
 21
93.92609360438891
 31
0.0
  0
LINE
  5
CC2
330
1F
100
AcDbEntity
  8
0
  6
Continuous
 62
     7
100
AcDbLine
 10
206.2642765605088
 20
93.92609360438891
 30
0.0
 11
204.7642765605088
 21
93.5241936043889
 31
0.0
  0
LINE
  5
CC3
330
1F
100
AcDbEntity
  8
0
  6
Continuous
 62
     7
100
AcDbLine
 10
206.2642765605088
 20
100.0259936043889
 30
0.0
 11
206.2642765605088
 21
94.32799360438879
 31
0.0
  0
LINE
  5
CC4
330
1F
100
AcDbEntity
  8
0
  6
Continuous
 62
     7
100
AcDbLine
 10
206.2642765605088
 20
93.92609360438891
 30
0.0
 11
206.2642765605088
 21
87.82599360438883
 31
0.0
  0
LINE
  5
CC5
330
1F
100
AcDbEntity
  8
0
  6
Continuous
 62
     7
100
AcDbLine
 10
204.7642765605088
 20
100.0259936043889
 30
0.0
 11
204.7642765605088
 21
93.92609360438891
 31
0.0
  0
LINE
  5
CC6
330
1F
100
AcDbEntity
  8
0
  6
Continuous
 62
     7
100
AcDbLine
 10
204.7642765605088
 20
93.5241936043889
 30
0.0
 11
204.7642765605088
 21
88.30185198714879
 31
0.0
  0
LINE
  5
CC7
330
1F
100
AcDbEntity
  8
0
  6
Continuous
 62
     7
100
AcDbLine
 10
204.7642765605088
 20
88.30185198714879
 30
0.0
 11
204.7642765605088
 21
90.62609360438878
 31
0.0
  0
LINE
  5
CC8
330
1F
100
AcDbEntity
  8
0
  6
Continuous
 62
     7
100
AcDbLine
 10
204.7642765605088
 20
88.30185198714879
 30
0.0
 11
204.7642765605088
 21
87.82599360438883
 31
0.0
  0
LINE
  5
CC9
330
1F
100
AcDbEntity
  8
0
  6
Continuous
 62
     7
100
AcDbLine
 10
198.7642765605088
 20
149.23004900128
 30
0.0
 11
198.7642765605088
 21
139.0077073840399
 31
0.0
  0
LINE
  5
CCA
330
1F
100
AcDbEntity
  8
0
  6
Continuous
 62
     7
100
AcDbLine
 10
198.7642765605088
 20
147.93194900128
 30
0.0
 11
198.7642765605088
 21
150.63194900128
 31
0.0
  0
LINE
  5
CCB
330
1F
100
AcDbEntity
  8
0
  6
Continuous
 62
     7
100
AcDbLine
 10
198.7642765605088
 20
137.617582609888
 30
0.0
 11
198.7642765605088
 21
139.0077073840399
 31
0.0
  0
LINE
  5
CCC
330
1F
100
AcDbEntity
  8
0
  6
CENTER_DASH_DASH
 62
   171
100
AcDbLine
 10
198.8797305149118
 20
137.63194900128
 30
0.0
 11
198.8797305149118
 21
137.6156899221099
 31
0.0
  0
LINE
  5
CCD
330
1F
100
AcDbEntity
  8
0
  6
Continuous
 62
     7
100
AcDbLine
 10
200.2642765605088
 20
139.38194900128
 30
0.0
 11
202.4297765605089
 21
139.57134900128
 31
0.0
  0
LINE
  5
CCE
330
1F
100
AcDbEntity
  8
0
  6
Continuous
 62
     7
100
AcDbLine
 10
200.2642765605088
 20
149.88194900128
 30
0.0
 11
202.4297765605089
 21
149.6924490012798
 31
0.0
  0
LINE
  5
CCF
330
1F
100
AcDbEntity
  8
0
  6
Continuous
 62
     7
100
AcDbLine
 10
204.1641765605087
 20
147.79964900128
 30
0.0
 11
204.1641765605087
 21
141.4641490012799
 31
0.0
  0
LINE
  5
CD0
330
1F
100
AcDbEntity
  8
0
  6
Continuous
 62
     7
100
AcDbLine
 10
200.2642765605088
 20
149.88194900128
 30
0.0
 11
200.2642765605088
 21
139.38194900128
 31
0.0
  0
LINE
  5
CD1
330
1F
100
AcDbEntity
  8
0
  6
Continuous
 62
     7
100
AcDbLine
 10
200.2642765605088
 20
150.73184900128
 30
0.0
 11
198.7642765605088
 21
150.73184900128
 31
0.0
  0
LINE
  5
CD2
330
1F
100
AcDbEntity
  8
0
  6
Continuous
 62
     7
100
AcDbLine
 10
200.2642765605088
 20
138.5318490012799
 30
0.0
 11
198.7642765605088
 21
138.5318490012799
 31
0.0
  0
LINE
  5
CD3
330
1F
100
AcDbEntity
  8
0
  6
Continuous
 62
     7
100
AcDbLine
 10
200.2642765605088
 20
145.0338490012799
 30
0.0
 11
198.7642765605088
 21
144.63194900128
 31
0.0
  0
LINE
  5
CD4
330
1F
100
AcDbEntity
  8
0
  6
Continuous
 62
     7
100
AcDbLine
 10
200.2642765605088
 20
144.63194900128
 30
0.0
 11
198.7642765605088
 21
144.23004900128
 31
0.0
  0
LINE
  5
CD5
330
1F
100
AcDbEntity
  8
0
  6
Continuous
 62
     7
100
AcDbLine
 10
200.2642765605088
 20
150.73184900128
 30
0.0
 11
200.2642765605088
 21
145.0338490012799
 31
0.0
  0
LINE
  5
CD6
330
1F
100
AcDbEntity
  8
0
  6
Continuous
 62
     7
100
AcDbLine
 10
200.2642765605088
 20
144.63194900128
 30
0.0
 11
200.2642765605088
 21
138.5318490012799
 31
0.0
  0
LINE
  5
CD7
330
1F
100
AcDbEntity
  8
0
  6
Continuous
 62
     7
100
AcDbLine
 10
198.7642765605088
 20
150.73184900128
 30
0.0
 11
198.7642765605088
 21
144.63194900128
 31
0.0
  0
LINE
  5
CD8
330
1F
100
AcDbEntity
  8
0
  6
Continuous
 62
     7
100
AcDbLine
 10
198.7642765605088
 20
144.23004900128
 30
0.0
 11
198.7642765605088
 21
139.0077073840399
 31
0.0
  0
LINE
  5
CD9
330
1F
100
AcDbEntity
  8
0
  6
Continuous
 62
     7
100
AcDbLine
 10
198.7642765605088
 20
139.0077073840399
 30
0.0
 11
198.7642765605088
 21
141.3319490012798
 31
0.0
  0
LINE
  5
CDA
330
1F
100
AcDbEntity
  8
0
  6
Continuous
 62
     7
100
AcDbLine
 10
198.7642765605088
 20
139.0077073840399
 30
0.0
 11
198.7642765605088
 21
138.5318490012799
 31
0.0
  0
LINE
  5
CDB
330
1F
100
AcDbEntity
  8
0
  6
Continuous
 62
     7
100
AcDbLine
 10
194.7642765605088
 20
132.0674848210371
 30
0.0
 11
196.7642765605088
 21
132.0674848210371
 31
0.0
  0
LINE
  5
CDC
330
1F
100
AcDbEntity
  8
0
  6
Continuous
 62
     7
100
AcDbLine
 10
194.7642765605088
 20
97.86169353119301
 30
0.0
 11
194.7642765605088
 21
97.53540572036449
 31
0.0
  0
LINE
  5
CDD
330
1F
100
AcDbEntity
  8
0
  6
Continuous
 62
     7
100
AcDbLine
 10
194.7642765605088
 20
97.53540572036449
 30
0.0
 11
196.7642765605088
 21
97.53540572036449
 31
0.0
  0
LINE
  5
CDE
330
1F
100
AcDbEntity
  8
0
  6
Continuous
 62
     7
100
AcDbLine
 10
198.7642765605088
 20
97.53540572036449
 30
0.0
 11
198.7642765605088
 21
79.32969364131887
 31
0.0
  0
LINE
  5
CDF
330
1F
100
AcDbEntity
  8
0
  6
Continuous
 62
     7
100
AcDbLine
 10
198.7642765605088
 20
151.9559604480496
 30
0.0
 11
198.7642765605088
 21
132.0674848210371
 31
0.0
  0
LINE
  5
CE0
330
1F
100
AcDbEntity
  8
0
  6
Continuous
 62
     7
100
AcDbLine
 10
198.7642765605088
 20
151.9559604480496
 30
0.0
 11
194.7642765605088
 21
151.9559604480496
 31
0.0
  0
LINE
  5
CE1
330
1F
100
AcDbEntity
  8
0
  6
Continuous
 62
     7
100
AcDbLine
 10
194.7642765605088
 20
151.9559604480496
 30
0.0
 11
194.7642765605088
 21
132.0674848210371
 31
0.0
  0
LINE
  5
CE2
330
1F
100
AcDbEntity
  8
0
  6
Continuous
 62
     7
100
AcDbLine
 10
198.7642765605088
 20
74.19442153046269
 30
0.0
 11
196.7642765605088
 21
74.19442153046269
 31
0.0
  0
LINE
  5
CE3
330
1F
100
AcDbEntity
  8
0
  6
Continuous
 62
     7
100
AcDbLine
 10
196.7642765605088
 20
97.53540572036449
 30
0.0
 11
196.7642765605088
 21
132.0674848210371
 31
0.0
  0
LINE
  5
CE4
330
1F
100
AcDbEntity
  8
0
  6
Continuous
 62
     7
100
AcDbLine
 10
196.7642765605088
 20
132.0674848210371
 30
0.0
 11
198.7642765605088
 21
132.0674848210371
 31
0.0
  0
LINE
  5
CE5
330
1F
100
AcDbEntity
  8
0
  6
Continuous
 62
     7
100
AcDbLine
 10
196.7642765605088
 20
36.71516551655586
 30
0.0
 11
196.7642765605088
 21
74.19442153046269
 31
0.0
  0
LINE
  5
CE6
330
1F
100
AcDbEntity
  8
0
  6
DASH_CENTER
 62
     2
100
AcDbLine
 10
196.7642765605088
 20
36.71516551655586
 30
0.0
 11
194.7642765605088
 21
36.71516551655586
 31
0.0
  0
LINE
  5
CE7
330
1F
100
AcDbEntity
  8
0
  6
Continuous
 62
     7
100
AcDbLine
 10
196.7642765605088
 20
36.71516551655586
 30
0.0
 11
196.7642765605088
 21
36.48925406978607
 31
0.0
  0
LINE
  5
CE8
330
1F
100
AcDbEntity
  8
0
  6
Continuous
 62
     7
100
AcDbLine
 10
196.7642765605088
 20
36.71516551655586
 30
0.0
 11
196.7642765605088
 21
36.9410769633256
 31
0.0
  0
LINE
  5
CE9
330
1F
100
AcDbEntity
  8
0
  6
Continuous
 62
     7
100
AcDbLine
 10
196.7642765605088
 20
74.19442153046269
 30
0.0
 11
194.7642765605088
 21
74.19442153046269
 31
0.0
  0
LINE
  5
CEA
330
1F
100
AcDbEntity
  8
0
  6
Continuous
 62
     7
100
AcDbLine
 10
192.7642765605088
 20
36.71516551655586
 30
0.0
 11
192.7642765605088
 21
145.4476036094129
 31
0.0
  0
LINE
  5
CEB
330
1F
100
AcDbEntity
  8
0
  6
DASH_CENTER
 62
     2
100
AcDbLine
 10
192.7642765605088
 20
36.71516551655586
 30
0.0
 11
194.7642765605088
 21
36.71516551655586
 31
0.0
  0
LINE
  5
CEC
330
1F
100
AcDbEntity
  8
0
  6
Continuous
 62
     7
100
AcDbLine
 10
204.7642765605088
 20
100.8401448086065
 30
0.0
 11
204.7642765605088
 21
80.94283621932982
 31
0.0
  0
LINE
  5
CED
330
1F
100
AcDbEntity
  8
0
  6
Continuous
 62
     7
100
AcDbLine
 10
204.7642765605088
 20
80.94283621932982
 30
0.0
 11
204.7642765605088
 21
36.48925406978607
 31
0.0
  0
LINE
  5
CEE
330
1F
100
AcDbEntity
  8
0
  6
Continuous
 62
     7
100
AcDbLine
 10
119.7642765605088
 20
36.71516551655586
 30
0.0
 11
119.7642765605088
 21
96.2151655165559
 31
0.0
  0
LINE
  5
CEF
330
1F
100
AcDbEntity
  8
0
  6
Continuous
 62
     7
100
AcDbLine
 10
119.7642765605088
 20
96.7151655165558
 30
0.0
 11
121.2642765605088
 21
96.7151655165558
 31
0.0
  0
LINE
  5
CF0
330
1F
100
AcDbEntity
  8
0
  6
Continuous
 62
     7
100
AcDbLine
 10
123.2642765605088
 20
145.4476036094129
 30
0.0
 11
123.2642765605088
 21
141.4529138081421
 31
0.0
  0
LINE
  5
CF1
330
1F
100
AcDbEntity
  8
0
  6
DASH_CENTER
 62
     2
100
AcDbLine
 10
192.7642765605088
 20
36.71516551655586
 30
0.0
 11
121.2642765605088
 21
36.71516551655586
 31
0.0
  0
LINE
  5
CF2
330
1F
100
AcDbEntity
  8
0
  6
Continuous
 62
     7
100
AcDbLine
 10
172.7642765605088
 20
165.4476036094129
 30
0.0
 11
143.2642765605088
 21
165.4476036094129
 31
0.0
  0
LINE
  5
CF3
330
1F
100
AcDbEntity
  8
0
  6
Continuous
 62
     7
100
AcDbLine
 10
191.6756829402831
 20
151.9559604480496
 30
0.0
 11
194.7642765605088
 21
151.9559604480496
 31
0.0
  0
LINE
  5
CF4
330
1F
100
AcDbEntity
  8
0
  6
Continuous
 62
     7
100
AcDbLine
 10
123.2642765605088
 20
98.71516551655581
 30
0.0
 11
123.2642765605088
 21
36.71516551655586
 31
0.0
  0
LINE
  5
CF5
330
1F
100
AcDbEntity
  8
0
  6
DASH_CENTER
 62
     2
100
AcDbLine
 10
123.2642765605088
 20
36.71516551655586
 30
0.0
 11
119.7642765605088
 21
36.71516551655586
 31
0.0
  0
LINE
  5
CF6
330
1F
100
AcDbEntity
  8
0
  6
Continuous
 62
     7
100
AcDbLine
 10
196.7642765605088
 20
36.71516551655586
 30
0.0
 11
196.7642765605088
 21
36.48925406978607
 31
0.0
  0
LINE
  5
CF7
330
1F
100
AcDbEntity
  8
0
  6
Continuous
 62
     7
100
AcDbLine
 10
194.7642765605088
 20
-24.10507468725281
 30
0.0
 11
194.7642765605088
 21
-0.76409049735103
 31
0.0
  0
LINE
  5
CF8
330
1F
100
AcDbEntity
  8
0
  6
Continuous
 62
     7
100
AcDbLine
 10
194.7642765605088
 20
-7.512505186218179
 30
0.0
 11
194.7642765605088
 21
36.71516551655586
 31
0.0
  0
LINE
  5
CF9
330
1F
100
AcDbEntity
  8
0
  6
Continuous
 62
     7
100
AcDbLine
 10
198.7642765605088
 20
-24.10507468725281
 30
0.0
 11
196.7642765605088
 21
-24.10507468725281
 31
0.0
  0
LINE
  5
CFA
330
1F
100
AcDbEntity
  8
0
  6
Continuous
 62
     7
100
AcDbLine
 10
196.7642765605088
 20
-37.55892303667442
 30
0.0
 11
196.7642765605088
 21
-30.85348937611995
 31
0.0
  0
LINE
  5
CFB
330
1F
100
AcDbEntity
  8
0
  6
Continuous
 62
     7
100
AcDbLine
 10
196.7642765605088
 20
36.71516551655586
 30
0.0
 11
196.7642765605088
 21
36.9410769633256
 31
0.0
  0
LINE
  5
CFC
330
1F
100
AcDbEntity
  8
0
  6
Continuous
 62
     7
100
AcDbLine
 10
198.7642765605088
 20
-5.89936260820723
 30
0.0
 11
198.7642765605088
 21
-1.38130419152399
 31
0.0
  0
LINE
  5
CFD
330
1F
100
AcDbEntity
  8
0
  6
Continuous
 62
     7
100
AcDbLine
 10
198.7642765605088
 20
-11.38338812394612
 30
0.0
 11
198.7642765605088
 21
-21.60572974118621
 31
0.0
  0
LINE
  5
CFE
330
1F
100
AcDbEntity
  8
0
  6
Continuous
 62
     7
100
AcDbLine
 10
198.7642765605088
 20
-23.00762974118632
 30
0.0
 11
198.7642765605088
 21
-20.30762974118622
 31
0.0
  0
LINE
  5
CFF
330
1F
100
AcDbEntity
  8
0
  6
Continuous
 62
     7
100
AcDbLine
 10
198.7642765605088
 20
-11.38338812394612
 30
0.0
 11
198.7642765605088
 21
-9.99326334979422
 31
0.0
  0
LINE
  5
D00
330
1F
100
AcDbEntity
  8
0
  6
CENTER_DASH_DASH
 62
   171
100
AcDbLine
 10
198.8797305149118
 20
-9.991370662016109
 30
0.0
 11
198.8797305149118
 21
-10.00762974118632
 31
0.0
  0
LINE
  5
D01
330
1F
100
AcDbEntity
  8
0
  6
Continuous
 62
     7
100
AcDbLine
 10
202.4297765605089
 20
-11.94702974118621
 30
0.0
 11
200.2642765605088
 21
-11.75762974118632
 31
0.0
  0
LINE
  5
D02
330
1F
100
AcDbEntity
  8
0
  6
Continuous
 62
     7
100
AcDbLine
 10
202.4297765605089
 20
-22.06812974118611
 30
0.0
 11
200.2642765605088
 21
-22.25762974118632
 31
0.0
  0
LINE
  5
D03
330
1F
100
AcDbEntity
  8
0
  6
Continuous
 62
     7
100
AcDbLine
 10
204.1641765605087
 20
-13.83982974118611
 30
0.0
 11
204.1641765605087
 21
-20.17532974118622
 31
0.0
  0
LINE
  5
D04
330
1F
100
AcDbEntity
  8
0
  6
Continuous
 62
     7
100
AcDbLine
 10
200.2642765605088
 20
-11.75762974118632
 30
0.0
 11
200.2642765605088
 21
-22.25762974118632
 31
0.0
  0
LINE
  5
D05
330
1F
100
AcDbEntity
  8
0
  6
Continuous
 62
     7
100
AcDbLine
 10
198.7642765605088
 20
-23.10752974118621
 30
0.0
 11
200.2642765605088
 21
-23.10752974118621
 31
0.0
  0
LINE
  5
D06
330
1F
100
AcDbEntity
  8
0
  6
Continuous
 62
     7
100
AcDbLine
 10
198.7642765605088
 20
-10.90752974118621
 30
0.0
 11
200.2642765605088
 21
-10.90752974118621
 31
0.0
  0
LINE
  5
D07
330
1F
100
AcDbEntity
  8
0
  6
Continuous
 62
     7
100
AcDbLine
 10
198.7642765605088
 20
-17.00762974118632
 30
0.0
 11
200.2642765605088
 21
-17.40952974118612
 31
0.0
  0
LINE
  5
D08
330
1F
100
AcDbEntity
  8
0
  6
Continuous
 62
     7
100
AcDbLine
 10
198.7642765605088
 20
-16.60572974118621
 30
0.0
 11
200.2642765605088
 21
-17.00762974118632
 31
0.0
  0
LINE
  5
D09
330
1F
100
AcDbEntity
  8
0
  6
Continuous
 62
     7
100
AcDbLine
 10
200.2642765605088
 20
-17.40952974118612
 30
0.0
 11
200.2642765605088
 21
-23.10752974118621
 31
0.0
  0
LINE
  5
D0A
330
1F
100
AcDbEntity
  8
0
  6
Continuous
 62
     7
100
AcDbLine
 10
200.2642765605088
 20
-10.90752974118621
 30
0.0
 11
200.2642765605088
 21
-17.00762974118632
 31
0.0
  0
LINE
  5
D0B
330
1F
100
AcDbEntity
  8
0
  6
Continuous
 62
     7
100
AcDbLine
 10
198.7642765605088
 20
-17.00762974118632
 30
0.0
 11
198.7642765605088
 21
-23.10752974118621
 31
0.0
  0
LINE
  5
D0C
330
1F
100
AcDbEntity
  8
0
  6
Continuous
 62
     7
100
AcDbLine
 10
198.7642765605088
 20
-11.38338812394612
 30
0.0
 11
198.7642765605088
 21
-16.60572974118621
 31
0.0
  0
LINE
  5
D0D
330
1F
100
AcDbEntity
  8
0
  6
Continuous
 62
     7
100
AcDbLine
 10
198.7642765605088
 20
-13.70762974118611
 30
0.0
 11
198.7642765605088
 21
-11.38338812394612
 31
0.0
  0
LINE
  5
D0E
330
1F
100
AcDbEntity
  8
0
  6
Continuous
 62
     7
100
AcDbLine
 10
198.7642765605088
 20
-10.90752974118621
 30
0.0
 11
198.7642765605088
 21
-11.38338812394612
 31
0.0
  0
LINE
  5
D0F
330
1F
100
AcDbEntity
  8
0
  6
Continuous
 62
     7
100
AcDbLine
 10
194.7642765605088
 20
-24.10507468725281
 30
0.0
 11
194.7642765605088
 21
-24.43136249808131
 31
0.0
  0
LINE
  5
D10
330
1F
100
AcDbEntity
  8
0
  6
Continuous
 62
     7
100
AcDbLine
 10
196.7642765605088
 20
-24.10507468725281
 30
0.0
 11
194.7642765605088
 21
-24.10507468725281
 31
0.0
  0
LINE
  5
D11
330
1F
100
AcDbEntity
  8
0
  6
Continuous
 62
     7
100
AcDbLine
 10
198.7642765605088
 20
-7.512505186218179
 30
0.0
 11
198.7642765605088
 21
-24.10507468725281
 31
0.0
  0
LINE
  5
D12
330
1F
100
AcDbEntity
  8
0
  6
Continuous
 62
     7
100
AcDbLine
 10
196.7642765605088
 20
-0.76409049735103
 30
0.0
 11
198.7642765605088
 21
-0.76409049735103
 31
0.0
  0
LINE
  5
D13
330
1F
100
AcDbEntity
  8
0
  6
Continuous
 62
     7
100
AcDbLine
 10
196.7642765605088
 20
-27.40981377549485
 30
0.0
 11
196.7642765605088
 21
-24.10507468725281
 31
0.0
  0
LINE
  5
D14
330
1F
100
AcDbEntity
  8
0
  6
Continuous
 62
     7
100
AcDbLine
 10
196.7642765605088
 20
-0.76409049735103
 30
0.0
 11
196.7642765605088
 21
17.05080520016017
 31
0.0
  0
LINE
  5
D15
330
1F
100
AcDbEntity
  8
0
  6
Continuous
 62
     7
100
AcDbLine
 10
196.7642765605088
 20
36.9410769633256
 30
0.0
 11
196.7642765605088
 21
36.71516551655586
 31
0.0
  0
LINE
  5
D16
330
1F
100
AcDbEntity
  8
0
  6
Continuous
 62
     7
100
AcDbLine
 10
196.7642765605088
 20
36.48925406978607
 30
0.0
 11
196.7642765605088
 21
36.71516551655586
 31
0.0
  0
LINE
  5
D17
330
1F
100
AcDbEntity
  8
0
  6
Continuous
 62
     7
100
AcDbLine
 10
194.7642765605088
 20
-0.76409049735103
 30
0.0
 11
196.7642765605088
 21
-0.76409049735103
 31
0.0
  0
LINE
  5
D18
330
1F
100
AcDbEntity
  8
0
  6
Continuous
 62
     7
100
AcDbLine
 10
198.7642765605088
 20
-5.89936260820723
 30
0.0
 11
198.7642765605088
 21
-7.512505186218179
 31
0.0
  0
LINE
  5
D19
330
1F
100
AcDbEntity
  8
0
  6
Continuous
 62
     7
100
AcDbLine
 10
119.7642765605088
 20
-23.28483448344419
 30
0.0
 11
119.7642765605088
 21
-22.78483448344414
 31
0.0
  0
LINE
  5
D1A
330
1F
100
AcDbEntity
  8
0
  6
Continuous
 62
     7
100
AcDbLine
 10
121.2642765605088
 20
-23.28483448344419
 30
0.0
 11
119.7642765605088
 21
-23.28483448344419
 31
0.0
  0
LINE
  5
D1B
330
1F
100
AcDbEntity
  8
0
  6
Continuous
 62
     7
100
AcDbLine
 10
123.2642765605088
 20
-25.28483448344419
 30
0.0
 11
123.2642765605088
 21
-34.27705358163624
 31
0.0
  0
LINE
  5
D1C
330
1F
100
AcDbEntity
  8
0
  6
Continuous
 62
     7
100
AcDbLine
 10
123.2642765605088
 20
36.71516551655586
 30
0.0
 11
123.2642765605088
 21
-25.28483448344419
 31
0.0
  0
LINE
  5
D1D
330
1F
100
AcDbEntity
  8
0
  6
Continuous
 62
     7
100
AcDbLine
 10
121.2642765605088
 20
145.6693307503315
 30
0.0
 11
123.2642765605088
 21
145.6693307503315
 31
0.0
  0
LINE
  5
D1E
330
1F
100
AcDbEntity
  8
0
  6
Continuous
 62
     7
100
AcDbLine
 10
121.2642765605088
 20
141.4529138081421
 30
0.0
 11
123.2642765605088
 21
141.4529138081421
 31
0.0
  0
LINE
  5
D1F
330
1F
100
AcDbEntity
  8
0
  6
Continuous
 62
     7
100
AcDbLine
 10
123.2642765605088
 20
141.4529138081421
 30
0.0
 11
123.2642765605088
 21
134.9522240363798
 31
0.0
  0
LINE
  5
D20
330
1F
100
AcDbEntity
  8
0
  6
Continuous
 62
     7
100
AcDbLine
 10
121.2642765605088
 20
134.9522240363798
 30
0.0
 11
123.2642765605088
 21
134.9522240363798
 31
0.0
  0
LINE
  5
D21
330
1F
100
AcDbEntity
  8
0
  6
Continuous
 62
     7
100
AcDbLine
 10
123.2642765605088
 20
134.9522240363798
 30
0.0
 11
123.2642765605088
 21
126.7612542937331
 31
0.0
  0
LINE
  5
D22
330
1F
100
AcDbEntity
  8
0
  6
Continuous
 62
     7
100
AcDbLine
 10
121.2642765605088
 20
126.7612542937331
 30
0.0
 11
123.2642765605088
 21
126.7612542937331
 31
0.0
  0
LINE
  5
D23
330
1F
100
AcDbEntity
  8
0
  6
Continuous
 62
     7
100
AcDbLine
 10
123.2642765605088
 20
126.7612542937331
 30
0.0
 11
123.2642765605088
 21
98.71516551655581
 31
0.0
  0
LINE
  5
D24
330
1F
100
AcDbEntity
  8
0
  6
Continuous
 62
     7
100
AcDbLine
 10
121.2642765605088
 20
145.6693307503315
 30
0.0
 11
121.2642765605088
 21
126.7612542937331
 31
0.0
  0
LINE
  5
D25
330
1F
100
AcDbEntity
  8
0
  6
Continuous
 62
     7
100
AcDbLine
 10
192.7642765605088
 20
-36.56341400819339
 30
0.0
 11
192.7642765605088
 21
36.71516551655586
 31
0.0
  0
LINE
  5
D26
330
1F
100
AcDbEntity
  8
0
  6
Continuous
 62
     7
100
AcDbLine
 10
194.7642765605088
 20
-38.62202904036126
 30
0.0
 11
194.7642765605088
 21
-18.09428430761382
 31
0.0
  0
LINE
  5
D27
330
1F
100
AcDbEntity
  8
0
  6
Continuous
 62
     7
100
AcDbLine
 10
196.7642765605088
 20
-40.92503468272064
 30
0.0
 11
196.7642765605088
 21
-27.40981377549485
 31
0.0
  0
LINE
  5
D28
330
1F
100
AcDbEntity
  8
0
  6
Continuous
 62
     7
100
AcDbLine
 10
273.7642765605087
 20
-36.28483448344417
 30
0.0
 11
205.7642765605088
 21
-36.28483448344416
 31
0.0
  0
LINE
  5
D29
330
1F
100
AcDbEntity
  8
0
  6
Continuous
 62
     7
100
AcDbLine
 10
124.530257844741
 20
-105.2447646459817
 30
0.0
 11
125.130257844741
 21
-105.2447646459817
 31
0.0
  0
LINE
  5
D2A
330
1F
100
AcDbEntity
  8
0
  6
Continuous
 62
     7
100
AcDbLine
 10
125.130257844741
 20
-105.2447646459817
 30
0.0
 11
125.130257844741
 21
-106.1447646459817
 31
0.0
  0
LINE
  5
D2B
330
1F
100
AcDbEntity
  8
0
  6
Continuous
 62
     7
100
AcDbLine
 10
126.130257844741
 20
-107.1447646459817
 30
0.0
 11
127.0302578447411
 21
-107.1447646459817
 31
0.0
  0
LINE
  5
D2C
330
1F
100
AcDbEntity
  8
0
  6
Continuous
 62
     7
100
AcDbLine
 10
127.0302578447411
 20
-107.1447646459817
 30
0.0
 11
127.0302578447411
 21
-107.7447646459817
 31
0.0
  0
LINE
  5
D2D
330
1F
100
AcDbEntity
  8
0
  6
Continuous
 62
     7
100
AcDbLine
 10
122.030257844741
 20
-107.7447646459817
 30
0.0
 11
122.030257844741
 21
-107.1447646459817
 31
0.0
  0
LINE
  5
D2E
330
1F
100
AcDbEntity
  8
0
  6
Continuous
 62
     7
100
AcDbLine
 10
122.030257844741
 20
-107.1447646459817
 30
0.0
 11
122.930257844741
 21
-107.1447646459817
 31
0.0
  0
LINE
  5
D2F
330
1F
100
AcDbEntity
  8
0
  6
Continuous
 62
     7
100
AcDbLine
 10
123.930257844741
 20
-106.1447646459817
 30
0.0
 11
123.930257844741
 21
-105.2447646459817
 31
0.0
  0
LINE
  5
D30
330
1F
100
AcDbEntity
  8
0
  6
Continuous
 62
     7
100
AcDbLine
 10
123.930257844741
 20
-105.2447646459817
 30
0.0
 11
124.530257844741
 21
-105.2447646459817
 31
0.0
  0
LINE
  5
D31
330
1F
100
AcDbEntity
  8
0
  6
Continuous
 62
     7
100
AcDbLine
 10
124.530257844741
 20
-110.2447646459817
 30
0.0
 11
123.930257844741
 21
-110.2447646459817
 31
0.0
  0
LINE
  5
D32
330
1F
100
AcDbEntity
  8
0
  6
Continuous
 62
     7
100
AcDbLine
 10
123.930257844741
 20
-110.2447646459817
 30
0.0
 11
123.930257844741
 21
-109.3447646459817
 31
0.0
  0
LINE
  5
D33
330
1F
100
AcDbEntity
  8
0
  6
Continuous
 62
     7
100
AcDbLine
 10
122.930257844741
 20
-108.3447646459817
 30
0.0
 11
122.030257844741
 21
-108.3447646459817
 31
0.0
  0
LINE
  5
D34
330
1F
100
AcDbEntity
  8
0
  6
Continuous
 62
     7
100
AcDbLine
 10
122.030257844741
 20
-108.3447646459817
 30
0.0
 11
122.030257844741
 21
-107.7447646459817
 31
0.0
  0
LINE
  5
D35
330
1F
100
AcDbEntity
  8
0
  6
Continuous
 62
     7
100
AcDbLine
 10
127.0302578447411
 20
-107.7447646459817
 30
0.0
 11
127.0302578447411
 21
-108.3447646459817
 31
0.0
  0
LINE
  5
D36
330
1F
100
AcDbEntity
  8
0
  6
Continuous
 62
     7
100
AcDbLine
 10
127.0302578447411
 20
-108.3447646459817
 30
0.0
 11
126.1302578447411
 21
-108.3447646459817
 31
0.0
  0
LINE
  5
D37
330
1F
100
AcDbEntity
  8
0
  6
Continuous
 62
     7
100
AcDbLine
 10
125.1302578447411
 20
-109.3447646459817
 30
0.0
 11
125.1302578447411
 21
-110.2447646459817
 31
0.0
  0
LINE
  5
D38
330
1F
100
AcDbEntity
  8
0
  6
Continuous
 62
     7
100
AcDbLine
 10
125.1302578447411
 20
-110.2447646459817
 30
0.0
 11
124.530257844741
 21
-110.2447646459817
 31
0.0
  0
LINE
  5
D3A
330
1F
100
AcDbEntity
  8
0
  6
Continuous
 62
     7
100
AcDbLine
 10
188.4982952762765
 20
-107.7447646459817
 30
0.0
 11
188.4982952762765
 21
-107.1447646459817
 31
0.0
  0
LINE
  5
D3B
330
1F
100
AcDbEntity
  8
0
  6
Continuous
 62
     7
100
AcDbLine
 10
188.4982952762765
 20
-107.1447646459817
 30
0.0
 11
189.3982952762765
 21
-107.1447646459817
 31
0.0
  0
LINE
  5
D3C
330
1F
100
AcDbEntity
  8
0
  6
Continuous
 62
     7
100
AcDbLine
 10
190.3982952762765
 20
-106.1447646459817
 30
0.0
 11
190.3982952762765
 21
-105.2447646459817
 31
0.0
  0
LINE
  5
D3D
330
1F
100
AcDbEntity
  8
0
  6
Continuous
 62
     7
100
AcDbLine
 10
190.3982952762765
 20
-105.2447646459817
 30
0.0
 11
190.9982952762765
 21
-105.2447646459817
 31
0.0
  0
LINE
  5
D3E
330
1F
100
AcDbEntity
  8
0
  6
Continuous
 62
     7
100
AcDbLine
 10
190.9982952762765
 20
-110.2447646459817
 30
0.0
 11
190.3982952762765
 21
-110.2447646459817
 31
0.0
  0
LINE
  5
D3F
330
1F
100
AcDbEntity
  8
0
  6
Continuous
 62
     7
100
AcDbLine
 10
190.3982952762765
 20
-110.2447646459817
 30
0.0
 11
190.3982952762765
 21
-109.3447646459817
 31
0.0
  0
LINE
  5
D40
330
1F
100
AcDbEntity
  8
0
  6
Continuous
 62
     7
100
AcDbLine
 10
189.3982952762765
 20
-108.3447646459817
 30
0.0
 11
188.4982952762765
 21
-108.3447646459817
 31
0.0
  0
LINE
  5
D41
330
1F
100
AcDbEntity
  8
0
  6
Continuous
 62
     7
100
AcDbLine
 10
188.4982952762765
 20
-108.3447646459817
 30
0.0
 11
188.4982952762765
 21
-107.7447646459817
 31
0.0
  0
LINE
  5
D42
330
1F
100
AcDbEntity
  8
0
  6
Continuous
 62
     7
100
AcDbLine
 10
193.4982952762765
 20
-107.7447646459817
 30
0.0
 11
193.4982952762765
 21
-108.3447646459817
 31
0.0
  0
LINE
  5
D43
330
1F
100
AcDbEntity
  8
0
  6
Continuous
 62
     7
100
AcDbLine
 10
193.4982952762765
 20
-108.3447646459817
 30
0.0
 11
192.5982952762765
 21
-108.3447646459817
 31
0.0
  0
LINE
  5
D44
330
1F
100
AcDbEntity
  8
0
  6
Continuous
 62
     7
100
AcDbLine
 10
191.5982952762765
 20
-109.3447646459817
 30
0.0
 11
191.5982952762765
 21
-110.2447646459817
 31
0.0
  0
LINE
  5
D45
330
1F
100
AcDbEntity
  8
0
  6
Continuous
 62
     7
100
AcDbLine
 10
191.5982952762765
 20
-110.2447646459817
 30
0.0
 11
190.9982952762765
 21
-110.2447646459817
 31
0.0
  0
LINE
  5
D46
330
1F
100
AcDbEntity
  8
0
  6
Continuous
 62
     7
100
AcDbLine
 10
190.9982952762765
 20
-105.2447646459817
 30
0.0
 11
191.5982952762765
 21
-105.2447646459817
 31
0.0
  0
LINE
  5
D47
330
1F
100
AcDbEntity
  8
0
  6
Continuous
 62
     7
100
AcDbLine
 10
191.5982952762765
 20
-105.2447646459817
 30
0.0
 11
191.5982952762765
 21
-106.1447646459817
 31
0.0
  0
LINE
  5
D48
330
1F
100
AcDbEntity
  8
0
  6
Continuous
 62
     7
100
AcDbLine
 10
192.5982952762765
 20
-107.1447646459817
 30
0.0
 11
193.4982952762765
 21
-107.1447646459817
 31
0.0
  0
LINE
  5
D49
330
1F
100
AcDbEntity
  8
0
  6
Continuous
 62
     7
100
AcDbLine
 10
193.4982952762765
 20
-107.1447646459817
 30
0.0
 11
193.4982952762765
 21
-107.7447646459817
 31
0.0
  0
LINE
  5
D4A
330
1F
100
AcDbEntity
  8
0
  6
Continuous
 62
     7
100
AcDbLine
 10
190.9982952762766
 20
-43.77672721444623
 30
0.0
 11
190.3982952762765
 21
-43.77672721444623
 31
0.0
  0
LINE
  5
D4B
330
1F
100
AcDbEntity
  8
0
  6
Continuous
 62
     7
100
AcDbLine
 10
190.3982952762765
 20
-43.77672721444623
 30
0.0
 11
190.3982952762765
 21
-42.87672721444621
 31
0.0
  0
LINE
  5
D4C
330
1F
100
AcDbEntity
  8
0
  6
Continuous
 62
     7
100
AcDbLine
 10
189.3982952762766
 20
-41.87672721444622
 30
0.0
 11
188.4982952762765
 21
-41.87672721444622
 31
0.0
  0
LINE
  5
D4D
330
1F
100
AcDbEntity
  8
0
  6
Continuous
 62
     7
100
AcDbLine
 10
188.4982952762765
 20
-41.87672721444622
 30
0.0
 11
188.4982952762765
 21
-41.27672721444622
 31
0.0
  0
LINE
  5
D4E
330
1F
100
AcDbEntity
  8
0
  6
Continuous
 62
     7
100
AcDbLine
 10
193.4982952762766
 20
-41.27672721444622
 30
0.0
 11
193.4982952762766
 21
-41.87672721444622
 31
0.0
  0
LINE
  5
D4F
330
1F
100
AcDbEntity
  8
0
  6
Continuous
 62
     7
100
AcDbLine
 10
193.4982952762766
 20
-41.87672721444622
 30
0.0
 11
192.5982952762765
 21
-41.87672721444622
 31
0.0
  0
LINE
  5
D50
330
1F
100
AcDbEntity
  8
0
  6
Continuous
 62
     7
100
AcDbLine
 10
191.5982952762765
 20
-42.87672721444621
 30
0.0
 11
191.5982952762765
 21
-43.77672721444623
 31
0.0
  0
LINE
  5
D51
330
1F
100
AcDbEntity
  8
0
  6
Continuous
 62
     7
100
AcDbLine
 10
191.5982952762765
 20
-43.77672721444623
 30
0.0
 11
190.9982952762766
 21
-43.77672721444623
 31
0.0
  0
LINE
  5
D52
330
1F
100
AcDbEntity
  8
0
  6
Continuous
 62
     7
100
AcDbLine
 10
190.9982952762766
 20
-38.77672721444623
 30
0.0
 11
191.5982952762765
 21
-38.77672721444623
 31
0.0
  0
LINE
  5
D53
330
1F
100
AcDbEntity
  8
0
  6
Continuous
 62
     7
100
AcDbLine
 10
191.5982952762765
 20
-38.77672721444623
 30
0.0
 11
191.5982952762765
 21
-39.67672721444623
 31
0.0
  0
LINE
  5
D54
330
1F
100
AcDbEntity
  8
0
  6
Continuous
 62
     7
100
AcDbLine
 10
192.5982952762765
 20
-40.67672721444622
 30
0.0
 11
193.4982952762766
 21
-40.67672721444622
 31
0.0
  0
LINE
  5
D55
330
1F
100
AcDbEntity
  8
0
  6
Continuous
 62
     7
100
AcDbLine
 10
193.4982952762766
 20
-40.67672721444622
 30
0.0
 11
193.4982952762766
 21
-41.27672721444622
 31
0.0
  0
LINE
  5
D56
330
1F
100
AcDbEntity
  8
0
  6
Continuous
 62
     7
100
AcDbLine
 10
188.4982952762765
 20
-41.27672721444622
 30
0.0
 11
188.4982952762765
 21
-40.67672721444622
 31
0.0
  0
LINE
  5
D57
330
1F
100
AcDbEntity
  8
0
  6
Continuous
 62
     7
100
AcDbLine
 10
188.4982952762765
 20
-40.67672721444622
 30
0.0
 11
189.3982952762765
 21
-40.67672721444622
 31
0.0
  0
LINE
  5
D58
330
1F
100
AcDbEntity
  8
0
  6
Continuous
 62
     7
100
AcDbLine
 10
190.3982952762765
 20
-39.67672721444623
 30
0.0
 11
190.3982952762765
 21
-38.77672721444623
 31
0.0
  0
LINE
  5
D59
330
1F
100
AcDbEntity
  8
0
  6
Continuous
 62
     7
100
AcDbLine
 10
190.3982952762765
 20
-38.77672721444623
 30
0.0
 11
190.9982952762766
 21
-38.77672721444623
 31
0.0
  0
LINE
  5
D5A
330
1F
100
AcDbEntity
  8
0
  6
Continuous
 62
     7
100
AcDbLine
 10
127.030257844741
 20
-41.27672721444617
 30
0.0
 11
127.030257844741
 21
-41.87672721444617
 31
0.0
  0
LINE
  5
D5B
330
1F
100
AcDbEntity
  8
0
  6
Continuous
 62
     7
100
AcDbLine
 10
127.030257844741
 20
-41.87672721444617
 30
0.0
 11
126.130257844741
 21
-41.87672721444617
 31
0.0
  0
LINE
  5
D5C
330
1F
100
AcDbEntity
  8
0
  6
Continuous
 62
     7
100
AcDbLine
 10
125.130257844741
 20
-42.87672721444615
 30
0.0
 11
125.130257844741
 21
-43.7767272144462
 31
0.0
  0
LINE
  5
D5D
330
1F
100
AcDbEntity
  8
0
  6
Continuous
 62
     7
100
AcDbLine
 10
125.130257844741
 20
-43.7767272144462
 30
0.0
 11
124.530257844741
 21
-43.7767272144462
 31
0.0
  0
LINE
  5
D5E
330
1F
100
AcDbEntity
  8
0
  6
Continuous
 62
     7
100
AcDbLine
 10
124.530257844741
 20
-38.77672721444618
 30
0.0
 11
125.130257844741
 21
-38.77672721444618
 31
0.0
  0
LINE
  5
D5F
330
1F
100
AcDbEntity
  8
0
  6
Continuous
 62
     7
100
AcDbLine
 10
125.130257844741
 20
-38.77672721444618
 30
0.0
 11
125.130257844741
 21
-39.67672721444619
 31
0.0
  0
LINE
  5
D60
330
1F
100
AcDbEntity
  8
0
  6
Continuous
 62
     7
100
AcDbLine
 10
126.130257844741
 20
-40.67672721444618
 30
0.0
 11
127.030257844741
 21
-40.67672721444618
 31
0.0
  0
LINE
  5
D61
330
1F
100
AcDbEntity
  8
0
  6
Continuous
 62
     7
100
AcDbLine
 10
127.030257844741
 20
-40.67672721444618
 30
0.0
 11
127.030257844741
 21
-41.27672721444617
 31
0.0
  0
LINE
  5
D62
330
1F
100
AcDbEntity
  8
0
  6
Continuous
 62
     7
100
AcDbLine
 10
122.030257844741
 20
-41.27672721444617
 30
0.0
 11
122.030257844741
 21
-40.67672721444618
 31
0.0
  0
LINE
  5
D63
330
1F
100
AcDbEntity
  8
0
  6
Continuous
 62
     7
100
AcDbLine
 10
122.030257844741
 20
-40.67672721444618
 30
0.0
 11
122.930257844741
 21
-40.67672721444618
 31
0.0
  0
LINE
  5
D64
330
1F
100
AcDbEntity
  8
0
  6
Continuous
 62
     7
100
AcDbLine
 10
123.930257844741
 20
-39.67672721444619
 30
0.0
 11
123.930257844741
 21
-38.77672721444618
 31
0.0
  0
LINE
  5
D65
330
1F
100
AcDbEntity
  8
0
  6
Continuous
 62
     7
100
AcDbLine
 10
123.930257844741
 20
-38.77672721444618
 30
0.0
 11
124.530257844741
 21
-38.77672721444618
 31
0.0
  0
LINE
  5
D66
330
1F
100
AcDbEntity
  8
0
  6
Continuous
 62
     7
100
AcDbLine
 10
124.530257844741
 20
-43.7767272144462
 30
0.0
 11
123.930257844741
 21
-43.7767272144462
 31
0.0
  0
LINE
  5
D67
330
1F
100
AcDbEntity
  8
0
  6
Continuous
 62
     7
100
AcDbLine
 10
123.930257844741
 20
-43.7767272144462
 30
0.0
 11
123.930257844741
 21
-42.87672721444621
 31
0.0
  0
LINE
  5
D68
330
1F
100
AcDbEntity
  8
0
  6
Continuous
 62
     7
100
AcDbLine
 10
122.930257844741
 20
-41.87672721444621
 30
0.0
 11
122.030257844741
 21
-41.87672721444621
 31
0.0
  0
LINE
  5
D69
330
1F
100
AcDbEntity
  8
0
  6
Continuous
 62
     7
100
AcDbLine
 10
122.030257844741
 20
-41.87672721444621
 30
0.0
 11
122.030257844741
 21
-41.27672721444617
 31
0.0
  0
LINE
  5
D6B
330
1F
100
AcDbEntity
  8
0
  6
Continuous
 62
     7
100
AcDbLine
 10
273.7642765605087
 20
-36.28483448344417
 30
0.0
 11
281.5015546427662
 21
-97.34485401592614
 31
0.0
  0
LINE
  5
D6C
330
1F
100
AcDbEntity
  8
0
  6
Continuous
 62
     7
100
AcDbLine
 10
185.7642765605088
 20
-130.9848344834442
 30
0.0
 11
200.7642765605088
 21
-130.9848344834442
 31
0.0
  0
LINE
  5
D6D
330
1F
100
AcDbEntity
  8
0
  6
Continuous
 62
     7
100
AcDbLine
 10
185.7642765605088
 20
-130.9848344834442
 30
0.0
 11
185.7642765605088
 21
-133.2848344834442
 31
0.0
  0
LINE
  5
D6E
330
1F
100
AcDbEntity
  8
0
  6
Continuous
 62
     7
100
AcDbLine
 10
185.7642765605088
 20
-133.2848344834442
 30
0.0
 11
265.2642765605088
 21
-133.2848344834442
 31
0.0
  0
LINE
  5
D6F
330
1F
100
AcDbEntity
  8
0
  6
Continuous
 62
     7
100
AcDbLine
 10
285.7642765605088
 20
-133.2848344834442
 30
0.0
 11
285.7642765605088
 21
-130.9848344834442
 31
0.0
  0
LINE
  5
D70
330
1F
100
AcDbEntity
  8
0
  6
Continuous
 62
     7
100
AcDbLine
 10
205.7642765605088
 20
-36.28483448344416
 30
0.0
 11
205.7642765605088
 21
-42.28483448344417
 31
0.0
  0
LINE
  5
D71
330
1F
100
AcDbEntity
  8
0
  6
Continuous
 62
     7
100
AcDbLine
 10
205.7642765605088
 20
-36.28483448344416
 30
0.0
 11
204.7642765605088
 21
-36.28483448344417
 31
0.0
  0
LINE
  5
D72
330
1F
100
AcDbEntity
  8
0
  6
Continuous
 62
     7
100
AcDbLine
 10
205.7642765605088
 20
-50.28483448344418
 30
0.0
 11
204.9034875697447
 21
-50.28483448344418
 31
0.0
  0
LINE
  5
D73
330
1F
100
AcDbEntity
  8
0
  6
Continuous
 62
     7
100
AcDbLine
 10
205.7642765605088
 20
-42.28483448344417
 30
0.0
 11
205.7642765605088
 21
-50.28483448344418
 31
0.0
  0
LINE
  5
D74
330
1F
100
AcDbEntity
  8
0
  6
Continuous
 62
     7
100
AcDbLine
 10
200.7642765605088
 20
-105.4946126998733
 30
0.0
 11
200.7642765605088
 21
-122.7569947152278
 31
0.0
  0
LINE
  5
D75
330
1F
100
AcDbEntity
  8
0
  6
Continuous
 62
     7
100
AcDbLine
 10
200.7642765605088
 20
-130.9848344834442
 30
0.0
 11
265.2642765605088
 21
-130.9848344834442
 31
0.0
  0
LINE
  5
D76
330
1F
100
AcDbEntity
  8
0
  6
DASH_CENTER
 62
     2
100
AcDbLine
 10
200.7642765605088
 20
-122.7569947152278
 30
0.0
 11
200.7642765605088
 21
-141.5302764698598
 31
0.0
  0
LINE
  5
D77
330
1F
100
AcDbEntity
  8
0
  6
Continuous
 62
     7
100
AcDbLine
 10
200.7642765605088
 20
-122.7569947152278
 30
0.0
 11
200.7642765605088
 21
-130.9848344834442
 31
0.0
  0
LINE
  5
D78
330
1F
100
AcDbEntity
  8
0
  6
DASH_CENTER
 62
     2
100
AcDbLine
 10
235.7642765605088
 20
-123.7582364088078
 30
0.0
 11
235.7642765605088
 21
-142.0308973166498
 31
0.0
  0
LINE
  5
D79
330
1F
100
AcDbEntity
  8
0
  6
DASH_CENTER
 62
     2
100
AcDbLine
 10
270.7642765605088
 20
-123.7582364088078
 30
0.0
 11
270.7642765605088
 21
-133.2848344834442
 31
0.0
  0
LINE
  5
D7A
330
1F
100
AcDbEntity
  8
0
  6
DOT_CENTER
 62
     2
100
AcDbLine
 10
276.2642765605088
 20
-130.9848344834442
 30
0.0
 11
276.2642765605088
 21
-133.2848344834442
 31
0.0
  0
LINE
  5
D7B
330
1F
100
AcDbEntity
  8
0
  6
Continuous
 62
     7
100
AcDbLine
 10
276.2642765605088
 20
-130.9848344834442
 30
0.0
 11
285.7642765605088
 21
-130.9848344834442
 31
0.0
  0
LINE
  5
D7C
330
1F
100
AcDbEntity
  8
0
  6
Continuous
 62
     7
100
AcDbLine
 10
276.2642765605088
 20
-133.2848344834442
 30
0.0
 11
285.7642765605088
 21
-133.2848344834442
 31
0.0
  0
LINE
  5
D7D
330
1F
100
AcDbEntity
  8
0
  6
DOT_CENTER
 62
     2
100
AcDbLine
 10
265.2642765605088
 20
-130.9848344834442
 30
0.0
 11
265.2642765605088
 21
-133.2848344834442
 31
0.0
  0
LINE
  5
D7E
330
1F
100
AcDbEntity
  8
0
  6
Continuous
 62
     7
100
AcDbLine
 10
265.2642765605088
 20
-130.9848344834442
 30
0.0
 11
276.2642765605088
 21
-130.9848344834442
 31
0.0
  0
LINE
  5
D7F
330
1F
100
AcDbEntity
  8
0
  6
Continuous
 62
     7
100
AcDbLine
 10
265.2642765605088
 20
-133.2848344834442
 30
0.0
 11
270.7642765605088
 21
-133.2848344834442
 31
0.0
  0
LINE
  5
D80
330
1F
100
AcDbEntity
  8
0
  6
DOT_CENTER
 62
     2
100
AcDbLine
 10
241.2642765605088
 20
-130.9848344834442
 30
0.0
 11
241.2642765605088
 21
-133.2848344834442
 31
0.0
  0
LINE
  5
D81
330
1F
100
AcDbEntity
  8
0
  6
DOT_CENTER
 62
     2
100
AcDbLine
 10
230.2642765605088
 20
-130.9848344834442
 30
0.0
 11
230.2642765605088
 21
-133.2848344834442
 31
0.0
  0
LINE
  5
D82
330
1F
100
AcDbEntity
  8
0
  6
Continuous
 62
     7
100
AcDbLine
 10
230.2642765605088
 20
-130.9848344834442
 30
0.0
 11
241.2642765605088
 21
-130.9848344834442
 31
0.0
  0
LINE
  5
D83
330
1F
100
AcDbEntity
  8
0
  6
Continuous
 62
     7
100
AcDbLine
 10
230.2642765605088
 20
-133.2848344834442
 30
0.0
 11
241.2642765605088
 21
-133.2848344834442
 31
0.0
  0
LINE
  5
D84
330
1F
100
AcDbEntity
  8
0
  6
DASHED
 62
     2
100
AcDbLine
 10
206.2642765605088
 20
-130.9848344834442
 30
0.0
 11
206.2642765605088
 21
-133.2848344834442
 31
0.0
  0
LINE
  5
D85
330
1F
100
AcDbEntity
  8
0
  6
DASHED
 62
     2
100
AcDbLine
 10
195.2642765605088
 20
-130.9848344834442
 30
0.0
 11
195.2642765605088
 21
-133.2848344834442
 31
0.0
  0
LINE
  5
D86
330
1F
100
AcDbEntity
  8
0
  6
Continuous
 62
     7
100
AcDbLine
 10
195.2642765605088
 20
-130.9848344834442
 30
0.0
 11
206.2642765605088
 21
-130.9848344834442
 31
0.0
  0
LINE
  5
D87
330
1F
100
AcDbEntity
  8
0
  6
Continuous
 62
     7
100
AcDbLine
 10
195.2642765605088
 20
-133.2848344834442
 30
0.0
 11
206.2642765605088
 21
-133.2848344834442
 31
0.0
  0
LINE
  5
D88
330
1F
100
AcDbEntity
  8
0
  6
Continuous
 62
     7
100
AcDbLine
 10
118.1642765605088
 20
96.2151655165559
 30
0.0
 11
118.1642765605088
 21
-22.78483448344414
 31
0.0
  0
LINE
  5
D89
330
1F
100
AcDbEntity
  8
0
  6
Continuous
 62
     7
100
AcDbLine
 10
118.1642765605088
 20
96.2151655165559
 30
0.0
 11
119.7642765605088
 21
96.2151655165559
 31
0.0
  0
LINE
  5
D8A
330
1F
100
AcDbEntity
  8
0
  6
Continuous
 62
     7
100
AcDbLine
 10
119.7642765605088
 20
96.2151655165559
 30
0.0
 11
119.7642765605088
 21
96.7151655165558
 31
0.0
  0
LINE
  5
D8B
330
1F
100
AcDbEntity
  8
0
  6
Continuous
 62
     7
100
AcDbLine
 10
118.1642765605088
 20
-22.78483448344414
 30
0.0
 11
119.7642765605088
 21
-22.78483448344414
 31
0.0
  0
LINE
  5
D8C
330
1F
100
AcDbEntity
  8
0
  6
Continuous
 62
     7
100
AcDbLine
 10
119.7642765605088
 20
-22.78483448344414
 30
0.0
 11
119.7642765605088
 21
36.71516551655586
 31
0.0
  0
LINE
  5
D8D
330
1F
100
AcDbEntity
  8
0
  6
Continuous
 62
     7
100
AcDbLine
 10
115.9987765605087
 20
86.42865406978611
 30
0.0
 11
118.1642765605088
 21
86.23925406978608
 31
0.0
  0
LINE
  5
D8E
330
1F
100
AcDbEntity
  8
0
  6
Continuous
 62
     7
100
AcDbLine
 10
115.9987765605087
 20
96.54975406978593
 30
0.0
 11
118.1642765605088
 21
96.73925406978609
 31
0.0
  0
LINE
  5
D8F
330
1F
100
AcDbEntity
  8
0
  6
Continuous
 62
     7
100
AcDbLine
 10
114.2643765605089
 20
88.321454069786
 30
0.0
 11
114.2643765605089
 21
94.65695406978609
 31
0.0
  0
LINE
  5
D90
330
1F
100
AcDbEntity
  8
0
  6
Continuous
 62
     7
100
AcDbLine
 10
118.1642765605088
 20
96.73925406978609
 30
0.0
 11
118.1642765605088
 21
86.23925406978608
 31
0.0
  0
LINE
  5
D91
330
1F
100
AcDbEntity
  8
0
  6
Continuous
 62
     7
100
AcDbLine
 10
118.1642765605088
 20
91.48925406978609
 30
0.0
 11
118.1642765605088
 21
85.38915406978601
 31
0.0
  0
LINE
  5
D92
330
1F
100
AcDbEntity
  8
0
  6
Continuous
 62
     7
100
AcDbLine
 10
115.9987765605087
 20
31.65456551655586
 30
0.0
 11
118.1642765605088
 21
31.46516551655586
 31
0.0
  0
LINE
  5
D93
330
1F
100
AcDbEntity
  8
0
  6
Continuous
 62
     7
100
AcDbLine
 10
115.9987765605087
 20
41.77566551655568
 30
0.0
 11
118.1642765605088
 21
41.96516551655586
 31
0.0
  0
LINE
  5
D94
330
1F
100
AcDbEntity
  8
0
  6
Continuous
 62
     7
100
AcDbLine
 10
114.2643765605089
 20
33.54736551655577
 30
0.0
 11
114.2643765605089
 21
39.88286551655586
 31
0.0
  0
LINE
  5
D95
330
1F
100
AcDbEntity
  8
0
  6
Continuous
 62
     7
100
AcDbLine
 10
118.1642765605088
 20
41.96516551655586
 30
0.0
 11
118.1642765605088
 21
31.46516551655586
 31
0.0
  0
LINE
  5
D96
330
1F
100
AcDbEntity
  8
0
  6
Continuous
 62
     7
100
AcDbLine
 10
118.1642765605088
 20
36.71516551655586
 30
0.0
 11
118.1642765605088
 21
30.61506551655577
 31
0.0
  0
LINE
  5
D97
330
1F
100
AcDbEntity
  8
0
  6
Continuous
 62
     7
100
AcDbLine
 10
115.9987765605087
 20
-23.11952303667438
 30
0.0
 11
118.1642765605088
 21
-23.30892303667439
 31
0.0
  0
LINE
  5
D98
330
1F
100
AcDbEntity
  8
0
  6
Continuous
 62
     7
100
AcDbLine
 10
115.9987765605087
 20
-12.99842303667457
 30
0.0
 11
118.1642765605088
 21
-12.80892303667439
 31
0.0
  0
LINE
  5
D99
330
1F
100
AcDbEntity
  8
0
  6
Continuous
 62
     7
100
AcDbLine
 10
114.2643765605089
 20
-21.22672303667447
 30
0.0
 11
114.2643765605089
 21
-14.89122303667439
 31
0.0
  0
LINE
  5
D9A
330
1F
100
AcDbEntity
  8
0
  6
Continuous
 62
     7
100
AcDbLine
 10
118.1642765605088
 20
-12.80892303667439
 30
0.0
 11
118.1642765605088
 21
-23.30892303667439
 31
0.0
  0
LINE
  5
D9B
330
1F
100
AcDbEntity
  8
0
  6
Continuous
 62
     7
100
AcDbLine
 10
133.3120723301875
 20
-47.93722135633298
 30
0.0
 11
156.3500629981357
 21
-70.9752120242812
 31
0.0
  0
LINE
  5
D9C
330
1F
100
AcDbEntity
  8
0
  6
Continuous
 62
     7
100
AcDbLine
 10
159.1784901228818
 20
-70.9752120242812
 30
0.0
 11
182.2164807908301
 21
-47.93722135633299
 31
0.0
  0
LINE
  5
D9D
330
1F
100
AcDbEntity
  8
0
  6
Continuous
 62
     7
100
AcDbLine
 10
184.3378011343897
 20
-50.05854169989263
 30
0.0
 11
161.2998104664415
 21
-73.09653236784086
 31
0.0
  0
LINE
  5
D9E
330
1F
100
AcDbEntity
  8
0
  6
Continuous
 62
     7
100
AcDbLine
 10
161.2998104664415
 20
-75.92495949258704
 30
0.0
 11
184.3378011343898
 21
-98.96295016053528
 31
0.0
  0
LINE
  5
D9F
330
1F
100
AcDbEntity
  8
0
  6
Continuous
 62
     7
100
AcDbLine
 10
182.2164807908301
 20
-101.0842705040949
 30
0.0
 11
159.1784901228819
 21
-78.04627983614671
 31
0.0
  0
LINE
  5
DA0
330
1F
100
AcDbEntity
  8
0
  6
Continuous
 62
     7
100
AcDbLine
 10
156.3500629981357
 20
-78.04627983614671
 30
0.0
 11
133.3120723301875
 21
-101.0842705040949
 31
0.0
  0
LINE
  5
DA1
330
1F
100
AcDbEntity
  8
0
  6
Continuous
 62
     7
100
AcDbLine
 10
131.1907519866278
 20
-98.96295016053528
 30
0.0
 11
154.2287426545761
 21
-75.92495949258704
 31
0.0
  0
LINE
  5
DA2
330
1F
100
AcDbEntity
  8
0
  6
Continuous
 62
     7
100
AcDbLine
 10
154.2287426545761
 20
-73.09653236784086
 30
0.0
 11
131.1907519866278
 21
-50.05854169989263
 31
0.0
  0
LINE
  5
DA3
330
1F
100
AcDbEntity
  8
0
  6
DASH_CENTER
 62
     2
100
AcDbLine
 10
97.16427656050877
 20
-74.51074593021394
 30
0.0
 11
218.3642765605088
 21
-74.51074593021394
 31
0.0
  0
LINE
  5
DA4
330
1F
100
AcDbEntity
  8
0
  6
DASH_CENTER
 62
     2
100
AcDbLine
 10
157.7642765605088
 20
-21.31074593021396
 30
0.0
 11
157.7642765605088
 21
-127.7107459302139
 31
0.0
  0
LINE
  5
DA6
330
1F
100
AcDbEntity
  8
0
  6
Continuous
 62
     7
100
AcDbLine
 10
196.7642765605088
 20
17.05080520016017
 30
0.0
 11
196.7642765605088
 21
36.71516551655586
 31
0.0
  0
LINE
  5
DA7
330
1F
100
AcDbEntity
  8
0
  6
Continuous
 62
     7
100
AcDbLine
 10
198.7642765605088
 20
-1.38130419152399
 30
0.0
 11
198.7642765605088
 21
-0.76409049735103
 31
0.0
  0
LINE
  5
DEE
330
1F
100
AcDbEntity
  8
0
  6
Continuous
 62
     7
100
AcDbLine
 10
281.5015546427662
 20
-97.34485401592614
 30
0.0
 11
282.8274965947049
 21
-107.8087459199754
 31
0.0
  0
LINE
  5
DF1
330
1F
100
AcDbEntity
  8
0
  6
Continuous
 62
     7
100
AcDbLine
 10
282.8274965947049
 20
-107.8087459199754
 30
0.0
 11
285.7642765605088
 21
-130.9848344834442
 31
0.0
  0
ARC
  5
DFA
330
1F
100
AcDbEntity
  8
0
  6
Continuous
 62
     7
100
AcDbCircle
 10
-219.0541001566769
 20
-107.2619061927413
 30
0.0
 40
1.89996970712414
100
AcDbArc
 50
180.0009969609349
 51
264.9976861809473
  0
ARC
  5
DFE
330
1F
100
AcDbEntity
  8
0
  6
DASH_CENTER
 62
     2
100
AcDbCircle
 10
-167.5540698635135
 20
36.48925406978607
 30
0.0
 40
54.99999999999985
100
AcDbArc
 50
155.1249971605389
 51
180.0
  0
ARC
  5
DFF
330
1F
100
AcDbEntity
  8
0
  6
Continuous
 62
     7
100
AcDbCircle
 10
-18.95408938017949
 20
-110.9125359463023
 30
0.0
 40
1.900019516785371
100
AcDbArc
 50
275.0036901252918
 51
0.0006423189071
  0
ARC
  5
E00
330
1F
100
AcDbEntity
  8
0
  6
Continuous
 62
     7
100
AcDbCircle
 10
-18.95408938017949
 20
-110.9125359463023
 30
0.0
 40
1.900019516785371
100
AcDbArc
 50
275.0036901252918
 51
0.0006423189071
  0
ARC
  5
E01
330
1F
100
AcDbEntity
  8
0
  6
Continuous
 62
     7
100
AcDbCircle
 10
-18.95403957035001
 20
-104.5770477059315
 30
0.0
 40
1.899969707124115
100
AcDbArc
 50
0.00099696093421
 51
84.99768618094639
  0
ARC
  5
E02
330
1F
100
AcDbEntity
  8
0
  6
Continuous
 62
     7
100
AcDbCircle
 10
-18.95408938017949
 20
-38.51090591412557
 30
0.0
 40
1.900019516785361
100
AcDbArc
 50
359.9993576810931
 51
84.9963098747083
  0
ARC
  5
E03
330
1F
100
AcDbEntity
  8
0
  6
Continuous
 62
     7
100
AcDbCircle
 10
-18.95403957035001
 20
-44.8463941544964
 30
0.0
 40
1.899969707124114
100
AcDbArc
 50
275.0023138190536
 51
359.999003039066
  0
ARC
  5
E04
330
1F
100
AcDbEntity
  8
0
  6
Continuous
 62
     7
100
AcDbCircle
 10
-167.5540698635135
 20
36.48925406978607
 30
0.0
 40
46.99999999999963
100
AcDbArc
 50
289.51700622205
 51
298.7358428718319
  0
ARC
  5
E05
330
1F
100
AcDbEntity
  8
0
  6
Continuous
 62
     7
100
AcDbCircle
 10
-167.5540698635135
 20
36.48925406978607
 30
0.0
 40
47.00000000000025
100
AcDbArc
 50
231.4380704365922
 51
241.2641571281681
  0
ARC
  5
E06
330
1F
100
AcDbEntity
  8
0
  6
Continuous
 62
     7
100
AcDbCircle
 10
-167.5540698635135
 20
36.48925406978607
 30
0.0
 40
47.0000000000001
100
AcDbArc
 50
24.69361765094856
 51
27.61835790511776
  0
ARC
  5
E07
330
1F
100
AcDbEntity
  8
0
  6
Continuous
 62
     7
100
AcDbCircle
 10
-167.5540698635135
 20
36.48925406978607
 30
0.0
 40
46.99999999999975
100
AcDbArc
 50
144.572487062939
 51
152.3816420948822
  0
ARC
  5
E08
330
1F
100
AcDbEntity
  8
0
  6
Continuous
 62
     7
100
AcDbCircle
 10
-167.5540698635135
 20
36.48925406978607
 30
0.0
 40
47.00000000000027
100
AcDbArc
 50
215.4275129370619
 51
223.2636278055088
  0
ARC
  5
E09
330
1F
100
AcDbEntity
  8
0
  6
Continuous
 62
     7
100
AcDbCircle
 10
-167.5540698635135
 20
36.48925406978607
 30
0.0
 40
47.00000000000015
100
AcDbArc
 50
315.8127194181718
 51
316.7363721944914
  0
ARC
  5
E0A
330
1F
100
AcDbEntity
  8
0
  6
Continuous
 62
     7
100
AcDbCircle
 10
-167.5540698635135
 20
36.48925406978607
 30
0.0
 40
46.99999999999967
100
AcDbArc
 50
316.7363721944914
 51
330.4049429785162
  0
ARC
  5
E0B
330
1F
100
AcDbEntity
  8
0
  6
Continuous
 62
     7
100
AcDbCircle
 10
-167.5540698635135
 20
36.48925406978607
 30
0.0
 40
47.0000000000001
100
AcDbArc
 50
335.3063823490515
 51
342.3995431747615
  0
ARC
  5
E0C
330
1F
100
AcDbEntity
  8
0
  6
Continuous
 62
     7
100
AcDbCircle
 10
-167.5540698635135
 20
36.48925406978607
 30
0.0
 40
47.00000000000037
100
AcDbArc
 50
186.3665148299186
 51
197.600456825239
  0
ARC
  5
E0D
330
1F
100
AcDbEntity
  8
0
  6
Continuous
 62
     7
100
AcDbCircle
 10
-167.5540698635135
 20
36.48925406978607
 30
0.0
 40
47.0
100
AcDbArc
 50
180.0
 51
186.3665148299186
  0
ARC
  5
E0E
330
1F
100
AcDbEntity
  8
0
  6
Continuous
 62
     7
100
AcDbCircle
 10
-167.5540698635135
 20
36.48925406978607
 30
0.0
 40
47.00000000000048
100
AcDbArc
 50
342.3995431747615
 51
353.6334851700813
  0
ARC
  5
E0F
330
1F
100
AcDbEntity
  8
0
  6
Continuous
 62
     7
100
AcDbCircle
 10
-167.5540698635135
 20
36.48925406978607
 30
0.0
 40
47.00000000000036
100
AcDbArc
 50
353.6334851700813
 51
4.62312544076399
  0
ARC
  5
E10
330
1F
100
AcDbEntity
  8
0
  6
Continuous
 62
     7
100
AcDbCircle
 10
-167.5540698635135
 20
36.48925406978607
 30
0.0
 40
47.00000000000015
100
AcDbArc
 50
164.2112926474221
 51
175.376874559236
  0
ARC
  5
E11
330
1F
100
AcDbEntity
  8
0
  6
Continuous
 62
     7
100
AcDbCircle
 10
-167.5540698635135
 20
36.48925406978607
 30
0.0
 40
47.00000000000001
100
AcDbArc
 50
152.3816420948822
 51
164.2112926474221
  0
ARC
  5
E12
330
1F
100
AcDbEntity
  8
0
  6
Continuous
 62
     7
100
AcDbCircle
 10
-167.5540698635135
 20
36.48925406978607
 30
0.0
 40
47.00000000000031
100
AcDbArc
 50
4.62312544076399
 51
15.78870735257791
  0
ARC
  5
E13
330
1F
100
AcDbEntity
  8
0
  6
Continuous
 62
     7
100
AcDbCircle
 10
-167.5540698635135
 20
36.48925406978607
 30
0.0
 40
47.00000000000018
100
AcDbArc
 50
27.61835790511776
 51
40.92490621238571
  0
ARC
  5
E14
330
1F
100
AcDbEntity
  8
0
  6
Continuous
 62
     7
100
AcDbCircle
 10
-167.5540698635135
 20
36.48925406978607
 30
0.0
 40
47.00000000000025
100
AcDbArc
 50
128.5619295634078
 51
139.0750937876142
  0
ARC
  5
E15
330
1F
100
AcDbEntity
  8
0
  6
Continuous
 62
     7
100
AcDbCircle
 10
-167.5540698635135
 20
36.48925406978607
 30
0.0
 40
47.00000000000035
100
AcDbArc
 50
115.5863453174669
 51
122.1606779304459
  0
ARC
  5
E16
330
1F
100
AcDbEntity
  8
0
  6
Continuous
 62
     7
100
AcDbCircle
 10
-167.5540698635135
 20
36.48925406978607
 30
0.0
 40
47.00000000000033
100
AcDbArc
 50
330.4049429785162
 51
335.3063823490515
  0
ARC
  5
E17
330
1F
100
AcDbEntity
  8
0
  6
Continuous
 62
     7
100
AcDbCircle
 10
-167.5540698635135
 20
36.48925406978607
 30
0.0
 40
47.00000000000013
100
AcDbArc
 50
15.78870735257791
 51
24.69361765094856
  0
ARC
  5
E18
330
1F
100
AcDbEntity
  8
0
  6
Continuous
 62
     7
100
AcDbCircle
 10
-167.5540698635135
 20
36.48925406978607
 30
0.0
 40
46.99999999999993
100
AcDbArc
 50
301.7070271153869
 51
315.8127194181718
  0
ARC
  5
E19
330
1F
100
AcDbEntity
  8
0
  6
Continuous
 62
     7
100
AcDbCircle
 10
-167.5540698635135
 20
36.48925406978607
 30
0.0
 40
47.00000000000013
100
AcDbArc
 50
40.92490621238571
 51
44.18728058182749
  0
ARC
  5
E1A
330
1F
100
AcDbEntity
  8
0
  6
Continuous
 62
     7
100
AcDbCircle
 10
-167.5540698635135
 20
36.48925406978607
 30
0.0
 40
46.99999999999978
100
AcDbArc
 50
298.7358428718319
 51
301.7070271153869
  0
ARC
  5
E1B
330
1F
100
AcDbEntity
  8
0
  6
Continuous
 62
     7
100
AcDbCircle
 10
-167.5540698635135
 20
36.48925406978607
 30
0.0
 40
46.99999999999954
100
AcDbArc
 50
44.18728058182749
 51
57.83932206955391
  0
ARC
  5
E1C
330
1F
100
AcDbEntity
  8
0
  6
Continuous
 62
     7
100
AcDbCircle
 10
-167.5540698635135
 20
36.48925406978607
 30
0.0
 40
47.00000000000065
100
AcDbArc
 50
278.1981672156643
 51
289.51700622205
  0
ARC
  5
E1D
330
1F
100
AcDbEntity
  8
0
  6
Continuous
 62
     7
100
AcDbCircle
 10
-167.5540698635135
 20
36.48925406978607
 30
0.0
 40
47.00000000000006
100
AcDbArc
 50
57.83932206955391
 51
70.48299377795006
  0
ARC
  5
E1E
330
1F
100
AcDbEntity
  8
0
  6
Continuous
 62
     7
100
AcDbCircle
 10
-167.5540698635135
 20
36.48925406978607
 30
0.0
 40
47.00000000000038
100
AcDbArc
 50
267.1975723787536
 51
278.1981672156643
  0
ARC
  5
E1F
330
1F
100
AcDbEntity
  8
0
  6
Continuous
 62
     7
100
AcDbCircle
 10
-167.5540698635135
 20
36.48925406978607
 30
0.0
 40
46.99999999999963
100
AcDbArc
 50
70.48299377795006
 51
81.80183278433556
  0
ARC
  5
E20
330
1F
100
AcDbEntity
  8
0
  6
Continuous
 62
     7
100
AcDbCircle
 10
-167.5540698635135
 20
36.48925406978607
 30
0.0
 40
46.9999999999996
100
AcDbArc
 50
256.0909450137063
 51
267.1975723787536
  0
ARC
  5
E21
330
1F
100
AcDbEntity
  8
0
  6
Continuous
 62
     7
100
AcDbCircle
 10
-167.5540698635135
 20
36.48925406978607
 30
0.0
 40
46.99999999999974
100
AcDbArc
 50
81.80183278433556
 51
92.80242762124649
  0
ARC
  5
E22
330
1F
100
AcDbEntity
  8
0
  6
Continuous
 62
     7
100
AcDbCircle
 10
-167.5540698635135
 20
36.48925406978607
 30
0.0
 40
47.00000000000035
100
AcDbArc
 50
244.4136546825331
 51
256.0909450137063
  0
ARC
  5
E23
330
1F
100
AcDbEntity
  8
0
  6
Continuous
 62
     7
100
AcDbCircle
 10
-167.5540698635135
 20
36.48925406978607
 30
0.0
 40
46.99999999999946
100
AcDbArc
 50
92.80242762124649
 51
103.9090549862937
  0
ARC
  5
E24
330
1F
100
AcDbEntity
  8
0
  6
Continuous
 62
     7
100
AcDbCircle
 10
-167.5540698635135
 20
36.48925406978607
 30
0.0
 40
46.9999999999998
100
AcDbArc
 50
241.2641571281681
 51
244.4136546825331
  0
ARC
  5
E25
330
1F
100
AcDbEntity
  8
0
  6
Continuous
 62
     7
100
AcDbCircle
 10
-167.5540698635135
 20
36.48925406978607
 30
0.0
 40
46.9999999999996
100
AcDbArc
 50
103.9090549862937
 51
115.5863453174669
  0
ARC
  5
E26
330
1F
100
AcDbEntity
  8
0
  6
Continuous
 62
     7
100
AcDbCircle
 10
-167.5540698635135
 20
36.48925406978607
 30
0.0
 40
46.99999999999952
100
AcDbArc
 50
223.2636278055088
 51
231.4380704365922
  0
ARC
  5
E27
330
1F
100
AcDbEntity
  8
0
  6
Continuous
 62
     7
100
AcDbCircle
 10
-167.5540698635135
 20
36.48925406978607
 30
0.0
 40
46.99999999999998
100
AcDbArc
 50
122.1606779304459
 51
128.5619295634078
  0
ARC
  5
E28
330
1F
100
AcDbEntity
  8
0
  6
Continuous
 62
     7
100
AcDbCircle
 10
-167.5540698635135
 20
36.48925406978607
 30
0.0
 40
46.99999999999939
100
AcDbArc
 50
209.5950570214845
 51
215.4275129370619
  0
ARC
  5
E29
330
1F
100
AcDbEntity
  8
0
  6
Continuous
 62
     7
100
AcDbCircle
 10
-167.5540698635135
 20
36.48925406978607
 30
0.0
 40
47.00000000000014
100
AcDbArc
 50
175.376874559236
 51
180.0
  0
ARC
  5
E2A
330
1F
100
AcDbEntity
  8
0
  6
Continuous
 62
     7
100
AcDbCircle
 10
-167.5540698635135
 20
36.48925406978607
 30
0.0
 40
46.99999999999999
100
AcDbArc
 50
139.0750937876142
 51
144.572487062939
  0
ARC
  5
E2B
330
1F
100
AcDbEntity
  8
0
  6
DASH_CENTER
 62
     2
100
AcDbCircle
 10
-167.5540698635135
 20
36.48925406978607
 30
0.0
 40
55.0
100
AcDbArc
 50
180.0
 51
203.4128433145569
  0
ARC
  5
E2C
330
1F
100
AcDbEntity
  8
0
  6
Continuous
 62
     7
100
AcDbCircle
 10
-161.0540698635135
 20
31.48925406978606
 30
0.0
 40
146.5
100
AcDbArc
 50
180.0
 51
248.1601418779482
  0
ARC
  5
E2D
330
1F
100
AcDbEntity
  8
0
  6
Continuous
 62
     7
100
AcDbCircle
 10
-161.0540698635135
 20
31.48925406978606
 30
0.0
 40
146.4999999999998
100
AcDbArc
 50
168.6356818082833
 51
180.0
  0
ARC
  5
E2E
330
1F
100
AcDbEntity
  8
0
  6
Continuous
 62
     7
100
AcDbCircle
 10
-161.0540698635135
 20
31.48925406978606
 30
0.0
 40
146.5000000000003
100
AcDbArc
 50
248.1601418779482
 51
271.5096212559494
  0
ARC
  5
E2F
330
1F
100
AcDbEntity
  8
0
  6
Continuous
 62
     7
100
AcDbCircle
 10
-167.5540698635135
 20
36.48925406978607
 30
0.0
 40
105.0000000000003
100
AcDbArc
 50
69.67584210633432
 51
88.49252703548158
  0
ARC
  5
E30
330
1F
100
AcDbEntity
  8
0
  6
Continuous
 62
     7
100
AcDbCircle
 10
-167.5540698635135
 20
36.48925406978607
 30
0.0
 40
99.99999999999971
100
AcDbArc
 50
90.80852165354214
 51
97.00000000000011
  0
ARC
  5
E31
330
1F
100
AcDbEntity
  8
0
  6
Continuous
 62
     7
100
AcDbCircle
 10
-167.5540698635135
 20
36.48925406978607
 30
0.0
 40
95.0
100
AcDbArc
 50
71.84766934455883
 51
105.0973270773179
  0
ARC
  5
E32
330
1F
100
AcDbEntity
  8
0
  6
Continuous
 62
     7
100
AcDbCircle
 10
-175.0540698635135
 20
32.98925406978606
 30
0.0
 40
132.5000000000001
100
AcDbArc
 50
87.91194036009519
 51
167.4088044741444
  0
ARC
  5
E33
330
1F
100
AcDbEntity
  8
0
  6
Continuous
 62
     7
100
AcDbCircle
 10
-164.5540698635135
 20
39.98925406978607
 30
0.0
 40
115.5000000000001
100
AcDbArc
 50
322.2102304702678
 51
0.0
  0
ARC
  5
E34
330
1F
100
AcDbEntity
  8
0
  6
Continuous
 62
     7
100
AcDbCircle
 10
-172.5540698635135
 20
41.98925406978606
 30
0.0
 40
123.5
100
AcDbArc
 50
0.0
 51
89.99999999999978
  0
ARC
  5
E42
330
1F
100
AcDbEntity
  8
0
  6
DASH_CENTER
 62
     2
100
AcDbCircle
 10
-167.5540698635135
 20
36.48925406978607
 30
0.0
 40
54.9999999999996
100
AcDbArc
 50
336.5871566854432
 51
24.87500283946117
  0
ARC
  5
E43
330
1F
100
AcDbEntity
  8
0
  6
DASH_CENTER
 62
     2
100
AcDbCircle
 10
-167.5540698635135
 20
36.48925406978607
 30
0.0
 40
54.99999999999975
100
AcDbArc
 50
66.58715668544292
 51
114.8750028394601
  0
ARC
  5
E44
330
1F
100
AcDbEntity
  8
0
  6
DASH_CENTER
 62
     2
100
AcDbCircle
 10
-167.5540698635135
 20
36.48925406978607
 30
0.0
 40
55.0000000000005
100
AcDbArc
 50
246.5871566854435
 51
294.8750028394611
  0
ARC
  5
E45
330
1F
100
AcDbEntity
  8
0
  6
Continuous
 62
     7
100
AcDbCircle
 10
208.2643068536723
 20
-17.3279956312267
 30
0.0
 40
1.899969707124026
100
AcDbArc
 50
0.00099696093871
 51
84.99768618095046
  0
ARC
  5
E46
330
1F
100
AcDbEntity
  8
0
  6
Continuous
 62
     7
100
AcDbCircle
 10
208.2642570438428
 20
-23.66348387159746
 30
0.0
 40
1.900019516785278
100
AcDbArc
 50
275.0036901252876
 51
0.00064231890217
  0
ARC
  5
E47
330
1F
100
AcDbEntity
  8
0
  6
Continuous
 62
     7
100
AcDbCircle
 10
202.2643068536723
 20
87.27019383424734
 30
0.0
 40
1.899969707124038
100
AcDbArc
 50
275.0023138190495
 51
359.9990030390615
  0
ARC
  5
E48
330
1F
100
AcDbEntity
  8
0
  6
Continuous
 62
     7
100
AcDbCircle
 10
202.2642570438428
 20
93.60568207461813
 30
0.0
 40
1.9000195167853
100
AcDbArc
 50
359.9993576810972
 51
84.99630987471158
  0
ARC
  5
E49
330
1F
100
AcDbEntity
  8
0
  6
Continuous
 62
     7
100
AcDbCircle
 10
208.2643068536723
 20
90.75832666433838
 30
0.0
 40
1.899969707124038
100
AcDbArc
 50
275.0023138190495
 51
359.9990030390615
  0
ARC
  5
E4A
330
1F
100
AcDbEntity
  8
0
  6
Continuous
 62
     7
100
AcDbCircle
 10
208.2642570438428
 20
97.09381490470915
 30
0.0
 40
1.9000195167853
100
AcDbArc
 50
359.9993576810968
 51
84.99630987471155
  0
ARC
  5
E4B
330
1F
100
AcDbEntity
  8
0
  6
Continuous
 62
     7
100
AcDbCircle
 10
202.2643068536723
 20
141.4641820612295
 30
0.0
 40
1.899969707124038
100
AcDbArc
 50
275.0023138190495
 51
359.999003039062
  0
ARC
  5
E4C
330
1F
100
AcDbEntity
  8
0
  6
Continuous
 62
     7
100
AcDbCircle
 10
202.2642570438428
 20
147.7996703016002
 30
0.0
 40
1.900019516785273
100
AcDbArc
 50
359.9993576810977
 51
84.99630987471228
  0
ARC
  5
E4D
330
1F
100
AcDbEntity
  8
0
  6
Continuous
 62
     7
100
AcDbCircle
 10
202.2643068536723
 20
-13.8398628011357
 30
0.0
 40
1.899969707124026
100
AcDbArc
 50
0.00099696093855
 51
84.9976861809505
  0
ARC
  5
E4E
330
1F
100
AcDbEntity
  8
0
  6
Continuous
 62
     7
100
AcDbCircle
 10
202.2642570438428
 20
-20.17535104150645
 30
0.0
 40
1.900019516785297
100
AcDbArc
 50
275.0036901252884
 51
0.00064231890281
  0
ARC
  5
E4F
330
1F
100
AcDbEntity
  8
0
  6
DASH_CENTER
 62
     2
100
AcDbCircle
 10
157.7642765605088
 20
-74.51074593021394
 30
0.0
 40
46.99999999999999
100
AcDbArc
 50
205.9896026166551
 51
250.4558415645526
  0
ARC
  5
E50
330
1F
100
AcDbEntity
  8
0
  6
DASH_CENTER
 62
     2
100
AcDbCircle
 10
157.7642765605088
 20
-74.51074593021394
 30
0.0
 40
46.99999999999993
100
AcDbArc
 50
295.9896026166551
 51
340.4558415645525
  0
ARC
  5
E51
330
1F
100
AcDbEntity
  8
0
  6
DASH_CENTER
 62
     2
100
AcDbCircle
 10
157.7642765605088
 20
-74.51074593021394
 30
0.0
 40
47.0
100
AcDbArc
 50
25.98960261665505
 51
70.4558415645525
  0
ARC
  5
E52
330
1F
100
AcDbEntity
  8
0
  6
DASH_CENTER
 62
     2
100
AcDbCircle
 10
157.7642765605088
 20
-74.51074593021394
 30
0.0
 40
46.99999999999998
100
AcDbArc
 50
115.989602616655
 51
160.4558415645525
  0
ARC
  5
E53
330
1F
100
AcDbEntity
  8
0
  6
Continuous
 62
     7
100
AcDbCircle
 10
157.7642765605088
 20
-74.51074593021394
 30
0.0
 40
52.99999999999999
100
AcDbArc
 50
27.19966126644126
 51
324.2251741611747
  0
ARC
  5
E54
330
1F
100
AcDbEntity
  8
0
  6
Continuous
 62
     7
100
AcDbCircle
 10
157.7642765605088
 20
-74.51074593021394
 30
0.0
 40
53.0
100
AcDbArc
 50
324.2251741611747
 51
27.19966126644126
  0
ARC
  5
E55
330
1F
100
AcDbEntity
  8
0
  6
Continuous
 62
     7
100
AcDbCircle
 10
116.1642462673453
 20
88.32148712973555
 30
0.0
 40
1.899969707124026
100
AcDbArc
 50
180.0009969609381
 51
264.99768618095
  0
ARC
  5
E56
330
1F
100
AcDbEntity
  8
0
  6
Continuous
 62
     7
100
AcDbCircle
 10
116.1642960771748
 20
94.65697537010631
 30
0.0
 40
1.90001951678523
100
AcDbArc
 50
95.00369012528734
 51
180.0006423189024
  0
ARC
  5
E57
330
1F
100
AcDbEntity
  8
0
  6
Continuous
 62
     7
100
AcDbCircle
 10
116.1642462673453
 20
33.54739857650533
 30
0.0
 40
1.899969707124041
100
AcDbArc
 50
180.0009969609375
 51
264.9976861809496
  0
ARC
  5
E58
330
1F
100
AcDbEntity
  8
0
  6
Continuous
 62
     7
100
AcDbCircle
 10
116.1642960771748
 20
39.88288681687606
 30
0.0
 40
1.900019516785245
100
AcDbArc
 50
95.00369012528771
 51
180.0006423189024
  0
ARC
  5
E59
330
1F
100
AcDbEntity
  8
0
  6
Continuous
 62
     7
100
AcDbCircle
 10
116.1642462673453
 20
-21.22668997672491
 30
0.0
 40
1.899969707124041
100
AcDbArc
 50
180.0009969609375
 51
264.9976861809496
  0
ARC
  5
E5A
330
1F
100
AcDbEntity
  8
0
  6
Continuous
 62
     7
100
AcDbCircle
 10
116.1642960771748
 20
-14.89120173635418
 30
0.0
 40
1.900019516785245
100
AcDbArc
 50
95.00369012528771
 51
180.0006423189023
  0
ARC
  5
E5B
330
1F
100
AcDbEntity
  8
0
  6
Continuous
 62
     7
100
AcDbCircle
 10
157.7642765605088
 20
-74.51074593021394
 30
0.0
 40
38.24999999999998
100
AcDbArc
 50
50.54063766656514
 51
129.459362333435
  0
ARC
  5
E5C
330
1F
100
AcDbEntity
  8
0
  6
Continuous
 62
     7
100
AcDbCircle
 10
157.7642765605088
 20
-74.51074593021394
 30
0.0
 40
38.25000000000002
100
AcDbArc
 50
320.5406376665651
 51
39.45936233343486
  0
ARC
  5
E5D
330
1F
100
AcDbEntity
  8
0
  6
Continuous
 62
     7
100
AcDbCircle
 10
157.7642765605088
 20
-74.51074593021394
 30
0.0
 40
38.25000000000002
100
AcDbArc
 50
230.5406376665652
 51
309.4593623334349
  0
ARC
  5
E5E
330
1F
100
AcDbEntity
  8
0
  6
Continuous
 62
     7
100
AcDbCircle
 10
157.7642765605088
 20
-74.51074593021394
 30
0.0
 40
38.24999999999998
100
AcDbArc
 50
140.5406376665652
 51
219.4593623334349
  0
CIRCLE
  5
E68
330
1F
100
AcDbEntity
  8
0
  6
Continuous
 62
     7
100
AcDbCircle
 10
-167.5540698635135
 20
36.48925406978607
 30
0.0
 40
47.0
  0
CIRCLE
  5
E6F
330
1F
100
AcDbEntity
  8
0
  6
Continuous
 62
     7
100
AcDbCircle
 10
-167.5540698635135
 20
36.48925406978607
 30
0.0
 40
47.5
  0
CIRCLE
  5
E70
330
1F
100
AcDbEntity
  8
0
  6
Continuous
 62
     7
100
AcDbCircle
 10
-112.5540698635135
 20
36.48925406978607
 30
0.0
 40
4.5
  0
CIRCLE
  5
E71
330
1F
100
AcDbEntity
  8
0
  6
Continuous
 62
     7
100
AcDbCircle
 10
-167.5540698635135
 20
-18.51074593021394
 30
0.0
 40
4.5
  0
CIRCLE
  5
E72
330
1F
100
AcDbEntity
  8
0
  6
Continuous
 62
     7
100
AcDbCircle
 10
-222.5540698635135
 20
36.48925406978607
 30
0.0
 40
4.499999999999995
  0
CIRCLE
  5
E73
330
1F
100
AcDbEntity
  8
0
  6
Continuous
 62
     7
100
AcDbCircle
 10
-167.5540698635135
 20
91.48925406978609
 30
0.0
 40
4.5
  0
CIRCLE
  5
E74
330
1F
100
AcDbEntity
  8
0
  6
Continuous
 62
     7
100
AcDbCircle
 10
-167.5540698635135
 20
36.48925406978607
 30
0.0
 40
59.5
  0
CIRCLE
  5
E75
330
1F
100
AcDbEntity
  8
0
  6
Continuous
 62
     7
100
AcDbCircle
 10
-167.5540698635135
 20
36.48925406978607
 30
0.0
 40
60.0
  0
CIRCLE
  5
E76
330
1F
100
AcDbEntity
  8
0
  6
Continuous
 62
     7
100
AcDbCircle
 10
124.530257844741
 20
-107.7447646459817
 30
0.0
 40
4.5
  0
CIRCLE
  5
E77
330
1F
100
AcDbEntity
  8
0
  6
Continuous
 62
     7
100
AcDbCircle
 10
190.9982952762765
 20
-107.7447646459817
 30
0.0
 40
4.5
  0
CIRCLE
  5
E78
330
1F
100
AcDbEntity
  8
0
  6
Continuous
 62
     7
100
AcDbCircle
 10
190.9982952762766
 20
-41.27672721444622
 30
0.0
 40
4.5
  0
CIRCLE
  5
E79
330
1F
100
AcDbEntity
  8
0
  6
Continuous
 62
     7
100
AcDbCircle
 10
124.530257844741
 20
-41.27672721444617
 30
0.0
 40
4.5
  0
CIRCLE
  5
E7B
330
1F
100
AcDbEntity
  8
0
  6
DASHED
 62
     2
100
AcDbCircle
 10
157.7642765605088
 20
-74.51074593021394
 30
0.0
 40
37.99999999999998
  0
ARC
  5
E8C
330
1F
100
AcDbEntity
  8
0
  6
Continuous
 62
     7
100
AcDbCircle
 10
-131.8540698635135
 20
-128.284834483444
 30
0.0
 40
10.0
100
AcDbArc
 50
0.0
 51
7.2029843485838
  0
ARC
  5
E8D
330
1F
100
AcDbEntity
  8
0
  6
Continuous
 62
     7
100
AcDbCircle
 10
-114.1540698635134
 20
34.88925406978615
 30
0.0
 40
1.0
100
AcDbArc
 50
0.0
 51
90.0
  0
ARC
  5
E8E
330
1F
100
AcDbEntity
  8
0
  6
Continuous
 62
     7
100
AcDbCircle
 10
-114.1540698635134
 20
38.08925406978619
 30
0.0
 40
1.0
100
AcDbArc
 50
270.0
 51
0.0
  0
ARC
  5
E8F
330
1F
100
AcDbEntity
  8
0
  6
Continuous
 62
     7
100
AcDbCircle
 10
-110.9540698635134
 20
38.08925406978619
 30
0.0
 40
1.0
100
AcDbArc
 50
180.0
 51
270.0
  0
ARC
  5
E90
330
1F
100
AcDbEntity
  8
0
  6
Continuous
 62
     7
100
AcDbCircle
 10
-110.9540698635134
 20
34.88925406978615
 30
0.0
 40
1.0
100
AcDbArc
 50
90.0
 51
180.0
  0
ARC
  5
E91
330
1F
100
AcDbEntity
  8
0
  6
Continuous
 62
     7
100
AcDbCircle
 10
-169.1540698635134
 20
-16.91074593021381
 30
0.0
 40
1.0
100
AcDbArc
 50
270.0
 51
0.0
  0
ARC
  5
E92
330
1F
100
AcDbEntity
  8
0
  6
Continuous
 62
     7
100
AcDbCircle
 10
-165.9540698635134
 20
-16.91074593021381
 30
0.0
 40
1.0
100
AcDbArc
 50
180.0
 51
270.0
  0
ARC
  5
E93
330
1F
100
AcDbEntity
  8
0
  6
Continuous
 62
     7
100
AcDbCircle
 10
-165.9540698635134
 20
-20.11074593021385
 30
0.0
 40
1.0
100
AcDbArc
 50
90.0
 51
180.0
  0
ARC
  5
E94
330
1F
100
AcDbEntity
  8
0
  6
Continuous
 62
     7
100
AcDbCircle
 10
-169.1540698635134
 20
-20.11074593021385
 30
0.0
 40
1.0
100
AcDbArc
 50
0.0
 51
90.0
  0
ARC
  5
E95
330
1F
100
AcDbEntity
  8
0
  6
Continuous
 62
     7
100
AcDbCircle
 10
-220.9540698635134
 20
38.08925406978619
 30
0.0
 40
1.0
100
AcDbArc
 50
180.0
 51
270.0
  0
ARC
  5
E96
330
1F
100
AcDbEntity
  8
0
  6
Continuous
 62
     7
100
AcDbCircle
 10
-220.9540698635134
 20
34.88925406978615
 30
0.0
 40
1.0
100
AcDbArc
 50
90.0
 51
180.0
  0
ARC
  5
E97
330
1F
100
AcDbEntity
  8
0
  6
Continuous
 62
     7
100
AcDbCircle
 10
-224.1540698635134
 20
34.88925406978615
 30
0.0
 40
1.0
100
AcDbArc
 50
0.0
 51
90.0
  0
ARC
  5
E98
330
1F
100
AcDbEntity
  8
0
  6
Continuous
 62
     7
100
AcDbCircle
 10
-224.1540698635134
 20
38.08925406978619
 30
0.0
 40
1.0
100
AcDbArc
 50
270.0
 51
0.0
  0
ARC
  5
E99
330
1F
100
AcDbEntity
  8
0
  6
Continuous
 62
     7
100
AcDbCircle
 10
-165.9540698635134
 20
89.8892540697861
 30
0.0
 40
1.0
100
AcDbArc
 50
90.0
 51
180.0
  0
ARC
  5
E9A
330
1F
100
AcDbEntity
  8
0
  6
Continuous
 62
     7
100
AcDbCircle
 10
-169.1540698635134
 20
89.8892540697861
 30
0.0
 40
1.0
100
AcDbArc
 50
0.0
 51
90.0
  0
ARC
  5
E9B
330
1F
100
AcDbEntity
  8
0
  6
Continuous
 62
     7
100
AcDbCircle
 10
-169.1540698635134
 20
93.08925406978621
 30
0.0
 40
1.0
100
AcDbArc
 50
270.0
 51
0.0
  0
ARC
  5
E9C
330
1F
100
AcDbEntity
  8
0
  6
Continuous
 62
     7
100
AcDbCircle
 10
-165.9540698635134
 20
93.08925406978621
 30
0.0
 40
1.0
100
AcDbArc
 50
180.0
 51
270.0
  0
ARC
  5
E9D
330
1F
100
AcDbEntity
  8
0
  6
Continuous
 62
     7
100
AcDbCircle
 10
-131.8540698635135
 20
-128.284834483444
 30
0.0
 40
9.999999999999767
100
AcDbArc
 50
7.2029843485838
 51
90.0
  0
ARC
  5
E9E
330
1F
100
AcDbEntity
  8
0
  6
Continuous
 62
     7
100
AcDbCircle
 10
-117.8540698635135
 20
-129.284834483444
 30
0.0
 40
4.0
100
AcDbArc
 50
180.0
 51
270.0
  0
ARC
  5
E9F
330
1F
100
AcDbEntity
  8
0
  6
Continuous
 62
     7
100
AcDbCircle
 10
-117.5540698635135
 20
-128.9848344834438
 30
0.0
 40
2.0
100
AcDbArc
 50
180.0
 51
270.0
  0
ARC
  5
EA0
330
1F
100
AcDbEntity
  8
0
  6
Continuous
 62
     7
100
AcDbCircle
 10
-203.2540698635133
 20
-128.284834483444
 30
0.0
 40
10.0
100
AcDbArc
 50
90.0
 51
180.0
  0
ARC
  5
EA1
330
1F
100
AcDbEntity
  8
0
  6
Continuous
 62
     7
100
AcDbCircle
 10
-217.2540698635133
 20
-129.284834483444
 30
0.0
 40
4.0
100
AcDbArc
 50
270.0
 51
0.0
  0
ARC
  5
EA2
330
1F
100
AcDbEntity
  8
0
  6
Continuous
 62
     7
100
AcDbCircle
 10
-217.5540698635135
 20
-128.9848344834438
 30
0.0
 40
2.0
100
AcDbArc
 50
270.0
 51
0.0
  0
ARC
  5
EA3
330
1F
100
AcDbEntity
  8
0
  6
Continuous
 62
     7
100
AcDbCircle
 10
-30.55406986351352
 20
-117.0107459302139
 30
0.0
 40
2.0
100
AcDbArc
 50
0.0
 51
90.0
  0
ARC
  5
EA4
330
1F
100
AcDbEntity
  8
0
  6
Continuous
 62
     7
100
AcDbCircle
 10
-30.55406986351352
 20
-32.01074593021394
 30
0.0
 40
2.0
100
AcDbArc
 50
270.0
 51
0.0
  0
ARC
  5
EA5
330
1F
100
AcDbEntity
  8
0
  6
Continuous
 62
     7
100
AcDbCircle
 10
-26.55406986351352
 20
-130.5107459302139
 30
0.0
 40
2.0
100
AcDbArc
 50
180.0
 51
270.0
  0
ARC
  5
EA6
330
1F
100
AcDbEntity
  8
0
  6
Continuous
 62
     7
100
AcDbCircle
 10
-26.55406986351352
 20
-18.51074593021394
 30
0.0
 40
2.0
100
AcDbArc
 50
90.0
 51
180.0
  0
ARC
  5
EB1
330
1F
100
AcDbEntity
  8
0
  6
Continuous
 62
     7
100
AcDbCircle
 10
-71.69799844112332
 20
-32.01074593021394
 30
0.0
 40
1.999999999999991
100
AcDbArc
 50
142.2102304702883
 51
270.0
  0
ARC
  5
EB2
330
1F
100
AcDbEntity
  8
0
  6
Continuous
 62
     7
100
AcDbCircle
 10
203.7642765605088
 20
-36.5589230366744
 30
0.0
 40
1.0
100
AcDbArc
 50
270.0
 51
0.0
  0
ARC
  5
EB3
330
1F
100
AcDbEntity
  8
0
  6
Continuous
 62
     7
100
AcDbCircle
 10
306.2623894787273
 20
-24.82686012797188
 30
0.0
 40
10.00000000000001
100
AcDbArc
 50
270.5405101871307
 51
318.1138605556506
  0
ARC
  5
EB4
330
1F
100
AcDbEntity
  8
0
  6
Continuous
 62
     7
100
AcDbCircle
 10
315.7642765605088
 20
-14.23167866749962
 30
0.0
 40
10.00000000000002
100
AcDbArc
 50
318.1138605556506
 51
0.0
  0
ARC
  5
EB5
330
1F
100
AcDbEntity
  8
0
  6
Continuous
 62
     7
100
AcDbCircle
 10
306.2623894787273
 20
98.25719116108352
 30
0.0
 40
10.0
100
AcDbArc
 50
41.8861394443494
 51
89.45948981286923
  0
ARC
  5
EB6
330
1F
100
AcDbEntity
  8
0
  6
Continuous
 62
     7
100
AcDbCircle
 10
315.7642765605088
 20
87.66200970061129
 30
0.0
 40
10.0
100
AcDbArc
 50
0.0
 51
41.88613944434947
  0
ARC
  5
EB7
330
1F
100
AcDbEntity
  8
0
  6
Continuous
 62
     7
100
AcDbCircle
 10
203.7642765605088
 20
109.9892540697861
 30
0.0
 40
1.0
100
AcDbArc
 50
0.0
 51
90.0
  0
ARC
  5
EB8
330
1F
100
AcDbEntity
  8
0
  6
Continuous
 62
     7
100
AcDbCircle
 10
172.7642765605088
 20
145.4476036094129
 30
0.0
 40
19.99999999999998
100
AcDbArc
 50
18.99089173088042
 51
90.0
  0
ARC
  5
EB9
330
1F
100
AcDbEntity
  8
0
  6
Continuous
 62
     7
100
AcDbCircle
 10
143.2642765605088
 20
145.4476036094129
 30
0.0
 40
20.0
100
AcDbArc
 50
90.0
 51
180.0
  0
ARC
  5
EBA
330
1F
100
AcDbEntity
  8
0
  6
Continuous
 62
     7
100
AcDbCircle
 10
172.7642765605088
 20
145.4476036094129
 30
0.0
 40
20.0
100
AcDbArc
 50
0.0
 51
18.99089173088042
  0
ARC
  5
EBB
330
1F
100
AcDbEntity
  8
0
  6
Continuous
 62
     7
100
AcDbCircle
 10
121.2642765605088
 20
98.71516551655581
 30
0.0
 40
2.0
100
AcDbArc
 50
270.0
 51
0.0
  0
ARC
  5
EBC
330
1F
100
AcDbEntity
  8
0
  6
Continuous
 62
     7
100
AcDbCircle
 10
121.2642765605088
 20
-25.28483448344419
 30
0.0
 40
2.0
100
AcDbArc
 50
0.0
 51
90.0
  0
ARC
  5
EBD
330
1F
100
AcDbEntity
  8
0
  6
Continuous
 62
     7
100
AcDbCircle
 10
126.130257844741
 20
-106.1447646459817
 30
0.0
 40
1.0
100
AcDbArc
 50
180.0
 51
270.0
  0
ARC
  5
EBE
330
1F
100
AcDbEntity
  8
0
  6
Continuous
 62
     7
100
AcDbCircle
 10
122.930257844741
 20
-106.1447646459817
 30
0.0
 40
1.0
100
AcDbArc
 50
270.0
 51
0.0
  0
ARC
  5
EBF
330
1F
100
AcDbEntity
  8
0
  6
Continuous
 62
     7
100
AcDbCircle
 10
122.930257844741
 20
-109.3447646459817
 30
0.0
 40
1.0
100
AcDbArc
 50
0.0
 51
90.0
  0
ARC
  5
EC0
330
1F
100
AcDbEntity
  8
0
  6
Continuous
 62
     7
100
AcDbCircle
 10
126.1302578447411
 20
-109.3447646459817
 30
0.0
 40
1.0
100
AcDbArc
 50
90.0
 51
180.0
  0
ARC
  5
EC1
330
1F
100
AcDbEntity
  8
0
  6
Continuous
 62
     7
100
AcDbCircle
 10
189.3982952762765
 20
-106.1447646459817
 30
0.0
 40
1.0
100
AcDbArc
 50
270.0
 51
0.0
  0
ARC
  5
EC2
330
1F
100
AcDbEntity
  8
0
  6
Continuous
 62
     7
100
AcDbCircle
 10
189.3982952762765
 20
-109.3447646459817
 30
0.0
 40
1.0
100
AcDbArc
 50
0.0
 51
90.0
  0
ARC
  5
EC3
330
1F
100
AcDbEntity
  8
0
  6
Continuous
 62
     7
100
AcDbCircle
 10
192.5982952762765
 20
-109.3447646459817
 30
0.0
 40
1.0
100
AcDbArc
 50
90.0
 51
180.0
  0
ARC
  5
EC4
330
1F
100
AcDbEntity
  8
0
  6
Continuous
 62
     7
100
AcDbCircle
 10
192.5982952762765
 20
-106.1447646459817
 30
0.0
 40
1.0
100
AcDbArc
 50
180.0
 51
270.0
  0
ARC
  5
EC5
330
1F
100
AcDbEntity
  8
0
  6
Continuous
 62
     7
100
AcDbCircle
 10
189.3982952762766
 20
-42.87672721444621
 30
0.0
 40
0.9999999999999149
100
AcDbArc
 50
0.0
 51
90.0
  0
ARC
  5
EC6
330
1F
100
AcDbEntity
  8
0
  6
Continuous
 62
     7
100
AcDbCircle
 10
192.5982952762765
 20
-42.87672721444621
 30
0.0
 40
1.0
100
AcDbArc
 50
90.0
 51
180.0
  0
ARC
  5
EC7
330
1F
100
AcDbEntity
  8
0
  6
Continuous
 62
     7
100
AcDbCircle
 10
192.5982952762765
 20
-39.67672721444623
 30
0.0
 40
1.0
100
AcDbArc
 50
180.0
 51
270.0
  0
ARC
  5
EC8
330
1F
100
AcDbEntity
  8
0
  6
Continuous
 62
     7
100
AcDbCircle
 10
189.3982952762765
 20
-39.67672721444623
 30
0.0
 40
1.0
100
AcDbArc
 50
270.0
 51
0.0
  0
ARC
  5
EC9
330
1F
100
AcDbEntity
  8
0
  6
Continuous
 62
     7
100
AcDbCircle
 10
126.130257844741
 20
-42.87672721444615
 30
0.0
 40
0.9999999999999857
100
AcDbArc
 50
90.0
 51
180.0
  0
ARC
  5
ECA
330
1F
100
AcDbEntity
  8
0
  6
Continuous
 62
     7
100
AcDbCircle
 10
126.130257844741
 20
-39.67672721444619
 30
0.0
 40
1.0
100
AcDbArc
 50
180.0
 51
270.0
  0
ARC
  5
ECB
330
1F
100
AcDbEntity
  8
0
  6
Continuous
 62
     7
100
AcDbCircle
 10
122.930257844741
 20
-39.67672721444619
 30
0.0
 40
1.0
100
AcDbArc
 50
270.0
 51
0.0
  0
ARC
  5
ECC
330
1F
100
AcDbEntity
  8
0
  6
Continuous
 62
     7
100
AcDbCircle
 10
122.930257844741
 20
-42.87672721444621
 30
0.0
 40
1.0
100
AcDbArc
 50
0.0
 51
90.0
  0
ARC
  5
ECD
330
1F
100
AcDbEntity
  8
0
  6
Continuous
 62
     7
100
AcDbCircle
 10
205.7642765605088
 20
-47.28483448344418
 30
0.0
 40
5.0
100
AcDbArc
 50
90.0
 51
147.8186173289279
  0
ARC
  5
ECE
330
1F
100
AcDbEntity
  8
0
  6
Continuous
 62
     7
100
AcDbCircle
 10
206.0642765605088
 20
-47.58483448344417
 30
0.0
 40
3.000000000000003
100
AcDbArc
 50
95.73917047726698
 51
170.151055101757
  0
ARC
  5
ECF
330
1F
100
AcDbEntity
  8
0
  6
Continuous
 62
     7
100
AcDbCircle
 10
134.7262858925606
 20
-46.52300779395988
 30
0.0
 40
2.00000000000007
100
AcDbArc
 50
129.4593623334378
 51
224.9999999999996
  0
ARC
  5
ED0
330
1F
100
AcDbEntity
  8
0
  6
Continuous
 62
     7
100
AcDbCircle
 10
180.802267228457
 20
-46.52300779395988
 30
0.0
 40
2.000000000000015
100
AcDbArc
 50
315.0
 51
50.54063766656496
  0
ARC
  5
ED1
330
1F
100
AcDbEntity
  8
0
  6
Continuous
 62
     7
100
AcDbCircle
 10
157.7642765605088
 20
-69.56099846190813
 30
0.0
 40
1.999999999999975
100
AcDbArc
 50
225.0
 51
314.9999999999988
  0
ARC
  5
ED2
330
1F
100
AcDbEntity
  8
0
  6
Continuous
 62
     7
100
AcDbCircle
 10
162.7140240288146
 20
-74.51074593021394
 30
0.0
 40
1.999999999999995
100
AcDbArc
 50
135.0000000000006
 51
225.0
  0
ARC
  5
ED3
330
1F
100
AcDbEntity
  8
0
  6
Continuous
 62
     7
100
AcDbCircle
 10
185.7520146967628
 20
-97.54873659816219
 30
0.0
 40
1.999999999999945
100
AcDbArc
 50
225.0000000000014
 51
320.540637666566
  0
ARC
  5
ED4
330
1F
100
AcDbEntity
  8
0
  6
Continuous
 62
     7
100
AcDbCircle
 10
185.7520146967628
 20
-51.47275526226574
 30
0.0
 40
2.000000000000074
100
AcDbArc
 50
39.45936233343479
 51
134.9999999999999
  0
ARC
  5
ED5
330
1F
100
AcDbEntity
  8
0
  6
Continuous
 62
     7
100
AcDbCircle
 10
157.7642765605088
 20
-79.46049339851978
 30
0.0
 40
1.999999999999995
100
AcDbArc
 50
44.99999999999942
 51
134.9999999999997
  0
ARC
  5
ED6
330
1F
100
AcDbEntity
  8
0
  6
Continuous
 62
     7
100
AcDbCircle
 10
134.7262858925606
 20
-102.498484066468
 30
0.0
 40
2.000000000000005
100
AcDbArc
 50
135.0000000000003
 51
230.5406376665662
  0
ARC
  5
ED7
330
1F
100
AcDbEntity
  8
0
  6
Continuous
 62
     7
100
AcDbCircle
 10
180.802267228457
 20
-102.498484066468
 30
0.0
 40
1.999999999999986
100
AcDbArc
 50
309.4593623334355
 51
44.99999999999972
  0
ARC
  5
ED8
330
1F
100
AcDbEntity
  8
0
  6
Continuous
 62
     7
100
AcDbCircle
 10
129.7765384242547
 20
-97.54873659816219
 30
0.0
 40
1.999999999999986
100
AcDbArc
 50
219.4593623334355
 51
314.9999999999995
  0
ARC
  5
ED9
330
1F
100
AcDbEntity
  8
0
  6
Continuous
 62
     7
100
AcDbCircle
 10
152.8145290922029
 20
-74.51074593021394
 30
0.0
 40
2.000000000000095
100
AcDbArc
 50
315.0000000000023
 51
44.99999999999712
  0
ARC
  5
EDA
330
1F
100
AcDbEntity
  8
0
  6
Continuous
 62
     7
100
AcDbCircle
 10
129.7765384242547
 20
-51.47275526226574
 30
0.0
 40
2.0
100
AcDbArc
 50
45.00000000000071
 51
140.5406376665643
  0
ENDSEC
  0
SECTION
  2
OBJECTS
  0
DICTIONARY
  5
C
330
0
100
AcDbDictionary
281
     1
  3
ACAD_COLOR
350
885
  3
ACAD_GROUP
350
D
  3
ACAD_LAYOUT
350
1A
  3
ACAD_MATERIAL
350
884
  3
ACAD_MLINESTYLE
350
17
  3
ACAD_PLOTSETTINGS
350
19
  3
ACAD_PLOTSTYLENAME
350
E
  3
ACDBHEADERROUNDTRIPXREC
350
1346
  3
AcDbVariableDictionary
350
130F
  0
DICTIONARY
  5
885
102
{ACAD_REACTORS
330
C
102
}
330
C
100
AcDbDictionary
281
     1
  0
DICTIONARY
  5
D
102
{ACAD_REACTORS
330
C
102
}
330
C
100
AcDbDictionary
281
     1
  0
DICTIONARY
  5
1A
102
{ACAD_REACTORS
330
C
102
}
330
C
100
AcDbDictionary
281
     1
  3
Layout1
350
1E
  3
Layout2
350
26
  3
Model
350
22
  0
DICTIONARY
  5
884
102
{ACAD_REACTORS
330
C
102
}
330
C
100
AcDbDictionary
281
     1
  0
DICTIONARY
  5
17
102
{ACAD_REACTORS
330
C
102
}
330
C
100
AcDbDictionary
281
     1
  3
Standard
350
18
  0
DICTIONARY
  5
19
102
{ACAD_REACTORS
330
C
102
}
330
C
100
AcDbDictionary
281
     1
  0
ACDBDICTIONARYWDFLT
  5
E
102
{ACAD_REACTORS
330
C
102
}
330
C
100
AcDbDictionary
281
     1
  3
Normal
350
F
100
AcDbDictionaryWithDefault
340
F
  0
DICTIONARY
  5
1346
102
{ACAD_REACTORS
330
C
102
}
330
C
100
AcDbDictionary
281
     1
  3
COLORDICT
350
1348
  3
MATERIALDICT
350
1347
  0
DICTIONARY
  5
130F
102
{ACAD_REACTORS
330
C
102
}
330
C
100
AcDbDictionary
281
     1
  3
DIMASSOC
350
1310
  3
PROJECTNAME
350
1311
  0
LAYOUT
  5
1E
102
{ACAD_XDICTIONARY
360
1349
102
}
102
{ACAD_REACTORS
330
1A
102
}
330
1A
100
AcDbPlotSettings
  1

  2

  4

  6

 40
0.0
 41
0.0
 42
0.0
 43
0.0
 44
0.0
 45
0.0
 46
0.0
 47
0.0
 48
0.0
 49
0.0
140
0.0
141
0.0
142
1.0
143
1.0
 70
   688
 72
     0
 73
     0
 74
     5
  7
P社図面.ctb
 75
    16
147
1.0
148
0.0
149
0.0
100
AcDbLayout
  1
Layout1
 70
     1
 71
     1
 10
0.0
 20
0.0
 11
12.0
 21
9.0
 12
0.0
 22
0.0
 32
0.0
 14
1.000000000000000E+20
 24
1.000000000000000E+20
 34
1.000000000000000E+20
 15
-1.000000000000000E+20
 25
-1.000000000000000E+20
 35
-1.000000000000000E+20
146
0.0
 13
0.0
 23
0.0
 33
0.0
 16
1.0
 26
0.0
 36
0.0
 17
0.0
 27
1.0
 37
0.0
 76
     0
330
1B
  0
LAYOUT
  5
26
102
{ACAD_XDICTIONARY
360
134D
102
}
102
{ACAD_REACTORS
330
1A
102
}
330
1A
100
AcDbPlotSettings
  1

  2

  4

  6

 40
0.0
 41
0.0
 42
0.0
 43
0.0
 44
0.0
 45
0.0
 46
0.0
 47
0.0
 48
0.0
 49
0.0
140
0.0
141
0.0
142
1.0
143
1.0
 70
   688
 72
     0
 73
     0
 74
     5
  7
P社図面.ctb
 75
    16
147
1.0
148
0.0
149
0.0
100
AcDbLayout
  1
Layout2
 70
     1
 71
     2
 10
0.0
 20
0.0
 11
0.0
 21
0.0
 12
0.0
 22
0.0
 32
0.0
 14
0.0
 24
0.0
 34
0.0
 15
0.0
 25
0.0
 35
0.0
146
0.0
 13
0.0
 23
0.0
 33
0.0
 16
1.0
 26
0.0
 36
0.0
 17
0.0
 27
1.0
 37
0.0
 76
     0
330
23
  0
LAYOUT
  5
22
102
{ACAD_XDICTIONARY
360
134B
102
}
102
{ACAD_REACTORS
330
1A
102
}
330
1A
100
AcDbPlotSettings
  1

  2
Acrobat Distiller
  4
A3
  6

 40
3.174999952316284
 41
3.174999952316284
 42
3.17498779296875
 43
3.17498779296875
 44
297.0318298339844
 45
420.1583251953125
 46
0.0
 47
0.0
 48
0.0
 49
0.0
140
0.0
141
0.0
142
1.0
143
1.97923655388145
 70
 11952
 72
     1
 73
     1
 74
     1
  7
P社図面.ctb
 75
     0
147
0.5052453169576498
148
428.0122881700072
149
286.0089219007727
100
AcDbLayout
  1
Model
 70
     1
 71
     0
 10
0.0
 20
0.0
 11
0.0
 21
0.0
 12
0.0
 22
0.0
 32
0.0
 14
-427.9997999999999
 24
-286.0002
 34
0.0
 15
390.9998
 25
285.9998
 35
0.0
146
0.0
 13
0.0
 23
0.0
 33
0.0
 16
1.0
 26
0.0
 36
0.0
 17
0.0
 27
1.0
 37
0.0
 76
     0
330
1F
  0
MLINESTYLE
  5
18
102
{ACAD_REACTORS
330
17
102
}
330
17
100
AcDbMlineStyle
  2
STANDARD
 70
     0
  3

 62
   256
 51
90.0
 52
90.0
 71
     2
 49
0.5
 62
   256
  6
BYLAYER
 49
-0.5
 62
   256
  6
BYLAYER
  0
ACDBPLACEHOLDER
  5
F
102
{ACAD_REACTORS
330
E
102
}
330
E
  0
XRECORD
  5
1348
102
{ACAD_REACTORS
330
1346
102
}
330
1346
100
AcDbXrecord
280
     1
340
885
  0
XRECORD
  5
1347
102
{ACAD_REACTORS
330
1346
102
}
330
1346
100
AcDbXrecord
280
     1
340
884
  0
DICTIONARYVAR
  5
1310
102
{ACAD_REACTORS
330
130F
102
}
330
130F
100
DictionaryVariables
280
     0
  1
1
  0
DICTIONARYVAR
  5
1311
102
{ACAD_REACTORS
330
130F
102
}
330
130F
100
DictionaryVariables
280
     0
  1

  0
DICTIONARY
  5
1349
330
1E
100
AcDbDictionary
280
     1
281
     1
  3
ACAD_XREC_ROUNDTRIP
360
134A
  0
DICTIONARY
  5
134D
330
26
100
AcDbDictionary
280
     1
281
     1
  3
ACAD_XREC_ROUNDTRIP
360
134E
  0
DICTIONARY
  5
134B
330
22
100
AcDbDictionary
280
     1
281
     1
  3
ACAD_XREC_ROUNDTRIP
360
134C
  0
XRECORD
  5
134A
102
{ACAD_REACTORS
330
1349
102
}
330
1349
100
AcDbXrecord
280
     1
102
SHADEPLOT
 70
     0
102
SHADEPLOTRESLEVEL
 70
     2
102
SHADEPLOTCUSTOMDPI
 70
   300
  0
XRECORD
  5
134E
102
{ACAD_REACTORS
330
134D
102
}
330
134D
100
AcDbXrecord
280
     1
102
SHADEPLOT
 70
     0
102
SHADEPLOTRESLEVEL
 70
     2
102
SHADEPLOTCUSTOMDPI
 70
   300
  0
XRECORD
  5
134C
102
{ACAD_REACTORS
330
134B
102
}
330
134B
100
AcDbXrecord
280
     1
102
SHADEPLOT
 70
     0
102
SHADEPLOTRESLEVEL
 70
     2
102
SHADEPLOTCUSTOMDPI
 70
   300
  0
ENDSEC
  0
EOF
