  0
SECTION
  2
HEADER
  9
$ACADVER
  1
AC1015
  9
$ACADMAINTVER
 70
    20
  9
$DWGCODEPAGE
  3
ANSI_932
  9
$INSBASE
 10
0.0
 20
0.0
 30
0.0
  9
$EXTMIN
 10
-427.9997999999999
 20
-286.0002
 30
0.0
  9
$EXTMAX
 10
390.9998
 20
285.9998
 30
0.0
  9
$LIMMIN
 10
0.0
 20
0.0
  9
$LIMMAX
 10
12.0
 20
9.0
  9
$ORTHOMODE
 70
     0
  9
$REGENMODE
 70
     1
  9
$FILLMODE
 70
     1
  9
$QTEXTMODE
 70
     0
  9
$MIRRTEXT
 70
     1
  9
$LTSCALE
 40
1.0
  9
$ATTMODE
 70
     1
  9
$TEXTSIZE
 40
0.2
  9
$TRACEWID
 40
0.05
  9
$TEXTSTYLE
  7
CONVERTER_11
  9
$CLAYER
  8
0
  9
$CELTYPE
  6
ByLayer
  9
$CECOLOR
 62
   256
  9
$CELTSCALE
 40
1.0
  9
$DISPSILH
 70
     0
  9
$DIMSCALE
 40
1.0
  9
$DIMASZ
 40
0.18
  9
$DIMEXO
 40
0.0625
  9
$DIMDLI
 40
0.38
  9
$DIMRND
 40
0.0
  9
$DIMDLE
 40
0.0
  9
$DIMEXE
 40
0.18
  9
$DIMTP
 40
0.0
  9
$DIMTM
 40
0.0
  9
$DIMTXT
 40
0.18
  9
$DIMCEN
 40
0.09
  9
$DIMTSZ
 40
0.0
  9
$DIMTOL
 70
     0
  9
$DIMLIM
 70
     0
  9
$DIMTIH
 70
     1
  9
$DIMTOH
 70
     1
  9
$DIMSE1
 70
     0
  9
$DIMSE2
 70
     0
  9
$DIMTAD
 70
     0
  9
$DIMZIN
 70
     0
  9
$DIMBLK
  1

  9
$DIMASO
 70
     1
  9
$DIMSHO
 70
     1
  9
$DIMPOST
  1

  9
$DIMAPOST
  1

  9
$DIMALT
 70
     0
  9
$DIMALTD
 70
     2
  9
$DIMALTF
 40
25.4
  9
$DIMLFAC
 40
1.0
  9
$DIMTOFL
 70
     0
  9
$DIMTVP
 40
0.0
  9
$DIMTIX
 70
     0
  9
$DIMSOXD
 70
     0
  9
$DIMSAH
 70
     0
  9
$DIMBLK1
  1

  9
$DIMBLK2
  1

  9
$DIMSTYLE
  2
Standard
  9
$DIMCLRD
 70
     0
  9
$DIMCLRE
 70
     0
  9
$DIMCLRT
 70
     0
  9
$DIMTFAC
 40
1.0
  9
$DIMGAP
 40
0.09
  9
$DIMJUST
 70
     0
  9
$DIMSD1
 70
     0
  9
$DIMSD2
 70
     0
  9
$DIMTOLJ
 70
     1
  9
$DIMTZIN
 70
     0
  9
$DIMALTZ
 70
     0
  9
$DIMALTTZ
 70
     0
  9
$DIMUPT
 70
     0
  9
$DIMDEC
 70
     4
  9
$DIMTDEC
 70
     4
  9
$DIMALTU
 70
     2
  9
$DIMALTTD
 70
     2
  9
$DIMTXSTY
  7
Standard
  9
$DIMAUNIT
 70
     0
  9
$DIMADEC
 70
     0
  9
$DIMALTRND
 40
0.0
  9
$DIMAZIN
 70
     0
  9
$DIMDSEP
 70
    46
  9
$DIMATFIT
 70
     3
  9
$DIMFRAC
 70
     0
  9
$DIMLDRBLK
  1

  9
$DIMLUNIT
 70
     2
  9
$DIMLWD
 70
    -2
  9
$DIMLWE
 70
    -2
  9
$DIMTMOVE
 70
     0
  9
$LUNITS
 70
     2
  9
$LUPREC
 70
     4
  9
$SKETCHINC
 40
0.1
  9
$FILLETRAD
 40
0.5
  9
$AUNITS
 70
     0
  9
$AUPREC
 70
     0
  9
$MENU
  1
.
  9
$ELEVATION
 40
0.0
  9
$PELEVATION
 40
0.0
  9
$THICKNESS
 40
0.0
  9
$LIMCHECK
 70
     0
  9
$CHAMFERA
 40
0.5
  9
$CHAMFERB
 40
0.5
  9
$CHAMFERC
 40
1.0
  9
$CHAMFERD
 40
0.0
  9
$SKPOLY
 70
     0
  9
$TDCREATE
 40
2455106.657077361
  9
$TDUCREATE
 40
2455106.282077361
  9
$TDUPDATE
 40
2456737.574674213
  9
$TDUUPDATE
 40
2456737.199674213
  9
$TDINDWG
 40
0.0079500579
  9
$TDUSRTIMER
 40
0.0079498264
  9
$USRTIMER
 70
     1
  9
$ANGBASE
 50
0.0
  9
$ANGDIR
 70
     0
  9
$PDMODE
 70
     0
  9
$PDSIZE
 40
0.0
  9
$PLINEWID
 40
0.0
  9
$SPLFRAME
 70
     0
  9
$SPLINETYPE
 70
     6
  9
$SPLINESEGS
 70
     8
  9
$HANDSEED
  5
1008
  9
$SURFTAB1
 70
     6
  9
$SURFTAB2
 70
     6
  9
$SURFTYPE
 70
     6
  9
$SURFU
 70
     6
  9
$SURFV
 70
     6
  9
$UCSBASE
  2

  9
$UCSNAME
  2

  9
$UCSORG
 10
0.0
 20
0.0
 30
0.0
  9
$UCSXDIR
 10
1.0
 20
0.0
 30
0.0
  9
$UCSYDIR
 10
0.0
 20
1.0
 30
0.0
  9
$UCSORTHOREF
  2

  9
$UCSORTHOVIEW
 70
     0
  9
$UCSORGTOP
 10
0.0
 20
0.0
 30
0.0
  9
$UCSORGBOTTOM
 10
0.0
 20
0.0
 30
0.0
  9
$UCSORGLEFT
 10
0.0
 20
0.0
 30
0.0
  9
$UCSORGRIGHT
 10
0.0
 20
0.0
 30
0.0
  9
$UCSORGFRONT
 10
0.0
 20
0.0
 30
0.0
  9
$UCSORGBACK
 10
0.0
 20
0.0
 30
0.0
  9
$PUCSBASE
  2

  9
$PUCSNAME
  2

  9
$PUCSORG
 10
0.0
 20
0.0
 30
0.0
  9
$PUCSXDIR
 10
1.0
 20
0.0
 30
0.0
  9
$PUCSYDIR
 10
0.0
 20
1.0
 30
0.0
  9
$PUCSORTHOREF
  2

  9
$PUCSORTHOVIEW
 70
     0
  9
$PUCSORGTOP
 10
0.0
 20
0.0
 30
0.0
  9
$PUCSORGBOTTOM
 10
0.0
 20
0.0
 30
0.0
  9
$PUCSORGLEFT
 10
0.0
 20
0.0
 30
0.0
  9
$PUCSORGRIGHT
 10
0.0
 20
0.0
 30
0.0
  9
$PUCSORGFRONT
 10
0.0
 20
0.0
 30
0.0
  9
$PUCSORGBACK
 10
0.0
 20
0.0
 30
0.0
  9
$USERI1
 70
     0
  9
$USERI2
 70
     0
  9
$USERI3
 70
     0
  9
$USERI4
 70
     0
  9
$USERI5
 70
     0
  9
$USERR1
 40
14.0
  9
$USERR2
 40
0.0
  9
$USERR3
 40
0.0
  9
$USERR4
 40
0.0
  9
$USERR5
 40
0.0
  9
$WORLDVIEW
 70
     1
  9
$SHADEDGE
 70
     3
  9
$SHADEDIF
 70
    70
  9
$TILEMODE
 70
     1
  9
$MAXACTVP
 70
    64
  9
$PINSBASE
 10
0.0
 20
0.0
 30
0.0
  9
$PLIMCHECK
 70
     0
  9
$PEXTMIN
 10
1.000000000000000E+20
 20
1.000000000000000E+20
 30
1.000000000000000E+20
  9
$PEXTMAX
 10
-1.000000000000000E+20
 20
-1.000000000000000E+20
 30
-1.000000000000000E+20
  9
$PLIMMIN
 10
0.0
 20
0.0
  9
$PLIMMAX
 10
12.0
 20
9.0
  9
$UNITMODE
 70
     0
  9
$VISRETAIN
 70
     1
  9
$PLINEGEN
 70
     0
  9
$PSLTSCALE
 70
     1
  9
$TREEDEPTH
 70
  3020
  9
$CMLSTYLE
  2
Standard
  9
$CMLJUST
 70
     0
  9
$CMLSCALE
 40
1.0
  9
$PROXYGRAPHICS
 70
     1
  9
$MEASUREMENT
 70
     1
  9
$CELWEIGHT
370
    -1
  9
$ENDCAPS
280
     0
  9
$JOINSTYLE
280
     0
  9
$LWDISPLAY
290
     0
  9
$INSUNITS
 70
     1
  9
$HYPERLINKBASE
  1

  9
$STYLESHEET
  1

  9
$XEDIT
290
     1
  9
$CEPSNTYPE
380
     0
  9
$PSTYLEMODE
290
     1
  9
$FINGERPRINTGUID
  2
{3B77FE41-00C1-4517-AEE9-CCF3408433B2}
  9
$VERSIONGUID
  2
{9A78504A-5432-4D8D-90F0-B11A5C534AF2}
  9
$EXTNAMES
290
     1
  9
$PSVPSCALE
 40
0.0
  9
$OLESTARTUP
290
     0
  0
ENDSEC
  0
SECTION
  2
CLASSES
  0
CLASS
  1
ACDBDICTIONARYWDFLT
  2
AcDbDictionaryWithDefault
  3
ObjectDBX Classes
 90
        0
280
     0
281
     0
  0
CLASS
  1

  2
exOdDbSpline
  3

 90
    32768
280
     0
281
     1
  0
CLASS
  1

  2
exOdDbPolyline
  3

 90
    32768
280
     0
281
     1
  0
CLASS
  1

  2
exOdDbCircle
  3

 90
    32768
280
     0
281
     1
  0
CLASS
  1
ACDBPLACEHOLDER
  2
AcDbPlaceHolder
  3
ObjectDBX Classes
 90
        0
280
     0
281
     0
  0
CLASS
  1
LAYOUT
  2
AcDbLayout
  3
ObjectDBX Classes
 90
        0
280
     0
281
     0
  0
CLASS
  1
DICTIONARYVAR
  2
AcDbDictionaryVar
  3
ObjectDBX Classes
 90
        0
280
     0
281
     0
  0
ENDSEC
  0
SECTION
  2
TABLES
  0
TABLE
  2
VPORT
  5
8
330
0
100
AcDbSymbolTable
 70
     7
  0
VPORT
  5
FD8
330
8
100
AcDbSymbolTableRecord
100
AcDbViewportTableRecord
  2
*Active
 70
     0
 10
0.0
 20
0.0
 11
1.0
 21
1.0
 12
-14.04682076662243
 22
1.034865321750203
 13
0.0
 23
0.0
 14
0.5
 24
0.5
 15
0.5
 25
0.5
 16
0.0
 26
0.0
 36
1.0
 17
0.0
 27
0.0
 37
0.0
 40
394.560325570928
 41
1.805810397553516
 42
50.0
 43
0.0
 44
0.0
 50
0.0
 51
0.0
 71
     0
 72
   100
 73
     1
 74
     3
 75
     0
 76
     0
 77
     0
 78
     0
281
     0
 65
     1
110
0.0
120
0.0
130
0.0
111
1.0
121
0.0
131
0.0
112
0.0
122
1.0
132
0.0
 79
     0
146
0.0
  0
ENDTAB
  0
TABLE
  2
LTYPE
  5
5
330
0
100
AcDbSymbolTable
 70
     8
  0
LTYPE
  5
14
330
5
100
AcDbSymbolTableRecord
100
AcDbLinetypeTableRecord
  2
ByBlock
 70
     0
  3

 72
    65
 73
     0
 40
0.0
  0
LTYPE
  5
15
330
5
100
AcDbSymbolTableRecord
100
AcDbLinetypeTableRecord
  2
ByLayer
 70
     0
  3

 72
    65
 73
     0
 40
0.0
  0
LTYPE
  5
16
330
5
100
AcDbSymbolTableRecord
100
AcDbLinetypeTableRecord
  2
Continuous
 70
     0
  3
Solid line
 72
    65
 73
     0
 40
0.0
  0
LTYPE
  5
2A
330
5
100
AcDbSymbolTableRecord
100
AcDbLinetypeTableRecord
  2
DASHED
 70
     0
  3
Dashed
 72
    65
 73
     2
 40
15.0
 49
7.0
 74
     0
 49
-8.0
 74
     0
  0
LTYPE
  5
2E
330
5
100
AcDbSymbolTableRecord
100
AcDbLinetypeTableRecord
  2
DASH_CENTER
 70
     0
  3
Dash_Center
 72
    65
 73
     4
 40
14.0
 49
11.0
 74
     0
 49
-1.0
 74
     0
 49
1.0
 74
     0
 49
-1.0
 74
     0
  0
LTYPE
  5
30
330
5
100
AcDbSymbolTableRecord
100
AcDbLinetypeTableRecord
  2
CENTER_DASH_DASH
 70
     0
  3
Center_Dash_Dash
 72
    65
 73
     6
 40
14.0
 49
9.0
 74
     0
 49
-1.0
 74
     0
 49
1.0
 74
     0
 49
-1.0
 74
     0
 49
1.0
 74
     0
 49
-1.0
 74
     0
  0
ENDTAB
  0
TABLE
  2
LAYER
  5
2
330
0
100
AcDbSymbolTable
 70
     4
  0
LAYER
  5
10
330
2
100
AcDbSymbolTableRecord
100
AcDbLayerTableRecord
  2
0
 70
     0
 62
     7
  6
Continuous
370
    -3
390
F
  0
LAYER
  5
31
330
2
100
AcDbSymbolTableRecord
100
AcDbLayerTableRecord
  2
1
 70
     0
 62
     7
  6
Continuous
370
    -3
390
F
  0
LAYER
  5
CD5
330
2
100
AcDbSymbolTableRecord
100
AcDbLayerTableRecord
  2
Defpoints
 70
     0
 62
     7
  6
Continuous
290
     0
370
    -3
390
F
  0
ENDTAB
  0
TABLE
  2
STYLE
  5
3
330
0
100
AcDbSymbolTable
 70
    21
  0
STYLE
  5
11
330
3
100
AcDbSymbolTableRecord
100
AcDbTextStyleTableRecord
  2
Standard
 70
     0
 40
0.0
 41
1.0
 50
0.0
 71
     0
 42
0.2
  3
txt
  4

  0
STYLE
  5
639
330
3
100
AcDbSymbolTableRecord
100
AcDbTextStyleTableRecord
  2
CONVERTER_6
 70
     0
 40
0.0
 41
0.89
 50
0.0
 71
     0
 42
0.2
  3
txt.shx
  4

  0
STYLE
  5
864
330
3
100
AcDbSymbolTableRecord
100
AcDbTextStyleTableRecord
  2
CONVERTER_11
 70
     0
 40
0.0
 41
0.8009999999999999
 50
0.0
 71
     0
 42
0.2
  3
simplex.shx
  4

  0
STYLE
  5
886
330
3
100
AcDbSymbolTableRecord
100
AcDbTextStyleTableRecord
  2
CONVERTER_18
 70
     0
 40
0.0
 41
0.6230000000000001
 50
0.0
 71
     0
 42
0.2
  3
txt.shx
  4

  0
ENDTAB
  0
TABLE
  2
VIEW
  5
6
330
0
100
AcDbSymbolTable
 70
     0
  0
ENDTAB
  0
TABLE
  2
UCS
  5
7
330
0
100
AcDbSymbolTable
 70
     0
  0
ENDTAB
  0
TABLE
  2
APPID
  5
9
330
0
100
AcDbSymbolTable
 70
     1
  0
APPID
  5
12
330
9
100
AcDbSymbolTableRecord
100
AcDbRegAppTableRecord
  2
ACAD
 70
     0
  0
ENDTAB
  0
TABLE
  2
DIMSTYLE
  5
A
330
0
100
AcDbSymbolTable
 70
    30
100
AcDbDimStyleTable
 71
     1
340
27
  0
DIMSTYLE
105
27
330
A
100
AcDbSymbolTableRecord
100
AcDbDimStyleTableRecord
  2
Standard
 70
     0
340
11
  0
ENDTAB
  0
TABLE
  2
BLOCK_RECORD
  5
1
330
0
100
AcDbSymbolTable
 70
    75
  0
BLOCK_RECORD
  5
1F
330
1
100
AcDbSymbolTableRecord
100
AcDbBlockTableRecord
  2
*Model_Space
340
22
  0
BLOCK_RECORD
  5
1B
330
1
100
AcDbSymbolTableRecord
100
AcDbBlockTableRecord
  2
*Paper_Space
340
1E
  0
BLOCK_RECORD
  5
23
330
1
100
AcDbSymbolTableRecord
100
AcDbBlockTableRecord
  2
*Paper_Space0
340
26
  0
BLOCK_RECORD
  5
33
330
1
100
AcDbSymbolTableRecord
100
AcDbBlockTableRecord
  2
_Gom_1__1
340
0
102
{BLKREFS
331
37
102
}
  0
BLOCK_RECORD
  5
36
330
1
100
AcDbSymbolTableRecord
100
AcDbBlockTableRecord
  2
_Gom__2
340
0
102
{BLKREFS
331
3B
102
}
  0
BLOCK_RECORD
  5
3A
330
1
100
AcDbSymbolTableRecord
100
AcDbBlockTableRecord
  2
WORK_J_SQ-DSM0138805
340
0
102
{BLKREFS
331
53
102
}
  0
ENDTAB
  0
ENDSEC
  0
SECTION
  2
BLOCKS
  0
BLOCK
  5
20
330
1F
100
AcDbEntity
  8
0
100
AcDbBlockBegin
  2
*Model_Space
 70
     0
 10
0.0
 20
0.0
 30
0.0
  3
*Model_Space
  1

  0
ENDBLK
  5
21
330
1F
100
AcDbEntity
  8
0
100
AcDbBlockEnd
  0
BLOCK
  5
1C
330
1B
100
AcDbEntity
 67
     1
  8
0
100
AcDbBlockBegin
  2
*Paper_Space
 70
     0
 10
0.0
 20
0.0
 30
0.0
  3
*Paper_Space
  1

  0
ENDBLK
  5
1D
330
1B
100
AcDbEntity
 67
     1
  8
0
100
AcDbBlockEnd
  0
BLOCK
  5
24
330
23
100
AcDbEntity
  8
0
100
AcDbBlockBegin
  2
*Paper_Space0
 70
     0
 10
0.0
 20
0.0
 30
0.0
  3
*Paper_Space0
  1

  0
ENDBLK
  5
25
330
23
100
AcDbEntity
  8
0
100
AcDbBlockEnd
  0
BLOCK
  5
34
330
33
100
AcDbEntity
  8
0
100
AcDbBlockBegin
  2
_Gom_1__1
 70
     0
 10
5071.803208018428
 20
5129.777544226061
 30
0.0
  3
_Gom_1__1
  1

  0
LINE
  5
57
330
33
100
AcDbEntity
  8
1
  6
DASH_CENTER
 62
     2
100
AcDbLine
 10
158.9062662401811
 20
-114.0496289881351
 30
0.0
 11
148.6890203883577
 21
-103.8323831363125
 31
0.0
  0
LINE
  5
58
330
33
100
AcDbEntity
  8
1
  6
DASH_CENTER
 62
     2
100
AcDbLine
 10
158.9062662401811
 20
-37.77842371432257
 30
0.0
 11
148.6890203883577
 21
-47.99566956614603
 31
0.0
  0
LINE
  5
59
330
33
100
AcDbEntity
  8
1
  6
DASH_CENTER
 62
     2
100
AcDbLine
 10
82.63506096636779
 20
-114.0496289881351
 30
0.0
 11
92.85230681819127
 21
-103.8323831363125
 31
0.0
  0
LINE
  5
5A
330
33
100
AcDbEntity
  8
1
  6
DASH_CENTER
 62
     2
100
AcDbLine
 10
82.63506096636779
 20
-37.77842371432257
 30
0.0
 11
92.85230681819127
 21
-47.99566956614603
 31
0.0
  0
ENDBLK
  5
35
330
33
100
AcDbEntity
  8
0
100
AcDbBlockEnd
  0
BLOCK
  5
38
330
36
100
AcDbEntity
  8
0
100
AcDbBlockBegin
  2
_Gom__2
 70
     0
 10
5071.803208018428
 20
5129.777544226061
 30
0.0
  3
_Gom__2
  1

  0
INSERT
  5
37
330
36
100
AcDbEntity
  8
0
100
AcDbBlockReference
  2
_Gom_1__1
 10
5071.803208018428
 20
5129.777544226061
 30
0.0
  0
ENDBLK
  5
39
330
36
100
AcDbEntity
  8
0
100
AcDbBlockEnd
  0
BLOCK
  5
3C
330
3A
100
AcDbEntity
  8
0
100
AcDbBlockBegin
  2
WORK_J_SQ-DSM0138805
 70
     0
 10
5000.0
 20
5000.0
 30
0.0
  3
WORK_J_SQ-DSM0138805
  1

  0
INSERT
  5
3B
330
3A
100
AcDbEntity
  8
0
100
AcDbBlockReference
  2
_Gom__2
 10
5071.803208018428
 20
5129.777544226061
 30
0.0
  0
ENDBLK
  5
3D
330
3A
100
AcDbEntity
  8
0
100
AcDbBlockEnd
  0
ENDSEC
  0
SECTION
  2
ENTITIES
  0
INSERT
  5
53
330
1F
100
AcDbEntity
  8
0
100
AcDbBlockReference
  2
WORK_J_SQ-DSM0138805
 10
5000.0
 20
5000.0
 30
0.0
  0
TEXT
  5
91C
330
1F
100
AcDbEntity
  8
0
 62
     2
100
AcDbText
 10
-39.88139627381633
 20
-179.688114904459
 30
0.0
 40
8.0
  1
ABS3422P200W
 41
0.8009999999999999
  7
CONVERTER_11
100
AcDbText
  0
MTEXT
  5
935
330
1F
100
AcDbEntity
  8
0
 62
     2
100
AcDbMText
 10
205.5000000000006
 20
-255.4997860470252
 30
0.0
 40
4.0
 41
0.0
 71
     5
 72
     1
  1
 
  7
CONVERTER_18
 73
     1
 44
1.32052821128451
1001
ACAD
1000
MTEXTBEGIN
1070
    73
1070
     1
1070
    44
1040
1.32052821128451
1070
    74
1070
     0
1000
MTEXTEND
  0
MTEXT
  5
93D
330
1F
100
AcDbEntity
  8
0
 62
     2
100
AcDbMText
 10
131.5002
 20
-267.9996999999998
 30
0.0
 40
6.0
 41
0.0
 71
     5
 72
     1
  1
 
  7
CONVERTER_6
 73
     1
 44
1.32052821128451
1001
ACAD
1000
MTEXTBEGIN
1070
    73
1070
     1
1070
    44
1040
1.32052821128451
1070
    74
1070
     0
1000
MTEXTEND
  0
MTEXT
  5
93E
330
1F
100
AcDbEntity
  8
0
 62
     2
100
AcDbMText
 10
170.5002
 20
-267.9996999999998
 30
0.0
 40
6.0
 41
0.0
 71
     5
 72
     1
  1
 
  7
CONVERTER_6
 73
     1
 44
1.32052821128451
1001
ACAD
1000
MTEXTBEGIN
1070
    73
1070
     1
1070
    44
1040
1.32052821128451
1070
    74
1070
     0
1000
MTEXTEND
  0
MTEXT
  5
93F
330
1F
100
AcDbEntity
  8
0
 62
     2
100
AcDbMText
 10
92.50020000000002
 20
-267.9996999999998
 30
0.0
 40
6.0
 41
0.0
 71
     5
 72
     1
  1
 
  7
CONVERTER_6
 73
     1
 44
1.32052821128451
1001
ACAD
1000
MTEXTBEGIN
1070
    73
1070
     1
1070
    44
1040
1.32052821128451
1070
    74
1070
     0
1000
MTEXTEND
  0
MTEXT
  5
940
330
1F
100
AcDbEntity
  8
0
 62
     2
100
AcDbMText
 10
205.5000000000006
 20
-279.9996999999998
 30
0.0
 40
4.0
 41
0.0
 71
     5
 72
     1
  1
 
  7
CONVERTER_18
 73
     1
 44
1.32052821128451
1001
ACAD
1000
MTEXTBEGIN
1070
    73
1070
     1
1070
    44
1040
1.32052821128451
1070
    74
1070
     0
1000
MTEXTEND
  0
MTEXT
  5
941
330
1F
100
AcDbEntity
  8
0
 62
     2
100
AcDbMText
 10
166.5002
 20
-279.9996999999998
 30
0.0
 40
4.0
 41
0.0
 71
     5
 72
     1
  1
 
  7
CONVERTER_18
 73
     1
 44
1.32052821128451
1001
ACAD
1000
MTEXTBEGIN
1070
    73
1070
     1
1070
    44
1040
1.32052821128451
1070
    74
1070
     0
1000
MTEXTEND
  0
MTEXT
  5
942
330
1F
100
AcDbEntity
  8
0
 62
     2
100
AcDbMText
 10
127.5002
 20
-279.9996999999998
 30
0.0
 40
4.0
 41
0.0
 71
     5
 72
     1
  1
 
  7
CONVERTER_18
 73
     1
 44
1.32052821128451
1001
ACAD
1000
MTEXTBEGIN
1070
    73
1070
     1
1070
    44
1040
1.32052821128451
1070
    74
1070
     0
1000
MTEXTEND
  0
MTEXT
  5
943
330
1F
100
AcDbEntity
  8
0
 62
     2
100
AcDbMText
 10
49.50020000000002
 20
-279.9996999999998
 30
0.0
 40
4.0
 41
0.0
 71
     5
 72
     1
  1
 
  7
CONVERTER_18
 73
     1
 44
1.32052821128451
1001
ACAD
1000
MTEXTBEGIN
1070
    73
1070
     1
1070
    44
1040
1.32052821128451
1070
    74
1070
     0
1000
MTEXTEND
  0
MTEXT
  5
944
330
1F
100
AcDbEntity
  8
0
 62
     2
100
AcDbMText
 10
88.50020000000002
 20
-279.9996999999998
 30
0.0
 40
4.0
 41
0.0
 71
     5
 72
     1
  1
 
  7
CONVERTER_18
 73
     1
 44
1.32052821128451
1001
ACAD
1000
MTEXTBEGIN
1070
    73
1070
     1
1070
    44
1040
1.32052821128451
1070
    74
1070
     0
1000
MTEXTEND
  0
MTEXT
  5
945
330
1F
100
AcDbEntity
  8
0
 62
     2
100
AcDbMText
 10
209.5000000000006
 20
-267.9996999999998
 30
0.0
 40
6.0
 41
0.0
 71
     5
 72
     1
  1
 
  7
CONVERTER_6
 73
     1
 44
1.32052821128451
1001
ACAD
1000
MTEXTBEGIN
1070
    73
1070
     1
1070
    44
1040
1.32052821128451
1070
    74
1070
     0
1000
MTEXTEND
  0
MTEXT
  5
946
330
1F
100
AcDbEntity
  8
0
 62
     2
100
AcDbMText
 10
205.5000000000006
 20
-240.9997577209246
 30
0.0
 40
6.0
 41
0.0
 71
     5
 72
     1
  1
 
  7
CONVERTER_6
 73
     1
 44
1.32052821128451
1001
ACAD
1000
MTEXTBEGIN
1070
    73
1070
     1
1070
    44
1040
1.32052821128451
1070
    74
1070
     0
1000
MTEXTEND
  0
LINE
  5
947
330
1F
100
AcDbEntity
  8
1
  6
DASH_CENTER
 62
     2
100
AcDbLine
 10
-270.0476828207474
 20
-134.6881149044587
 30
0.0
 11
-270.0476828207474
 21
-132.3881149044585
 31
0.0
  0
LINE
  5
948
330
1F
100
AcDbEntity
  8
1
  6
DASH_CENTER
 62
     2
100
AcDbLine
 10
-259.0476828207474
 20
-132.3881149044585
 30
0.0
 11
-259.0476828207474
 21
-134.6881149044587
 31
0.0
  0
LINE
  5
949
330
1F
100
AcDbEntity
  8
1
  6
DASH_CENTER
 62
     2
100
AcDbLine
 10
-150.0476828207474
 20
-134.6881149044587
 30
0.0
 11
-150.0476828207474
 21
-132.3881149044585
 31
0.0
  0
LINE
  5
94A
330
1F
100
AcDbEntity
  8
1
  6
DASH_CENTER
 62
     2
100
AcDbLine
 10
-139.0476828207474
 20
-132.3881149044585
 30
0.0
 11
-139.0476828207474
 21
-134.6881149044587
 31
0.0
  0
LINE
  5
94B
330
1F
100
AcDbEntity
  8
0
  6
Continuous
 62
     7
100
AcDbLine
 10
256.7706636032748
 20
-36.53717150823251
 30
0.0
 11
256.7706636032748
 21
-37.68811490445892
 31
0.0
  0
LINE
  5
953
330
1F
100
AcDbEntity
  8
0
  6
Continuous
 62
     7
100
AcDbLine
 10
265.833883637471
 20
-109.21202634099
 30
0.0
 11
268.7706636032749
 21
-132.3881149044589
 31
0.0
  0
LINE
  5
956
330
1F
100
AcDbEntity
  8
0
  6
Continuous
 62
     7
100
AcDbLine
 10
264.5079416855323
 20
-98.74813443694087
 30
0.0
 11
265.833883637471
 21
-109.21202634099
 31
0.0
  0
LINE
  5
99D
330
1F
100
AcDbEntity
  8
0
  6
Continuous
 62
     7
100
AcDbLine
 10
161.7706636032749
 20
-2.784584612538739
 30
0.0
 11
161.7706636032749
 21
-2.16737091836578
 31
0.0
  0
LINE
  5
99E
330
1F
100
AcDbEntity
  8
0
  6
Continuous
 62
     7
100
AcDbLine
 10
159.7706636032749
 20
15.64752477914542
 30
0.0
 11
159.7706636032749
 21
35.31188509554112
 31
0.0
  0
LINE
  5
9A0
330
1F
100
AcDbEntity
  8
0
  6
DASH_CENTER
 62
     2
100
AcDbLine
 10
120.7706636032749
 20
-22.71402635122871
 30
0.0
 11
120.7706636032749
 21
-129.1140263512287
 31
0.0
  0
LINE
  5
9A1
330
1F
100
AcDbEntity
  8
0
  6
DASH_CENTER
 62
     2
100
AcDbLine
 10
60.1706636032749
 20
-75.9140263512287
 30
0.0
 11
181.3706636032748
 21
-75.9140263512287
 31
0.0
  0
LINE
  5
9A2
330
1F
100
AcDbEntity
  8
0
  6
Continuous
 62
     7
100
AcDbLine
 10
117.2351296973422
 20
-74.49981278885563
 30
0.0
 11
94.19713902939392
 21
-51.46182212090739
 31
0.0
  0
LINE
  5
9A3
330
1F
100
AcDbEntity
  8
0
  6
Continuous
 62
     7
100
AcDbLine
 10
94.19713902939392
 20
-100.36623058155
 30
0.0
 11
117.2351296973422
 21
-77.32823991360181
 31
0.0
  0
LINE
  5
9A4
330
1F
100
AcDbEntity
  8
0
  6
Continuous
 62
     7
100
AcDbLine
 10
119.3564500409018
 20
-79.44956025716145
 30
0.0
 11
96.31845937295365
 21
-102.4875509251097
 31
0.0
  0
LINE
  5
9A5
330
1F
100
AcDbEntity
  8
0
  6
Continuous
 62
     7
100
AcDbLine
 10
145.2228678335962
 20
-102.4875509251097
 30
0.0
 11
122.184877165648
 21
-79.44956025716146
 31
0.0
  0
LINE
  5
9A6
330
1F
100
AcDbEntity
  8
0
  6
Continuous
 62
     7
100
AcDbLine
 10
124.3061975092076
 20
-77.32823991360181
 30
0.0
 11
147.3441881771559
 21
-100.36623058155
 31
0.0
  0
LINE
  5
9A7
330
1F
100
AcDbEntity
  8
0
  6
Continuous
 62
     7
100
AcDbLine
 10
147.3441881771558
 20
-51.46182212090739
 30
0.0
 11
124.3061975092076
 21
-74.49981278885563
 31
0.0
  0
LINE
  5
9A8
330
1F
100
AcDbEntity
  8
0
  6
Continuous
 62
     7
100
AcDbLine
 10
122.1848771656479
 20
-72.37849244529595
 30
0.0
 11
145.2228678335962
 21
-49.34050177734775
 31
0.0
  0
LINE
  5
9A9
330
1F
100
AcDbEntity
  8
0
  6
Continuous
 62
     7
100
AcDbLine
 10
96.31845937295365
 20
-49.34050177734772
 30
0.0
 11
119.3564500409018
 21
-72.37849244529595
 31
0.0
  0
LINE
  5
9AA
330
1F
100
AcDbEntity
  8
0
  6
Continuous
 62
     7
100
AcDbLine
 10
81.17066360327493
 20
-14.21220345768914
 30
0.0
 11
81.17066360327493
 21
-24.71220345768915
 31
0.0
  0
LINE
  5
9AB
330
1F
100
AcDbEntity
  8
0
  6
Continuous
 62
     7
100
AcDbLine
 10
77.27076360327501
 20
-22.63000345768922
 30
0.0
 11
77.27076360327501
 21
-16.29450345768914
 31
0.0
  0
LINE
  5
9AC
330
1F
100
AcDbEntity
  8
0
  6
Continuous
 62
     7
100
AcDbLine
 10
79.00516360327483
 20
-14.40170345768932
 30
0.0
 11
81.17066360327493
 21
-14.21220345768914
 31
0.0
  0
LINE
  5
9AD
330
1F
100
AcDbEntity
  8
0
  6
Continuous
 62
     7
100
AcDbLine
 10
79.00516360327483
 20
-24.52280345768913
 30
0.0
 11
81.17066360327493
 21
-24.71220345768915
 31
0.0
  0
LINE
  5
9AE
330
1F
100
AcDbEntity
  8
0
  6
Continuous
 62
     7
100
AcDbLine
 10
81.17066360327493
 20
35.31188509554111
 30
0.0
 11
81.17066360327493
 21
29.21178509554102
 31
0.0
  0
LINE
  5
9AF
330
1F
100
AcDbEntity
  8
0
  6
Continuous
 62
     7
100
AcDbLine
 10
81.17066360327493
 20
40.5618850955411
 30
0.0
 11
81.17066360327493
 21
30.06188509554111
 31
0.0
  0
LINE
  5
9B0
330
1F
100
AcDbEntity
  8
0
  6
Continuous
 62
     7
100
AcDbLine
 10
77.27076360327501
 20
32.14408509554103
 30
0.0
 11
77.27076360327501
 21
38.4795850955411
 31
0.0
  0
LINE
  5
9B1
330
1F
100
AcDbEntity
  8
0
  6
Continuous
 62
     7
100
AcDbLine
 10
79.00516360327483
 20
40.37238509554092
 30
0.0
 11
81.17066360327493
 21
40.5618850955411
 31
0.0
  0
LINE
  5
9B2
330
1F
100
AcDbEntity
  8
0
  6
Continuous
 62
     7
100
AcDbLine
 10
79.00516360327483
 20
30.25128509554111
 30
0.0
 11
81.17066360327493
 21
30.06188509554111
 31
0.0
  0
LINE
  5
9B3
330
1F
100
AcDbEntity
  8
0
  6
Continuous
 62
     7
100
AcDbLine
 10
81.17066360327493
 20
90.08597364877134
 30
0.0
 11
81.17066360327493
 21
83.98587364877126
 31
0.0
  0
LINE
  5
9B4
330
1F
100
AcDbEntity
  8
0
  6
Continuous
 62
     7
100
AcDbLine
 10
81.17066360327493
 20
95.33597364877135
 30
0.0
 11
81.17066360327493
 21
84.83597364877134
 31
0.0
  0
LINE
  5
9B5
330
1F
100
AcDbEntity
  8
0
  6
Continuous
 62
     7
100
AcDbLine
 10
77.27076360327501
 20
86.91817364877122
 30
0.0
 11
77.27076360327501
 21
93.25367364877134
 31
0.0
  0
LINE
  5
9B6
330
1F
100
AcDbEntity
  8
0
  6
Continuous
 62
     7
100
AcDbLine
 10
79.00516360327483
 20
95.14647364877115
 30
0.0
 11
81.17066360327493
 21
95.33597364877135
 31
0.0
  0
LINE
  5
9B7
330
1F
100
AcDbEntity
  8
0
  6
Continuous
 62
     7
100
AcDbLine
 10
79.00516360327483
 20
85.02537364877134
 30
0.0
 11
81.17066360327493
 21
84.83597364877134
 31
0.0
  0
LINE
  5
9B8
330
1F
100
AcDbEntity
  8
0
  6
Continuous
 62
     7
100
AcDbLine
 10
82.77066360327493
 20
-24.18811490445889
 30
0.0
 11
82.77066360327493
 21
35.31188509554111
 31
0.0
  0
LINE
  5
9B9
330
1F
100
AcDbEntity
  8
0
  6
Continuous
 62
     7
100
AcDbLine
 10
81.17066360327493
 20
-24.18811490445889
 30
0.0
 11
82.77066360327493
 21
-24.18811490445889
 31
0.0
  0
LINE
  5
9BA
330
1F
100
AcDbEntity
  8
0
  6
Continuous
 62
     7
100
AcDbLine
 10
82.77066360327493
 20
94.81188509554113
 30
0.0
 11
82.77066360327493
 21
95.31188509554104
 31
0.0
  0
LINE
  5
9BB
330
1F
100
AcDbEntity
  8
0
  6
Continuous
 62
     7
100
AcDbLine
 10
81.17066360327493
 20
94.81188509554113
 30
0.0
 11
82.77066360327493
 21
94.81188509554113
 31
0.0
  0
LINE
  5
9BC
330
1F
100
AcDbEntity
  8
0
  6
Continuous
 62
     7
100
AcDbLine
 10
81.17066360327493
 20
94.81188509554113
 30
0.0
 11
81.17066360327493
 21
-24.18811490445889
 31
0.0
  0
LINE
  5
9BD
330
1F
100
AcDbEntity
  8
0
  6
Continuous
 62
     7
100
AcDbLine
 10
178.2706636032749
 20
-134.688114904459
 30
0.0
 11
189.2706636032749
 21
-134.688114904459
 31
0.0
  0
LINE
  5
9BE
330
1F
100
AcDbEntity
  8
0
  6
Continuous
 62
     7
100
AcDbLine
 10
178.2706636032749
 20
-132.3881149044589
 30
0.0
 11
189.2706636032749
 21
-132.3881149044589
 31
0.0
  0
LINE
  5
9BF
330
1F
100
AcDbEntity
  8
0
  6
DASHED
 62
     2
100
AcDbLine
 10
178.2706636032749
 20
-132.3881149044589
 30
0.0
 11
178.2706636032749
 21
-134.688114904459
 31
0.0
  0
LINE
  5
9C0
330
1F
100
AcDbEntity
  8
0
  6
DASHED
 62
     2
100
AcDbLine
 10
189.2706636032749
 20
-132.3881149044589
 30
0.0
 11
189.2706636032749
 21
-134.688114904459
 31
0.0
  0
LINE
  5
9C1
330
1F
100
AcDbEntity
  8
0
  6
Continuous
 62
     7
100
AcDbLine
 10
213.2706636032749
 20
-134.688114904459
 30
0.0
 11
224.2706636032749
 21
-134.688114904459
 31
0.0
  0
LINE
  5
9C2
330
1F
100
AcDbEntity
  8
0
  6
Continuous
 62
     7
100
AcDbLine
 10
213.2706636032749
 20
-132.3881149044589
 30
0.0
 11
224.2706636032749
 21
-132.3881149044589
 31
0.0
  0
LINE
  5
9C3
330
1F
100
AcDbEntity
  8
0
  6
DASHED
 62
     2
100
AcDbLine
 10
213.2706636032749
 20
-132.3881149044589
 30
0.0
 11
213.2706636032749
 21
-134.688114904459
 31
0.0
  0
LINE
  5
9C4
330
1F
100
AcDbEntity
  8
0
  6
DASHED
 62
     2
100
AcDbLine
 10
224.2706636032749
 20
-132.3881149044589
 30
0.0
 11
224.2706636032749
 21
-134.688114904459
 31
0.0
  0
LINE
  5
9C5
330
1F
100
AcDbEntity
  8
0
  6
Continuous
 62
     7
100
AcDbLine
 10
248.2706636032749
 20
-134.688114904459
 30
0.0
 11
253.7706636032749
 21
-134.688114904459
 31
0.0
  0
LINE
  5
9C6
330
1F
100
AcDbEntity
  8
0
  6
Continuous
 62
     7
100
AcDbLine
 10
248.2706636032749
 20
-132.3881149044589
 30
0.0
 11
259.2706636032749
 21
-132.3881149044589
 31
0.0
  0
LINE
  5
9C7
330
1F
100
AcDbEntity
  8
0
  6
DASHED
 62
     2
100
AcDbLine
 10
248.2706636032749
 20
-132.3881149044589
 30
0.0
 11
248.2706636032749
 21
-134.688114904459
 31
0.0
  0
LINE
  5
9C8
330
1F
100
AcDbEntity
  8
0
  6
Continuous
 62
     7
100
AcDbLine
 10
259.2706636032749
 20
-134.688114904459
 30
0.0
 11
268.7706636032749
 21
-134.688114904459
 31
0.0
  0
LINE
  5
9C9
330
1F
100
AcDbEntity
  8
0
  6
Continuous
 62
     7
100
AcDbLine
 10
259.2706636032749
 20
-132.3881149044589
 30
0.0
 11
268.7706636032749
 21
-132.3881149044589
 31
0.0
  0
LINE
  5
9CA
330
1F
100
AcDbEntity
  8
0
  6
DASHED
 62
     2
100
AcDbLine
 10
259.2706636032749
 20
-132.3881149044589
 30
0.0
 11
259.2706636032749
 21
-134.688114904459
 31
0.0
  0
LINE
  5
9CB
330
1F
100
AcDbEntity
  8
0
  6
DASH_CENTER
 62
     2
100
AcDbLine
 10
253.7706636032749
 20
-125.1615168298226
 30
0.0
 11
253.7706636032749
 21
-134.688114904459
 31
0.0
  0
LINE
  5
9CC
330
1F
100
AcDbEntity
  8
0
  6
DASH_CENTER
 62
     2
100
AcDbLine
 10
218.7706636032749
 20
-125.1615168298226
 30
0.0
 11
218.7706636032749
 21
-143.4341777376646
 31
0.0
  0
LINE
  5
9CD
330
1F
100
AcDbEntity
  8
0
  6
Continuous
 62
     7
100
AcDbLine
 10
183.7706636032749
 20
-124.1602751362426
 30
0.0
 11
183.7706636032749
 21
-132.3881149044589
 31
0.0
  0
LINE
  5
9CE
330
1F
100
AcDbEntity
  8
0
  6
DASH_CENTER
 62
     2
100
AcDbLine
 10
183.7706636032749
 20
-124.1602751362426
 30
0.0
 11
183.7706636032749
 21
-142.9335568908746
 31
0.0
  0
LINE
  5
9CF
330
1F
100
AcDbEntity
  8
0
  6
Continuous
 62
     7
100
AcDbLine
 10
183.7706636032749
 20
-132.3881149044589
 30
0.0
 11
248.2706636032749
 21
-132.3881149044589
 31
0.0
  0
LINE
  5
9D0
330
1F
100
AcDbEntity
  8
0
  6
Continuous
 62
     7
100
AcDbLine
 10
188.7706636032749
 20
-37.68811490445891
 30
0.0
 11
187.7706636032749
 21
-37.68811490445892
 31
0.0
  0
LINE
  5
9D1
330
1F
100
AcDbEntity
  8
0
  6
Continuous
 62
     7
100
AcDbLine
 10
188.7706636032749
 20
-37.68811490445891
 30
0.0
 11
188.7706636032749
 21
-43.68811490445891
 31
0.0
  0
LINE
  5
9D2
330
1F
100
AcDbEntity
  8
0
  6
Continuous
 62
     7
100
AcDbLine
 10
268.7706636032749
 20
-134.688114904459
 30
0.0
 11
268.7706636032749
 21
-132.3881149044589
 31
0.0
  0
LINE
  5
9D3
330
1F
100
AcDbEntity
  8
0
  6
Continuous
 62
     7
100
AcDbLine
 10
168.7706636032749
 20
-134.688114904459
 30
0.0
 11
248.2706636032749
 21
-134.688114904459
 31
0.0
  0
LINE
  5
9D4
330
1F
100
AcDbEntity
  8
0
  6
Continuous
 62
     7
100
AcDbLine
 10
168.7706636032749
 20
-132.3881149044589
 30
0.0
 11
168.7706636032749
 21
-134.688114904459
 31
0.0
  0
LINE
  5
9D5
330
1F
100
AcDbEntity
  8
0
  6
Continuous
 62
     7
100
AcDbLine
 10
168.7706636032749
 20
-132.3881149044589
 30
0.0
 11
183.7706636032749
 21
-132.3881149044589
 31
0.0
  0
LINE
  5
9D6
330
1F
100
AcDbEntity
  8
0
  6
Continuous
 62
     7
100
AcDbLine
 10
256.7706636032748
 20
-37.68811490445892
 30
0.0
 11
264.5079416855323
 21
-98.74813443694087
 31
0.0
  0
LINE
  5
9D8
330
1F
100
AcDbEntity
  8
0
  6
Continuous
 62
     7
100
AcDbLine
 10
85.03664488750713
 20
-43.28000763546095
 30
0.0
 11
85.03664488750713
 21
-42.68000763546093
 31
0.0
  0
LINE
  5
9D9
330
1F
100
AcDbEntity
  8
0
  6
Continuous
 62
     7
100
AcDbLine
 10
85.93664488750713
 20
-43.28000763546095
 30
0.0
 11
85.03664488750713
 21
-43.28000763546095
 31
0.0
  0
LINE
  5
9DA
330
1F
100
AcDbEntity
  8
0
  6
Continuous
 62
     7
100
AcDbLine
 10
86.93664488750712
 20
-45.18000763546094
 30
0.0
 11
86.93664488750712
 21
-44.28000763546097
 31
0.0
  0
LINE
  5
9DB
330
1F
100
AcDbEntity
  8
0
  6
Continuous
 62
     7
100
AcDbLine
 10
87.53664488750713
 20
-45.18000763546094
 30
0.0
 11
86.93664488750712
 21
-45.18000763546094
 31
0.0
  0
LINE
  5
9DC
330
1F
100
AcDbEntity
  8
0
  6
Continuous
 62
     7
100
AcDbLine
 10
86.93664488750712
 20
-40.18000763546093
 30
0.0
 11
87.53664488750713
 21
-40.18000763546093
 31
0.0
  0
LINE
  5
9DD
330
1F
100
AcDbEntity
  8
0
  6
Continuous
 62
     7
100
AcDbLine
 10
86.93664488750712
 20
-41.08000763546093
 30
0.0
 11
86.93664488750712
 21
-40.18000763546093
 31
0.0
  0
LINE
  5
9DE
330
1F
100
AcDbEntity
  8
0
  6
Continuous
 62
     7
100
AcDbLine
 10
85.03664488750713
 20
-42.08000763546094
 30
0.0
 11
85.93664488750713
 21
-42.08000763546094
 31
0.0
  0
LINE
  5
9DF
330
1F
100
AcDbEntity
  8
0
  6
Continuous
 62
     7
100
AcDbLine
 10
85.03664488750713
 20
-42.68000763546093
 30
0.0
 11
85.03664488750713
 21
-42.08000763546094
 31
0.0
  0
LINE
  5
9E0
330
1F
100
AcDbEntity
  8
0
  6
Continuous
 62
     7
100
AcDbLine
 10
90.03664488750713
 20
-42.08000763546094
 30
0.0
 11
90.03664488750713
 21
-42.68000763546093
 31
0.0
  0
LINE
  5
9E1
330
1F
100
AcDbEntity
  8
0
  6
Continuous
 62
     7
100
AcDbLine
 10
89.13664488750713
 20
-42.08000763546094
 30
0.0
 11
90.03664488750713
 21
-42.08000763546094
 31
0.0
  0
LINE
  5
9E2
330
1F
100
AcDbEntity
  8
0
  6
Continuous
 62
     7
100
AcDbLine
 10
88.13664488750713
 20
-40.18000763546093
 30
0.0
 11
88.13664488750713
 21
-41.08000763546093
 31
0.0
  0
LINE
  5
9E3
330
1F
100
AcDbEntity
  8
0
  6
Continuous
 62
     7
100
AcDbLine
 10
87.53664488750713
 20
-40.18000763546093
 30
0.0
 11
88.13664488750713
 21
-40.18000763546093
 31
0.0
  0
LINE
  5
9E4
330
1F
100
AcDbEntity
  8
0
  6
Continuous
 62
     7
100
AcDbLine
 10
88.13664488750713
 20
-45.18000763546094
 30
0.0
 11
87.53664488750713
 21
-45.18000763546094
 31
0.0
  0
LINE
  5
9E5
330
1F
100
AcDbEntity
  8
0
  6
Continuous
 62
     7
100
AcDbLine
 10
88.13664488750713
 20
-44.28000763546091
 30
0.0
 11
88.13664488750713
 21
-45.18000763546094
 31
0.0
  0
LINE
  5
9E6
330
1F
100
AcDbEntity
  8
0
  6
Continuous
 62
     7
100
AcDbLine
 10
90.03664488750713
 20
-43.28000763546093
 30
0.0
 11
89.13664488750713
 21
-43.28000763546093
 31
0.0
  0
LINE
  5
9E7
330
1F
100
AcDbEntity
  8
0
  6
Continuous
 62
     7
100
AcDbLine
 10
90.03664488750713
 20
-42.68000763546093
 30
0.0
 11
90.03664488750713
 21
-43.28000763546093
 31
0.0
  0
LINE
  5
9E8
330
1F
100
AcDbEntity
  8
0
  6
Continuous
 62
     7
100
AcDbLine
 10
153.4046823190426
 20
-40.18000763546097
 30
0.0
 11
154.0046823190427
 21
-40.18000763546097
 31
0.0
  0
LINE
  5
9E9
330
1F
100
AcDbEntity
  8
0
  6
Continuous
 62
     7
100
AcDbLine
 10
153.4046823190426
 20
-41.08000763546097
 30
0.0
 11
153.4046823190426
 21
-40.18000763546097
 31
0.0
  0
LINE
  5
9EA
330
1F
100
AcDbEntity
  8
0
  6
Continuous
 62
     7
100
AcDbLine
 10
151.5046823190426
 20
-42.08000763546098
 30
0.0
 11
152.4046823190426
 21
-42.08000763546098
 31
0.0
  0
LINE
  5
9EB
330
1F
100
AcDbEntity
  8
0
  6
Continuous
 62
     7
100
AcDbLine
 10
151.5046823190426
 20
-42.68000763546097
 30
0.0
 11
151.5046823190426
 21
-42.08000763546098
 31
0.0
  0
LINE
  5
9EC
330
1F
100
AcDbEntity
  8
0
  6
Continuous
 62
     7
100
AcDbLine
 10
156.5046823190426
 20
-42.08000763546098
 30
0.0
 11
156.5046823190426
 21
-42.68000763546097
 31
0.0
  0
LINE
  5
9ED
330
1F
100
AcDbEntity
  8
0
  6
Continuous
 62
     7
100
AcDbLine
 10
155.6046823190426
 20
-42.08000763546098
 30
0.0
 11
156.5046823190426
 21
-42.08000763546098
 31
0.0
  0
LINE
  5
9EE
330
1F
100
AcDbEntity
  8
0
  6
Continuous
 62
     7
100
AcDbLine
 10
154.6046823190426
 20
-40.18000763546097
 30
0.0
 11
154.6046823190426
 21
-41.08000763546097
 31
0.0
  0
LINE
  5
9EF
330
1F
100
AcDbEntity
  8
0
  6
Continuous
 62
     7
100
AcDbLine
 10
154.0046823190427
 20
-40.18000763546097
 30
0.0
 11
154.6046823190426
 21
-40.18000763546097
 31
0.0
  0
LINE
  5
9F0
330
1F
100
AcDbEntity
  8
0
  6
Continuous
 62
     7
100
AcDbLine
 10
154.6046823190426
 20
-45.18000763546097
 30
0.0
 11
154.0046823190427
 21
-45.18000763546097
 31
0.0
  0
LINE
  5
9F1
330
1F
100
AcDbEntity
  8
0
  6
Continuous
 62
     7
100
AcDbLine
 10
154.6046823190426
 20
-44.28000763546097
 30
0.0
 11
154.6046823190426
 21
-45.18000763546097
 31
0.0
  0
LINE
  5
9F2
330
1F
100
AcDbEntity
  8
0
  6
Continuous
 62
     7
100
AcDbLine
 10
156.5046823190426
 20
-43.28000763546096
 30
0.0
 11
155.6046823190426
 21
-43.28000763546096
 31
0.0
  0
LINE
  5
9F3
330
1F
100
AcDbEntity
  8
0
  6
Continuous
 62
     7
100
AcDbLine
 10
156.5046823190426
 20
-42.68000763546097
 30
0.0
 11
156.5046823190426
 21
-43.28000763546096
 31
0.0
  0
LINE
  5
9F4
330
1F
100
AcDbEntity
  8
0
  6
Continuous
 62
     7
100
AcDbLine
 10
151.5046823190426
 20
-43.28000763546096
 30
0.0
 11
151.5046823190426
 21
-42.68000763546097
 31
0.0
  0
LINE
  5
9F5
330
1F
100
AcDbEntity
  8
0
  6
Continuous
 62
     7
100
AcDbLine
 10
152.4046823190426
 20
-43.28000763546096
 30
0.0
 11
151.5046823190426
 21
-43.28000763546096
 31
0.0
  0
LINE
  5
9F6
330
1F
100
AcDbEntity
  8
0
  6
Continuous
 62
     7
100
AcDbLine
 10
153.4046823190426
 20
-45.18000763546097
 30
0.0
 11
153.4046823190426
 21
-44.28000763546097
 31
0.0
  0
LINE
  5
9F7
330
1F
100
AcDbEntity
  8
0
  6
Continuous
 62
     7
100
AcDbLine
 10
154.0046823190427
 20
-45.18000763546097
 30
0.0
 11
153.4046823190426
 21
-45.18000763546097
 31
0.0
  0
LINE
  5
9F8
330
1F
100
AcDbEntity
  8
0
  6
Continuous
 62
     7
100
AcDbLine
 10
156.5046823190426
 20
-108.5480450669964
 30
0.0
 11
156.5046823190426
 21
-109.1480450669964
 31
0.0
  0
LINE
  5
9F9
330
1F
100
AcDbEntity
  8
0
  6
Continuous
 62
     7
100
AcDbLine
 10
155.6046823190426
 20
-108.5480450669964
 30
0.0
 11
156.5046823190426
 21
-108.5480450669964
 31
0.0
  0
LINE
  5
9FA
330
1F
100
AcDbEntity
  8
0
  6
Continuous
 62
     7
100
AcDbLine
 10
154.6046823190426
 20
-106.6480450669964
 30
0.0
 11
154.6046823190426
 21
-107.5480450669964
 31
0.0
  0
LINE
  5
9FB
330
1F
100
AcDbEntity
  8
0
  6
Continuous
 62
     7
100
AcDbLine
 10
154.0046823190426
 20
-106.6480450669964
 30
0.0
 11
154.6046823190426
 21
-106.6480450669964
 31
0.0
  0
LINE
  5
9FC
330
1F
100
AcDbEntity
  8
0
  6
Continuous
 62
     7
100
AcDbLine
 10
154.6046823190426
 20
-111.6480450669964
 30
0.0
 11
154.0046823190426
 21
-111.6480450669964
 31
0.0
  0
LINE
  5
9FD
330
1F
100
AcDbEntity
  8
0
  6
Continuous
 62
     7
100
AcDbLine
 10
154.6046823190426
 20
-110.7480450669964
 30
0.0
 11
154.6046823190426
 21
-111.6480450669964
 31
0.0
  0
LINE
  5
9FE
330
1F
100
AcDbEntity
  8
0
  6
Continuous
 62
     7
100
AcDbLine
 10
156.5046823190426
 20
-109.7480450669964
 30
0.0
 11
155.6046823190426
 21
-109.7480450669964
 31
0.0
  0
LINE
  5
9FF
330
1F
100
AcDbEntity
  8
0
  6
Continuous
 62
     7
100
AcDbLine
 10
156.5046823190426
 20
-109.1480450669964
 30
0.0
 11
156.5046823190426
 21
-109.7480450669964
 31
0.0
  0
LINE
  5
A00
330
1F
100
AcDbEntity
  8
0
  6
Continuous
 62
     7
100
AcDbLine
 10
151.5046823190426
 20
-109.7480450669964
 30
0.0
 11
151.5046823190426
 21
-109.1480450669964
 31
0.0
  0
LINE
  5
A01
330
1F
100
AcDbEntity
  8
0
  6
Continuous
 62
     7
100
AcDbLine
 10
152.4046823190426
 20
-109.7480450669964
 30
0.0
 11
151.5046823190426
 21
-109.7480450669964
 31
0.0
  0
LINE
  5
A02
330
1F
100
AcDbEntity
  8
0
  6
Continuous
 62
     7
100
AcDbLine
 10
153.4046823190426
 20
-111.6480450669964
 30
0.0
 11
153.4046823190426
 21
-110.7480450669964
 31
0.0
  0
LINE
  5
A03
330
1F
100
AcDbEntity
  8
0
  6
Continuous
 62
     7
100
AcDbLine
 10
154.0046823190426
 20
-111.6480450669964
 30
0.0
 11
153.4046823190426
 21
-111.6480450669964
 31
0.0
  0
LINE
  5
A04
330
1F
100
AcDbEntity
  8
0
  6
Continuous
 62
     7
100
AcDbLine
 10
153.4046823190426
 20
-106.6480450669964
 30
0.0
 11
154.0046823190426
 21
-106.6480450669964
 31
0.0
  0
LINE
  5
A05
330
1F
100
AcDbEntity
  8
0
  6
Continuous
 62
     7
100
AcDbLine
 10
153.4046823190426
 20
-107.5480450669965
 30
0.0
 11
153.4046823190426
 21
-106.6480450669964
 31
0.0
  0
LINE
  5
A06
330
1F
100
AcDbEntity
  8
0
  6
Continuous
 62
     7
100
AcDbLine
 10
151.5046823190426
 20
-108.5480450669965
 30
0.0
 11
152.4046823190426
 21
-108.5480450669965
 31
0.0
  0
LINE
  5
A07
330
1F
100
AcDbEntity
  8
0
  6
Continuous
 62
     7
100
AcDbLine
 10
151.5046823190426
 20
-109.1480450669964
 30
0.0
 11
151.5046823190426
 21
-108.5480450669965
 31
0.0
  0
LINE
  5
A09
330
1F
100
AcDbEntity
  8
0
  6
Continuous
 62
     7
100
AcDbLine
 10
88.13664488750722
 20
-111.6480450669964
 30
0.0
 11
87.53664488750713
 21
-111.6480450669964
 31
0.0
  0
LINE
  5
A0A
330
1F
100
AcDbEntity
  8
0
  6
Continuous
 62
     7
100
AcDbLine
 10
88.13664488750722
 20
-110.7480450669964
 30
0.0
 11
88.13664488750722
 21
-111.6480450669964
 31
0.0
  0
LINE
  5
A0B
330
1F
100
AcDbEntity
  8
0
  6
Continuous
 62
     7
100
AcDbLine
 10
90.03664488750722
 20
-109.7480450669964
 30
0.0
 11
89.13664488750724
 21
-109.7480450669964
 31
0.0
  0
LINE
  5
A0C
330
1F
100
AcDbEntity
  8
0
  6
Continuous
 62
     7
100
AcDbLine
 10
90.03664488750722
 20
-109.1480450669964
 30
0.0
 11
90.03664488750722
 21
-109.7480450669964
 31
0.0
  0
LINE
  5
A0D
330
1F
100
AcDbEntity
  8
0
  6
Continuous
 62
     7
100
AcDbLine
 10
85.03664488750713
 20
-109.7480450669964
 30
0.0
 11
85.03664488750713
 21
-109.1480450669964
 31
0.0
  0
LINE
  5
A0E
330
1F
100
AcDbEntity
  8
0
  6
Continuous
 62
     7
100
AcDbLine
 10
85.93664488750713
 20
-109.7480450669964
 30
0.0
 11
85.03664488750713
 21
-109.7480450669964
 31
0.0
  0
LINE
  5
A0F
330
1F
100
AcDbEntity
  8
0
  6
Continuous
 62
     7
100
AcDbLine
 10
86.93664488750712
 20
-111.6480450669964
 30
0.0
 11
86.93664488750712
 21
-110.7480450669964
 31
0.0
  0
LINE
  5
A10
330
1F
100
AcDbEntity
  8
0
  6
Continuous
 62
     7
100
AcDbLine
 10
87.53664488750713
 20
-111.6480450669964
 30
0.0
 11
86.93664488750712
 21
-111.6480450669964
 31
0.0
  0
LINE
  5
A11
330
1F
100
AcDbEntity
  8
0
  6
Continuous
 62
     7
100
AcDbLine
 10
86.93664488750712
 20
-106.6480450669964
 30
0.0
 11
87.53664488750713
 21
-106.6480450669964
 31
0.0
  0
LINE
  5
A12
330
1F
100
AcDbEntity
  8
0
  6
Continuous
 62
     7
100
AcDbLine
 10
86.93664488750712
 20
-107.5480450669965
 30
0.0
 11
86.93664488750712
 21
-106.6480450669964
 31
0.0
  0
LINE
  5
A13
330
1F
100
AcDbEntity
  8
0
  6
Continuous
 62
     7
100
AcDbLine
 10
85.03664488750713
 20
-108.5480450669965
 30
0.0
 11
85.93664488750713
 21
-108.5480450669965
 31
0.0
  0
LINE
  5
A14
330
1F
100
AcDbEntity
  8
0
  6
Continuous
 62
     7
100
AcDbLine
 10
85.03664488750713
 20
-109.1480450669964
 30
0.0
 11
85.03664488750713
 21
-108.5480450669965
 31
0.0
  0
LINE
  5
A15
330
1F
100
AcDbEntity
  8
0
  6
Continuous
 62
     7
100
AcDbLine
 10
90.03664488750722
 20
-108.5480450669965
 30
0.0
 11
90.03664488750722
 21
-109.1480450669964
 31
0.0
  0
LINE
  5
A16
330
1F
100
AcDbEntity
  8
0
  6
Continuous
 62
     7
100
AcDbLine
 10
89.13664488750713
 20
-108.5480450669965
 30
0.0
 11
90.03664488750722
 21
-108.5480450669965
 31
0.0
  0
LINE
  5
A17
330
1F
100
AcDbEntity
  8
0
  6
Continuous
 62
     7
100
AcDbLine
 10
88.13664488750713
 20
-106.6480450669964
 30
0.0
 11
88.13664488750713
 21
-107.5480450669965
 31
0.0
  0
LINE
  5
A18
330
1F
100
AcDbEntity
  8
0
  6
Continuous
 62
     7
100
AcDbLine
 10
87.53664488750713
 20
-106.6480450669964
 30
0.0
 11
88.13664488750713
 21
-106.6480450669964
 31
0.0
  0
LINE
  5
A19
330
1F
100
AcDbEntity
  8
0
  6
Continuous
 62
     7
100
AcDbLine
 10
256.7706636032748
 20
-37.68811490445892
 30
0.0
 11
188.7706636032749
 21
-37.68811490445891
 31
0.0
  0
LINE
  5
A1A
330
1F
100
AcDbEntity
  8
0
  6
Continuous
 62
     7
100
AcDbLine
 10
84.27066360327494
 20
144.2660503293168
 30
0.0
 11
84.27066360327494
 21
125.3579738727183
 31
0.0
  0
LINE
  5
A1B
330
1F
100
AcDbEntity
  8
0
  6
Continuous
 62
     7
100
AcDbLine
 10
86.27066360327495
 20
125.3579738727183
 30
0.0
 11
86.27066360327495
 21
97.31188509554105
 31
0.0
  0
LINE
  5
A1C
330
1F
100
AcDbEntity
  8
0
  6
Continuous
 62
     7
100
AcDbLine
 10
84.27066360327494
 20
125.3579738727183
 30
0.0
 11
86.27066360327495
 21
125.3579738727183
 31
0.0
  0
LINE
  5
A1D
330
1F
100
AcDbEntity
  8
0
  6
Continuous
 62
     7
100
AcDbLine
 10
86.27066360327495
 20
133.548943615365
 30
0.0
 11
86.27066360327495
 21
125.3579738727183
 31
0.0
  0
LINE
  5
A1E
330
1F
100
AcDbEntity
  8
0
  6
Continuous
 62
     7
100
AcDbLine
 10
84.27066360327494
 20
133.548943615365
 30
0.0
 11
86.27066360327495
 21
133.548943615365
 31
0.0
  0
LINE
  5
A1F
330
1F
100
AcDbEntity
  8
0
  6
Continuous
 62
     7
100
AcDbLine
 10
86.27066360327495
 20
140.0496333871274
 30
0.0
 11
86.27066360327495
 21
133.548943615365
 31
0.0
  0
LINE
  5
A20
330
1F
100
AcDbEntity
  8
0
  6
Continuous
 62
     7
100
AcDbLine
 10
84.27066360327494
 20
140.0496333871274
 30
0.0
 11
86.27066360327495
 21
140.0496333871274
 31
0.0
  0
LINE
  5
A21
330
1F
100
AcDbEntity
  8
0
  6
Continuous
 62
     7
100
AcDbLine
 10
84.27066360327494
 20
144.2660503293168
 30
0.0
 11
86.27066360327495
 21
144.2660503293168
 31
0.0
  0
LINE
  5
A22
330
1F
100
AcDbEntity
  8
0
  6
Continuous
 62
     7
100
AcDbLine
 10
86.27066360327495
 20
35.31188509554111
 30
0.0
 11
86.27066360327495
 21
-26.68811490445894
 31
0.0
  0
LINE
  5
A23
330
1F
100
AcDbEntity
  8
0
  6
Continuous
 62
     7
100
AcDbLine
 10
86.27066360327495
 20
-26.68811490445894
 30
0.0
 11
86.27066360327495
 21
-35.68033400265099
 31
0.0
  0
LINE
  5
A24
330
1F
100
AcDbEntity
  8
0
  6
Continuous
 62
     7
100
AcDbLine
 10
84.27066360327494
 20
-24.68811490445894
 30
0.0
 11
82.77066360327493
 21
-24.68811490445894
 31
0.0
  0
LINE
  5
A25
330
1F
100
AcDbEntity
  8
0
  6
Continuous
 62
     7
100
AcDbLine
 10
82.77066360327493
 20
-24.68811490445894
 30
0.0
 11
82.77066360327493
 21
-24.18811490445889
 31
0.0
  0
LINE
  5
A26
330
1F
100
AcDbEntity
  8
0
  6
Continuous
 62
     7
100
AcDbLine
 10
161.7706636032749
 20
-7.30264302922198
 30
0.0
 11
161.7706636032749
 21
-8.91578560723293
 31
0.0
  0
LINE
  5
A27
330
1F
100
AcDbEntity
  8
0
  6
Continuous
 62
     7
100
AcDbLine
 10
157.7706636032749
 20
-2.16737091836578
 30
0.0
 11
159.7706636032749
 21
-2.16737091836578
 31
0.0
  0
LINE
  5
A28
330
1F
100
AcDbEntity
  8
0
  6
Continuous
 62
     7
100
AcDbLine
 10
159.7706636032749
 20
35.08597364877131
 30
0.0
 11
159.7706636032749
 21
35.31188509554112
 31
0.0
  0
LINE
  5
A29
330
1F
100
AcDbEntity
  8
0
  6
Continuous
 62
     7
100
AcDbLine
 10
159.7706636032749
 20
35.53779654231085
 30
0.0
 11
159.7706636032749
 21
35.31188509554112
 31
0.0
  0
LINE
  5
A2A
330
1F
100
AcDbEntity
  8
0
  6
Continuous
 62
     7
100
AcDbLine
 10
159.7706636032749
 20
-2.16737091836578
 30
0.0
 11
159.7706636032749
 21
15.64752477914542
 31
0.0
  0
LINE
  5
A2B
330
1F
100
AcDbEntity
  8
0
  6
Continuous
 62
     7
100
AcDbLine
 10
159.7706636032749
 20
-28.8130941965096
 30
0.0
 11
159.7706636032749
 21
-25.50835510826756
 31
0.0
  0
LINE
  5
A2C
330
1F
100
AcDbEntity
  8
0
  6
Continuous
 62
     7
100
AcDbLine
 10
159.7706636032749
 20
-2.16737091836578
 30
0.0
 11
161.7706636032749
 21
-2.16737091836578
 31
0.0
  0
LINE
  5
A2D
330
1F
100
AcDbEntity
  8
0
  6
Continuous
 62
     7
100
AcDbLine
 10
161.7706636032749
 20
-8.91578560723293
 30
0.0
 11
161.7706636032749
 21
-25.50835510826756
 31
0.0
  0
LINE
  5
A2E
330
1F
100
AcDbEntity
  8
0
  6
Continuous
 62
     7
100
AcDbLine
 10
159.7706636032749
 20
-25.50835510826756
 30
0.0
 11
157.7706636032749
 21
-25.50835510826756
 31
0.0
  0
LINE
  5
A2F
330
1F
100
AcDbEntity
  8
0
  6
Continuous
 62
     7
100
AcDbLine
 10
157.7706636032749
 20
-25.50835510826756
 30
0.0
 11
157.7706636032749
 21
-25.83464291909606
 31
0.0
  0
LINE
  5
A30
330
1F
100
AcDbEntity
  8
0
  6
Continuous
 62
     7
100
AcDbLine
 10
161.7706636032749
 20
-12.31081016220096
 30
0.0
 11
161.7706636032749
 21
-12.78666854496087
 31
0.0
  0
LINE
  5
A31
330
1F
100
AcDbEntity
  8
0
  6
Continuous
 62
     7
100
AcDbLine
 10
161.7706636032749
 20
-15.11091016220086
 30
0.0
 11
161.7706636032749
 21
-12.78666854496087
 31
0.0
  0
LINE
  5
A32
330
1F
100
AcDbEntity
  8
0
  6
Continuous
 62
     7
100
AcDbLine
 10
161.7706636032749
 20
-12.78666854496087
 30
0.0
 11
161.7706636032749
 21
-18.00901016220096
 31
0.0
  0
LINE
  5
A33
330
1F
100
AcDbEntity
  8
0
  6
Continuous
 62
     7
100
AcDbLine
 10
161.7706636032749
 20
-18.41091016220107
 30
0.0
 11
161.7706636032749
 21
-24.51081016220096
 31
0.0
  0
LINE
  5
A34
330
1F
100
AcDbEntity
  8
0
  6
Continuous
 62
     7
100
AcDbLine
 10
163.2706636032749
 20
-12.31081016220096
 30
0.0
 11
163.2706636032749
 21
-18.41091016220107
 31
0.0
  0
LINE
  5
A35
330
1F
100
AcDbEntity
  8
0
  6
Continuous
 62
     7
100
AcDbLine
 10
163.2706636032749
 20
-18.81281016220087
 30
0.0
 11
163.2706636032749
 21
-24.51081016220096
 31
0.0
  0
LINE
  5
A36
330
1F
100
AcDbEntity
  8
0
  6
Continuous
 62
     7
100
AcDbLine
 10
161.7706636032749
 20
-18.00901016220096
 30
0.0
 11
163.2706636032749
 21
-18.41091016220107
 31
0.0
  0
LINE
  5
A37
330
1F
100
AcDbEntity
  8
0
  6
Continuous
 62
     7
100
AcDbLine
 10
161.7706636032749
 20
-18.41091016220107
 30
0.0
 11
163.2706636032749
 21
-18.81281016220087
 31
0.0
  0
LINE
  5
A38
330
1F
100
AcDbEntity
  8
0
  6
Continuous
 62
     7
100
AcDbLine
 10
161.7706636032749
 20
-12.31081016220096
 30
0.0
 11
163.2706636032749
 21
-12.31081016220096
 31
0.0
  0
LINE
  5
A39
330
1F
100
AcDbEntity
  8
0
  6
Continuous
 62
     7
100
AcDbLine
 10
161.7706636032749
 20
-24.51081016220096
 30
0.0
 11
163.2706636032749
 21
-24.51081016220096
 31
0.0
  0
LINE
  5
A3A
330
1F
100
AcDbEntity
  8
0
  6
Continuous
 62
     7
100
AcDbLine
 10
163.2706636032749
 20
-13.16091016220107
 30
0.0
 11
163.2706636032749
 21
-23.66091016220107
 31
0.0
  0
LINE
  5
A3B
330
1F
100
AcDbEntity
  8
0
  6
Continuous
 62
     7
100
AcDbLine
 10
167.1705636032748
 20
-15.24311016220086
 30
0.0
 11
167.1705636032748
 21
-21.57861016220097
 31
0.0
  0
LINE
  5
A3C
330
1F
100
AcDbEntity
  8
0
  6
Continuous
 62
     7
100
AcDbLine
 10
165.436163603275
 20
-23.47141016220086
 30
0.0
 11
163.2706636032749
 21
-23.66091016220107
 31
0.0
  0
LINE
  5
A3D
330
1F
100
AcDbEntity
  8
0
  6
Continuous
 62
     7
100
AcDbLine
 10
165.436163603275
 20
-13.35031016220096
 30
0.0
 11
163.2706636032749
 21
-13.16091016220107
 31
0.0
  0
LINE
  5
A3E
330
1F
100
AcDbEntity
  8
0
  6
CENTER_DASH_DASH
 62
   171
100
AcDbLine
 10
161.8861175576779
 20
-11.39465108303086
 30
0.0
 11
161.8861175576779
 21
-11.41091016220107
 31
0.0
  0
LINE
  5
A3F
330
1F
100
AcDbEntity
  8
0
  6
Continuous
 62
     7
100
AcDbLine
 10
161.7706636032749
 20
-12.78666854496087
 30
0.0
 11
161.7706636032749
 21
-11.39654377080897
 31
0.0
  0
LINE
  5
A40
330
1F
100
AcDbEntity
  8
0
  6
Continuous
 62
     7
100
AcDbLine
 10
161.7706636032749
 20
-24.41091016220107
 30
0.0
 11
161.7706636032749
 21
-21.71091016220097
 31
0.0
  0
LINE
  5
A41
330
1F
100
AcDbEntity
  8
0
  6
Continuous
 62
     7
100
AcDbLine
 10
161.7706636032749
 20
-12.78666854496087
 30
0.0
 11
161.7706636032749
 21
-23.00901016220096
 31
0.0
  0
LINE
  5
A42
330
1F
100
AcDbEntity
  8
0
  6
Continuous
 62
     7
100
AcDbLine
 10
161.7706636032749
 20
-7.30264302922198
 30
0.0
 11
161.7706636032749
 21
-2.784584612538739
 31
0.0
  0
LINE
  5
A43
330
1F
100
AcDbEntity
  8
0
  6
Continuous
 62
     7
100
AcDbLine
 10
159.7706636032749
 20
35.31188509554112
 30
0.0
 11
159.7706636032749
 21
35.53779654231085
 31
0.0
  0
LINE
  5
A44
330
1F
100
AcDbEntity
  8
0
  6
Continuous
 62
     7
100
AcDbLine
 10
159.7706636032749
 20
-38.96220345768916
 30
0.0
 11
159.7706636032749
 21
-32.2567697971347
 31
0.0
  0
LINE
  5
A45
330
1F
100
AcDbEntity
  8
0
  6
Continuous
 62
     7
100
AcDbLine
 10
161.7706636032749
 20
-25.50835510826756
 30
0.0
 11
159.7706636032749
 21
-25.50835510826756
 31
0.0
  0
LINE
  5
A46
330
1F
100
AcDbEntity
  8
0
  6
Continuous
 62
     7
100
AcDbLine
 10
157.7706636032749
 20
-8.91578560723293
 30
0.0
 11
157.7706636032749
 21
35.31188509554111
 31
0.0
  0
LINE
  5
A47
330
1F
100
AcDbEntity
  8
0
  6
Continuous
 62
     7
100
AcDbLine
 10
157.7706636032749
 20
-25.50835510826756
 30
0.0
 11
157.7706636032749
 21
-19.49756472862857
 31
0.0
  0
LINE
  5
A48
330
1F
100
AcDbEntity
  8
0
  6
Continuous
 62
     7
100
AcDbLine
 10
159.7706636032749
 20
35.31188509554112
 30
0.0
 11
159.7706636032749
 21
35.08597364877131
 31
0.0
  0
LINE
  5
A49
330
1F
100
AcDbEntity
  8
0
  6
DASH_CENTER
 62
     2
100
AcDbLine
 10
86.27066360327495
 20
35.31188509554111
 30
0.0
 11
82.77066360327493
 21
35.31188509554111
 31
0.0
  0
LINE
  5
A4A
330
1F
100
AcDbEntity
  8
0
  6
Continuous
 62
     7
100
AcDbLine
 10
86.27066360327495
 20
97.31188509554105
 30
0.0
 11
86.27066360327495
 21
35.31188509554111
 31
0.0
  0
LINE
  5
A4B
330
1F
100
AcDbEntity
  8
0
  6
Continuous
 62
     7
100
AcDbLine
 10
154.6820699830492
 20
150.5526800270349
 30
0.0
 11
157.7706636032749
 21
150.5526800270349
 31
0.0
  0
LINE
  5
A4C
330
1F
100
AcDbEntity
  8
0
  6
Continuous
 62
     7
100
AcDbLine
 10
135.7706636032749
 20
164.0443231883982
 30
0.0
 11
106.2706636032749
 21
164.0443231883982
 31
0.0
  0
LINE
  5
A4D
330
1F
100
AcDbEntity
  8
0
  6
DASH_CENTER
 62
     2
100
AcDbLine
 10
155.7706636032749
 20
35.31188509554111
 30
0.0
 11
84.27066360327494
 21
35.31188509554111
 31
0.0
  0
LINE
  5
A4E
330
1F
100
AcDbEntity
  8
0
  6
Continuous
 62
     7
100
AcDbLine
 10
86.27066360327495
 20
144.0443231883982
 30
0.0
 11
86.27066360327495
 21
140.0496333871274
 31
0.0
  0
LINE
  5
A4F
330
1F
100
AcDbEntity
  8
0
  6
Continuous
 62
     7
100
AcDbLine
 10
82.77066360327493
 20
95.31188509554104
 30
0.0
 11
84.27066360327494
 21
95.31188509554104
 31
0.0
  0
LINE
  5
A50
330
1F
100
AcDbEntity
  8
0
  6
Continuous
 62
     7
100
AcDbLine
 10
82.77066360327493
 20
35.31188509554111
 30
0.0
 11
82.77066360327493
 21
94.81188509554113
 31
0.0
  0
LINE
  5
A51
330
1F
100
AcDbEntity
  8
0
  6
Continuous
 62
     7
100
AcDbLine
 10
187.7706636032749
 20
79.53955579831506
 30
0.0
 11
187.7706636032749
 21
35.08597364877131
 31
0.0
  0
LINE
  5
A52
330
1F
100
AcDbEntity
  8
0
  6
Continuous
 62
     7
100
AcDbLine
 10
187.7706636032749
 20
99.43686438759174
 30
0.0
 11
187.7706636032749
 21
79.53955579831506
 31
0.0
  0
LINE
  5
A53
330
1F
100
AcDbEntity
  8
0
  6
DASH_CENTER
 62
     2
100
AcDbLine
 10
155.7706636032749
 20
35.31188509554111
 30
0.0
 11
157.7706636032749
 21
35.31188509554111
 31
0.0
  0
LINE
  5
A54
330
1F
100
AcDbEntity
  8
0
  6
Continuous
 62
     7
100
AcDbLine
 10
155.7706636032749
 20
35.31188509554111
 30
0.0
 11
155.7706636032749
 21
144.0443231883982
 31
0.0
  0
LINE
  5
A55
330
1F
100
AcDbEntity
  8
0
  6
Continuous
 62
     7
100
AcDbLine
 10
159.7706636032749
 20
72.79114110944792
 30
0.0
 11
157.7706636032749
 21
72.79114110944792
 31
0.0
  0
LINE
  5
A56
330
1F
100
AcDbEntity
  8
0
  6
Continuous
 62
     7
100
AcDbLine
 10
159.7706636032749
 20
35.31188509554112
 30
0.0
 11
159.7706636032749
 21
35.53779654231085
 31
0.0
  0
LINE
  5
A57
330
1F
100
AcDbEntity
  8
0
  6
Continuous
 62
     7
100
AcDbLine
 10
159.7706636032749
 20
35.31188509554112
 30
0.0
 11
159.7706636032749
 21
35.08597364877131
 31
0.0
  0
LINE
  5
A58
330
1F
100
AcDbEntity
  8
0
  6
DASH_CENTER
 62
     2
100
AcDbLine
 10
159.7706636032749
 20
35.31188509554112
 30
0.0
 11
157.7706636032749
 21
35.31188509554111
 31
0.0
  0
LINE
  5
A59
330
1F
100
AcDbEntity
  8
0
  6
Continuous
 62
     7
100
AcDbLine
 10
159.7706636032749
 20
35.31188509554112
 30
0.0
 11
159.7706636032749
 21
72.79114110944792
 31
0.0
  0
LINE
  5
A5A
330
1F
100
AcDbEntity
  8
0
  6
Continuous
 62
     7
100
AcDbLine
 10
159.7706636032749
 20
130.6642044000224
 30
0.0
 11
161.7706636032749
 21
130.6642044000224
 31
0.0
  0
LINE
  5
A5B
330
1F
100
AcDbEntity
  8
0
  6
Continuous
 62
     7
100
AcDbLine
 10
159.7706636032749
 20
96.13212529934973
 30
0.0
 11
159.7706636032749
 21
99.43686438759174
 31
0.0
  0
LINE
  5
A5C
330
1F
100
AcDbEntity
  8
0
  6
Continuous
 62
     7
100
AcDbLine
 10
161.7706636032749
 20
72.79114110944792
 30
0.0
 11
159.7706636032749
 21
72.79114110944792
 31
0.0
  0
LINE
  5
A5D
330
1F
100
AcDbEntity
  8
0
  6
Continuous
 62
     7
100
AcDbLine
 10
157.7706636032749
 20
150.5526800270349
 30
0.0
 11
157.7706636032749
 21
130.6642044000224
 31
0.0
  0
LINE
  5
A5E
330
1F
100
AcDbEntity
  8
0
  6
Continuous
 62
     7
100
AcDbLine
 10
161.7706636032749
 20
150.5526800270349
 30
0.0
 11
157.7706636032749
 21
150.5526800270349
 31
0.0
  0
LINE
  5
A5F
330
1F
100
AcDbEntity
  8
0
  6
Continuous
 62
     7
100
AcDbLine
 10
161.7706636032749
 20
150.5526800270349
 30
0.0
 11
161.7706636032749
 21
130.6642044000224
 31
0.0
  0
LINE
  5
A60
330
1F
100
AcDbEntity
  8
0
  6
Continuous
 62
     7
100
AcDbLine
 10
161.7706636032749
 20
96.13212529934973
 30
0.0
 11
161.7706636032749
 21
79.53955579831506
 31
0.0
  0
LINE
  5
A61
330
1F
100
AcDbEntity
  8
0
  6
Continuous
 62
     7
100
AcDbLine
 10
157.7706636032749
 20
96.13212529934973
 30
0.0
 11
159.7706636032749
 21
96.13212529934973
 31
0.0
  0
LINE
  5
A62
330
1F
100
AcDbEntity
  8
0
  6
Continuous
 62
     7
100
AcDbLine
 10
157.7706636032749
 20
96.45841311017825
 30
0.0
 11
157.7706636032749
 21
96.13212529934973
 31
0.0
  0
LINE
  5
A63
330
1F
100
AcDbEntity
  8
0
  6
Continuous
 62
     7
100
AcDbLine
 10
157.7706636032749
 20
130.6642044000224
 30
0.0
 11
159.7706636032749
 21
130.6642044000224
 31
0.0
  0
LINE
  5
A64
330
1F
100
AcDbEntity
  8
0
  6
Continuous
 62
     7
100
AcDbLine
 10
161.7706636032749
 20
137.6044269630251
 30
0.0
 11
161.7706636032749
 21
137.1285685802652
 31
0.0
  0
LINE
  5
A65
330
1F
100
AcDbEntity
  8
0
  6
Continuous
 62
     7
100
AcDbLine
 10
161.7706636032749
 20
137.6044269630251
 30
0.0
 11
161.7706636032749
 21
139.9286685802651
 31
0.0
  0
LINE
  5
A66
330
1F
100
AcDbEntity
  8
0
  6
Continuous
 62
     7
100
AcDbLine
 10
161.7706636032749
 20
142.8267685802653
 30
0.0
 11
161.7706636032749
 21
137.6044269630251
 31
0.0
  0
LINE
  5
A67
330
1F
100
AcDbEntity
  8
0
  6
Continuous
 62
     7
100
AcDbLine
 10
161.7706636032749
 20
149.3285685802653
 30
0.0
 11
161.7706636032749
 21
143.2286685802651
 31
0.0
  0
LINE
  5
A68
330
1F
100
AcDbEntity
  8
0
  6
Continuous
 62
     7
100
AcDbLine
 10
163.2706636032749
 20
143.2286685802651
 30
0.0
 11
163.2706636032749
 21
137.1285685802652
 31
0.0
  0
LINE
  5
A69
330
1F
100
AcDbEntity
  8
0
  6
Continuous
 62
     7
100
AcDbLine
 10
163.2706636032749
 20
149.3285685802653
 30
0.0
 11
163.2706636032749
 21
143.6305685802651
 31
0.0
  0
LINE
  5
A6A
330
1F
100
AcDbEntity
  8
0
  6
Continuous
 62
     7
100
AcDbLine
 10
163.2706636032749
 20
143.2286685802651
 30
0.0
 11
161.7706636032749
 21
142.8267685802653
 31
0.0
  0
LINE
  5
A6B
330
1F
100
AcDbEntity
  8
0
  6
Continuous
 62
     7
100
AcDbLine
 10
163.2706636032749
 20
143.6305685802651
 30
0.0
 11
161.7706636032749
 21
143.2286685802651
 31
0.0
  0
LINE
  5
A6C
330
1F
100
AcDbEntity
  8
0
  6
Continuous
 62
     7
100
AcDbLine
 10
163.2706636032749
 20
137.1285685802652
 30
0.0
 11
161.7706636032749
 21
137.1285685802652
 31
0.0
  0
LINE
  5
A6D
330
1F
100
AcDbEntity
  8
0
  6
Continuous
 62
     7
100
AcDbLine
 10
163.2706636032749
 20
149.3285685802653
 30
0.0
 11
161.7706636032749
 21
149.3285685802653
 31
0.0
  0
LINE
  5
A6E
330
1F
100
AcDbEntity
  8
0
  6
Continuous
 62
     7
100
AcDbLine
 10
163.2706636032749
 20
148.4786685802651
 30
0.0
 11
163.2706636032749
 21
137.9786685802652
 31
0.0
  0
LINE
  5
A6F
330
1F
100
AcDbEntity
  8
0
  6
Continuous
 62
     7
100
AcDbLine
 10
167.1705636032748
 20
146.3963685802651
 30
0.0
 11
167.1705636032748
 21
140.0608685802652
 31
0.0
  0
LINE
  5
A70
330
1F
100
AcDbEntity
  8
0
  6
Continuous
 62
     7
100
AcDbLine
 10
163.2706636032749
 20
148.4786685802651
 30
0.0
 11
165.436163603275
 21
148.2891685802651
 31
0.0
  0
LINE
  5
A71
330
1F
100
AcDbEntity
  8
0
  6
Continuous
 62
     7
100
AcDbLine
 10
163.2706636032749
 20
137.9786685802652
 30
0.0
 11
165.436163603275
 21
138.1680685802652
 31
0.0
  0
LINE
  5
A72
330
1F
100
AcDbEntity
  8
0
  6
CENTER_DASH_DASH
 62
   171
100
AcDbLine
 10
161.8861175576779
 20
136.2286685802652
 30
0.0
 11
161.8861175576779
 21
136.2124095010952
 31
0.0
  0
LINE
  5
A73
330
1F
100
AcDbEntity
  8
0
  6
Continuous
 62
     7
100
AcDbLine
 10
161.7706636032749
 20
136.2143021888732
 30
0.0
 11
161.7706636032749
 21
137.6044269630251
 31
0.0
  0
LINE
  5
A74
330
1F
100
AcDbEntity
  8
0
  6
Continuous
 62
     7
100
AcDbLine
 10
161.7706636032749
 20
146.5286685802652
 30
0.0
 11
161.7706636032749
 21
149.2286685802652
 31
0.0
  0
LINE
  5
A75
330
1F
100
AcDbEntity
  8
0
  6
Continuous
 62
     7
100
AcDbLine
 10
161.7706636032749
 20
147.8267685802653
 30
0.0
 11
161.7706636032749
 21
137.6044269630251
 31
0.0
  0
LINE
  5
A76
330
1F
100
AcDbEntity
  8
0
  6
Continuous
 62
     7
100
AcDbLine
 10
187.7706636032749
 20
98.62271318337416
 30
0.0
 11
187.7706636032749
 21
92.52281318337415
 31
0.0
  0
LINE
  5
A77
330
1F
100
AcDbEntity
  8
0
  6
Continuous
 62
     7
100
AcDbLine
 10
189.2706636032749
 20
92.52281318337415
 30
0.0
 11
189.2706636032749
 21
86.42271318337405
 31
0.0
  0
LINE
  5
A78
330
1F
100
AcDbEntity
  8
0
  6
Continuous
 62
     7
100
AcDbLine
 10
189.2706636032749
 20
98.62271318337416
 30
0.0
 11
189.2706636032749
 21
92.92471318337403
 31
0.0
  0
LINE
  5
A79
330
1F
100
AcDbEntity
  8
0
  6
Continuous
 62
     7
100
AcDbLine
 10
189.2706636032749
 20
92.52281318337415
 30
0.0
 11
187.7706636032749
 21
92.12091318337414
 31
0.0
  0
LINE
  5
A7A
330
1F
100
AcDbEntity
  8
0
  6
Continuous
 62
     7
100
AcDbLine
 10
189.2706636032749
 20
92.92471318337403
 30
0.0
 11
187.7706636032749
 21
92.52281318337415
 31
0.0
  0
LINE
  5
A7B
330
1F
100
AcDbEntity
  8
0
  6
Continuous
 62
     7
100
AcDbLine
 10
189.2706636032749
 20
86.42271318337405
 30
0.0
 11
187.7706636032749
 21
86.42271318337405
 31
0.0
  0
LINE
  5
A7C
330
1F
100
AcDbEntity
  8
0
  6
Continuous
 62
     7
100
AcDbLine
 10
189.2706636032749
 20
98.62271318337416
 30
0.0
 11
187.7706636032749
 21
98.62271318337416
 31
0.0
  0
LINE
  5
A7D
330
1F
100
AcDbEntity
  8
0
  6
Continuous
 62
     7
100
AcDbLine
 10
189.2706636032749
 20
97.77281318337415
 30
0.0
 11
189.2706636032749
 21
87.27281318337414
 31
0.0
  0
LINE
  5
A7E
330
1F
100
AcDbEntity
  8
0
  6
Continuous
 62
     7
100
AcDbLine
 10
193.1705636032748
 20
95.69051318337415
 30
0.0
 11
193.1705636032748
 21
89.35501318337404
 31
0.0
  0
LINE
  5
A7F
330
1F
100
AcDbEntity
  8
0
  6
Continuous
 62
     7
100
AcDbLine
 10
189.2706636032749
 20
97.77281318337415
 30
0.0
 11
191.436163603275
 21
97.58331318337404
 31
0.0
  0
LINE
  5
A80
330
1F
100
AcDbEntity
  8
0
  6
Continuous
 62
     7
100
AcDbLine
 10
189.2706636032749
 20
87.27281318337414
 30
0.0
 11
191.436163603275
 21
87.46221318337417
 31
0.0
  0
LINE
  5
A81
330
1F
100
AcDbEntity
  8
0
  6
Continuous
 62
     7
100
AcDbLine
 10
187.7706636032749
 20
97.12091318337414
 30
0.0
 11
187.7706636032749
 21
86.89857156613404
 31
0.0
  0
LINE
  5
A82
330
1F
100
AcDbEntity
  8
0
  6
Continuous
 62
     7
100
AcDbLine
 10
161.7706636032749
 20
83.41043873604302
 30
0.0
 11
161.7706636032749
 21
82.9345803532831
 31
0.0
  0
LINE
  5
A83
330
1F
100
AcDbEntity
  8
0
  6
Continuous
 62
     7
100
AcDbLine
 10
161.7706636032749
 20
83.41043873604302
 30
0.0
 11
161.7706636032749
 21
85.73468035328302
 31
0.0
  0
LINE
  5
A84
330
1F
100
AcDbEntity
  8
0
  6
Continuous
 62
     7
100
AcDbLine
 10
161.7706636032749
 20
88.63278035328313
 30
0.0
 11
161.7706636032749
 21
83.41043873604302
 31
0.0
  0
LINE
  5
A85
330
1F
100
AcDbEntity
  8
0
  6
Continuous
 62
     7
100
AcDbLine
 10
161.7706636032749
 20
95.13458035328314
 30
0.0
 11
161.7706636032749
 21
89.03468035328325
 31
0.0
  0
LINE
  5
A86
330
1F
100
AcDbEntity
  8
0
  6
Continuous
 62
     7
100
AcDbLine
 10
163.2706636032749
 20
89.03468035328325
 30
0.0
 11
163.2706636032749
 21
82.9345803532831
 31
0.0
  0
LINE
  5
A87
330
1F
100
AcDbEntity
  8
0
  6
Continuous
 62
     7
100
AcDbLine
 10
163.2706636032749
 20
95.13458035328314
 30
0.0
 11
163.2706636032749
 21
89.43658035328304
 31
0.0
  0
LINE
  5
A88
330
1F
100
AcDbEntity
  8
0
  6
Continuous
 62
     7
100
AcDbLine
 10
163.2706636032749
 20
89.03468035328325
 30
0.0
 11
161.7706636032749
 21
88.63278035328313
 31
0.0
  0
LINE
  5
A89
330
1F
100
AcDbEntity
  8
0
  6
Continuous
 62
     7
100
AcDbLine
 10
163.2706636032749
 20
89.43658035328304
 30
0.0
 11
161.7706636032749
 21
89.03468035328325
 31
0.0
  0
LINE
  5
A8A
330
1F
100
AcDbEntity
  8
0
  6
Continuous
 62
     7
100
AcDbLine
 10
163.2706636032749
 20
82.9345803532831
 30
0.0
 11
161.7706636032749
 21
82.9345803532831
 31
0.0
  0
LINE
  5
A8B
330
1F
100
AcDbEntity
  8
0
  6
Continuous
 62
     7
100
AcDbLine
 10
163.2706636032749
 20
95.13458035328314
 30
0.0
 11
161.7706636032749
 21
95.13458035328314
 31
0.0
  0
LINE
  5
A8C
330
1F
100
AcDbEntity
  8
0
  6
Continuous
 62
     7
100
AcDbLine
 10
163.2706636032749
 20
94.28468035328323
 30
0.0
 11
163.2706636032749
 21
83.78468035328321
 31
0.0
  0
LINE
  5
A8D
330
1F
100
AcDbEntity
  8
0
  6
Continuous
 62
     7
100
AcDbLine
 10
167.1705636032748
 20
92.20238035328316
 30
0.0
 11
167.1705636032748
 21
85.86688035328299
 31
0.0
  0
LINE
  5
A8E
330
1F
100
AcDbEntity
  8
0
  6
Continuous
 62
     7
100
AcDbLine
 10
163.2706636032749
 20
94.28468035328323
 30
0.0
 11
165.436163603275
 21
94.09518035328304
 31
0.0
  0
LINE
  5
A8F
330
1F
100
AcDbEntity
  8
0
  6
Continuous
 62
     7
100
AcDbLine
 10
163.2706636032749
 20
83.78468035328321
 30
0.0
 11
165.436163603275
 21
83.97408035328309
 31
0.0
  0
LINE
  5
A90
330
1F
100
AcDbEntity
  8
0
  6
CENTER_DASH_DASH
 62
   171
100
AcDbLine
 10
161.8861175576779
 20
82.0346803532832
 30
0.0
 11
161.8861175576779
 21
82.018421274113
 31
0.0
  0
LINE
  5
A91
330
1F
100
AcDbEntity
  8
0
  6
Continuous
 62
     7
100
AcDbLine
 10
161.7706636032749
 20
82.02031396189111
 30
0.0
 11
161.7706636032749
 21
83.41043873604302
 31
0.0
  0
LINE
  5
A92
330
1F
100
AcDbEntity
  8
0
  6
Continuous
 62
     7
100
AcDbLine
 10
161.7706636032749
 20
92.33468035328316
 30
0.0
 11
161.7706636032749
 21
95.03468035328323
 31
0.0
  0
LINE
  5
A93
330
1F
100
AcDbEntity
  8
0
  6
Continuous
 62
     7
100
AcDbLine
 10
161.7706636032749
 20
93.63278035328313
 30
0.0
 11
161.7706636032749
 21
83.41043873604302
 31
0.0
  0
LINE
  5
A94
330
1F
100
AcDbEntity
  8
0
  6
Continuous
 62
     7
100
AcDbLine
 10
187.7706636032749
 20
108.5859736487713
 30
0.0
 11
187.7706636032749
 21
107.811885095541
 31
0.0
  0
LINE
  5
A95
330
1F
100
AcDbEntity
  8
0
  6
Continuous
 62
     7
100
AcDbLine
 10
187.7706636032749
 20
107.811885095541
 30
0.0
 11
208.7706636032749
 21
107.6137718879939
 31
0.0
  0
LINE
  5
A96
330
1F
100
AcDbEntity
  8
0
  6
Continuous
 62
     7
100
AcDbLine
 10
187.7706636032749
 20
107.811885095541
 30
0.0
 11
187.7706636032749
 21
99.43686438759174
 31
0.0
  0
LINE
  5
A97
330
1F
100
AcDbEntity
  8
0
  6
Continuous
 62
     7
100
AcDbLine
 10
296.7135073353083
 20
103.5304355179629
 30
0.0
 11
306.2153944170898
 21
92.93525405749072
 31
0.0
  0
LINE
  5
A98
330
1F
100
AcDbEntity
  8
0
  6
Continuous
 62
     7
100
AcDbLine
 10
289.3631119463187
 20
-36.22969558046794
 30
0.0
 11
256.7706636032748
 21
-36.53717150823251
 31
0.0
  0
LINE
  5
A99
330
1F
100
AcDbEntity
  8
0
  6
Continuous
 62
     7
100
AcDbLine
 10
306.2153944170898
 20
-22.31148386640859
 30
0.0
 11
296.7135073353083
 21
-32.90666532688085
 31
0.0
  0
LINE
  5
A9A
330
1F
100
AcDbEntity
  8
0
  6
Continuous
 62
     7
100
AcDbLine
 10
308.7706636032749
 20
-15.63495908851437
 30
0.0
 11
308.7706636032749
 21
86.25872927959653
 31
0.0
  0
LINE
  5
A9B
330
1F
100
AcDbEntity
  8
0
  6
Continuous
 62
     7
100
AcDbLine
 10
161.7706636032749
 20
72.79114110944792
 30
0.0
 11
161.7706636032749
 21
77.92641322030411
 31
0.0
  0
LINE
  5
A9C
330
1F
100
AcDbEntity
  8
0
  6
Continuous
 62
     7
100
AcDbLine
 10
159.7706636032749
 20
35.08597364877131
 30
0.0
 11
159.7706636032749
 21
35.31188509554112
 31
0.0
  0
LINE
  5
A9D
330
1F
100
AcDbEntity
  8
0
  6
Continuous
 62
     7
100
AcDbLine
 10
159.7706636032749
 20
102.8805399882168
 30
0.0
 11
159.7706636032749
 21
109.5859736487713
 31
0.0
  0
LINE
  5
A9E
330
1F
100
AcDbEntity
  8
0
  6
Continuous
 62
     7
100
AcDbLine
 10
159.7706636032749
 20
96.13212529934973
 30
0.0
 11
161.7706636032749
 21
96.13212529934973
 31
0.0
  0
LINE
  5
A9F
330
1F
100
AcDbEntity
  8
0
  6
Continuous
 62
     7
100
AcDbLine
 10
157.7706636032749
 20
90.12133491971077
 30
0.0
 11
157.7706636032749
 21
130.6642044000224
 31
0.0
  0
LINE
  5
AA0
330
1F
100
AcDbEntity
  8
0
  6
DASH_CENTER
 62
     2
100
AcDbLine
 10
68.84073250227413
 20
35.31188509554108
 30
0.0
 11
82.77066360327493
 21
35.31188509554111
 31
0.0
  0
LINE
  5
AA1
330
1F
100
AcDbEntity
  8
0
  6
Continuous
 62
     7
100
AcDbLine
 10
157.7706636032749
 20
35.31188509554111
 30
0.0
 11
157.7706636032749
 21
79.53955579831506
 31
0.0
  0
LINE
  5
AA2
330
1F
100
AcDbEntity
  8
0
  6
Continuous
 62
     7
100
AcDbLine
 10
157.7706636032749
 20
72.79114110944792
 30
0.0
 11
157.7706636032749
 21
96.13212529934973
 31
0.0
  0
LINE
  5
AA3
330
1F
100
AcDbEntity
  8
0
  6
Continuous
 62
     7
100
AcDbLine
 10
189.2706636032749
 20
-15.79894299229191
 30
0.0
 11
189.2706636032749
 21
-21.89904299229202
 31
0.0
  0
LINE
  5
AA4
330
1F
100
AcDbEntity
  8
0
  6
Continuous
 62
     7
100
AcDbLine
 10
189.2706636032749
 20
-22.30094299229187
 30
0.0
 11
189.2706636032749
 21
-27.99894299229197
 31
0.0
  0
LINE
  5
AA5
330
1F
100
AcDbEntity
  8
0
  6
Continuous
 62
     7
100
AcDbLine
 10
187.7706636032749
 20
-21.49714299229196
 30
0.0
 11
189.2706636032749
 21
-21.89904299229202
 31
0.0
  0
LINE
  5
AA6
330
1F
100
AcDbEntity
  8
0
  6
Continuous
 62
     7
100
AcDbLine
 10
187.7706636032749
 20
-21.89904299229202
 30
0.0
 11
189.2706636032749
 21
-22.30094299229187
 31
0.0
  0
LINE
  5
AA7
330
1F
100
AcDbEntity
  8
0
  6
Continuous
 62
     7
100
AcDbLine
 10
187.7706636032749
 20
-15.79894299229191
 30
0.0
 11
189.2706636032749
 21
-15.79894299229191
 31
0.0
  0
LINE
  5
AA8
330
1F
100
AcDbEntity
  8
0
  6
Continuous
 62
     7
100
AcDbLine
 10
187.7706636032749
 20
-27.99894299229197
 30
0.0
 11
189.2706636032749
 21
-27.99894299229197
 31
0.0
  0
LINE
  5
AA9
330
1F
100
AcDbEntity
  8
0
  6
Continuous
 62
     7
100
AcDbLine
 10
189.2706636032749
 20
-16.64904299229202
 30
0.0
 11
189.2706636032749
 21
-27.14904299229203
 31
0.0
  0
LINE
  5
AAA
330
1F
100
AcDbEntity
  8
0
  6
Continuous
 62
     7
100
AcDbLine
 10
193.1705636032748
 20
-18.73124299229185
 30
0.0
 11
193.1705636032748
 21
-25.066742992292
 31
0.0
  0
LINE
  5
AAB
330
1F
100
AcDbEntity
  8
0
  6
Continuous
 62
     7
100
AcDbLine
 10
191.436163603275
 20
-26.95954299229185
 30
0.0
 11
189.2706636032749
 21
-27.14904299229203
 31
0.0
  0
LINE
  5
AAC
330
1F
100
AcDbEntity
  8
0
  6
Continuous
 62
     7
100
AcDbLine
 10
191.436163603275
 20
-16.838442992292
 30
0.0
 11
189.2706636032749
 21
-16.64904299229202
 31
0.0
  0
LINE
  5
AAD
330
1F
100
AcDbEntity
  8
0
  6
Continuous
 62
     7
100
AcDbLine
 10
187.7706636032749
 20
-37.18811490445892
 30
0.0
 11
187.7706636032749
 21
-37.68811490445892
 31
0.0
  0
LINE
  5
AAE
330
1F
100
AcDbEntity
  8
0
  6
Continuous
 62
     7
100
AcDbLine
 10
187.7706636032749
 20
-37.18811490445892
 30
0.0
 11
187.7706636032749
 21
35.53779654231085
 31
0.0
  0
LINE
  5
AAF
330
1F
100
AcDbEntity
  8
0
  6
Continuous
 62
     7
100
AcDbLine
 10
159.7706636032749
 20
35.53779654231085
 30
0.0
 11
159.7706636032749
 21
35.31188509554112
 31
0.0
  0
LINE
  5
AB0
330
1F
100
AcDbEntity
  8
0
  6
Continuous
 62
     7
100
AcDbLine
 10
256.7706636032748
 20
-36.53717150823251
 30
0.0
 11
256.7706636032748
 21
-37.68811490445892
 31
0.0
  0
LINE
  5
AB1
330
1F
100
AcDbEntity
  8
0
  6
Continuous
 62
     7
100
AcDbLine
 10
256.7706636032748
 20
-36.53717150823251
 30
0.0
 11
187.7706636032749
 21
-37.18811490445892
 31
0.0
  0
LINE
  5
AB2
330
1F
100
AcDbEntity
  8
0
  6
Continuous
 62
     7
100
AcDbLine
 10
187.7706636032749
 20
-37.68811490445892
 30
0.0
 11
187.7706636032749
 21
-37.96220345768915
 31
0.0
  0
LINE
  5
AB3
330
1F
100
AcDbEntity
  8
0
  6
DASH_CENTER
 62
     2
100
AcDbLine
 10
315.280396664755
 20
35.31188509554108
 30
0.0
 11
179.7706636032749
 21
35.31188509554111
 31
0.0
  0
LINE
  5
AB7
330
1F
100
AcDbEntity
  8
0
  6
Continuous
 62
     7
100
AcDbLine
 10
248.7706636032749
 20
107.2364133974277
 30
0.0
 11
289.3631119463187
 21
106.85346577155
 31
0.0
  0
LINE
  5
AB8
330
1F
100
AcDbEntity
  8
0
  6
Continuous
 62
     7
100
AcDbLine
 10
248.7706636032749
 20
107.2364133974277
 30
0.0
 11
208.7706636032749
 21
107.6137718879939
 31
0.0
  0
LINE
  5
AB9
330
1F
100
AcDbEntity
  8
0
  6
Continuous
 62
     7
100
AcDbLine
 10
179.7706636032749
 20
109.5859736487713
 30
0.0
 11
186.7706636032749
 21
109.5859736487713
 31
0.0
  0
LINE
  5
ABC
330
1F
100
AcDbEntity
  8
0
  6
Continuous
 62
     7
100
AcDbLine
 10
179.7706636032749
 20
-38.96220345768916
 30
0.0
 11
186.7706636032749
 21
-38.96220345768915
 31
0.0
  0
LINE
  5
ABD
330
1F
100
AcDbEntity
  8
0
  6
DASH_CENTER
 62
     2
100
AcDbLine
 10
120.7706636032749
 20
-22.71402635122871
 30
0.0
 11
120.7706636032749
 21
-129.1140263512287
 31
0.0
  0
LINE
  5
ABE
330
1F
100
AcDbEntity
  8
0
  6
DASH_CENTER
 62
     2
100
AcDbLine
 10
120.7706636032749
 20
-129.1140263512287
 30
0.0
 11
120.7706636032749
 21
-137.7306875365501
 31
0.0
  0
LINE
  5
ABF
330
1F
100
AcDbEntity
  8
0
  6
DASH_CENTER
 62
     2
100
AcDbLine
 10
120.7706636032749
 20
-22.71402635122871
 30
0.0
 11
120.7706636032749
 21
179.5020352870614
 31
0.0
  0
LINE
  5
AC1
330
1F
100
AcDbEntity
  8
0
  6
DASH_CENTER
 62
     2
100
AcDbLine
 10
-344.4623337270003
 20
35.08597364877131
 30
0.0
 11
-353.1351096911623
 21
35.08597364877131
 31
0.0
  0
LINE
  5
ACE
330
1F
100
AcDbEntity
  8
0
  6
Continuous
 62
     7
100
AcDbLine
 10
-86.04768282074736
 20
40.58597364877131
 30
0.0
 11
-86.04768282074688
 21
38.58597364877132
 31
0.0
  0
LINE
  5
ACF
330
1F
100
AcDbEntity
  8
0
  6
Continuous
 62
     7
100
AcDbLine
 10
-108.6916113983572
 20
-35.41402635122869
 30
0.0
 11
-67.54768282074739
 21
-35.41402635122869
 31
0.0
  0
LINE
  5
AD0
330
1F
100
AcDbEntity
  8
0
  6
Continuous
 62
     7
100
AcDbLine
 10
-65.54768282074738
 20
-19.91402635122869
 30
0.0
 11
-65.54768282074738
 21
-33.41402635122869
 31
0.0
  0
LINE
  5
AD1
330
1F
100
AcDbEntity
  8
0
  6
Continuous
 62
     7
100
AcDbLine
 10
-63.5476828207474
 20
-17.91402635122869
 30
0.0
 11
-59.5476828207474
 21
-17.91402635122869
 31
0.0
  0
LINE
  5
AD2
330
1F
100
AcDbEntity
  8
0
  6
Continuous
 62
     7
100
AcDbLine
 10
-59.5476828207474
 20
-17.91402635122869
 30
0.0
 11
-59.5476828207474
 21
-133.9140263512286
 31
0.0
  0
LINE
  5
AD3
330
1F
100
AcDbEntity
  8
0
  6
Continuous
 62
     7
100
AcDbLine
 10
-63.5476828207474
 20
-133.9140263512286
 30
0.0
 11
-59.5476828207474
 21
-133.9140263512286
 31
0.0
  0
LINE
  5
AD4
330
1F
100
AcDbEntity
  8
0
  6
Continuous
 62
     7
100
AcDbLine
 10
-341.3610938405192
 20
60.47008226287733
 30
0.0
 11
-341.6754153360013
 21
58.95333328775826
 31
0.0
  0
LINE
  5
AD5
330
1F
100
AcDbEntity
  8
0
  6
DASH_CENTER
 62
     2
100
AcDbLine
 10
-264.0476828207474
 20
35.08597364877131
 30
0.0
 11
-259.5476828207474
 21
35.08597364877131
 31
0.0
  0
LINE
  5
AD6
330
1F
100
AcDbEntity
  8
0
  6
Continuous
 62
     7
100
AcDbLine
 10
-65.54768282074738
 20
-118.4140263512287
 30
0.0
 11
-65.54768282074738
 21
-131.9140263512286
 31
0.0
  0
LINE
  5
AD7
330
1F
100
AcDbEntity
  8
0
  6
Continuous
 62
     7
100
AcDbLine
 10
-65.54768282074738
 20
-118.4140263512287
 30
0.0
 11
-65.54768282074738
 21
-33.41402635122869
 31
0.0
  0
LINE
  5
AD8
330
1F
100
AcDbEntity
  8
0
  6
DASH_CENTER
 62
     2
100
AcDbLine
 10
-131.1980071484453
 20
-75.9140263512287
 30
0.0
 11
-28.14337429700337
 21
-75.9140263512287
 31
0.0
  0
LINE
  5
AD9
330
1F
100
AcDbEntity
  8
0
  6
Continuous
 62
     7
100
AcDbLine
 10
-229.2913322621693
 20
126.8070280055543
 30
0.0
 11
-217.9533105953134
 21
144.2660503293162
 31
0.0
  0
LINE
  5
ADA
330
1F
100
AcDbEntity
  8
0
  6
Continuous
 62
     7
100
AcDbLine
 10
-217.9533105953134
 20
144.2660503293162
 30
0.0
 11
-216.7346171612623
 21
134.3405888129033
 31
0.0
  0
LINE
  5
ADB
330
1F
100
AcDbEntity
  8
0
  6
Continuous
 62
     7
100
AcDbLine
 10
-205.9587724805974
 20
135.0760172829843
 30
0.0
 11
-201.7854130419943
 21
140.0496333871274
 31
0.0
  0
LINE
  5
ADC
330
1F
100
AcDbEntity
  8
0
  6
Continuous
 62
     7
100
AcDbLine
 10
-174.9509604419483
 20
125.3579738727183
 30
0.0
 11
-168.0779207519094
 21
133.5489436153653
 31
0.0
  0
LINE
  5
ADD
330
1F
100
AcDbEntity
  8
0
  6
DASH_CENTER
 62
     2
100
AcDbLine
 10
-204.5476828207474
 20
172.3499640673634
 30
0.0
 11
-204.5476828207474
 21
44.32357795580527
 31
0.0
  0
LINE
  5
ADE
330
1F
100
AcDbEntity
  8
0
  6
Continuous
 62
     7
100
AcDbLine
 10
-67.54768282074739
 20
-116.4140263512287
 30
0.0
 11
-156.5476828207474
 21
-116.4140263512287
 31
0.0
  0
LINE
  5
ADF
330
1F
100
AcDbEntity
  8
0
  6
DASH_CENTER
 62
     2
100
AcDbLine
 10
-264.5476828207474
 20
35.08597364877131
 30
0.0
 11
-344.4623337270003
 21
35.08597364877131
 31
0.0
  0
LINE
  5
AE4
330
1F
100
AcDbEntity
  8
0
  6
Continuous
 62
     7
100
AcDbLine
 10
-252.5476828207474
 20
-105.8993196737057
 30
0.0
 11
-252.5476828207474
 21
-130.3881149044585
 31
0.0
  0
LINE
  5
AE5
330
1F
100
AcDbEntity
  8
0
  6
Continuous
 62
     7
100
AcDbLine
 10
-254.5476828207474
 20
-132.3881149044585
 30
0.0
 11
-278.0476828207474
 21
-132.3881149044585
 31
0.0
  0
LINE
  5
AE6
330
1F
100
AcDbEntity
  8
0
  6
Continuous
 62
     7
100
AcDbLine
 10
-278.0476828207474
 20
-132.3881149044585
 30
0.0
 11
-278.0476828207474
 21
-134.6881149044587
 31
0.0
  0
LINE
  5
AE7
330
1F
100
AcDbEntity
  8
0
  6
Continuous
 62
     7
100
AcDbLine
 10
-278.0476828207474
 20
-134.6881149044587
 30
0.0
 11
-254.2476828207472
 21
-134.6881149044587
 31
0.0
  0
LINE
  5
AE8
330
1F
100
AcDbEntity
  8
0
  6
Continuous
 62
     7
100
AcDbLine
 10
-250.2476828207472
 20
-129.6881149044588
 30
0.0
 11
-250.2476828207472
 21
-130.6881149044588
 31
0.0
  0
LINE
  5
AE9
330
1F
100
AcDbEntity
  8
0
  6
Continuous
 62
     7
100
AcDbLine
 10
-240.2476828207472
 20
-119.6881149044588
 30
0.0
 11
-204.5476828207474
 21
-119.6881149044588
 31
0.0
  0
LINE
  5
AEA
330
1F
100
AcDbEntity
  8
0
  6
DASH_CENTER
 62
     2
100
AcDbLine
 10
-204.5476828207474
 20
-119.6881149044588
 30
0.0
 11
-204.5476828207474
 21
-145.0694809148987
 31
0.0
  0
LINE
  5
AEB
330
1F
100
AcDbEntity
  8
0
  6
DASH_CENTER
 62
     2
100
AcDbLine
 10
-264.5476828207474
 20
-125.1489193399238
 30
0.0
 11
-264.5476828207474
 21
-141.7002695057346
 31
0.0
  0
LINE
  5
AEC
330
1F
100
AcDbEntity
  8
0
  6
Continuous
 62
     7
100
AcDbLine
 10
-131.0476828207474
 20
-132.3881149044585
 30
0.0
 11
-154.5476828207474
 21
-132.3881149044585
 31
0.0
  0
LINE
  5
AED
330
1F
100
AcDbEntity
  8
0
  6
Continuous
 62
     7
100
AcDbLine
 10
-131.0476828207474
 20
-134.6881149044587
 30
0.0
 11
-131.0476828207474
 21
-132.3881149044585
 31
0.0
  0
LINE
  5
AEE
330
1F
100
AcDbEntity
  8
0
  6
Continuous
 62
     7
100
AcDbLine
 10
-154.8476828207474
 20
-134.6881149044587
 30
0.0
 11
-131.0476828207474
 21
-134.6881149044587
 31
0.0
  0
LINE
  5
AEF
330
1F
100
AcDbEntity
  8
0
  6
Continuous
 62
     7
100
AcDbLine
 10
-158.8476828207474
 20
-130.6881149044588
 30
0.0
 11
-158.8476828207474
 21
-129.6881149044588
 31
0.0
  0
LINE
  5
AF0
330
1F
100
AcDbEntity
  8
0
  6
DASH_CENTER
 62
     2
100
AcDbLine
 10
-144.5476828207474
 20
-141.7002695057346
 30
0.0
 11
-144.5476828207474
 21
-125.1489193399238
 31
0.0
  0
LINE
  5
AF1
330
1F
100
AcDbEntity
  8
0
  6
Continuous
 62
     7
100
AcDbLine
 10
-204.5476828207474
 20
-119.6881149044588
 30
0.0
 11
-168.8476828207474
 21
-119.6881149044588
 31
0.0
  0
LINE
  5
AF2
330
1F
100
AcDbEntity
  8
0
  6
Continuous
 62
     7
100
AcDbLine
 10
-156.5476828207474
 20
-116.4140263512287
 30
0.0
 11
-156.5476828207474
 21
-130.3881149044585
 31
0.0
  0
LINE
  5
AF3
330
1F
100
AcDbEntity
  8
0
  6
Continuous
 62
     7
100
AcDbLine
 10
-156.5476828207474
 20
-116.4140263512287
 30
0.0
 11
-198.0476828207474
 21
-116.4140263512287
 31
0.0
  0
LINE
  5
AF4
330
1F
100
AcDbEntity
  8
0
  6
DASH_CENTER
 62
     2
100
AcDbLine
 10
-264.0476828207474
 20
35.08597364877131
 30
0.0
 11
-264.5476828207474
 21
35.08597364877131
 31
0.0
  0
LINE
  5
AF5
330
1F
100
AcDbEntity
  8
0
  6
DASH_CENTER
 62
     2
100
AcDbLine
 10
-204.5476828207474
 20
96.38597364877123
 30
0.0
 11
-204.5476828207474
 21
92.58597364877134
 31
0.0
  0
LINE
  5
AF6
330
1F
100
AcDbEntity
  8
0
  6
Continuous
 62
     7
100
AcDbLine
 10
-204.5476828207474
 20
92.58597364877134
 30
0.0
 11
-203.9476828207473
 21
92.58597364877134
 31
0.0
  0
LINE
  5
AF7
330
1F
100
AcDbEntity
  8
0
  6
DASH_CENTER
 62
     2
100
AcDbLine
 10
-204.5476828207474
 20
92.58597364877134
 30
0.0
 11
-204.5476828207474
 21
83.78597364877135
 31
0.0
  0
LINE
  5
AF8
330
1F
100
AcDbEntity
  8
0
  6
Continuous
 62
     7
100
AcDbLine
 10
-203.9476828207473
 20
92.58597364877134
 30
0.0
 11
-203.9476828207473
 21
91.68597364877143
 31
0.0
  0
LINE
  5
AF9
330
1F
100
AcDbEntity
  8
0
  6
Continuous
 62
     7
100
AcDbLine
 10
-202.9476828207473
 20
90.68597364877144
 30
0.0
 11
-202.0476828207474
 21
90.68597364877144
 31
0.0
  0
LINE
  5
AFA
330
1F
100
AcDbEntity
  8
0
  6
Continuous
 62
     7
100
AcDbLine
 10
-207.0476828207474
 20
90.08597364877134
 30
0.0
 11
-207.0476828207474
 21
90.68597364877144
 31
0.0
  0
LINE
  5
AFB
330
1F
100
AcDbEntity
  8
0
  6
Continuous
 62
     7
100
AcDbLine
 10
-207.0476828207474
 20
90.68597364877144
 30
0.0
 11
-206.1476828207473
 21
90.68597364877144
 31
0.0
  0
LINE
  5
AFC
330
1F
100
AcDbEntity
  8
0
  6
Continuous
 62
     7
100
AcDbLine
 10
-205.1476828207473
 20
91.68597364877143
 30
0.0
 11
-205.1476828207473
 21
92.58597364877134
 31
0.0
  0
LINE
  5
AFD
330
1F
100
AcDbEntity
  8
0
  6
Continuous
 62
     7
100
AcDbLine
 10
-205.1476828207473
 20
92.58597364877134
 30
0.0
 11
-204.5476828207474
 21
92.58597364877134
 31
0.0
  0
LINE
  5
AFE
330
1F
100
AcDbEntity
  8
0
  6
Continuous
 62
     7
100
AcDbLine
 10
-204.5476828207474
 20
87.58597364877134
 30
0.0
 11
-205.1476828207473
 21
87.58597364877134
 31
0.0
  0
LINE
  5
AFF
330
1F
100
AcDbEntity
  8
0
  6
Continuous
 62
     7
100
AcDbLine
 10
-205.1476828207473
 20
87.58597364877134
 30
0.0
 11
-205.1476828207473
 21
88.48597364877134
 31
0.0
  0
LINE
  5
B00
330
1F
100
AcDbEntity
  8
0
  6
Continuous
 62
     7
100
AcDbLine
 10
-206.1476828207473
 20
89.48597364877135
 30
0.0
 11
-207.0476828207474
 21
89.48597364877135
 31
0.0
  0
LINE
  5
B01
330
1F
100
AcDbEntity
  8
0
  6
Continuous
 62
     7
100
AcDbLine
 10
-207.0476828207474
 20
89.48597364877135
 30
0.0
 11
-207.0476828207474
 21
90.08597364877134
 31
0.0
  0
LINE
  5
B02
330
1F
100
AcDbEntity
  8
0
  6
Continuous
 62
     7
100
AcDbLine
 10
-202.0476828207474
 20
89.48597364877135
 30
0.0
 11
-202.0476828207474
 21
90.68597364877144
 31
0.0
  0
LINE
  5
B03
330
1F
100
AcDbEntity
  8
0
  6
Continuous
 62
     7
100
AcDbLine
 10
-202.0476828207474
 20
89.48597364877135
 30
0.0
 11
-202.9476828207473
 21
89.48597364877135
 31
0.0
  0
LINE
  5
B04
330
1F
100
AcDbEntity
  8
0
  6
Continuous
 62
     7
100
AcDbLine
 10
-203.9476828207473
 20
88.48597364877134
 30
0.0
 11
-203.9476828207473
 21
87.58597364877134
 31
0.0
  0
LINE
  5
B05
330
1F
100
AcDbEntity
  8
0
  6
Continuous
 62
     7
100
AcDbLine
 10
-203.9476828207473
 20
87.58597364877134
 30
0.0
 11
-204.5476828207474
 21
87.58597364877134
 31
0.0
  0
LINE
  5
B06
330
1F
100
AcDbEntity
  8
0
  6
Continuous
 62
     7
100
AcDbLine
 10
-262.0476828207474
 20
35.68597364877144
 30
0.0
 11
-261.1476828207473
 21
35.68597364877144
 31
0.0
  0
LINE
  5
B07
330
1F
100
AcDbEntity
  8
0
  6
Continuous
 62
     7
100
AcDbLine
 10
-260.1476828207473
 20
36.68597364877144
 30
0.0
 11
-260.1476828207473
 21
37.58597364877132
 31
0.0
  0
LINE
  5
B08
330
1F
100
AcDbEntity
  8
0
  6
Continuous
 62
     7
100
AcDbLine
 10
-259.5476828207474
 20
32.58597364877131
 30
0.0
 11
-260.1476828207473
 21
32.58597364877131
 31
0.0
  0
LINE
  5
B09
330
1F
100
AcDbEntity
  8
0
  6
Continuous
 62
     7
100
AcDbLine
 10
-260.1476828207473
 20
32.58597364877131
 30
0.0
 11
-260.1476828207473
 21
33.4859736487714
 31
0.0
  0
LINE
  5
B0A
330
1F
100
AcDbEntity
  8
0
  6
Continuous
 62
     7
100
AcDbLine
 10
-261.1476828207473
 20
34.4859736487714
 30
0.0
 11
-262.0476828207474
 21
34.4859736487714
 31
0.0
  0
LINE
  5
B0B
330
1F
100
AcDbEntity
  8
0
  6
Continuous
 62
     7
100
AcDbLine
 10
-262.0476828207474
 20
34.4859736487714
 30
0.0
 11
-262.0476828207474
 21
35.68597364877144
 31
0.0
  0
LINE
  5
B0C
330
1F
100
AcDbEntity
  8
0
  6
Continuous
 62
     7
100
AcDbLine
 10
-257.0476828207474
 20
35.08597364877131
 30
0.0
 11
-257.0476828207474
 21
34.4859736487714
 31
0.0
  0
LINE
  5
B0D
330
1F
100
AcDbEntity
  8
0
  6
Continuous
 62
     7
100
AcDbLine
 10
-257.0476828207474
 20
34.4859736487714
 30
0.0
 11
-257.9476828207473
 21
34.4859736487714
 31
0.0
  0
LINE
  5
B0E
330
1F
100
AcDbEntity
  8
0
  6
Continuous
 62
     7
100
AcDbLine
 10
-258.9476828207473
 20
33.4859736487714
 30
0.0
 11
-258.9476828207473
 21
32.58597364877131
 31
0.0
  0
LINE
  5
B0F
330
1F
100
AcDbEntity
  8
0
  6
Continuous
 62
     7
100
AcDbLine
 10
-258.9476828207473
 20
32.58597364877131
 30
0.0
 11
-259.5476828207474
 21
32.58597364877131
 31
0.0
  0
LINE
  5
B10
330
1F
100
AcDbEntity
  8
0
  6
Continuous
 62
     7
100
AcDbLine
 10
-258.9476828207473
 20
37.58597364877132
 30
0.0
 11
-260.1476828207473
 21
37.58597364877132
 31
0.0
  0
LINE
  5
B11
330
1F
100
AcDbEntity
  8
0
  6
Continuous
 62
     7
100
AcDbLine
 10
-258.9476828207473
 20
37.58597364877132
 30
0.0
 11
-258.9476828207473
 21
36.68597364877144
 31
0.0
  0
LINE
  5
B12
330
1F
100
AcDbEntity
  8
0
  6
Continuous
 62
     7
100
AcDbLine
 10
-257.9476828207473
 20
35.68597364877144
 30
0.0
 11
-257.0476828207474
 21
35.68597364877144
 31
0.0
  0
LINE
  5
B13
330
1F
100
AcDbEntity
  8
0
  6
Continuous
 62
     7
100
AcDbLine
 10
-257.0476828207474
 20
35.68597364877144
 30
0.0
 11
-257.0476828207474
 21
35.08597364877131
 31
0.0
  0
LINE
  5
B14
330
1F
100
AcDbEntity
  8
0
  6
DASH_CENTER
 62
     2
100
AcDbLine
 10
-204.5476828207474
 20
-26.21402635122865
 30
0.0
 11
-204.5476828207474
 21
-22.41402635122869
 31
0.0
  0
LINE
  5
B15
330
1F
100
AcDbEntity
  8
0
  6
Continuous
 62
     7
100
AcDbLine
 10
-204.5476828207474
 20
-22.41402635122869
 30
0.0
 11
-205.1476828207473
 21
-22.41402635122869
 31
0.0
  0
LINE
  5
B16
330
1F
100
AcDbEntity
  8
0
  6
DASH_CENTER
 62
     2
100
AcDbLine
 10
-204.5476828207474
 20
-22.41402635122869
 30
0.0
 11
-204.5476828207474
 21
-13.61402635122874
 31
0.0
  0
LINE
  5
B17
330
1F
100
AcDbEntity
  8
0
  6
Continuous
 62
     7
100
AcDbLine
 10
-205.1476828207473
 20
-22.41402635122869
 30
0.0
 11
-205.1476828207473
 21
-21.5140263512286
 31
0.0
  0
LINE
  5
B18
330
1F
100
AcDbEntity
  8
0
  6
Continuous
 62
     7
100
AcDbLine
 10
-206.1476828207473
 20
-20.5140263512286
 30
0.0
 11
-207.0476828207474
 21
-20.5140263512286
 31
0.0
  0
LINE
  5
B19
330
1F
100
AcDbEntity
  8
0
  6
Continuous
 62
     7
100
AcDbLine
 10
-202.0476828207474
 20
-19.91402635122869
 30
0.0
 11
-202.0476828207474
 21
-20.5140263512286
 31
0.0
  0
LINE
  5
B1A
330
1F
100
AcDbEntity
  8
0
  6
Continuous
 62
     7
100
AcDbLine
 10
-202.0476828207474
 20
-20.5140263512286
 30
0.0
 11
-202.9476828207473
 21
-20.5140263512286
 31
0.0
  0
LINE
  5
B1B
330
1F
100
AcDbEntity
  8
0
  6
Continuous
 62
     7
100
AcDbLine
 10
-203.9476828207473
 20
-21.5140263512286
 30
0.0
 11
-203.9476828207473
 21
-22.41402635122869
 31
0.0
  0
LINE
  5
B1C
330
1F
100
AcDbEntity
  8
0
  6
Continuous
 62
     7
100
AcDbLine
 10
-203.9476828207473
 20
-22.41402635122869
 30
0.0
 11
-204.5476828207474
 21
-22.41402635122869
 31
0.0
  0
LINE
  5
B1D
330
1F
100
AcDbEntity
  8
0
  6
Continuous
 62
     7
100
AcDbLine
 10
-204.5476828207474
 20
-17.41402635122869
 30
0.0
 11
-203.9476828207473
 21
-17.41402635122869
 31
0.0
  0
LINE
  5
B1E
330
1F
100
AcDbEntity
  8
0
  6
Continuous
 62
     7
100
AcDbLine
 10
-203.9476828207473
 20
-17.41402635122869
 30
0.0
 11
-203.9476828207473
 21
-18.31402635122856
 31
0.0
  0
LINE
  5
B1F
330
1F
100
AcDbEntity
  8
0
  6
Continuous
 62
     7
100
AcDbLine
 10
-202.9476828207473
 20
-19.31402635122856
 30
0.0
 11
-202.0476828207474
 21
-19.31402635122856
 31
0.0
  0
LINE
  5
B20
330
1F
100
AcDbEntity
  8
0
  6
Continuous
 62
     7
100
AcDbLine
 10
-202.0476828207474
 20
-19.31402635122856
 30
0.0
 11
-202.0476828207474
 21
-19.91402635122869
 31
0.0
  0
LINE
  5
B21
330
1F
100
AcDbEntity
  8
0
  6
Continuous
 62
     7
100
AcDbLine
 10
-207.0476828207474
 20
-19.31402635122856
 30
0.0
 11
-207.0476828207474
 21
-20.5140263512286
 31
0.0
  0
LINE
  5
B22
330
1F
100
AcDbEntity
  8
0
  6
Continuous
 62
     7
100
AcDbLine
 10
-207.0476828207474
 20
-19.31402635122856
 30
0.0
 11
-206.1476828207473
 21
-19.31402635122856
 31
0.0
  0
LINE
  5
B23
330
1F
100
AcDbEntity
  8
0
  6
Continuous
 62
     7
100
AcDbLine
 10
-205.1476828207473
 20
-18.31402635122856
 30
0.0
 11
-205.1476828207473
 21
-17.41402635122869
 31
0.0
  0
LINE
  5
B24
330
1F
100
AcDbEntity
  8
0
  6
Continuous
 62
     7
100
AcDbLine
 10
-205.1476828207473
 20
-17.41402635122869
 30
0.0
 11
-204.5476828207474
 21
-17.41402635122869
 31
0.0
  0
LINE
  5
B25
330
1F
100
AcDbEntity
  8
0
  6
DASH_CENTER
 62
     2
100
AcDbLine
 10
-143.2476828207471
 20
35.08597364877131
 30
0.0
 11
-147.0476828207474
 21
35.08597364877131
 31
0.0
  0
LINE
  5
B26
330
1F
100
AcDbEntity
  8
0
  6
Continuous
 62
     7
100
AcDbLine
 10
-147.0476828207474
 20
35.08597364877131
 30
0.0
 11
-147.0476828207474
 21
34.4859736487714
 31
0.0
  0
LINE
  5
B27
330
1F
100
AcDbEntity
  8
0
  6
DASH_CENTER
 62
     2
100
AcDbLine
 10
-147.0476828207474
 20
35.08597364877131
 30
0.0
 11
-155.8476828207474
 21
35.08597364877131
 31
0.0
  0
LINE
  5
B28
330
1F
100
AcDbEntity
  8
0
  6
Continuous
 62
     7
100
AcDbLine
 10
-147.0476828207474
 20
34.4859736487714
 30
0.0
 11
-147.9476828207473
 21
34.4859736487714
 31
0.0
  0
LINE
  5
B29
330
1F
100
AcDbEntity
  8
0
  6
Continuous
 62
     7
100
AcDbLine
 10
-148.9476828207473
 20
33.4859736487714
 30
0.0
 11
-148.9476828207473
 21
32.58597364877131
 31
0.0
  0
LINE
  5
B2A
330
1F
100
AcDbEntity
  8
0
  6
Continuous
 62
     7
100
AcDbLine
 10
-149.5476828207474
 20
37.58597364877132
 30
0.0
 11
-148.9476828207473
 21
37.58597364877132
 31
0.0
  0
LINE
  5
B2B
330
1F
100
AcDbEntity
  8
0
  6
Continuous
 62
     7
100
AcDbLine
 10
-148.9476828207473
 20
37.58597364877132
 30
0.0
 11
-148.9476828207473
 21
36.68597364877144
 31
0.0
  0
LINE
  5
B2C
330
1F
100
AcDbEntity
  8
0
  6
Continuous
 62
     7
100
AcDbLine
 10
-147.9476828207473
 20
35.68597364877144
 30
0.0
 11
-147.0476828207474
 21
35.68597364877144
 31
0.0
  0
LINE
  5
B2D
330
1F
100
AcDbEntity
  8
0
  6
Continuous
 62
     7
100
AcDbLine
 10
-147.0476828207474
 20
35.68597364877144
 30
0.0
 11
-147.0476828207474
 21
35.08597364877131
 31
0.0
  0
LINE
  5
B2E
330
1F
100
AcDbEntity
  8
0
  6
Continuous
 62
     7
100
AcDbLine
 10
-152.0476828207474
 20
35.08597364877131
 30
0.0
 11
-152.0476828207474
 21
35.68597364877144
 31
0.0
  0
LINE
  5
B2F
330
1F
100
AcDbEntity
  8
0
  6
Continuous
 62
     7
100
AcDbLine
 10
-152.0476828207474
 20
35.68597364877144
 30
0.0
 11
-151.1476828207473
 21
35.68597364877144
 31
0.0
  0
LINE
  5
B30
330
1F
100
AcDbEntity
  8
0
  6
Continuous
 62
     7
100
AcDbLine
 10
-150.1476828207473
 20
36.68597364877144
 30
0.0
 11
-150.1476828207473
 21
37.58597364877132
 31
0.0
  0
LINE
  5
B31
330
1F
100
AcDbEntity
  8
0
  6
Continuous
 62
     7
100
AcDbLine
 10
-150.1476828207473
 20
37.58597364877132
 30
0.0
 11
-149.5476828207474
 21
37.58597364877132
 31
0.0
  0
LINE
  5
B32
330
1F
100
AcDbEntity
  8
0
  6
Continuous
 62
     7
100
AcDbLine
 10
-150.1476828207473
 20
32.58597364877131
 30
0.0
 11
-148.9476828207473
 21
32.58597364877131
 31
0.0
  0
LINE
  5
B33
330
1F
100
AcDbEntity
  8
0
  6
Continuous
 62
     7
100
AcDbLine
 10
-150.1476828207473
 20
32.58597364877131
 30
0.0
 11
-150.1476828207473
 21
33.4859736487714
 31
0.0
  0
LINE
  5
B34
330
1F
100
AcDbEntity
  8
0
  6
Continuous
 62
     7
100
AcDbLine
 10
-151.1476828207473
 20
34.4859736487714
 30
0.0
 11
-152.0476828207474
 21
34.4859736487714
 31
0.0
  0
LINE
  5
B35
330
1F
100
AcDbEntity
  8
0
  6
Continuous
 62
     7
100
AcDbLine
 10
-152.0476828207474
 20
34.4859736487714
 30
0.0
 11
-152.0476828207474
 21
35.08597364877131
 31
0.0
  0
LINE
  5
B36
330
1F
100
AcDbEntity
  8
0
  6
DASH_CENTER
 62
     2
100
AcDbLine
 10
-252.0476828207474
 20
35.08597364877131
 30
0.0
 11
-251.5476828207474
 21
35.08597364877131
 31
0.0
  0
LINE
  5
B37
330
1F
100
AcDbEntity
  8
0
  6
DASHED
 62
     2
100
AcDbLine
 10
-242.8456110108704
 20
62.33058222265539
 30
0.0
 11
-242.8456110108704
 21
7.84136507488632
 31
0.0
  0
LINE
  5
B38
330
1F
100
AcDbEntity
  8
0
  6
DASHED
 62
     2
100
AcDbLine
 10
-233.8456110108704
 20
71.83691110302437
 30
0.0
 11
-233.8456110108704
 21
-1.664963805481759
 31
0.0
  0
LINE
  5
B39
330
1F
100
AcDbEntity
  8
0
  6
DASHED
 62
     2
100
AcDbLine
 10
-224.8456110108704
 20
77.47694097895429
 30
0.0
 11
-224.8456110108704
 21
-7.3049936814117
 31
0.0
  0
LINE
  5
B3A
330
1F
100
AcDbEntity
  8
0
  6
DASHED
 62
     2
100
AcDbLine
 10
-215.8456110108704
 20
80.70786333574927
 30
0.0
 11
-215.8456110108704
 21
-10.53591603820666
 31
0.0
  0
LINE
  5
B3B
330
1F
100
AcDbEntity
  8
0
  6
DASHED
 62
     2
100
AcDbLine
 10
-206.8456110108704
 20
82.02976478277527
 30
0.0
 11
-206.8456110108704
 21
-11.85781748523356
 31
0.0
  0
LINE
  5
B3C
330
1F
100
AcDbEntity
  8
0
  6
DASHED
 62
     2
100
AcDbLine
 10
-197.8456110108704
 20
81.60567091192239
 30
0.0
 11
-197.8456110108704
 21
-11.43372361438071
 31
0.0
  0
LINE
  5
B3D
330
1F
100
AcDbEntity
  8
0
  6
DASHED
 62
     2
100
AcDbLine
 10
-188.8456110108704
 20
79.38546507787727
 30
0.0
 11
-188.8456110108704
 21
-9.213517780334649
 31
0.0
  0
LINE
  5
B3E
330
1F
100
AcDbEntity
  8
0
  6
DASHED
 62
     2
100
AcDbLine
 10
-179.8456110108704
 20
-4.89911917717665
 30
0.0
 11
-179.8456110108704
 21
74.87423158917739
 31
0.0
  0
LINE
  5
B3F
330
1F
100
AcDbEntity
  8
0
  6
DASHED
 62
     2
100
AcDbLine
 10
-170.8456110108704
 20
67.84525257431926
 30
0.0
 11
-170.8456110108704
 21
2.326694723222439
 31
0.0
  0
LINE
  5
B40
330
1F
100
AcDbEntity
  8
0
  6
DASHED
 62
     2
100
AcDbLine
 10
-161.8456110108704
 20
54.72096952715435
 30
0.0
 11
-161.8456110108704
 21
15.45097777038826
 31
0.0
  0
LINE
  5
B41
330
1F
100
AcDbEntity
  8
0
  6
DASHED
 62
     2
100
AcDbLine
 10
-229.5655670252062
 20
74.87423158917739
 30
0.0
 11
-179.5297986162884
 21
74.87423158917739
 31
0.0
  0
LINE
  5
B42
330
1F
100
AcDbEntity
  8
0
  6
DASHED
 62
     2
100
AcDbLine
 10
-169.0359499287153
 20
65.87423158917738
 30
0.0
 11
-240.0594157127793
 21
65.87423158917738
 31
0.0
  0
LINE
  5
B43
330
1F
100
AcDbEntity
  8
0
  6
DASHED
 62
     2
100
AcDbLine
 10
-159.3209157590874
 20
47.87423158917738
 30
0.0
 11
-249.7744498824074
 21
47.87423158917738
 31
0.0
  0
LINE
  5
B44
330
1F
100
AcDbEntity
  8
0
  6
DASHED
 62
     2
100
AcDbLine
 10
-251.3947649260073
 20
38.87423158917739
 30
0.0
 11
-157.7006007154873
 21
38.87423158917739
 31
0.0
  0
LINE
  5
B45
330
1F
100
AcDbEntity
  8
0
  6
DASHED
 62
     2
100
AcDbLine
 10
-157.8375367633404
 20
29.87423158917739
 30
0.0
 11
-251.2578288781544
 21
29.87423158917739
 31
0.0
  0
LINE
  5
B46
330
1F
100
AcDbEntity
  8
0
  6
DASHED
 62
     2
100
AcDbLine
 10
-249.3475308967344
 20
20.87423158917739
 30
0.0
 11
-159.7478347447593
 21
20.87423158917739
 31
0.0
  0
LINE
  5
B47
330
1F
100
AcDbEntity
  8
0
  6
DASHED
 62
     2
100
AcDbLine
 10
-245.4159471655764
 20
11.87423158917739
 30
0.0
 11
-163.6794184759173
 21
11.87423158917739
 31
0.0
  0
LINE
  5
B48
330
1F
100
AcDbEntity
  8
0
  6
DASHED
 62
     2
100
AcDbLine
 10
-170.3219078333763
 20
2.87423158917739
 30
0.0
 11
-238.7734578081183
 21
2.87423158917739
 31
0.0
  0
LINE
  5
B49
330
1F
100
AcDbEntity
  8
0
  6
DASHED
 62
     2
100
AcDbLine
 10
-246.1922720962143
 20
56.87423158917739
 30
0.0
 11
-162.9030935452803
 21
56.87423158917739
 31
0.0
  0
LINE
  5
B4A
330
1F
100
AcDbEntity
  8
0
  6
DASHED
 62
     2
100
AcDbLine
 10
-227.1439727023514
 20
-6.12576841082261
 30
0.0
 11
-181.9513929391434
 21
-6.12576841082261
 31
0.0
  0
LINE
  5
B4B
330
1F
100
AcDbEntity
  8
0
  6
Continuous
 62
     7
100
AcDbLine
 10
-59.5476828207474
 20
-17.91402635122869
 30
0.0
 11
-57.94768282074725
 21
-17.91402635122869
 31
0.0
  0
LINE
  5
B4C
330
1F
100
AcDbEntity
  8
0
  6
Continuous
 62
     7
100
AcDbLine
 10
-57.94768282074725
 20
-17.91402635122869
 30
0.0
 11
-57.94768282074725
 21
-133.9140263512286
 31
0.0
  0
LINE
  5
B4D
330
1F
100
AcDbEntity
  8
0
  6
Continuous
 62
     7
100
AcDbLine
 10
-57.94768282074725
 20
-133.9140263512286
 30
0.0
 11
-59.5476828207474
 21
-133.9140263512286
 31
0.0
  0
LINE
  5
B4E
330
1F
100
AcDbEntity
  8
0
  6
Continuous
 62
     7
100
AcDbLine
 10
-57.94768282074725
 20
-48.33190763546064
 30
0.0
 11
-55.7821828207474
 21
-48.14250763546067
 31
0.0
  0
LINE
  5
B4F
330
1F
100
AcDbEntity
  8
0
  6
Continuous
 62
     7
100
AcDbLine
 10
-57.94768282074725
 20
-37.83190763546065
 30
0.0
 11
-55.7821828207474
 21
-38.0214076354606
 31
0.0
  0
LINE
  5
B50
330
1F
100
AcDbEntity
  8
0
  6
Continuous
 62
     7
100
AcDbLine
 10
-54.04778282074736
 20
-39.91420763546069
 30
0.0
 11
-54.04778282074736
 21
-46.24970763546059
 31
0.0
  0
LINE
  5
B51
330
1F
100
AcDbEntity
  8
0
  6
Continuous
 62
     7
100
AcDbLine
 10
-57.94768282074725
 20
-37.83190763546065
 30
0.0
 11
-57.94768282074725
 21
-48.33190763546064
 31
0.0
  0
LINE
  5
B52
330
1F
100
AcDbEntity
  8
0
  6
Continuous
 62
     7
100
AcDbLine
 10
-57.94768282074725
 20
-36.98200763546071
 30
0.0
 11
-57.94768282074725
 21
-42.68000763546058
 31
0.0
  0
LINE
  5
B53
330
1F
100
AcDbEntity
  8
0
  6
Continuous
 62
     7
100
AcDbLine
 10
-57.94768282074725
 20
-43.08190763546064
 30
0.0
 11
-57.94768282074725
 21
-49.18200763546075
 31
0.0
  0
LINE
  5
B54
330
1F
100
AcDbEntity
  8
0
  6
Continuous
 62
     7
100
AcDbLine
 10
-55.7821828207474
 20
-104.0874950669967
 30
0.0
 11
-57.94768282074725
 21
-103.8980950669967
 31
0.0
  0
LINE
  5
B55
330
1F
100
AcDbEntity
  8
0
  6
Continuous
 62
     7
100
AcDbLine
 10
-54.04778282074736
 20
-105.9802950669967
 30
0.0
 11
-54.04778282074736
 21
-112.3157950669967
 31
0.0
  0
LINE
  5
B56
330
1F
100
AcDbEntity
  8
0
  6
Continuous
 62
     7
100
AcDbLine
 10
-55.7821828207474
 20
-114.2085950669968
 30
0.0
 11
-57.94768282074725
 21
-114.3980950669967
 31
0.0
  0
LINE
  5
B57
330
1F
100
AcDbEntity
  8
0
  6
Continuous
 62
     7
100
AcDbLine
 10
-57.94768282074725
 20
-103.8980950669967
 30
0.0
 11
-57.94768282074725
 21
-114.3980950669967
 31
0.0
  0
LINE
  5
B64
330
1F
100
AcDbEntity
  8
0
  6
DASH_CENTER
 62
     2
100
AcDbLine
 10
-259.5476828207474
 20
35.08597364877131
 30
0.0
 11
-252.0476828207474
 21
35.08597364877131
 31
0.0
  0
LINE
  5
B75
330
1F
100
AcDbEntity
  8
0
  6
CENTER_DASH_DASH
 62
   171
100
AcDbLine
 10
-252.6631367751504
 20
-112.5136787528758
 30
0.0
 11
-252.6631367751504
 21
-112.4974196737056
 31
0.0
  0
LINE
  5
B76
330
1F
100
AcDbEntity
  8
0
  6
Continuous
 62
     7
100
AcDbLine
 10
-256.2131828207473
 20
-110.5580196737056
 30
0.0
 11
-254.0476828207474
 21
-110.7474196737056
 31
0.0
  0
LINE
  5
B78
330
1F
100
AcDbEntity
  8
0
  6
Continuous
 62
     7
100
AcDbLine
 10
-257.9475828207473
 20
-108.6652196737056
 30
0.0
 11
-257.9475828207473
 21
-103.6086484569435
 31
0.0
  0
LINE
  5
B79
330
1F
100
AcDbEntity
  8
0
  6
Continuous
 62
     7
100
AcDbLine
 10
-254.0476828207474
 20
-110.7474196737056
 30
0.0
 11
-254.0476828207474
 21
-105.4974196737056
 31
0.0
  0
LINE
  5
B7B
330
1F
100
AcDbEntity
  8
0
  6
Continuous
 62
     7
100
AcDbLine
 10
-252.5476828207474
 20
-111.5975196737057
 30
0.0
 11
-254.0476828207474
 21
-111.5975196737057
 31
0.0
  0
LINE
  5
B7C
330
1F
100
AcDbEntity
  8
0
  6
Continuous
 62
     7
100
AcDbLine
 10
-254.0476828207474
 20
-111.5975196737057
 30
0.0
 11
-254.0476828207474
 21
-105.4974196737056
 31
0.0
  0
LINE
  5
B7D
330
1F
100
AcDbEntity
  8
0
  6
Continuous
 62
     7
100
AcDbLine
 10
-252.5476828207474
 20
-111.1216612909458
 30
0.0
 11
-252.5476828207474
 21
-105.8993196737057
 31
0.0
  0
LINE
  5
B7E
330
1F
100
AcDbEntity
  8
0
  6
Continuous
 62
     7
100
AcDbLine
 10
-252.5476828207474
 20
-108.7974196737056
 30
0.0
 11
-252.5476828207474
 21
-111.1216612909458
 31
0.0
  0
LINE
  5
B7F
330
1F
100
AcDbEntity
  8
0
  6
Continuous
 62
     7
100
AcDbLine
 10
-252.5476828207474
 20
-111.5975196737057
 30
0.0
 11
-252.5476828207474
 21
-111.1216612909458
 31
0.0
  0
LINE
  5
B80
330
1F
100
AcDbEntity
  8
0
  6
Continuous
 62
     7
100
AcDbLine
 10
-252.5476828207474
 20
-111.5975196737057
 30
0.0
 11
-252.5476828207474
 21
-111.1216612909458
 31
0.0
  0
LINE
  5
B86
330
1F
100
AcDbEntity
  8
0
  6
DASH_CENTER
 62
     2
100
AcDbLine
 10
-208.9476828207473
 20
35.08597364877131
 30
0.0
 11
-79.5939173023593
 21
35.0859736487713
 31
0.0
  0
LINE
  5
B8B
330
1F
100
AcDbEntity
  8
0
  6
DASH_CENTER
 62
     2
100
AcDbLine
 10
-204.5476828207474
 20
25.84836934173734
 30
0.0
 11
-204.5476828207474
 21
-119.6881149044588
 31
0.0
  0
LINE
  5
B93
330
1F
100
AcDbEntity
  8
0
  6
DASH_CENTER
 62
     2
100
AcDbLine
 10
-215.5476828207474
 20
35.08597364877131
 30
0.0
 11
-251.5476828207474
 21
35.08597364877131
 31
0.0
  0
LINE
  5
B94
330
1F
100
AcDbEntity
  8
0
  6
Continuous
 62
     7
100
AcDbLine
 10
253.7706636032749
 20
-134.688114904459
 30
0.0
 11
259.2706636032749
 21
-134.688114904459
 31
0.0
  0
LINE
  5
B95
330
1F
100
AcDbEntity
  8
0
  6
DASH_CENTER
 62
     2
100
AcDbLine
 10
253.7706636032749
 20
-134.688114904459
 30
0.0
 11
253.7706636032749
 21
-144.6857298546396
 31
0.0
  0
LINE
  5
B96
330
1F
100
AcDbEntity
  8
0
  6
Continuous
 62
     7
100
AcDbLine
 10
183.7706636032749
 20
-48.68811490445892
 30
0.0
 11
183.7706636032749
 21
-51.68811490445892
 31
0.0
  0
LINE
  5
B97
330
1F
100
AcDbEntity
  8
0
  6
Continuous
 62
     7
100
AcDbLine
 10
188.7706636032749
 20
-43.68811490445891
 30
0.0
 11
188.7706636032749
 21
-51.68811490445892
 31
0.0
  0
LINE
  5
B98
330
1F
100
AcDbEntity
  8
0
  6
Continuous
 62
     7
100
AcDbLine
 10
183.7706636032749
 20
-51.68811490445892
 30
0.0
 11
186.1148771906155
 21
-51.68811490445892
 31
0.0
  0
LINE
  5
B99
330
1F
100
AcDbEntity
  8
0
  6
Continuous
 62
     7
100
AcDbLine
 10
183.7706636032749
 20
-51.68811490445892
 30
0.0
 11
183.7706636032749
 21
-124.1602751362426
 31
0.0
  0
LINE
  5
B9A
330
1F
100
AcDbEntity
  8
0
  6
Continuous
 62
     7
100
AcDbLine
 10
186.1148771906155
 20
-48.47496124059422
 30
0.0
 11
186.1148771906155
 21
-51.68811490445892
 31
0.0
  0
LINE
  5
B9B
330
1F
100
AcDbEntity
  8
0
  6
Continuous
 62
     7
100
AcDbLine
 10
186.1148771906155
 20
-51.68811490445892
 30
0.0
 11
188.7706636032749
 21
-51.68811490445892
 31
0.0
  0
LINE
  5
B9C
330
1F
100
AcDbEntity
  8
0
  6
Continuous
 62
     7
100
AcDbLine
 10
179.7706636032749
 20
109.5859736487713
 30
0.0
 11
179.7706636032749
 21
99.43686438759174
 31
0.0
  0
LINE
  5
B9D
330
1F
100
AcDbEntity
  8
0
  6
DASH_CENTER
 62
     2
100
AcDbLine
 10
179.7706636032749
 20
35.31188509554111
 30
0.0
 11
155.7706636032749
 21
35.31188509554111
 31
0.0
  0
LINE
  5
B9E
330
1F
100
AcDbEntity
  8
0
  6
Continuous
 62
     7
100
AcDbLine
 10
179.7706636032749
 20
109.5859736487713
 30
0.0
 11
159.7706636032749
 21
109.5859736487713
 31
0.0
  0
LINE
  5
B9F
330
1F
100
AcDbEntity
  8
0
  6
Continuous
 62
     7
100
AcDbLine
 10
159.7706636032749
 20
109.5859736487713
 30
0.0
 11
159.7706636032749
 21
130.6642044000224
 31
0.0
  0
LINE
  5
BA1
330
1F
100
AcDbEntity
  8
0
  6
Continuous
 62
     7
100
AcDbLine
 10
179.7706636032749
 20
99.43686438759174
 30
0.0
 11
179.7706636032749
 21
79.53955579831506
 31
0.0
  0
LINE
  5
BA2
330
1F
100
AcDbEntity
  8
0
  6
Continuous
 62
     7
100
AcDbLine
 10
159.7706636032749
 20
99.43686438759174
 30
0.0
 11
159.7706636032749
 21
109.5859736487713
 31
0.0
  0
LINE
  5
BA4
330
1F
100
AcDbEntity
  8
0
  6
Continuous
 62
     7
100
AcDbLine
 10
179.7706636032749
 20
79.53955579831506
 30
0.0
 11
179.7706636032749
 21
35.31188509554111
 31
0.0
  0
LINE
  5
BA5
330
1F
100
AcDbEntity
  8
0
  6
Continuous
 62
     7
100
AcDbLine
 10
161.7706636032749
 20
79.53955579831506
 30
0.0
 11
161.7706636032749
 21
77.92641322030411
 31
0.0
  0
LINE
  5
BA9
330
1F
100
AcDbEntity
  8
0
  6
Continuous
 62
     7
100
AcDbLine
 10
187.7706636032749
 20
35.53779654231085
 30
0.0
 11
187.7706636032749
 21
-8.915785607232889
 31
0.0
  0
LINE
  5
BAA
330
1F
100
AcDbEntity
  8
0
  6
Continuous
 62
     7
100
AcDbLine
 10
187.7706636032749
 20
-8.915785607232889
 30
0.0
 11
187.7706636032749
 21
-28.81309419650956
 31
0.0
  0
LINE
  5
BAC
330
1F
100
AcDbEntity
  8
0
  6
Continuous
 62
     7
100
AcDbLine
 10
179.7706636032749
 20
35.31188509554111
 30
0.0
 11
179.7706636032749
 21
-8.915785607232889
 31
0.0
  0
LINE
  5
BAD
330
1F
100
AcDbEntity
  8
0
  6
Continuous
 62
     7
100
AcDbLine
 10
179.7706636032749
 20
-8.915785607232889
 30
0.0
 11
179.7706636032749
 21
-28.81309419650956
 31
0.0
  0
LINE
  5
BAE
330
1F
100
AcDbEntity
  8
0
  6
Continuous
 62
     7
100
AcDbLine
 10
179.7706636032749
 20
-28.81309419650956
 30
0.0
 11
179.7706636032749
 21
-38.96220345768916
 31
0.0
  0
LINE
  5
BAF
330
1F
100
AcDbEntity
  8
0
  6
Continuous
 62
     7
100
AcDbLine
 10
159.7706636032749
 20
-38.96220345768916
 30
0.0
 11
179.7706636032749
 21
-38.96220345768916
 31
0.0
  0
LINE
  5
BB0
330
1F
100
AcDbEntity
  8
0
  6
Continuous
 62
     7
100
AcDbLine
 10
155.7706636032749
 20
-36.11452886696391
 30
0.0
 11
155.7706636032749
 21
35.31188509554111
 31
0.0
  0
LINE
  5
BB1
330
1F
100
AcDbEntity
  8
0
  6
DASH_CENTER
 62
     2
100
AcDbLine
 10
155.7706636032749
 20
35.31188509554111
 30
0.0
 11
139.7706636032749
 21
35.31188509554112
 31
0.0
  0
LINE
  5
BB2
330
1F
100
AcDbEntity
  8
0
  6
Continuous
 62
     7
100
AcDbLine
 10
157.7706636032749
 20
-37.96669442920815
 30
0.0
 11
157.7706636032749
 21
-19.49756472862857
 31
0.0
  0
LINE
  5
BB3
330
1F
100
AcDbEntity
  8
0
  6
Continuous
 62
     7
100
AcDbLine
 10
157.7706636032749
 20
-19.49756472862857
 30
0.0
 11
157.7706636032749
 21
-2.16737091836578
 31
0.0
  0
LINE
  5
BB4
330
1F
100
AcDbEntity
  8
0
  6
Continuous
 62
     7
100
AcDbLine
 10
159.7706636032749
 20
-40.02530946137597
 30
0.0
 11
159.7706636032749
 21
-28.8130941965096
 31
0.0
  0
ARC
  5
BBE
330
1F
100
AcDbEntity
  8
0
  6
Continuous
 62
     7
100
AcDbCircle
 10
120.7706636032749
 20
-75.9140263512287
 30
0.0
 40
38.24999999999997
100
AcDbArc
 50
140.5406376665651
 51
219.4593623334348
  0
ARC
  5
BBF
330
1F
100
AcDbEntity
  8
0
  6
Continuous
 62
     7
100
AcDbCircle
 10
120.7706636032749
 20
-75.9140263512287
 30
0.0
 40
38.24999999999997
100
AcDbArc
 50
230.5406376665652
 51
309.4593623334349
  0
ARC
  5
BC0
330
1F
100
AcDbEntity
  8
0
  6
Continuous
 62
     7
100
AcDbCircle
 10
120.7706636032749
 20
-75.9140263512287
 30
0.0
 40
38.24999999999999
100
AcDbArc
 50
320.5406376665652
 51
39.45936233343487
  0
ARC
  5
BC1
330
1F
100
AcDbEntity
  8
0
  6
Continuous
 62
     7
100
AcDbCircle
 10
120.7706636032749
 20
-75.9140263512287
 30
0.0
 40
38.24999999999999
100
AcDbArc
 50
50.54063766656514
 51
129.4593623334349
  0
ARC
  5
BC2
330
1F
100
AcDbEntity
  8
0
  6
Continuous
 62
     7
100
AcDbCircle
 10
79.17068311994089
 20
-16.29448215736893
 30
0.0
 40
1.900019516785247
100
AcDbArc
 50
95.00369012528771
 51
180.0006423189021
  0
ARC
  5
BC3
330
1F
100
AcDbEntity
  8
0
  6
Continuous
 62
     7
100
AcDbCircle
 10
79.17063331011144
 20
-22.62997039773966
 30
0.0
 40
1.899969707124026
100
AcDbArc
 50
180.0009969609377
 51
264.9976861809496
  0
ARC
  5
BC4
330
1F
100
AcDbEntity
  8
0
  6
Continuous
 62
     7
100
AcDbCircle
 10
79.1706831199409
 20
38.47960639586131
 30
0.0
 40
1.900019516785254
100
AcDbArc
 50
95.00369012528812
 51
180.0006423189024
  0
ARC
  5
BC5
330
1F
100
AcDbEntity
  8
0
  6
Continuous
 62
     7
100
AcDbCircle
 10
79.17063331011144
 20
32.14411815549059
 30
0.0
 40
1.899969707124026
100
AcDbArc
 50
180.0009969609378
 51
264.9976861809496
  0
ARC
  5
BC6
330
1F
100
AcDbEntity
  8
0
  6
Continuous
 62
     7
100
AcDbCircle
 10
79.17068311994089
 20
93.25369494909155
 30
0.0
 40
1.900019516785245
100
AcDbArc
 50
95.00369012528771
 51
180.0006423189019
  0
ARC
  5
BC7
330
1F
100
AcDbEntity
  8
0
  6
Continuous
 62
     7
100
AcDbCircle
 10
79.17063331011144
 20
86.91820670872081
 30
0.0
 40
1.899969707124026
100
AcDbArc
 50
180.0009969609381
 51
264.9976861809496
  0
ARC
  5
BC8
330
1F
100
AcDbEntity
  8
0
  6
Continuous
 62
     7
100
AcDbCircle
 10
120.7706636032749
 20
-75.9140263512287
 30
0.0
 40
52.99999999999998
100
AcDbArc
 50
324.2251741611748
 51
27.19966126644127
  0
ARC
  5
BC9
330
1F
100
AcDbEntity
  8
0
  6
Continuous
 62
     7
100
AcDbCircle
 10
120.7706636032749
 20
-75.9140263512287
 30
0.0
 40
52.99999999999999
100
AcDbArc
 50
48.6713413536566
 51
324.2251741611748
  0
ARC
  5
BCA
330
1F
100
AcDbEntity
  8
0
  6
DASH_CENTER
 62
     2
100
AcDbCircle
 10
120.7706636032749
 20
-75.9140263512287
 30
0.0
 40
46.99999999999999
100
AcDbArc
 50
115.989602616655
 51
160.4558415645525
  0
ARC
  5
BCB
330
1F
100
AcDbEntity
  8
0
  6
DASH_CENTER
 62
     2
100
AcDbCircle
 10
120.7706636032749
 20
-75.9140263512287
 30
0.0
 40
46.99999999999998
100
AcDbArc
 50
25.98960261665507
 51
70.4558415645525
  0
ARC
  5
BCC
330
1F
100
AcDbEntity
  8
0
  6
DASH_CENTER
 62
     2
100
AcDbCircle
 10
120.7706636032749
 20
-75.9140263512287
 30
0.0
 40
46.99999999999998
100
AcDbArc
 50
295.989602616655
 51
340.4558415645525
  0
ARC
  5
BCD
330
1F
100
AcDbEntity
  8
0
  6
DASH_CENTER
 62
     2
100
AcDbCircle
 10
120.7706636032749
 20
-75.9140263512287
 30
0.0
 40
46.99999999999996
100
AcDbArc
 50
205.9896026166551
 51
250.4558415645526
  0
ARC
  5
BCE
330
1F
100
AcDbEntity
  8
0
  6
Continuous
 62
     7
100
AcDbCircle
 10
165.2706440866089
 20
-21.57863146252122
 30
0.0
 40
1.900019516785278
100
AcDbArc
 50
275.0036901252893
 51
0.00064231890356
  0
ARC
  5
BCF
330
1F
100
AcDbEntity
  8
0
  6
Continuous
 62
     7
100
AcDbCircle
 10
165.2706938964384
 20
-15.24314322215042
 30
0.0
 40
1.899969707124026
100
AcDbArc
 50
0.0009969609378
 51
84.99768618094956
  0
ARC
  5
BD0
330
1F
100
AcDbEntity
  8
0
  6
Continuous
 62
     7
100
AcDbCircle
 10
165.2706440866089
 20
146.3963898805855
 30
0.0
 40
1.9000195167853
100
AcDbArc
 50
359.9993576810959
 51
84.99630987471068
  0
ARC
  5
BD1
330
1F
100
AcDbEntity
  8
0
  6
Continuous
 62
     7
100
AcDbCircle
 10
165.2706938964383
 20
140.0609016402147
 30
0.0
 40
1.899969707124103
100
AcDbArc
 50
275.0023138190519
 51
359.9990030390636
  0
ARC
  5
BD2
330
1F
100
AcDbEntity
  8
0
  6
Continuous
 62
     7
100
AcDbCircle
 10
191.2706440866089
 20
95.69053448369441
 30
0.0
 40
1.9000195167853
100
AcDbArc
 50
359.9993576810963
 51
84.99630987471068
  0
ARC
  5
BD3
330
1F
100
AcDbEntity
  8
0
  6
Continuous
 62
     7
100
AcDbCircle
 10
191.2706938964384
 20
89.35504624332361
 30
0.0
 40
1.899969707124026
100
AcDbArc
 50
275.0023138190504
 51
359.999003039062
  0
ARC
  5
BD4
330
1F
100
AcDbEntity
  8
0
  6
Continuous
 62
     7
100
AcDbCircle
 10
165.2706440866089
 20
92.2024016536034
 30
0.0
 40
1.9000195167853
100
AcDbArc
 50
359.9993576810963
 51
84.99630987471068
  0
ARC
  5
BD5
330
1F
100
AcDbEntity
  8
0
  6
Continuous
 62
     7
100
AcDbCircle
 10
165.2706938964384
 20
85.86691341323257
 30
0.0
 40
1.899969707124026
100
AcDbArc
 50
275.0023138190504
 51
359.999003039062
  0
ARC
  5
BD6
330
1F
100
AcDbEntity
  8
0
  6
Continuous
 62
     7
100
AcDbCircle
 10
191.2706440866089
 20
-25.06676429261223
 30
0.0
 40
1.900019516785258
100
AcDbArc
 50
275.0036901252885
 51
0.00064231890292
  0
ARC
  5
BD7
330
1F
100
AcDbEntity
  8
0
  6
Continuous
 62
     7
100
AcDbCircle
 10
191.2706938964384
 20
-18.73127605224143
 30
0.0
 40
1.899969707124026
100
AcDbArc
 50
0.00099696093818
 51
84.99768618094954
  0
ARC
  5
BD8
330
1F
100
AcDbEntity
  8
0
  6
DASH_CENTER
 62
     2
100
AcDbCircle
 10
-204.5476828207474
 20
35.08597364877131
 30
0.0
 40
55.00000000000049
100
AcDbArc
 50
246.5871566854435
 51
294.8750028394611
  0
ARC
  5
BD9
330
1F
100
AcDbEntity
  8
0
  6
DASH_CENTER
 62
     2
100
AcDbCircle
 10
-204.5476828207474
 20
35.08597364877131
 30
0.0
 40
54.99999999999975
100
AcDbArc
 50
66.58715668544292
 51
114.8750028394601
  0
ARC
  5
BDA
330
1F
100
AcDbEntity
  8
0
  6
DASH_CENTER
 62
     2
100
AcDbCircle
 10
-204.5476828207474
 20
35.08597364877131
 30
0.0
 40
54.99999999999961
100
AcDbArc
 50
336.5871566854432
 51
24.87500283946115
  0
ARC
  5
BE8
330
1F
100
AcDbEntity
  8
0
  6
Continuous
 62
     7
100
AcDbCircle
 10
-209.5476828207474
 20
40.58597364877131
 30
0.0
 40
123.5
100
AcDbArc
 50
0.0
 51
89.99999999999976
  0
ARC
  5
BE9
330
1F
100
AcDbEntity
  8
0
  6
Continuous
 62
     7
100
AcDbCircle
 10
-201.5476828207474
 20
38.58597364877132
 30
0.0
 40
115.5000000000002
100
AcDbArc
 50
322.2102304702678
 51
0.0
  0
ARC
  5
BEA
330
1F
100
AcDbEntity
  8
0
  6
Continuous
 62
     7
100
AcDbCircle
 10
-212.0476828207474
 20
31.58597364877131
 30
0.0
 40
132.5
100
AcDbArc
 50
87.91194036009517
 51
167.4088044741444
  0
ARC
  5
BEB
330
1F
100
AcDbEntity
  8
0
  6
Continuous
 62
     7
100
AcDbCircle
 10
-204.5476828207474
 20
35.08597364877131
 30
0.0
 40
95.0
100
AcDbArc
 50
71.84766934455883
 51
105.0973270773179
  0
ARC
  5
BEC
330
1F
100
AcDbEntity
  8
0
  6
Continuous
 62
     7
100
AcDbCircle
 10
-204.5476828207474
 20
35.08597364877131
 30
0.0
 40
99.99999999999978
100
AcDbArc
 50
90.80852165354208
 51
97.00000000000009
  0
ARC
  5
BED
330
1F
100
AcDbEntity
  8
0
  6
Continuous
 62
     7
100
AcDbCircle
 10
-204.5476828207474
 20
35.08597364877131
 30
0.0
 40
105.0000000000002
100
AcDbArc
 50
69.67584210633429
 51
88.49252703548154
  0
ARC
  5
BEE
330
1F
100
AcDbEntity
  8
0
  6
Continuous
 62
     7
100
AcDbCircle
 10
-198.0476828207474
 20
30.08597364877131
 30
0.0
 40
146.5000000000004
100
AcDbArc
 50
248.1601418779482
 51
271.5096212559495
  0
ARC
  5
BEF
330
1F
100
AcDbEntity
  8
0
  6
Continuous
 62
     7
100
AcDbCircle
 10
-198.0476828207474
 20
30.08597364877131
 30
0.0
 40
146.4999999999998
100
AcDbArc
 50
168.6356818082833
 51
180.0
  0
ARC
  5
BF0
330
1F
100
AcDbEntity
  8
0
  6
Continuous
 62
     7
100
AcDbCircle
 10
-198.0476828207474
 20
30.08597364877131
 30
0.0
 40
146.5
100
AcDbArc
 50
180.0
 51
248.1601418779482
  0
ARC
  5
BF1
330
1F
100
AcDbEntity
  8
0
  6
DASH_CENTER
 62
     2
100
AcDbCircle
 10
-204.5476828207474
 20
35.08597364877131
 30
0.0
 40
55.0
100
AcDbArc
 50
180.0
 51
203.4128433145569
  0
ARC
  5
BF2
330
1F
100
AcDbEntity
  8
0
  6
Continuous
 62
     7
100
AcDbCircle
 10
-204.5476828207474
 20
35.08597364877131
 30
0.0
 40
46.99999999999997
100
AcDbArc
 50
139.0750937876142
 51
144.5724870629391
  0
ARC
  5
BF3
330
1F
100
AcDbEntity
  8
0
  6
Continuous
 62
     7
100
AcDbCircle
 10
-204.5476828207474
 20
35.08597364877131
 30
0.0
 40
47.0000000000001
100
AcDbArc
 50
175.376874559236
 51
180.0
  0
ARC
  5
BF4
330
1F
100
AcDbEntity
  8
0
  6
Continuous
 62
     7
100
AcDbCircle
 10
-204.5476828207474
 20
35.08597364877131
 30
0.0
 40
46.99999999999938
100
AcDbArc
 50
209.5950570214845
 51
215.4275129370619
  0
ARC
  5
BF5
330
1F
100
AcDbEntity
  8
0
  6
Continuous
 62
     7
100
AcDbCircle
 10
-204.5476828207474
 20
35.08597364877131
 30
0.0
 40
46.99999999999996
100
AcDbArc
 50
122.1606779304459
 51
128.5619295634078
  0
ARC
  5
BF6
330
1F
100
AcDbEntity
  8
0
  6
Continuous
 62
     7
100
AcDbCircle
 10
-204.5476828207474
 20
35.08597364877131
 30
0.0
 40
46.99999999999952
100
AcDbArc
 50
223.2636278055088
 51
231.4380704365922
  0
ARC
  5
BF7
330
1F
100
AcDbEntity
  8
0
  6
Continuous
 62
     7
100
AcDbCircle
 10
-204.5476828207474
 20
35.08597364877131
 30
0.0
 40
46.9999999999996
100
AcDbArc
 50
103.9090549862937
 51
115.5863453174669
  0
ARC
  5
BF8
330
1F
100
AcDbEntity
  8
0
  6
Continuous
 62
     7
100
AcDbCircle
 10
-204.5476828207474
 20
35.08597364877131
 30
0.0
 40
46.99999999999978
100
AcDbArc
 50
241.2641571281681
 51
244.4136546825331
  0
ARC
  5
BF9
330
1F
100
AcDbEntity
  8
0
  6
Continuous
 62
     7
100
AcDbCircle
 10
-204.5476828207474
 20
35.08597364877131
 30
0.0
 40
46.99999999999946
100
AcDbArc
 50
92.80242762124649
 51
103.9090549862937
  0
ARC
  5
BFA
330
1F
100
AcDbEntity
  8
0
  6
Continuous
 62
     7
100
AcDbCircle
 10
-204.5476828207474
 20
35.08597364877131
 30
0.0
 40
47.00000000000035
100
AcDbArc
 50
244.4136546825331
 51
256.0909450137063
  0
ARC
  5
BFB
330
1F
100
AcDbEntity
  8
0
  6
Continuous
 62
     7
100
AcDbCircle
 10
-204.5476828207474
 20
35.08597364877131
 30
0.0
 40
46.99999999999974
100
AcDbArc
 50
81.80183278433554
 51
92.80242762124649
  0
ARC
  5
BFC
330
1F
100
AcDbEntity
  8
0
  6
Continuous
 62
     7
100
AcDbCircle
 10
-204.5476828207474
 20
35.08597364877131
 30
0.0
 40
46.9999999999996
100
AcDbArc
 50
256.0909450137063
 51
267.1975723787536
  0
ARC
  5
BFD
330
1F
100
AcDbEntity
  8
0
  6
Continuous
 62
     7
100
AcDbCircle
 10
-204.5476828207474
 20
35.08597364877131
 30
0.0
 40
46.99999999999962
100
AcDbArc
 50
70.48299377795006
 51
81.80183278433554
  0
ARC
  5
BFE
330
1F
100
AcDbEntity
  8
0
  6
Continuous
 62
     7
100
AcDbCircle
 10
-204.5476828207474
 20
35.08597364877131
 30
0.0
 40
47.00000000000038
100
AcDbArc
 50
267.1975723787536
 51
278.1981672156643
  0
ARC
  5
BFF
330
1F
100
AcDbEntity
  8
0
  6
Continuous
 62
     7
100
AcDbCircle
 10
-204.5476828207474
 20
35.08597364877131
 30
0.0
 40
47.00000000000008
100
AcDbArc
 50
57.83932206955388
 51
70.48299377795006
  0
ARC
  5
C00
330
1F
100
AcDbEntity
  8
0
  6
Continuous
 62
     7
100
AcDbCircle
 10
-204.5476828207474
 20
35.08597364877131
 30
0.0
 40
47.00000000000065
100
AcDbArc
 50
278.1981672156643
 51
289.51700622205
  0
ARC
  5
C01
330
1F
100
AcDbEntity
  8
0
  6
Continuous
 62
     7
100
AcDbCircle
 10
-204.5476828207474
 20
35.08597364877131
 30
0.0
 40
46.99999999999954
100
AcDbArc
 50
44.18728058182747
 51
57.83932206955388
  0
ARC
  5
C02
330
1F
100
AcDbEntity
  8
0
  6
Continuous
 62
     7
100
AcDbCircle
 10
-204.5476828207474
 20
35.08597364877131
 30
0.0
 40
46.9999999999998
100
AcDbArc
 50
298.7358428718319
 51
301.7070271153869
  0
ARC
  5
C03
330
1F
100
AcDbEntity
  8
0
  6
Continuous
 62
     7
100
AcDbCircle
 10
-204.5476828207474
 20
35.08597364877131
 30
0.0
 40
47.00000000000014
100
AcDbArc
 50
40.92490621238568
 51
44.18728058182747
  0
ARC
  5
C04
330
1F
100
AcDbEntity
  8
0
  6
Continuous
 62
     7
100
AcDbCircle
 10
-204.5476828207474
 20
35.08597364877131
 30
0.0
 40
46.99999999999993
100
AcDbArc
 50
301.7070271153869
 51
315.8127194181718
  0
ARC
  5
C05
330
1F
100
AcDbEntity
  8
0
  6
Continuous
 62
     7
100
AcDbCircle
 10
-204.5476828207474
 20
35.08597364877131
 30
0.0
 40
47.00000000000015
100
AcDbArc
 50
15.7887073525779
 51
24.69361765094854
  0
ARC
  5
C06
330
1F
100
AcDbEntity
  8
0
  6
Continuous
 62
     7
100
AcDbCircle
 10
-204.5476828207474
 20
35.08597364877131
 30
0.0
 40
47.00000000000037
100
AcDbArc
 50
330.4049429785162
 51
335.3063823490515
  0
ARC
  5
C07
330
1F
100
AcDbEntity
  8
0
  6
Continuous
 62
     7
100
AcDbCircle
 10
-204.5476828207474
 20
35.08597364877131
 30
0.0
 40
47.00000000000033
100
AcDbArc
 50
115.5863453174669
 51
122.1606779304459
  0
ARC
  5
C08
330
1F
100
AcDbEntity
  8
0
  6
Continuous
 62
     7
100
AcDbCircle
 10
-204.5476828207474
 20
35.08597364877131
 30
0.0
 40
47.00000000000025
100
AcDbArc
 50
128.5619295634078
 51
139.0750937876142
  0
ARC
  5
C09
330
1F
100
AcDbEntity
  8
0
  6
Continuous
 62
     7
100
AcDbCircle
 10
-204.5476828207474
 20
35.08597364877131
 30
0.0
 40
47.00000000000019
100
AcDbArc
 50
27.61835790511774
 51
40.92490621238568
  0
ARC
  5
C0A
330
1F
100
AcDbEntity
  8
0
  6
Continuous
 62
     7
100
AcDbCircle
 10
-204.5476828207474
 20
35.08597364877131
 30
0.0
 40
47.00000000000033
100
AcDbArc
 50
4.62312544076398
 51
15.7887073525779
  0
ARC
  5
C0B
330
1F
100
AcDbEntity
  8
0
  6
Continuous
 62
     7
100
AcDbCircle
 10
-204.5476828207474
 20
35.08597364877131
 30
0.0
 40
47.00000000000001
100
AcDbArc
 50
152.3816420948822
 51
164.2112926474221
  0
ARC
  5
C0C
330
1F
100
AcDbEntity
  8
0
  6
Continuous
 62
     7
100
AcDbCircle
 10
-204.5476828207474
 20
35.08597364877131
 30
0.0
 40
47.00000000000013
100
AcDbArc
 50
164.2112926474221
 51
175.376874559236
  0
ARC
  5
C0D
330
1F
100
AcDbEntity
  8
0
  6
Continuous
 62
     7
100
AcDbCircle
 10
-204.5476828207474
 20
35.08597364877131
 30
0.0
 40
47.00000000000037
100
AcDbArc
 50
353.6334851700813
 51
4.62312544076398
  0
ARC
  5
C0E
330
1F
100
AcDbEntity
  8
0
  6
Continuous
 62
     7
100
AcDbCircle
 10
-204.5476828207474
 20
35.08597364877131
 30
0.0
 40
47.00000000000049
100
AcDbArc
 50
342.3995431747615
 51
353.6334851700813
  0
ARC
  5
C0F
330
1F
100
AcDbEntity
  8
0
  6
Continuous
 62
     7
100
AcDbCircle
 10
-204.5476828207474
 20
35.08597364877131
 30
0.0
 40
47.0
100
AcDbArc
 50
180.0
 51
186.3665148299186
  0
ARC
  5
C10
330
1F
100
AcDbEntity
  8
0
  6
Continuous
 62
     7
100
AcDbCircle
 10
-204.5476828207474
 20
35.08597364877131
 30
0.0
 40
47.00000000000037
100
AcDbArc
 50
186.3665148299186
 51
197.600456825239
  0
ARC
  5
C11
330
1F
100
AcDbEntity
  8
0
  6
Continuous
 62
     7
100
AcDbCircle
 10
-204.5476828207474
 20
35.08597364877131
 30
0.0
 40
47.0000000000001
100
AcDbArc
 50
335.3063823490515
 51
342.3995431747615
  0
ARC
  5
C12
330
1F
100
AcDbEntity
  8
0
  6
Continuous
 62
     7
100
AcDbCircle
 10
-204.5476828207474
 20
35.08597364877131
 30
0.0
 40
46.99999999999969
100
AcDbArc
 50
316.7363721944914
 51
330.4049429785162
  0
ARC
  5
C13
330
1F
100
AcDbEntity
  8
0
  6
Continuous
 62
     7
100
AcDbCircle
 10
-204.5476828207474
 20
35.08597364877131
 30
0.0
 40
47.00000000000018
100
AcDbArc
 50
315.8127194181718
 51
316.7363721944914
  0
ARC
  5
C14
330
1F
100
AcDbEntity
  8
0
  6
Continuous
 62
     7
100
AcDbCircle
 10
-204.5476828207474
 20
35.08597364877131
 30
0.0
 40
47.00000000000027
100
AcDbArc
 50
215.4275129370619
 51
223.2636278055088
  0
ARC
  5
C15
330
1F
100
AcDbEntity
  8
0
  6
Continuous
 62
     7
100
AcDbCircle
 10
-204.5476828207474
 20
35.08597364877131
 30
0.0
 40
46.99999999999975
100
AcDbArc
 50
144.5724870629391
 51
152.3816420948822
  0
ARC
  5
C16
330
1F
100
AcDbEntity
  8
0
  6
Continuous
 62
     7
100
AcDbCircle
 10
-204.5476828207474
 20
35.08597364877131
 30
0.0
 40
47.00000000000011
100
AcDbArc
 50
24.69361765094854
 51
27.61835790511774
  0
ARC
  5
C17
330
1F
100
AcDbEntity
  8
0
  6
Continuous
 62
     7
100
AcDbCircle
 10
-204.5476828207474
 20
35.08597364877131
 30
0.0
 40
47.00000000000025
100
AcDbArc
 50
231.4380704365922
 51
241.2641571281681
  0
ARC
  5
C18
330
1F
100
AcDbEntity
  8
0
  6
Continuous
 62
     7
100
AcDbCircle
 10
-204.5476828207474
 20
35.08597364877131
 30
0.0
 40
46.99999999999963
100
AcDbArc
 50
289.51700622205
 51
298.7358428718319
  0
ARC
  5
C19
330
1F
100
AcDbEntity
  8
0
  6
Continuous
 62
     7
100
AcDbCircle
 10
-55.94765252758389
 20
-46.24967457551115
 30
0.0
 40
1.899969707124114
100
AcDbArc
 50
275.0023138190532
 51
359.999003039066
  0
ARC
  5
C1A
330
1F
100
AcDbEntity
  8
0
  6
Continuous
 62
     7
100
AcDbCircle
 10
-55.94770233741335
 20
-39.91418633514032
 30
0.0
 40
1.900019516785358
100
AcDbArc
 50
359.9993576810931
 51
84.99630987470874
  0
ARC
  5
C1B
330
1F
100
AcDbEntity
  8
0
  6
Continuous
 62
     7
100
AcDbCircle
 10
-55.94765252758389
 20
-105.9803281269461
 30
0.0
 40
1.899969707124111
100
AcDbArc
 50
0.00099696093379
 51
84.9976861809468
  0
ARC
  5
C1C
330
1F
100
AcDbEntity
  8
0
  6
Continuous
 62
     7
100
AcDbCircle
 10
-55.94770233741336
 20
-112.3158163673171
 30
0.0
 40
1.900019516785371
100
AcDbArc
 50
275.0036901252917
 51
0.00064231890753
  0
ARC
  5
C1D
330
1F
100
AcDbEntity
  8
0
  6
Continuous
 62
     7
100
AcDbCircle
 10
-55.94770233741336
 20
-112.3158163673171
 30
0.0
 40
1.900019516785371
100
AcDbArc
 50
275.0036901252917
 51
0.00064231890753
  0
ARC
  5
C1E
330
1F
100
AcDbEntity
  8
0
  6
DASH_CENTER
 62
     2
100
AcDbCircle
 10
-204.5476828207474
 20
35.08597364877131
 30
0.0
 40
54.99999999999985
100
AcDbArc
 50
155.1249971605388
 51
180.0
  0
ARC
  5
C22
330
1F
100
AcDbEntity
  8
0
  6
Continuous
 62
     7
100
AcDbCircle
 10
-256.0477131139109
 20
-108.6651866137562
 30
0.0
 40
1.899969707124111
100
AcDbArc
 50
180.0009969609341
 51
264.9976861809464
  0
ARC
  5
C24
330
1F
100
AcDbEntity
  8
0
  6
Continuous
 62
     7
100
AcDbCircle
 10
188.7706636032749
 20
-48.68811490445892
 30
0.0
 40
5.0
100
AcDbArc
 50
90.0
 51
180.0
  0
ARC
  5
C25
330
1F
100
AcDbEntity
  8
0
  6
Continuous
 62
     7
100
AcDbCircle
 10
120.7706636032749
 20
-75.9140263512287
 30
0.0
 40
53.0
100
AcDbArc
 50
45.72417828846984
 51
48.6713413536566
  0
ARC
  5
C26
330
1F
100
AcDbEntity
  8
0
  6
Continuous
 62
     7
100
AcDbCircle
 10
120.7706636032749
 20
-75.9140263512287
 30
0.0
 40
52.99999999999999
100
AcDbArc
 50
42.62099095301944
 51
45.72417828846984
  0
ARC
  5
C27
330
1F
100
AcDbEntity
  8
0
  6
Continuous
 62
     7
100
AcDbCircle
 10
120.7706636032749
 20
-75.9140263512287
 30
0.0
 40
52.99999999999999
100
AcDbArc
 50
27.19966126644127
 51
42.62099095301944
  0
CIRCLE
  5
C2C
330
1F
100
AcDbEntity
  8
0
  6
DASHED
 62
     2
100
AcDbCircle
 10
120.7706636032749
 20
-75.9140263512287
 30
0.0
 40
38.0
  0
CIRCLE
  5
C2E
330
1F
100
AcDbEntity
  8
0
  6
Continuous
 62
     7
100
AcDbCircle
 10
87.53664488750713
 20
-42.68000763546093
 30
0.0
 40
4.5
  0
CIRCLE
  5
C2F
330
1F
100
AcDbEntity
  8
0
  6
Continuous
 62
     7
100
AcDbCircle
 10
154.0046823190427
 20
-42.68000763546097
 30
0.0
 40
4.5
  0
CIRCLE
  5
C30
330
1F
100
AcDbEntity
  8
0
  6
Continuous
 62
     7
100
AcDbCircle
 10
154.0046823190426
 20
-109.1480450669964
 30
0.0
 40
4.500000000000099
  0
CIRCLE
  5
C31
330
1F
100
AcDbEntity
  8
0
  6
Continuous
 62
     7
100
AcDbCircle
 10
87.53664488750713
 20
-109.1480450669964
 30
0.0
 40
4.5
  0
CIRCLE
  5
C32
330
1F
100
AcDbEntity
  8
0
  6
Continuous
 62
     7
100
AcDbCircle
 10
-204.5476828207474
 20
35.08597364877131
 30
0.0
 40
60.0
  0
CIRCLE
  5
C33
330
1F
100
AcDbEntity
  8
0
  6
Continuous
 62
     7
100
AcDbCircle
 10
-204.5476828207474
 20
35.08597364877131
 30
0.0
 40
59.5
  0
CIRCLE
  5
C34
330
1F
100
AcDbEntity
  8
0
  6
Continuous
 62
     7
100
AcDbCircle
 10
-204.5476828207474
 20
90.08597364877134
 30
0.0
 40
4.5
  0
CIRCLE
  5
C35
330
1F
100
AcDbEntity
  8
0
  6
Continuous
 62
     7
100
AcDbCircle
 10
-259.5476828207474
 20
35.08597364877131
 30
0.0
 40
4.499999999999995
  0
CIRCLE
  5
C36
330
1F
100
AcDbEntity
  8
0
  6
Continuous
 62
     7
100
AcDbCircle
 10
-204.5476828207474
 20
-19.91402635122869
 30
0.0
 40
4.5
  0
CIRCLE
  5
C37
330
1F
100
AcDbEntity
  8
0
  6
Continuous
 62
     7
100
AcDbCircle
 10
-149.5476828207474
 20
35.08597364877131
 30
0.0
 40
4.5
  0
CIRCLE
  5
C38
330
1F
100
AcDbEntity
  8
0
  6
Continuous
 62
     7
100
AcDbCircle
 10
-204.5476828207474
 20
35.08597364877131
 30
0.0
 40
47.5
  0
CIRCLE
  5
C3F
330
1F
100
AcDbEntity
  8
0
  6
Continuous
 62
     7
100
AcDbCircle
 10
-204.5476828207474
 20
35.08597364877131
 30
0.0
 40
47.0
  0
ARC
  5
C46
330
1F
100
AcDbEntity
  8
0
  6
Continuous
 62
     7
100
AcDbCircle
 10
92.78292546702083
 20
-52.8760356832805
 30
0.0
 40
2.0
100
AcDbArc
 50
45.00000000000071
 51
140.5406376665643
  0
ARC
  5
C47
330
1F
100
AcDbEntity
  8
0
  6
Continuous
 62
     7
100
AcDbCircle
 10
115.820916134969
 20
-75.9140263512287
 30
0.0
 40
2.000000000000087
100
AcDbArc
 50
315.000000000002
 51
44.9999999999974
  0
ARC
  5
C48
330
1F
100
AcDbEntity
  8
0
  6
Continuous
 62
     7
100
AcDbCircle
 10
92.78292546702083
 20
-98.95201701917693
 30
0.0
 40
1.999999999999958
100
AcDbArc
 50
219.4593623334346
 51
315.0000000000002
  0
ARC
  5
C49
330
1F
100
AcDbEntity
  8
0
  6
Continuous
 62
     7
100
AcDbCircle
 10
143.808654271223
 20
-103.9017644874828
 30
0.0
 40
1.999999999999986
100
AcDbArc
 50
309.4593623334355
 51
44.99999999999972
  0
ARC
  5
C4A
330
1F
100
AcDbEntity
  8
0
  6
Continuous
 62
     7
100
AcDbCircle
 10
97.73267293532676
 20
-103.9017644874828
 30
0.0
 40
2.000000000000005
100
AcDbArc
 50
135.0000000000003
 51
230.5406376665644
  0
ARC
  5
C4B
330
1F
100
AcDbEntity
  8
0
  6
Continuous
 62
     7
100
AcDbCircle
 10
120.7706636032749
 20
-80.86377381953454
 30
0.0
 40
1.999999999999995
100
AcDbArc
 50
44.99999999999942
 51
135.0
  0
ARC
  5
C4C
330
1F
100
AcDbEntity
  8
0
  6
Continuous
 62
     7
100
AcDbCircle
 10
148.7584017395289
 20
-52.8760356832805
 30
0.0
 40
2.000000000000096
100
AcDbArc
 50
39.45936233343427
 51
134.9999999999999
  0
ARC
  5
C4D
330
1F
100
AcDbEntity
  8
0
  6
Continuous
 62
     7
100
AcDbCircle
 10
148.7584017395289
 20
-98.95201701917693
 30
0.0
 40
1.999999999999906
100
AcDbArc
 50
225.0000000000014
 51
320.5406376665675
  0
ARC
  5
C4E
330
1F
100
AcDbEntity
  8
0
  6
Continuous
 62
     7
100
AcDbCircle
 10
125.7204110715807
 20
-75.9140263512287
 30
0.0
 40
1.999999999999985
100
AcDbArc
 50
135.0000000000003
 51
225.0000000000003
  0
ARC
  5
C4F
330
1F
100
AcDbEntity
  8
0
  6
Continuous
 62
     7
100
AcDbCircle
 10
120.7706636032749
 20
-70.96427888292288
 30
0.0
 40
1.999999999999985
100
AcDbArc
 50
224.9999999999997
 51
314.9999999999985
  0
ARC
  5
C50
330
1F
100
AcDbEntity
  8
0
  6
Continuous
 62
     7
100
AcDbCircle
 10
143.808654271223
 20
-47.92628821497464
 30
0.0
 40
2.000000000000015
100
AcDbArc
 50
315.0
 51
50.54063766656496
  0
ARC
  5
C51
330
1F
100
AcDbEntity
  8
0
  6
Continuous
 62
     7
100
AcDbCircle
 10
97.73267293532676
 20
-47.92628821497464
 30
0.0
 40
2.00000000000007
100
AcDbArc
 50
129.4593623334378
 51
224.9999999999997
  0
ARC
  5
C52
330
1F
100
AcDbEntity
  8
0
  6
Continuous
 62
     7
100
AcDbCircle
 10
189.0706636032749
 20
-48.98811490445893
 30
0.0
 40
2.999999999999996
100
AcDbArc
 50
95.73917047726698
 51
170.1510551017572
  0
ARC
  5
C53
330
1F
100
AcDbEntity
  8
0
  6
Continuous
 62
     7
100
AcDbCircle
 10
85.93664488750713
 20
-44.28000763546097
 30
0.0
 40
1.0
100
AcDbArc
 50
0.0
 51
90.0
  0
ARC
  5
C54
330
1F
100
AcDbEntity
  8
0
  6
Continuous
 62
     7
100
AcDbCircle
 10
85.93664488750713
 20
-41.08000763546093
 30
0.0
 40
1.0
100
AcDbArc
 50
270.0
 51
0.0
  0
ARC
  5
C55
330
1F
100
AcDbEntity
  8
0
  6
Continuous
 62
     7
100
AcDbCircle
 10
89.13664488750713
 20
-41.08000763546093
 30
0.0
 40
1.0
100
AcDbArc
 50
180.0
 51
270.0
  0
ARC
  5
C56
330
1F
100
AcDbEntity
  8
0
  6
Continuous
 62
     7
100
AcDbCircle
 10
89.13664488750713
 20
-44.28000763546091
 30
0.0
 40
0.9999999999999788
100
AcDbArc
 50
90.0
 51
180.0
  0
ARC
  5
C57
330
1F
100
AcDbEntity
  8
0
  6
Continuous
 62
     7
100
AcDbCircle
 10
152.4046823190426
 20
-41.08000763546097
 30
0.0
 40
1.0
100
AcDbArc
 50
270.0
 51
0.0
  0
ARC
  5
C58
330
1F
100
AcDbEntity
  8
0
  6
Continuous
 62
     7
100
AcDbCircle
 10
155.6046823190426
 20
-41.08000763546097
 30
0.0
 40
1.0
100
AcDbArc
 50
180.0
 51
270.0
  0
ARC
  5
C59
330
1F
100
AcDbEntity
  8
0
  6
Continuous
 62
     7
100
AcDbCircle
 10
155.6046823190426
 20
-44.28000763546097
 30
0.0
 40
1.0
100
AcDbArc
 50
90.0
 51
180.0
  0
ARC
  5
C5A
330
1F
100
AcDbEntity
  8
0
  6
Continuous
 62
     7
100
AcDbCircle
 10
152.4046823190426
 20
-44.28000763546097
 30
0.0
 40
0.9999999999998864
100
AcDbArc
 50
0.0
 51
90.0
  0
ARC
  5
C5B
330
1F
100
AcDbEntity
  8
0
  6
Continuous
 62
     7
100
AcDbCircle
 10
155.6046823190426
 20
-107.5480450669964
 30
0.0
 40
1.0
100
AcDbArc
 50
180.0
 51
270.0
  0
ARC
  5
C5C
330
1F
100
AcDbEntity
  8
0
  6
Continuous
 62
     7
100
AcDbCircle
 10
155.6046823190426
 20
-110.7480450669964
 30
0.0
 40
1.0
100
AcDbArc
 50
90.0
 51
180.0
  0
ARC
  5
C5D
330
1F
100
AcDbEntity
  8
0
  6
Continuous
 62
     7
100
AcDbCircle
 10
152.4046823190426
 20
-110.7480450669964
 30
0.0
 40
1.0
100
AcDbArc
 50
0.0
 51
90.0
  0
ARC
  5
C5E
330
1F
100
AcDbEntity
  8
0
  6
Continuous
 62
     7
100
AcDbCircle
 10
152.4046823190426
 20
-107.5480450669965
 30
0.0
 40
1.0
100
AcDbArc
 50
270.0
 51
0.0
  0
ARC
  5
C5F
330
1F
100
AcDbEntity
  8
0
  6
Continuous
 62
     7
100
AcDbCircle
 10
89.13664488750724
 20
-110.7480450669964
 30
0.0
 40
1.0
100
AcDbArc
 50
90.0
 51
180.0
  0
ARC
  5
C60
330
1F
100
AcDbEntity
  8
0
  6
Continuous
 62
     7
100
AcDbCircle
 10
85.93664488750713
 20
-110.7480450669964
 30
0.0
 40
1.0
100
AcDbArc
 50
0.0
 51
90.0
  0
ARC
  5
C61
330
1F
100
AcDbEntity
  8
0
  6
Continuous
 62
     7
100
AcDbCircle
 10
85.93664488750713
 20
-107.5480450669965
 30
0.0
 40
1.0
100
AcDbArc
 50
270.0
 51
0.0
  0
ARC
  5
C62
330
1F
100
AcDbEntity
  8
0
  6
Continuous
 62
     7
100
AcDbCircle
 10
89.13664488750713
 20
-107.5480450669965
 30
0.0
 40
1.0
100
AcDbArc
 50
180.0
 51
270.0
  0
ARC
  5
C63
330
1F
100
AcDbEntity
  8
0
  6
Continuous
 62
     7
100
AcDbCircle
 10
84.27066360327494
 20
-26.68811490445894
 30
0.0
 40
2.0
100
AcDbArc
 50
0.0
 51
90.0
  0
ARC
  5
C64
330
1F
100
AcDbEntity
  8
0
  6
Continuous
 62
     7
100
AcDbCircle
 10
84.27066360327494
 20
97.31188509554105
 30
0.0
 40
2.0
100
AcDbArc
 50
270.0
 51
0.0
  0
ARC
  5
C65
330
1F
100
AcDbEntity
  8
0
  6
Continuous
 62
     7
100
AcDbCircle
 10
135.7706636032749
 20
144.0443231883982
 30
0.0
 40
20.0
100
AcDbArc
 50
0.0
 51
18.99089173088022
  0
ARC
  5
C66
330
1F
100
AcDbEntity
  8
0
  6
Continuous
 62
     7
100
AcDbCircle
 10
106.2706636032749
 20
144.0443231883982
 30
0.0
 40
20.0
100
AcDbArc
 50
90.0
 51
180.0
  0
ARC
  5
C67
330
1F
100
AcDbEntity
  8
0
  6
Continuous
 62
     7
100
AcDbCircle
 10
135.7706636032749
 20
144.0443231883982
 30
0.0
 40
19.99999999999992
100
AcDbArc
 50
18.99089173088022
 51
90.0
  0
ARC
  5
C68
330
1F
100
AcDbEntity
  8
0
  6
Continuous
 62
     7
100
AcDbCircle
 10
186.7706636032749
 20
108.5859736487713
 30
0.0
 40
1.0
100
AcDbArc
 50
0.0
 51
90.0
  0
ARC
  5
C69
330
1F
100
AcDbEntity
  8
0
  6
Continuous
 62
     7
100
AcDbCircle
 10
298.7706636032749
 20
86.25872927959653
 30
0.0
 40
10.0
100
AcDbArc
 50
0.0
 51
41.88613944434947
  0
ARC
  5
C6A
330
1F
100
AcDbEntity
  8
0
  6
Continuous
 62
     7
100
AcDbCircle
 10
289.2687765214934
 20
96.85391074006874
 30
0.0
 40
9.999999999999976
100
AcDbArc
 50
41.88613944434922
 51
89.45948981286921
  0
ARC
  5
C6B
330
1F
100
AcDbEntity
  8
0
  6
Continuous
 62
     7
100
AcDbCircle
 10
298.7706636032749
 20
-15.63495908851437
 30
0.0
 40
10.00000000000002
100
AcDbArc
 50
318.1138605556506
 51
0.0
  0
ARC
  5
C6C
330
1F
100
AcDbEntity
  8
0
  6
Continuous
 62
     7
100
AcDbCircle
 10
289.2687765214934
 20
-26.23014054898663
 30
0.0
 40
10.00000000000001
100
AcDbArc
 50
270.5405101871307
 51
318.1138605556506
  0
ARC
  5
C6D
330
1F
100
AcDbEntity
  8
0
  6
Continuous
 62
     7
100
AcDbCircle
 10
186.7706636032749
 20
-37.96220345768915
 30
0.0
 40
1.0
100
AcDbArc
 50
270.0
 51
0.0
  0
ARC
  5
C6E
330
1F
100
AcDbEntity
  8
0
  6
Continuous
 62
     7
100
AcDbCircle
 10
-108.6916113983572
 20
-33.41402635122869
 30
0.0
 40
1.999999999999956
100
AcDbArc
 50
142.2102304702876
 51
270.0
  0
ARC
  5
C79
330
1F
100
AcDbEntity
  8
0
  6
Continuous
 62
     7
100
AcDbCircle
 10
-63.5476828207474
 20
-19.91402635122869
 30
0.0
 40
2.0
100
AcDbArc
 50
90.0
 51
180.0
  0
ARC
  5
C7A
330
1F
100
AcDbEntity
  8
0
  6
Continuous
 62
     7
100
AcDbCircle
 10
-63.5476828207474
 20
-131.9140263512286
 30
0.0
 40
1.999999999999993
100
AcDbArc
 50
180.0
 51
270.0
  0
ARC
  5
C7B
330
1F
100
AcDbEntity
  8
0
  6
Continuous
 62
     7
100
AcDbCircle
 10
-67.54768282074739
 20
-33.41402635122869
 30
0.0
 40
2.0
100
AcDbArc
 50
270.0
 51
0.0
  0
ARC
  5
C7C
330
1F
100
AcDbEntity
  8
0
  6
Continuous
 62
     7
100
AcDbCircle
 10
-67.54768282074739
 20
-118.4140263512287
 30
0.0
 40
2.0
100
AcDbArc
 50
0.0
 51
90.0
  0
ARC
  5
C7D
330
1F
100
AcDbEntity
  8
0
  6
Continuous
 62
     7
100
AcDbCircle
 10
-254.5476828207474
 20
-130.3881149044585
 30
0.0
 40
2.0
100
AcDbArc
 50
270.0
 51
0.0
  0
ARC
  5
C7E
330
1F
100
AcDbEntity
  8
0
  6
Continuous
 62
     7
100
AcDbCircle
 10
-254.2476828207472
 20
-130.6881149044588
 30
0.0
 40
4.0
100
AcDbArc
 50
270.0
 51
0.0
  0
ARC
  5
C7F
330
1F
100
AcDbEntity
  8
0
  6
Continuous
 62
     7
100
AcDbCircle
 10
-240.2476828207472
 20
-129.6881149044588
 30
0.0
 40
10.00000000000001
100
AcDbArc
 50
90.0
 51
180.0
  0
ARC
  5
C80
330
1F
100
AcDbEntity
  8
0
  6
Continuous
 62
     7
100
AcDbCircle
 10
-154.5476828207474
 20
-130.3881149044585
 30
0.0
 40
2.0
100
AcDbArc
 50
180.0
 51
270.0
  0
ARC
  5
C81
330
1F
100
AcDbEntity
  8
0
  6
Continuous
 62
     7
100
AcDbCircle
 10
-154.8476828207474
 20
-130.6881149044588
 30
0.0
 40
4.0
100
AcDbArc
 50
180.0
 51
270.0
  0
ARC
  5
C82
330
1F
100
AcDbEntity
  8
0
  6
Continuous
 62
     7
100
AcDbCircle
 10
-168.8476828207474
 20
-129.6881149044588
 30
0.0
 40
9.999999999999772
100
AcDbArc
 50
7.202984348583961
 51
90.0
  0
ARC
  5
C83
330
1F
100
AcDbEntity
  8
0
  6
Continuous
 62
     7
100
AcDbCircle
 10
-202.9476828207473
 20
91.68597364877143
 30
0.0
 40
1.0
100
AcDbArc
 50
180.0
 51
270.0
  0
ARC
  5
C84
330
1F
100
AcDbEntity
  8
0
  6
Continuous
 62
     7
100
AcDbCircle
 10
-206.1476828207473
 20
91.68597364877143
 30
0.0
 40
1.0
100
AcDbArc
 50
270.0
 51
0.0
  0
ARC
  5
C85
330
1F
100
AcDbEntity
  8
0
  6
Continuous
 62
     7
100
AcDbCircle
 10
-206.1476828207473
 20
88.48597364877134
 30
0.0
 40
1.0
100
AcDbArc
 50
0.0
 51
90.0
  0
ARC
  5
C86
330
1F
100
AcDbEntity
  8
0
  6
Continuous
 62
     7
100
AcDbCircle
 10
-202.9476828207473
 20
88.48597364877134
 30
0.0
 40
1.0
100
AcDbArc
 50
90.0
 51
180.0
  0
ARC
  5
C87
330
1F
100
AcDbEntity
  8
0
  6
Continuous
 62
     7
100
AcDbCircle
 10
-261.1476828207473
 20
36.68597364877144
 30
0.0
 40
1.0
100
AcDbArc
 50
270.0
 51
0.0
  0
ARC
  5
C88
330
1F
100
AcDbEntity
  8
0
  6
Continuous
 62
     7
100
AcDbCircle
 10
-261.1476828207473
 20
33.4859736487714
 30
0.0
 40
1.0
100
AcDbArc
 50
0.0
 51
90.0
  0
ARC
  5
C89
330
1F
100
AcDbEntity
  8
0
  6
Continuous
 62
     7
100
AcDbCircle
 10
-257.9476828207473
 20
33.4859736487714
 30
0.0
 40
1.0
100
AcDbArc
 50
90.0
 51
180.0
  0
ARC
  5
C8A
330
1F
100
AcDbEntity
  8
0
  6
Continuous
 62
     7
100
AcDbCircle
 10
-257.9476828207473
 20
36.68597364877144
 30
0.0
 40
1.0
100
AcDbArc
 50
180.0
 51
270.0
  0
ARC
  5
C8B
330
1F
100
AcDbEntity
  8
0
  6
Continuous
 62
     7
100
AcDbCircle
 10
-206.1476828207473
 20
-21.5140263512286
 30
0.0
 40
1.0
100
AcDbArc
 50
0.0
 51
90.0
  0
ARC
  5
C8C
330
1F
100
AcDbEntity
  8
0
  6
Continuous
 62
     7
100
AcDbCircle
 10
-202.9476828207473
 20
-21.5140263512286
 30
0.0
 40
1.0
100
AcDbArc
 50
90.0
 51
180.0
  0
ARC
  5
C8D
330
1F
100
AcDbEntity
  8
0
  6
Continuous
 62
     7
100
AcDbCircle
 10
-202.9476828207473
 20
-18.31402635122856
 30
0.0
 40
1.0
100
AcDbArc
 50
180.0
 51
270.0
  0
ARC
  5
C8E
330
1F
100
AcDbEntity
  8
0
  6
Continuous
 62
     7
100
AcDbCircle
 10
-206.1476828207473
 20
-18.31402635122856
 30
0.0
 40
1.0
100
AcDbArc
 50
270.0
 51
0.0
  0
ARC
  5
C8F
330
1F
100
AcDbEntity
  8
0
  6
Continuous
 62
     7
100
AcDbCircle
 10
-147.9476828207473
 20
33.4859736487714
 30
0.0
 40
1.0
100
AcDbArc
 50
90.0
 51
180.0
  0
ARC
  5
C90
330
1F
100
AcDbEntity
  8
0
  6
Continuous
 62
     7
100
AcDbCircle
 10
-147.9476828207473
 20
36.68597364877144
 30
0.0
 40
1.0
100
AcDbArc
 50
180.0
 51
270.0
  0
ARC
  5
C91
330
1F
100
AcDbEntity
  8
0
  6
Continuous
 62
     7
100
AcDbCircle
 10
-151.1476828207473
 20
36.68597364877144
 30
0.0
 40
1.0
100
AcDbArc
 50
270.0
 51
0.0
  0
ARC
  5
C92
330
1F
100
AcDbEntity
  8
0
  6
Continuous
 62
     7
100
AcDbCircle
 10
-151.1476828207473
 20
33.4859736487714
 30
0.0
 40
1.0
100
AcDbArc
 50
0.0
 51
90.0
  0
ARC
  5
C93
330
1F
100
AcDbEntity
  8
0
  6
Continuous
 62
     7
100
AcDbCircle
 10
-168.8476828207474
 20
-129.6881149044588
 30
0.0
 40
10.0
100
AcDbArc
 50
0.0
 51
7.202984348583961
  0
ENDSEC
  0
SECTION
  2
OBJECTS
  0
DICTIONARY
  5
C
330
0
100
AcDbDictionary
281
     1
  3
ACAD_COLOR
350
8A0
  3
ACAD_GROUP
350
D
  3
ACAD_LAYOUT
350
1A
  3
ACAD_MATERIAL
350
89F
  3
ACAD_MLINESTYLE
350
17
  3
ACAD_PLOTSETTINGS
350
19
  3
ACAD_PLOTSTYLENAME
350
E
  3
ACDBHEADERROUNDTRIPXREC
350
FD9
  3
AcDbVariableDictionary
350
8A3
  0
DICTIONARY
  5
8A0
102
{ACAD_REACTORS
330
C
102
}
330
C
100
AcDbDictionary
281
     1
  0
DICTIONARY
  5
D
102
{ACAD_REACTORS
330
C
102
}
330
C
100
AcDbDictionary
281
     1
  0
DICTIONARY
  5
1A
102
{ACAD_REACTORS
330
C
102
}
330
C
100
AcDbDictionary
281
     1
  3
Layout1
350
1E
  3
Layout2
350
26
  3
Model
350
22
  0
DICTIONARY
  5
89F
102
{ACAD_REACTORS
330
C
102
}
330
C
100
AcDbDictionary
281
     1
  0
DICTIONARY
  5
17
102
{ACAD_REACTORS
330
C
102
}
330
C
100
AcDbDictionary
281
     1
  3
Standard
350
18
  0
DICTIONARY
  5
19
102
{ACAD_REACTORS
330
C
102
}
330
C
100
AcDbDictionary
281
     1
  0
ACDBDICTIONARYWDFLT
  5
E
102
{ACAD_REACTORS
330
C
102
}
330
C
100
AcDbDictionary
281
     1
  3
Normal
350
F
100
AcDbDictionaryWithDefault
340
F
  0
DICTIONARY
  5
FD9
102
{ACAD_REACTORS
330
C
102
}
330
C
100
AcDbDictionary
281
     1
  3
COLORDICT
350
FDB
  3
MATERIALDICT
350
FDA
  0
DICTIONARY
  5
8A3
102
{ACAD_REACTORS
330
C
102
}
330
C
100
AcDbDictionary
281
     1
  3
DIMASSOC
350
8A4
  3
PROJECTNAME
350
8A5
  0
LAYOUT
  5
1E
102
{ACAD_XDICTIONARY
360
FDC
102
}
102
{ACAD_REACTORS
330
1A
102
}
330
1A
100
AcDbPlotSettings
  1

  2

  4

  6

 40
0.0
 41
0.0
 42
0.0
 43
0.0
 44
0.0
 45
0.0
 46
0.0
 47
0.0
 48
0.0
 49
0.0
140
0.0
141
0.0
142
1.0
143
1.0
 70
   688
 72
     0
 73
     0
 74
     5
  7

 75
    16
147
1.0
148
0.0
149
0.0
100
AcDbLayout
  1
Layout1
 70
     1
 71
     1
 10
0.0
 20
0.0
 11
12.0
 21
9.0
 12
0.0
 22
0.0
 32
0.0
 14
1.000000000000000E+20
 24
1.000000000000000E+20
 34
1.000000000000000E+20
 15
-1.000000000000000E+20
 25
-1.000000000000000E+20
 35
-1.000000000000000E+20
146
0.0
 13
0.0
 23
0.0
 33
0.0
 16
1.0
 26
0.0
 36
0.0
 17
0.0
 27
1.0
 37
0.0
 76
     0
330
1B
  0
LAYOUT
  5
26
102
{ACAD_XDICTIONARY
360
FE0
102
}
102
{ACAD_REACTORS
330
1A
102
}
330
1A
100
AcDbPlotSettings
  1

  2

  4

  6

 40
0.0
 41
0.0
 42
0.0
 43
0.0
 44
0.0
 45
0.0
 46
0.0
 47
0.0
 48
0.0
 49
0.0
140
0.0
141
0.0
142
1.0
143
1.0
 70
   688
 72
     0
 73
     0
 74
     5
  7

 75
    16
147
1.0
148
0.0
149
0.0
100
AcDbLayout
  1
Layout2
 70
     1
 71
     2
 10
0.0
 20
0.0
 11
0.0
 21
0.0
 12
0.0
 22
0.0
 32
0.0
 14
0.0
 24
0.0
 34
0.0
 15
0.0
 25
0.0
 35
0.0
146
0.0
 13
0.0
 23
0.0
 33
0.0
 16
1.0
 26
0.0
 36
0.0
 17
0.0
 27
1.0
 37
0.0
 76
     0
330
23
  0
LAYOUT
  5
22
102
{ACAD_XDICTIONARY
360
FDE
102
}
102
{ACAD_REACTORS
330
1A
102
}
330
1A
100
AcDbPlotSettings
  1

  2

  4

  6

 40
0.0
 41
0.0
 42
0.0
 43
0.0
 44
0.0
 45
0.0
 46
0.0
 47
0.0
 48
0.0
 49
0.0
140
0.0
141
0.0
142
1.0
143
1.0
 70
  1712
 72
     0
 73
     0
 74
     0
  7

 75
     0
147
1.0
148
0.0
149
0.0
100
AcDbLayout
  1
Model
 70
     1
 71
     0
 10
0.0
 20
0.0
 11
0.0
 21
0.0
 12
0.0
 22
0.0
 32
0.0
 14
-427.9997999999999
 24
-286.0002
 34
0.0
 15
390.9998
 25
285.9998
 35
0.0
146
0.0
 13
0.0
 23
0.0
 33
0.0
 16
1.0
 26
0.0
 36
0.0
 17
0.0
 27
1.0
 37
0.0
 76
     0
330
1F
  0
MLINESTYLE
  5
18
102
{ACAD_REACTORS
330
17
102
}
330
17
100
AcDbMlineStyle
  2
STANDARD
 70
     0
  3

 62
   256
 51
90.0
 52
90.0
 71
     2
 49
0.5
 62
   256
  6
BYLAYER
 49
-0.5
 62
   256
  6
BYLAYER
  0
ACDBPLACEHOLDER
  5
F
102
{ACAD_REACTORS
330
E
102
}
330
E
  0
XRECORD
  5
FDB
102
{ACAD_REACTORS
330
FD9
102
}
330
FD9
100
AcDbXrecord
280
     1
340
8A0
  0
XRECORD
  5
FDA
102
{ACAD_REACTORS
330
FD9
102
}
330
FD9
100
AcDbXrecord
280
     1
340
89F
  0
DICTIONARYVAR
  5
8A4
102
{ACAD_REACTORS
330
8A3
102
}
330
8A3
100
DictionaryVariables
280
     0
  1
1
  0
DICTIONARYVAR
  5
8A5
102
{ACAD_REACTORS
330
8A3
102
}
330
8A3
100
DictionaryVariables
280
     0
  1

  0
DICTIONARY
  5
FDC
330
1E
100
AcDbDictionary
280
     1
281
     1
  3
ACAD_XREC_ROUNDTRIP
360
FDD
  0
DICTIONARY
  5
FE0
330
26
100
AcDbDictionary
280
     1
281
     1
  3
ACAD_XREC_ROUNDTRIP
360
FE1
  0
DICTIONARY
  5
FDE
330
22
100
AcDbDictionary
280
     1
281
     1
  3
ACAD_XREC_ROUNDTRIP
360
FDF
  0
XRECORD
  5
FDD
102
{ACAD_REACTORS
330
FDC
102
}
330
FDC
100
AcDbXrecord
280
     1
102
SHADEPLOT
 70
     0
102
SHADEPLOTRESLEVEL
 70
     2
102
SHADEPLOTCUSTOMDPI
 70
   300
  0
XRECORD
  5
FE1
102
{ACAD_REACTORS
330
FE0
102
}
330
FE0
100
AcDbXrecord
280
     1
102
SHADEPLOT
 70
     0
102
SHADEPLOTRESLEVEL
 70
     2
102
SHADEPLOTCUSTOMDPI
 70
   300
  0
XRECORD
  5
FDF
102
{ACAD_REACTORS
330
FDE
102
}
330
FDE
100
AcDbXrecord
280
     1
102
SHADEPLOT
 70
     0
102
SHADEPLOTRESLEVEL
 70
     2
102
SHADEPLOTCUSTOMDPI
 70
   300
  0
ENDSEC
  0
EOF
