  0
SECTION
  2
HEADER
  9
$ACADVER
  1
AC1015
  9
$ACADMAINTVER
 70
    20
  9
$DWGCODEPAGE
  3
ANSI_932
  9
$INSBASE
 10
0.0
 20
0.0
 30
0.0
  9
$EXTMIN
 10
-646.4615724350105
 20
-196.7608330989969
 30
-0.0015258207003583
  9
$EXTMAX
 10
391.557436389704
 20
219.5901428134098
 30
0.0000000349246037
  9
$LIMMIN
 10
0.0
 20
0.0
  9
$LIMMAX
 10
12.0
 20
9.0
  9
$ORTHOMODE
 70
     0
  9
$REGENMODE
 70
     1
  9
$FILLMODE
 70
     1
  9
$QTEXTMODE
 70
     0
  9
$MIRRTEXT
 70
     1
  9
$LTSCALE
 40
1.0
  9
$ATTMODE
 70
     1
  9
$TEXTSIZE
 40
0.2
  9
$TRACEWID
 40
0.05
  9
$TEXTSTYLE
  7
CONVERTER_1
  9
$CLAYER
  8
0
  9
$CELTYPE
  6
ByLayer
  9
$CECOLOR
 62
     4
  9
$CELTSCALE
 40
1.0
  9
$DISPSILH
 70
     0
  9
$DIMSCALE
 40
1.0
  9
$DIMASZ
 40
0.18
  9
$DIMEXO
 40
0.0625
  9
$DIMDLI
 40
0.38
  9
$DIMRND
 40
0.0
  9
$DIMDLE
 40
0.0
  9
$DIMEXE
 40
0.18
  9
$DIMTP
 40
0.0
  9
$DIMTM
 40
0.0
  9
$DIMTXT
 40
0.18
  9
$DIMCEN
 40
0.09
  9
$DIMTSZ
 40
0.0
  9
$DIMTOL
 70
     0
  9
$DIMLIM
 70
     0
  9
$DIMTIH
 70
     1
  9
$DIMTOH
 70
     1
  9
$DIMSE1
 70
     0
  9
$DIMSE2
 70
     0
  9
$DIMTAD
 70
     0
  9
$DIMZIN
 70
     0
  9
$DIMBLK
  1

  9
$DIMASO
 70
     1
  9
$DIMSHO
 70
     1
  9
$DIMPOST
  1

  9
$DIMAPOST
  1

  9
$DIMALT
 70
     0
  9
$DIMALTD
 70
     2
  9
$DIMALTF
 40
25.4
  9
$DIMLFAC
 40
1.0
  9
$DIMTOFL
 70
     0
  9
$DIMTVP
 40
0.0
  9
$DIMTIX
 70
     0
  9
$DIMSOXD
 70
     0
  9
$DIMSAH
 70
     0
  9
$DIMBLK1
  1

  9
$DIMBLK2
  1

  9
$DIMSTYLE
  2
Standard
  9
$DIMCLRD
 70
     0
  9
$DIMCLRE
 70
     0
  9
$DIMCLRT
 70
     0
  9
$DIMTFAC
 40
1.0
  9
$DIMGAP
 40
0.09
  9
$DIMJUST
 70
     0
  9
$DIMSD1
 70
     0
  9
$DIMSD2
 70
     0
  9
$DIMTOLJ
 70
     1
  9
$DIMTZIN
 70
     0
  9
$DIMALTZ
 70
     0
  9
$DIMALTTZ
 70
     0
  9
$DIMUPT
 70
     0
  9
$DIMDEC
 70
     4
  9
$DIMTDEC
 70
     4
  9
$DIMALTU
 70
     2
  9
$DIMALTTD
 70
     2
  9
$DIMTXSTY
  7
Standard
  9
$DIMAUNIT
 70
     0
  9
$DIMADEC
 70
     0
  9
$DIMALTRND
 40
0.0
  9
$DIMAZIN
 70
     0
  9
$DIMDSEP
 70
    46
  9
$DIMATFIT
 70
     3
  9
$DIMFRAC
 70
     0
  9
$DIMLDRBLK
  1

  9
$DIMLUNIT
 70
     2
  9
$DIMLWD
 70
    -2
  9
$DIMLWE
 70
    -2
  9
$DIMTMOVE
 70
     0
  9
$LUNITS
 70
     2
  9
$LUPREC
 70
     4
  9
$SKETCHINC
 40
0.1
  9
$FILLETRAD
 40
0.5
  9
$AUNITS
 70
     0
  9
$AUPREC
 70
     0
  9
$MENU
  1
.
  9
$ELEVATION
 40
0.0
  9
$PELEVATION
 40
0.0
  9
$THICKNESS
 40
0.0
  9
$LIMCHECK
 70
     0
  9
$CHAMFERA
 40
0.5
  9
$CHAMFERB
 40
0.5
  9
$CHAMFERC
 40
1.0
  9
$CHAMFERD
 40
0.0
  9
$SKPOLY
 70
     0
  9
$TDCREATE
 40
2455106.662304861
  9
$TDUCREATE
 40
2455106.287304861
  9
$TDUPDATE
 40
2458860.436391435
  9
$TDUUPDATE
 40
2458860.061391435
  9
$TDINDWG
 40
0.0398082292
  9
$TDUSRTIMER
 40
0.0398064120
  9
$USRTIMER
 70
     1
  9
$ANGBASE
 50
0.0
  9
$ANGDIR
 70
     0
  9
$PDMODE
 70
     0
  9
$PDSIZE
 40
0.0
  9
$PLINEWID
 40
0.0
  9
$SPLFRAME
 70
     0
  9
$SPLINETYPE
 70
     6
  9
$SPLINESEGS
 70
     8
  9
$HANDSEED
  5
17CF
  9
$SURFTAB1
 70
     6
  9
$SURFTAB2
 70
     6
  9
$SURFTYPE
 70
     6
  9
$SURFU
 70
     6
  9
$SURFV
 70
     6
  9
$UCSBASE
  2

  9
$UCSNAME
  2

  9
$UCSORG
 10
0.0
 20
0.0
 30
0.0
  9
$UCSXDIR
 10
1.0
 20
0.0
 30
0.0
  9
$UCSYDIR
 10
0.0
 20
1.0
 30
0.0
  9
$UCSORTHOREF
  2

  9
$UCSORTHOVIEW
 70
     0
  9
$UCSORGTOP
 10
0.0
 20
0.0
 30
0.0
  9
$UCSORGBOTTOM
 10
0.0
 20
0.0
 30
0.0
  9
$UCSORGLEFT
 10
0.0
 20
0.0
 30
0.0
  9
$UCSORGRIGHT
 10
0.0
 20
0.0
 30
0.0
  9
$UCSORGFRONT
 10
0.0
 20
0.0
 30
0.0
  9
$UCSORGBACK
 10
0.0
 20
0.0
 30
0.0
  9
$PUCSBASE
  2

  9
$PUCSNAME
  2

  9
$PUCSORG
 10
0.0
 20
0.0
 30
0.0
  9
$PUCSXDIR
 10
1.0
 20
0.0
 30
0.0
  9
$PUCSYDIR
 10
0.0
 20
1.0
 30
0.0
  9
$PUCSORTHOREF
  2

  9
$PUCSORTHOVIEW
 70
     0
  9
$PUCSORGTOP
 10
0.0
 20
0.0
 30
0.0
  9
$PUCSORGBOTTOM
 10
0.0
 20
0.0
 30
0.0
  9
$PUCSORGLEFT
 10
0.0
 20
0.0
 30
0.0
  9
$PUCSORGRIGHT
 10
0.0
 20
0.0
 30
0.0
  9
$PUCSORGFRONT
 10
0.0
 20
0.0
 30
0.0
  9
$PUCSORGBACK
 10
0.0
 20
0.0
 30
0.0
  9
$USERI1
 70
     0
  9
$USERI2
 70
     0
  9
$USERI3
 70
     0
  9
$USERI4
 70
     0
  9
$USERI5
 70
     0
  9
$USERR1
 40
14.0
  9
$USERR2
 40
0.0
  9
$USERR3
 40
0.0
  9
$USERR4
 40
0.0
  9
$USERR5
 40
0.0
  9
$WORLDVIEW
 70
     1
  9
$SHADEDGE
 70
     3
  9
$SHADEDIF
 70
    70
  9
$TILEMODE
 70
     1
  9
$MAXACTVP
 70
    64
  9
$PINSBASE
 10
0.0
 20
0.0
 30
0.0
  9
$PLIMCHECK
 70
     0
  9
$PEXTMIN
 10
1.000000000000000E+20
 20
1.000000000000000E+20
 30
1.000000000000000E+20
  9
$PEXTMAX
 10
-1.000000000000000E+20
 20
-1.000000000000000E+20
 30
-1.000000000000000E+20
  9
$PLIMMIN
 10
0.0
 20
0.0
  9
$PLIMMAX
 10
12.0
 20
9.0
  9
$UNITMODE
 70
     0
  9
$VISRETAIN
 70
     1
  9
$PLINEGEN
 70
     0
  9
$PSLTSCALE
 70
     1
  9
$TREEDEPTH
 70
  3020
  9
$CMLSTYLE
  2
Standard
  9
$CMLJUST
 70
     0
  9
$CMLSCALE
 40
1.0
  9
$PROXYGRAPHICS
 70
     1
  9
$MEASUREMENT
 70
     1
  9
$CELWEIGHT
370
    -1
  9
$ENDCAPS
280
     0
  9
$JOINSTYLE
280
     0
  9
$LWDISPLAY
290
     0
  9
$INSUNITS
 70
     1
  9
$HYPERLINKBASE
  1

  9
$STYLESHEET
  1
P社図面.CTB
  9
$XEDIT
290
     1
  9
$CEPSNTYPE
380
     0
  9
$PSTYLEMODE
290
     1
  9
$FINGERPRINTGUID
  2
{9251C64B-044E-4FAA-8024-01DC696F54D7}
  9
$VERSIONGUID
  2
{CEBBA080-22FE-4E35-A60F-70F577B4E866}
  9
$EXTNAMES
290
     1
  9
$PSVPSCALE
 40
0.0
  9
$OLESTARTUP
290
     0
  0
ENDSEC
  0
SECTION
  2
CLASSES
  0
CLASS
  1
ACDBDICTIONARYWDFLT
  2
AcDbDictionaryWithDefault
  3
ObjectDBX Classes
 90
        0
280
     0
281
     0
  0
CLASS
  1

  2
exOdDbSpline
  3

 90
    32768
280
     0
281
     1
  0
CLASS
  1

  2
exOdDbPolyline
  3

 90
    32768
280
     0
281
     1
  0
CLASS
  1

  2
exOdDbCircle
  3

 90
    32768
280
     0
281
     1
  0
CLASS
  1
MATERIAL
  2
AcDbMaterial
  3
ObjectDBX Classes
 90
     1153
280
     0
281
     0
  0
CLASS
  1
VISUALSTYLE
  2
AcDbVisualStyle
  3
ObjectDBX Classes
 90
     4095
280
     0
281
     0
  0
CLASS
  1
TABLESTYLE
  2
AcDbTableStyle
  3
ObjectDBX Classes
 90
     4095
280
     0
281
     0
  0
CLASS
  1
SCALE
  2
AcDbScale
  3
ObjectDBX Classes
 90
     1153
280
     0
281
     0
  0
CLASS
  1
MLEADERSTYLE
  2
AcDbMLeaderStyle
  3
ACDB_MLEADERSTYLE_CLASS
 90
     4095
280
     0
281
     0
  0
CLASS
  1
DICTIONARYVAR
  2
AcDbDictionaryVar
  3
ObjectDBX Classes
 90
        0
280
     0
281
     0
  0
CLASS
  1
CELLSTYLEMAP
  2
AcDbCellStyleMap
  3
ObjectDBX Classes
 90
     1152
280
     0
281
     0
  0
CLASS
  1
ACDBPLACEHOLDER
  2
AcDbPlaceHolder
  3
ObjectDBX Classes
 90
        0
280
     0
281
     0
  0
CLASS
  1
LAYOUT
  2
AcDbLayout
  3
ObjectDBX Classes
 90
        0
280
     0
281
     0
  0
ENDSEC
  0
SECTION
  2
TABLES
  0
TABLE
  2
VPORT
  5
8
330
0
100
AcDbSymbolTable
 70
     1
  0
VPORT
  5
16A8
330
8
100
AcDbSymbolTableRecord
100
AcDbViewportTableRecord
  2
*Active
 70
     0
 10
0.0
 20
0.0
 11
1.0
 21
1.0
 12
-127.4520680226533
 22
11.41465485720641
 13
0.0
 23
0.0
 14
0.5
 24
0.5
 15
0.5
 25
0.5
 16
0.0
 26
0.0
 36
1.0
 17
0.0
 27
0.0
 37
0.0
 40
577.7403762041965
 41
1.803827751196172
 42
50.0
 43
0.0
 44
0.0
 50
0.0
 51
0.0
 71
     0
 72
   100
 73
     1
 74
     3
 75
     0
 76
     0
 77
     0
 78
     0
281
     0
 65
     1
110
0.0
120
0.0
130
0.0
111
1.0
121
0.0
131
0.0
112
0.0
122
1.0
132
0.0
 79
     0
146
0.0
1001
ACAD_NAV_VCDISPLAY
1070
     3
  0
ENDTAB
  0
TABLE
  2
LTYPE
  5
5
330
0
100
AcDbSymbolTable
 70
     5
  0
LTYPE
  5
14
330
5
100
AcDbSymbolTableRecord
100
AcDbLinetypeTableRecord
  2
ByBlock
 70
     0
  3

 72
    65
 73
     0
 40
0.0
  0
LTYPE
  5
15
330
5
100
AcDbSymbolTableRecord
100
AcDbLinetypeTableRecord
  2
ByLayer
 70
     0
  3

 72
    65
 73
     0
 40
0.0
  0
LTYPE
  5
16
330
5
100
AcDbSymbolTableRecord
100
AcDbLinetypeTableRecord
  2
Continuous
 70
     0
  3
Solid line
 72
    65
 73
     0
 40
0.0
  0
LTYPE
  5
2A
330
5
100
AcDbSymbolTableRecord
100
AcDbLinetypeTableRecord
  2
DASHED
 70
     0
  3
Dashed
 72
    65
 73
     2
 40
15.0
 49
7.0
 74
     0
 49
-8.0
 74
     0
  0
LTYPE
  5
2E
330
5
100
AcDbSymbolTableRecord
100
AcDbLinetypeTableRecord
  2
DASH_CENTER
 70
     0
  3
Dash_Center
 72
    65
 73
     4
 40
14.0
 49
11.0
 74
     0
 49
-1.0
 74
     0
 49
1.0
 74
     0
 49
-1.0
 74
     0
  0
LTYPE
  5
30
330
5
100
AcDbSymbolTableRecord
100
AcDbLinetypeTableRecord
  2
CENTER_DASH_DASH
 70
     0
  3
Center_Dash_Dash
 72
    65
 73
     6
 40
14.0
 49
9.0
 74
     0
 49
-1.0
 74
     0
 49
1.0
 74
     0
 49
-1.0
 74
     0
 49
1.0
 74
     0
 49
-1.0
 74
     0
  0
ENDTAB
  0
TABLE
  2
LAYER
  5
2
330
0
100
AcDbSymbolTable
 70
     7
  0
LAYER
  5
10
102
{ACAD_XDICTIONARY
360
16F7
102
}
330
2
100
AcDbSymbolTableRecord
100
AcDbLayerTableRecord
  2
0
 70
     0
 62
     7
  6
Continuous
370
    -3
390
F
  0
LAYER
  5
32
102
{ACAD_XDICTIONARY
360
16F9
102
}
330
2
100
AcDbSymbolTableRecord
100
AcDbLayerTableRecord
  2
10
 70
     0
 62
     7
  6
Continuous
370
    -3
390
F
  0
LAYER
  5
33
102
{ACAD_XDICTIONARY
360
16FB
102
}
330
2
100
AcDbSymbolTableRecord
100
AcDbLayerTableRecord
  2
100
 70
     0
 62
     7
  6
Continuous
370
    -3
390
F
  0
LAYER
  5
34
102
{ACAD_XDICTIONARY
360
16FD
102
}
330
2
100
AcDbSymbolTableRecord
100
AcDbLayerTableRecord
  2
110
 70
     0
 62
     7
  6
Continuous
370
    -3
390
F
  0
LAYER
  5
35
102
{ACAD_XDICTIONARY
360
16FF
102
}
330
2
100
AcDbSymbolTableRecord
100
AcDbLayerTableRecord
  2
115
 70
     0
 62
     7
  6
Continuous
370
    -3
390
F
  0
LAYER
  5
36
102
{ACAD_XDICTIONARY
360
1701
102
}
330
2
100
AcDbSymbolTableRecord
100
AcDbLayerTableRecord
  2
60
 70
     0
 62
     7
  6
Continuous
370
    -3
390
F
  0
LAYER
  5
1169
330
2
100
AcDbSymbolTableRecord
100
AcDbLayerTableRecord
  2
Defpoints
 70
     0
 62
     7
  6
Continuous
290
     0
370
    -3
390
F
  0
ENDTAB
  0
TABLE
  2
STYLE
  5
3
330
0
100
AcDbSymbolTable
 70
     5
  0
STYLE
  5
11
330
3
100
AcDbSymbolTableRecord
100
AcDbTextStyleTableRecord
  2
Standard
 70
     0
 40
0.0
 41
1.0
 50
0.0
 71
     0
 42
0.2
  3
txt
  4

  0
STYLE
  5
2A5
330
3
100
AcDbSymbolTableRecord
100
AcDbTextStyleTableRecord
  2
CONVERTER_1
 70
     0
 40
0.0
 41
0.8009999999999999
 50
0.0
 71
     0
 42
0.2
  3
simplex.shx
  4
bigfont.shx
  0
STYLE
  5
720
330
3
100
AcDbSymbolTableRecord
100
AcDbTextStyleTableRecord
  2
CONVERTER_4
 70
     0
 40
0.0
 41
0.89
 50
0.0
 71
     0
 42
0.2
  3
simplex.shx
  4

  0
STYLE
  5
7A0
330
3
100
AcDbSymbolTableRecord
100
AcDbTextStyleTableRecord
  2
CONVERTER_5
 70
     0
 40
0.0
 41
0.8009999999999999
 50
0.0
 71
     0
 42
0.2
  3
simplex.shx
  4

  0
STYLE
  5
997
330
3
100
AcDbSymbolTableRecord
100
AcDbTextStyleTableRecord
  2
CONVERTER_10
 70
     0
 40
0.0
 41
0.6230000000000003
 50
0.0
 71
     0
 42
0.2
  3
txt.shx
  4

  0
ENDTAB
  0
TABLE
  2
VIEW
  5
6
330
0
100
AcDbSymbolTable
 70
     0
  0
ENDTAB
  0
TABLE
  2
UCS
  5
7
330
0
100
AcDbSymbolTable
 70
     0
  0
ENDTAB
  0
TABLE
  2
APPID
  5
9
330
0
100
AcDbSymbolTable
 70
     4
  0
APPID
  5
12
330
9
100
AcDbSymbolTableRecord
100
AcDbRegAppTableRecord
  2
ACAD
 70
     0
  0
APPID
  5
170B
330
9
100
AcDbSymbolTableRecord
100
AcDbRegAppTableRecord
  2
ACAD_NAV_VCDISPLAY
 70
     0
  0
APPID
  5
174A
330
9
100
AcDbSymbolTableRecord
100
AcDbRegAppTableRecord
  2
ACAD_MLEADERVER
 70
     0
  0
APPID
  5
1750
330
9
100
AcDbSymbolTableRecord
100
AcDbRegAppTableRecord
  2
ACAD_EXEMPT_FROM_CAD_STANDARDS
 70
     0
  0
ENDTAB
  0
TABLE
  2
DIMSTYLE
  5
A
330
0
100
AcDbSymbolTable
 70
     2
100
AcDbDimStyleTable
 71
     1
340
27
  0
DIMSTYLE
105
27
330
A
100
AcDbSymbolTableRecord
100
AcDbDimStyleTableRecord
  2
Standard
 70
     0
340
11
  0
ENDTAB
  0
TABLE
  2
BLOCK_RECORD
  5
1
330
0
100
AcDbSymbolTable
 70
     2
  0
BLOCK_RECORD
  5
1F
330
1
100
AcDbSymbolTableRecord
100
AcDbBlockTableRecord
  2
*Model_Space
340
22
  0
BLOCK_RECORD
  5
1B
330
1
100
AcDbSymbolTableRecord
100
AcDbBlockTableRecord
  2
*Paper_Space
340
1E
  0
BLOCK_RECORD
  5
23
330
1
100
AcDbSymbolTableRecord
100
AcDbBlockTableRecord
  2
*Paper_Space0
340
26
  0
ENDTAB
  0
ENDSEC
  0
SECTION
  2
BLOCKS
  0
BLOCK
  5
20
330
1F
100
AcDbEntity
  8
0
100
AcDbBlockBegin
  2
*Model_Space
 70
     0
 10
0.0
 20
0.0
 30
0.0
  3
*Model_Space
  1

  0
ENDBLK
  5
21
330
1F
100
AcDbEntity
  8
0
100
AcDbBlockEnd
  0
BLOCK
  5
1C
330
1B
100
AcDbEntity
 67
     1
  8
0
100
AcDbBlockBegin
  2
*Paper_Space
 70
     0
 10
0.0
 20
0.0
 30
0.0
  3
*Paper_Space
  1

  0
ENDBLK
  5
1D
330
1B
100
AcDbEntity
 67
     1
  8
0
100
AcDbBlockEnd
  0
BLOCK
  5
24
330
23
100
AcDbEntity
 67
     1
  8
0
100
AcDbBlockBegin
  2
*Paper_Space0
 70
     0
 10
0.0
 20
0.0
 30
0.0
  3
*Paper_Space0
  1

  0
ENDBLK
  5
25
330
23
100
AcDbEntity
 67
     1
  8
0
100
AcDbBlockEnd
  0
ENDSEC
  0
SECTION
  2
ENTITIES
  0
MTEXT
  5
A3E
330
1F
100
AcDbEntity
  8
0
 62
     2
100
AcDbMText
 10
411.0000000000011
 20
-481.9995154418491
 30
0.0
 40
12.0
 41
0.0
 71
     5
 72
     1
  1
 
  7
CONVERTER_4
 73
     1
 44
1.32052821128451
1001
ACAD
1000
MTEXTBEGIN
1070
    73
1070
     1
1070
    44
1040
1.32052821128451
1070
    74
1070
     0
1000
MTEXTEND
  0
MTEXT
  5
A3F
330
1F
100
AcDbEntity
  8
0
 62
     2
100
AcDbMText
 10
419.0000000000011
 20
-535.9993999999995
 30
0.0
 40
12.0
 41
0.0
 71
     5
 72
     1
  1
 
  7
CONVERTER_4
 73
     1
 44
1.32052821128451
1001
ACAD
1000
MTEXTBEGIN
1070
    73
1070
     1
1070
    44
1040
1.32052821128451
1070
    74
1070
     0
1000
MTEXTEND
  0
MTEXT
  5
A40
330
1F
100
AcDbEntity
  8
0
 62
     2
100
AcDbMText
 10
177.0004
 20
-559.9993999999996
 30
0.0
 40
8.0
 41
0.0
 71
     5
 72
     1
  1
 
  7
CONVERTER_10
 73
     1
 44
1.32052821128451
1001
ACAD
1000
MTEXTBEGIN
1070
    73
1070
     1
1070
    44
1040
1.32052821128451
1070
    74
1070
     0
1000
MTEXTEND
  0
MTEXT
  5
A41
330
1F
100
AcDbEntity
  8
0
 62
     2
100
AcDbMText
 10
99.00040000000004
 20
-559.9993999999996
 30
0.0
 40
8.0
 41
0.0
 71
     5
 72
     1
  1
 
  7
CONVERTER_10
 73
     1
 44
1.32052821128451
1001
ACAD
1000
MTEXTBEGIN
1070
    73
1070
     1
1070
    44
1040
1.32052821128451
1070
    74
1070
     0
1000
MTEXTEND
  0
MTEXT
  5
A42
330
1F
100
AcDbEntity
  8
0
 62
     2
100
AcDbMText
 10
255.0004
 20
-559.9993999999996
 30
0.0
 40
8.0
 41
0.0
 71
     5
 72
     1
  1
 
  7
CONVERTER_10
 73
     1
 44
1.32052821128451
1001
ACAD
1000
MTEXTBEGIN
1070
    73
1070
     1
1070
    44
1040
1.32052821128451
1070
    74
1070
     0
1000
MTEXTEND
  0
MTEXT
  5
A43
330
1F
100
AcDbEntity
  8
0
 62
     2
100
AcDbMText
 10
333.0004
 20
-559.9993999999996
 30
0.0
 40
8.0
 41
0.0
 71
     5
 72
     1
  1
 
  7
CONVERTER_10
 73
     1
 44
1.32052821128451
1001
ACAD
1000
MTEXTBEGIN
1070
    73
1070
     1
1070
    44
1040
1.32052821128451
1070
    74
1070
     0
1000
MTEXTEND
  0
MTEXT
  5
A44
330
1F
100
AcDbEntity
  8
0
 62
     2
100
AcDbMText
 10
411.0000000000011
 20
-559.9993999999996
 30
0.0
 40
8.0
 41
0.0
 71
     5
 72
     1
  1
 
  7
CONVERTER_10
 73
     1
 44
1.32052821128451
1001
ACAD
1000
MTEXTBEGIN
1070
    73
1070
     1
1070
    44
1040
1.32052821128451
1070
    74
1070
     0
1000
MTEXTEND
  0
MTEXT
  5
A45
330
1F
100
AcDbEntity
  8
0
 62
     2
100
AcDbMText
 10
185.0004
 20
-535.9993999999995
 30
0.0
 40
12.0
 41
0.0
 71
     5
 72
     1
  1
 
  7
CONVERTER_4
 73
     1
 44
1.32052821128451
1001
ACAD
1000
MTEXTBEGIN
1070
    73
1070
     1
1070
    44
1040
1.32052821128451
1070
    74
1070
     0
1000
MTEXTEND
  0
MTEXT
  5
A46
330
1F
100
AcDbEntity
  8
0
 62
     2
100
AcDbMText
 10
341.0004
 20
-535.9993999999995
 30
0.0
 40
12.0
 41
0.0
 71
     5
 72
     1
  1
 
  7
CONVERTER_4
 73
     1
 44
1.32052821128451
1001
ACAD
1000
MTEXTBEGIN
1070
    73
1070
     1
1070
    44
1040
1.32052821128451
1070
    74
1070
     0
1000
MTEXTEND
  0
MTEXT
  5
A47
330
1F
100
AcDbEntity
  8
0
 62
     2
100
AcDbMText
 10
263.0004
 20
-535.9993999999995
 30
0.0
 40
12.0
 41
0.0
 71
     5
 72
     1
  1
 
  7
CONVERTER_4
 73
     1
 44
1.32052821128451
1001
ACAD
1000
MTEXTBEGIN
1070
    73
1070
     1
1070
    44
1040
1.32052821128451
1070
    74
1070
     0
1000
MTEXTEND
  0
MTEXT
  5
A4F
330
1F
100
AcDbEntity
  8
0
 62
     2
100
AcDbMText
 10
411.0000000000011
 20
-510.9995720940504
 30
0.0
 40
8.0
 41
0.0
 71
     5
 72
     1
  1
 
  7
CONVERTER_10
 73
     1
 44
1.32052821128451
1001
ACAD
1000
MTEXTBEGIN
1070
    73
1070
     1
1070
    44
1040
1.32052821128451
1070
    74
1070
     0
1000
MTEXTEND
  0
TEXT
  5
A6A
330
1F
100
AcDbEntity
  8
0
 62
     2
100
AcDbText
 10
-199.9844606639245
 20
-196.7481288203478
 30
0.0
 40
16.0
  1
ABT3822P400W
 41
0.8009999999999999
  7
CONVERTER_5
100
AcDbText
  0
POINT
  5
CD2
330
1F
100
AcDbEntity
  8
115
 62
     2
100
AcDbPoint
 10
-289.009552808565
 20
-110.18780955414
 30
0.0
  0
POINT
  5
CD3
330
1F
100
AcDbEntity
  8
115
 62
   171
100
AcDbPoint
 10
-547.0050123407424
 20
21.12429543207608
 30
0.0
  0
LINE
  5
CD5
330
1F
100
AcDbEntity
  8
0
  6
DASHED
 62
   171
100
AcDbLine
 10
-520.9645528085652
 20
-90.68682019398952
 30
0.0
 11
-520.9645528085652
 21
-99.78770955413985
 31
0.0
  0
LINE
  5
CD6
330
1F
100
AcDbEntity
  8
0
  6
DASHED
 62
   171
100
AcDbLine
 10
-520.9645528085652
 20
-99.68879891429024
 30
0.0
 11
-522.8041528085651
 21
-99.52759891429025
 31
0.0
  0
LINE
  5
CD7
330
1F
100
AcDbEntity
  8
0
  6
DASHED
 62
   171
100
AcDbLine
 10
-519.6647528085653
 20
-99.78770955413981
 30
0.0
 11
-519.6647528085653
 21
-95.18780955413992
 31
0.0
  0
LINE
  5
CD8
330
1F
100
AcDbEntity
  8
0
  6
DASHED
 62
   171
100
AcDbLine
 10
-520.9645528085652
 20
-95.53620955414
 30
0.0
 11
-519.6647528085653
 21
-95.88460955414007
 31
0.0
  0
LINE
  5
CD9
330
1F
100
AcDbEntity
  8
0
  6
DASHED
 62
   171
100
AcDbLine
 10
-520.9645528085652
 20
-99.78770955413985
 30
0.0
 11
-519.6647528085653
 21
-99.78770955413981
 31
0.0
  0
LINE
  5
CDA
330
1F
100
AcDbEntity
  8
0
  6
DASHED
 62
   171
100
AcDbLine
 10
-524.2643528085652
 20
-95.18780955413971
 30
0.0
 11
-524.2643528085652
 21
-97.93389891429008
 31
0.0
  0
LINE
  5
CDB
330
1F
100
AcDbEntity
  8
0
  6
DASHED
 62
   171
100
AcDbLine
 10
-522.8041528085651
 20
-90.84802019398958
 30
0.0
 11
-520.9645528085652
 21
-90.68682019398952
 31
0.0
  0
LINE
  5
CDC
330
1F
100
AcDbEntity
  8
0
  6
DASHED
 62
   171
100
AcDbLine
 10
-519.6647528085653
 20
-95.18780955413992
 30
0.0
 11
-519.6647528085653
 21
-90.58790955414
 31
0.0
  0
LINE
  5
CDD
330
1F
100
AcDbEntity
  8
0
  6
DASHED
 62
   171
100
AcDbLine
 10
-520.9645528085652
 20
-94.83940955413981
 30
0.0
 11
-519.6647528085653
 21
-95.18780955413992
 31
0.0
  0
LINE
  5
CDE
330
1F
100
AcDbEntity
  8
0
  6
DASHED
 62
   171
100
AcDbLine
 10
-519.6647528085653
 20
-90.58790955414
 30
0.0
 11
-520.9645528085652
 21
-90.58790955414
 31
0.0
  0
LINE
  5
CDF
330
1F
100
AcDbEntity
  8
0
  6
DASHED
 62
   171
100
AcDbLine
 10
-524.2643528085652
 20
-92.4417201939897
 30
0.0
 11
-524.2643528085652
 21
-95.18780955413971
 31
0.0
  0
LINE
  5
CE0
330
1F
100
AcDbEntity
  8
0
  6
DASH_CENTER
 62
    30
100
AcDbLine
 10
-641.6647528085652
 20
44.81229044585997
 30
0.0
 11
-296.8996066583319
 21
44.81229044585996
 31
0.0
  0
LINE
  5
CE1
330
1F
100
AcDbEntity
  8
0
  6
Continuous
 62
     7
100
AcDbLine
 10
1.156136839389602
 20
40.31223727509818
 30
0.0
 11
-0.6834631606104155
 21
40.4734372750982
 31
0.0
  0
LINE
  5
CE2
330
1F
100
AcDbEntity
  8
60
  6
Continuous
 62
     7
100
AcDbLine
 10
173.156336839389
 20
-95.92750955414008
 30
0.0
 11
173.156336839389
 21
-44.59100955413999
 31
0.0
  0
LINE
  5
CE3
330
1F
100
AcDbEntity
  8
60
  6
Continuous
 62
     7
100
AcDbLine
 10
213.1563368393895
 20
-33.48070955413994
 30
0.0
 11
213.1563368393895
 21
-45.72130955414
 31
0.0
  0
LINE
  5
CE4
330
1F
100
AcDbEntity
  8
0
  6
Continuous
 62
     7
100
AcDbLine
 10
236.4973714083851
 20
-35.74662328336729
 30
0.0
 11
236.4973714083851
 21
-34.74662328336729
 31
0.0
  0
LINE
  5
CE5
330
1F
100
AcDbEntity
  8
0
  6
Continuous
 62
     7
100
AcDbLine
 10
231.697571408385
 20
-35.74662328336729
 30
0.0
 11
231.697571408385
 21
-34.74662328336729
 31
0.0
  0
LINE
  5
CE6
330
1F
100
AcDbEntity
  8
0
  6
Continuous
 62
     7
100
AcDbLine
 10
233.597471408385
 20
-37.64652328336741
 30
0.0
 11
234.5974714083851
 21
-37.64652328336741
 31
0.0
  0
LINE
  5
CE7
330
1F
100
AcDbEntity
  8
0
  6
Continuous
 62
     7
100
AcDbLine
 10
233.597471408385
 20
-32.84672328336743
 30
0.0
 11
234.5974714083851
 21
-32.84672328336743
 31
0.0
  0
LINE
  5
CE8
330
1F
100
AcDbEntity
  8
0
  6
Continuous
 62
     7
100
AcDbLine
 10
235.0974714083851
 20
-35.74662328336729
 30
0.0
 11
236.4973714083851
 21
-35.74662328336729
 31
0.0
  0
LINE
  5
CE9
330
1F
100
AcDbEntity
  8
0
  6
Continuous
 62
     7
100
AcDbLine
 10
234.5974714083851
 20
-34.24662328336729
 30
0.0
 11
234.5974714083851
 21
-32.84672328336743
 31
0.0
  0
LINE
  5
CEA
330
1F
100
AcDbEntity
  8
0
  6
Continuous
 62
     7
100
AcDbLine
 10
233.597471408385
 20
-34.24662328336729
 30
0.0
 11
233.597471408385
 21
-32.84672328336743
 31
0.0
  0
LINE
  5
CEB
330
1F
100
AcDbEntity
  8
0
  6
Continuous
 62
     7
100
AcDbLine
 10
235.0974714083851
 20
-34.74662328336729
 30
0.0
 11
236.4973714083851
 21
-34.74662328336729
 31
0.0
  0
LINE
  5
CEC
330
1F
100
AcDbEntity
  8
0
  6
Continuous
 62
     7
100
AcDbLine
 10
234.5974714083851
 20
-37.64652328336741
 30
0.0
 11
234.5974714083851
 21
-36.24662328336729
 31
0.0
  0
LINE
  5
CED
330
1F
100
AcDbEntity
  8
0
  6
Continuous
 62
     7
100
AcDbLine
 10
233.597471408385
 20
-37.64652328336741
 30
0.0
 11
233.597471408385
 21
-36.24662328336729
 31
0.0
  0
LINE
  5
CEE
330
1F
100
AcDbEntity
  8
0
  6
Continuous
 62
     7
100
AcDbLine
 10
231.697571408385
 20
-35.74662328336729
 30
0.0
 11
233.0974714083851
 21
-35.74662328336729
 31
0.0
  0
LINE
  5
CEF
330
1F
100
AcDbEntity
  8
0
  6
Continuous
 62
     7
100
AcDbLine
 10
231.697571408385
 20
-34.74662328336729
 30
0.0
 11
233.0974714083851
 21
-34.74662328336729
 31
0.0
  0
LINE
  5
CF0
330
1F
100
AcDbEntity
  8
100
  6
DASH_CENTER
 62
    30
100
AcDbLine
 10
240.0582368393895
 20
-29.28590955414017
 30
0.0
 11
228.5279368393895
 21
-40.81610955414005
 31
0.0
  0
LINE
  5
CF1
330
1F
100
AcDbEntity
  8
0
  6
Continuous
 62
     7
100
AcDbLine
 10
233.5972231101623
 20
-105.5289441231357
 30
0.0
 11
234.5972231101622
 21
-105.5289441231357
 31
0.0
  0
LINE
  5
CF2
330
1F
100
AcDbEntity
  8
0
  6
Continuous
 62
     7
100
AcDbLine
 10
233.5972231101623
 20
-100.7291441231357
 30
0.0
 11
234.5972231101622
 21
-100.7291441231357
 31
0.0
  0
LINE
  5
CF3
330
1F
100
AcDbEntity
  8
0
  6
Continuous
 62
     7
100
AcDbLine
 10
231.6973231101623
 20
-102.6290441231356
 30
0.0
 11
231.6973231101623
 21
-103.6290441231356
 31
0.0
  0
LINE
  5
CF4
330
1F
100
AcDbEntity
  8
0
  6
Continuous
 62
     7
100
AcDbLine
 10
236.4971231101622
 20
-102.6290441231356
 30
0.0
 11
236.4971231101622
 21
-103.6290441231356
 31
0.0
  0
LINE
  5
CF5
330
1F
100
AcDbEntity
  8
0
  6
Continuous
 62
     7
100
AcDbLine
 10
233.5972231101623
 20
-104.1290441231355
 30
0.0
 11
233.5972231101623
 21
-105.5289441231357
 31
0.0
  0
LINE
  5
CF6
330
1F
100
AcDbEntity
  8
0
  6
Continuous
 62
     7
100
AcDbLine
 10
235.0972231101622
 20
-103.6290441231356
 30
0.0
 11
236.4971231101622
 21
-103.6290441231356
 31
0.0
  0
LINE
  5
CF7
330
1F
100
AcDbEntity
  8
0
  6
Continuous
 62
     7
100
AcDbLine
 10
235.0972231101622
 20
-102.6290441231356
 30
0.0
 11
236.4971231101622
 21
-102.6290441231356
 31
0.0
  0
LINE
  5
CF8
330
1F
100
AcDbEntity
  8
0
  6
Continuous
 62
     7
100
AcDbLine
 10
234.5972231101622
 20
-104.1290441231355
 30
0.0
 11
234.5972231101622
 21
-105.5289441231357
 31
0.0
  0
LINE
  5
CF9
330
1F
100
AcDbEntity
  8
0
  6
Continuous
 62
     7
100
AcDbLine
 10
231.6973231101623
 20
-103.6290441231356
 30
0.0
 11
233.0972231101622
 21
-103.6290441231356
 31
0.0
  0
LINE
  5
CFA
330
1F
100
AcDbEntity
  8
0
  6
Continuous
 62
     7
100
AcDbLine
 10
231.6973231101623
 20
-102.6290441231356
 30
0.0
 11
233.0972231101622
 21
-102.6290441231356
 31
0.0
  0
LINE
  5
CFB
330
1F
100
AcDbEntity
  8
0
  6
Continuous
 62
     7
100
AcDbLine
 10
233.5972231101623
 20
-100.7291441231357
 30
0.0
 11
233.5972231101623
 21
-102.1290441231355
 31
0.0
  0
LINE
  5
CFC
330
1F
100
AcDbEntity
  8
0
  6
Continuous
 62
     7
100
AcDbLine
 10
234.5972231101622
 20
-100.7291441231357
 30
0.0
 11
234.5972231101622
 21
-102.1290441231355
 31
0.0
  0
LINE
  5
CFD
330
1F
100
AcDbEntity
  8
100
  6
DASH_CENTER
 62
    30
100
AcDbLine
 10
240.0579368393894
 20
-109.08980955414
 30
0.0
 11
228.5277368393896
 21
-97.55950955414014
 31
0.0
  0
LINE
  5
CFE
330
1F
100
AcDbEntity
  8
0
  6
Continuous
 62
     7
100
AcDbLine
 10
163.814902270394
 20
-102.6287958249129
 30
0.0
 11
163.814902270394
 21
-103.6287958249129
 31
0.0
  0
LINE
  5
CFF
330
1F
100
AcDbEntity
  8
0
  6
Continuous
 62
     7
100
AcDbLine
 10
168.614702270394
 20
-102.6287958249129
 30
0.0
 11
168.614702270394
 21
-103.6287958249129
 31
0.0
  0
LINE
  5
D00
330
1F
100
AcDbEntity
  8
0
  6
Continuous
 62
     7
100
AcDbLine
 10
166.714802270394
 20
-100.7288958249127
 30
0.0
 11
165.714802270394
 21
-100.7288958249127
 31
0.0
  0
LINE
  5
D01
330
1F
100
AcDbEntity
  8
0
  6
Continuous
 62
     7
100
AcDbLine
 10
166.714802270394
 20
-105.5286958249127
 30
0.0
 11
165.714802270394
 21
-105.5286958249127
 31
0.0
  0
LINE
  5
D02
330
1F
100
AcDbEntity
  8
0
  6
Continuous
 62
     7
100
AcDbLine
 10
165.214802270394
 20
-102.6287958249129
 30
0.0
 11
163.814902270394
 21
-102.6287958249129
 31
0.0
  0
LINE
  5
D03
330
1F
100
AcDbEntity
  8
0
  6
Continuous
 62
     7
100
AcDbLine
 10
165.714802270394
 20
-104.1287958249129
 30
0.0
 11
165.714802270394
 21
-105.5286958249127
 31
0.0
  0
LINE
  5
D04
330
1F
100
AcDbEntity
  8
0
  6
Continuous
 62
     7
100
AcDbLine
 10
166.714802270394
 20
-104.1287958249129
 30
0.0
 11
166.714802270394
 21
-105.5286958249127
 31
0.0
  0
LINE
  5
D05
330
1F
100
AcDbEntity
  8
0
  6
Continuous
 62
     7
100
AcDbLine
 10
165.214802270394
 20
-103.6287958249129
 30
0.0
 11
163.814902270394
 21
-103.6287958249129
 31
0.0
  0
LINE
  5
D06
330
1F
100
AcDbEntity
  8
0
  6
Continuous
 62
     7
100
AcDbLine
 10
165.714802270394
 20
-100.7288958249127
 30
0.0
 11
165.714802270394
 21
-102.1287958249128
 31
0.0
  0
LINE
  5
D07
330
1F
100
AcDbEntity
  8
0
  6
Continuous
 62
     7
100
AcDbLine
 10
166.714802270394
 20
-100.7288958249127
 30
0.0
 11
166.714802270394
 21
-102.1287958249128
 31
0.0
  0
LINE
  5
D08
330
1F
100
AcDbEntity
  8
0
  6
Continuous
 62
     7
100
AcDbLine
 10
168.614702270394
 20
-102.6287958249129
 30
0.0
 11
167.214802270394
 21
-102.6287958249129
 31
0.0
  0
LINE
  5
D09
330
1F
100
AcDbEntity
  8
0
  6
Continuous
 62
     7
100
AcDbLine
 10
168.614702270394
 20
-103.6287958249129
 30
0.0
 11
167.214802270394
 21
-103.6287958249129
 31
0.0
  0
LINE
  5
D0A
330
1F
100
AcDbEntity
  8
100
  6
DASH_CENTER
 62
    30
100
AcDbLine
 10
160.2540368393895
 20
-109.0895095541399
 30
0.0
 11
171.7843368393894
 21
-97.55930955414008
 31
0.0
  0
LINE
  5
D0B
330
1F
100
AcDbEntity
  8
0
  6
Continuous
 62
     7
100
AcDbLine
 10
166.7150505686168
 20
-32.84647498514449
 30
0.0
 11
165.7150505686168
 21
-32.84647498514449
 31
0.0
  0
LINE
  5
D0C
330
1F
100
AcDbEntity
  8
0
  6
Continuous
 62
     7
100
AcDbLine
 10
166.7150505686168
 20
-37.6462749851445
 30
0.0
 11
165.7150505686168
 21
-37.6462749851445
 31
0.0
  0
LINE
  5
D0D
330
1F
100
AcDbEntity
  8
0
  6
Continuous
 62
     7
100
AcDbLine
 10
168.614950568617
 20
-35.74637498514461
 30
0.0
 11
168.614950568617
 21
-34.74637498514461
 31
0.0
  0
LINE
  5
D0E
330
1F
100
AcDbEntity
  8
0
  6
Continuous
 62
     7
100
AcDbLine
 10
163.8151505686168
 20
-35.74637498514461
 30
0.0
 11
163.8151505686168
 21
-34.74637498514461
 31
0.0
  0
LINE
  5
D0F
330
1F
100
AcDbEntity
  8
0
  6
Continuous
 62
     7
100
AcDbLine
 10
166.7150505686168
 20
-34.2463749851446
 30
0.0
 11
166.7150505686168
 21
-32.84647498514449
 31
0.0
  0
LINE
  5
D10
330
1F
100
AcDbEntity
  8
0
  6
Continuous
 62
     7
100
AcDbLine
 10
165.2150505686168
 20
-34.74637498514461
 30
0.0
 11
163.8151505686168
 21
-34.74637498514461
 31
0.0
  0
LINE
  5
D11
330
1F
100
AcDbEntity
  8
0
  6
Continuous
 62
     7
100
AcDbLine
 10
165.2150505686168
 20
-35.74637498514461
 30
0.0
 11
163.8151505686168
 21
-35.74637498514461
 31
0.0
  0
LINE
  5
D12
330
1F
100
AcDbEntity
  8
0
  6
Continuous
 62
     7
100
AcDbLine
 10
165.7150505686168
 20
-34.2463749851446
 30
0.0
 11
165.7150505686168
 21
-32.84647498514449
 31
0.0
  0
LINE
  5
D13
330
1F
100
AcDbEntity
  8
0
  6
Continuous
 62
     7
100
AcDbLine
 10
168.614950568617
 20
-34.74637498514461
 30
0.0
 11
167.2150505686168
 21
-34.74637498514461
 31
0.0
  0
LINE
  5
D14
330
1F
100
AcDbEntity
  8
0
  6
Continuous
 62
     7
100
AcDbLine
 10
168.614950568617
 20
-35.74637498514461
 30
0.0
 11
167.2150505686168
 21
-35.74637498514461
 31
0.0
  0
LINE
  5
D15
330
1F
100
AcDbEntity
  8
0
  6
Continuous
 62
     7
100
AcDbLine
 10
166.7150505686168
 20
-37.6462749851445
 30
0.0
 11
166.7150505686168
 21
-36.24637498514462
 31
0.0
  0
LINE
  5
D16
330
1F
100
AcDbEntity
  8
0
  6
Continuous
 62
     7
100
AcDbLine
 10
165.7150505686168
 20
-37.6462749851445
 30
0.0
 11
165.7150505686168
 21
-36.24637498514462
 31
0.0
  0
LINE
  5
D17
330
1F
100
AcDbEntity
  8
0
  6
DASH_CENTER
 62
    30
100
AcDbLine
 10
81.26429767300789
 20
-96.34985037100348
 30
0.0
 11
115.2653011875556
 21
-96.34985037100348
 31
0.0
  0
LINE
  5
D18
330
1F
100
AcDbEntity
  8
0
  6
Continuous
 62
     7
100
AcDbLine
 10
110.3562368393895
 20
-98.84970037100352
 30
0.0
 11
110.3562368393895
 21
-93.85000037100343
 31
0.0
  0
LINE
  5
D19
330
1F
100
AcDbEntity
  8
0
  6
Continuous
 62
     7
100
AcDbLine
 10
109.8562368393895
 20
-99.34970037100356
 30
0.0
 11
110.3562368393895
 21
-98.84970037100352
 31
0.0
  0
LINE
  5
D1A
330
1F
100
AcDbEntity
  8
0
  6
Continuous
 62
     7
100
AcDbLine
 10
109.8562368393895
 20
-93.35000037100346
 30
0.0
 11
110.3562368393895
 21
-93.85000037100343
 31
0.0
  0
LINE
  5
D1B
330
1F
100
AcDbEntity
  8
0
  6
Continuous
 62
     7
100
AcDbLine
 10
109.8562368393895
 20
-93.35000037100346
 30
0.0
 11
109.8562368393895
 21
-99.34970037100356
 31
0.0
  0
LINE
  5
D1C
330
1F
100
AcDbEntity
  8
0
  6
DASH_CENTER
 62
    30
100
AcDbLine
 10
-6.799531607317218
 20
-24.18770955414008
 30
0.0
 11
17.21310958124911
 21
-24.18770955414008
 31
0.0
  0
LINE
  5
D1D
330
1F
100
AcDbEntity
  8
0
  6
Continuous
 62
     7
100
AcDbLine
 10
1.156136839389602
 20
-28.68776272490191
 30
0.0
 11
-0.6834631606104155
 21
-28.5265627249019
 31
0.0
  0
LINE
  5
D1E
330
1F
100
AcDbEntity
  8
0
  6
Continuous
 62
     7
100
AcDbLine
 10
1.156136839389602
 20
-19.68776272490191
 30
0.0
 11
-0.6834631606104155
 21
-19.84866272490175
 31
0.0
  0
LINE
  5
D1F
330
1F
100
AcDbEntity
  8
0
  6
Continuous
 62
     7
100
AcDbLine
 10
-2.143663160610314
 20
-26.93286272490177
 30
0.0
 11
-2.143663160610314
 21
-21.4426627249018
 31
0.0
  0
LINE
  5
D20
330
1F
100
AcDbEntity
  8
0
  6
Continuous
 62
     7
100
AcDbLine
 10
1.156136839389602
 20
-19.68776272490191
 30
0.0
 11
1.156136839389602
 21
-28.68776272490191
 31
0.0
  0
LINE
  5
D21
330
1F
100
AcDbEntity
  8
0
  6
Continuous
 62
     7
100
AcDbLine
 10
-34.8438631606104
 20
102.81229044586
 30
0.0
 11
-34.8438631606104
 21
104.31229044586
 31
0.0
  0
LINE
  5
D22
330
1F
100
AcDbEntity
  8
0
  6
Continuous
 62
     7
100
AcDbLine
 10
-0.8438631606103966
 20
105.81229044586
 30
0.0
 11
-33.3438631606104
 21
105.81229044586
 31
0.0
  0
LINE
  5
D23
330
1F
100
AcDbEntity
  8
0
  6
Continuous
 62
     7
100
AcDbLine
 10
1.156136839389602
 20
44.81229044585996
 30
0.0
 11
1.156136839389602
 21
-28.18770955414008
 31
0.0
  0
LINE
  5
D24
330
1F
100
AcDbEntity
  8
0
  6
Continuous
 62
     7
100
AcDbLine
 10
3.156136839389603
 20
-30.18770955414008
 30
0.0
 11
5.156136839389604
 21
-30.18770955414008
 31
0.0
  0
LINE
  5
D25
330
1F
100
AcDbEntity
  8
0
  6
Continuous
 62
     7
100
AcDbLine
 10
-34.8438631606104
 20
-14.68770955413996
 30
0.0
 11
-34.8438631606104
 21
44.81229044585996
 31
0.0
  0
LINE
  5
D26
330
1F
100
AcDbEntity
  8
0
  6
Continuous
 62
     7
100
AcDbLine
 10
-33.3438631606104
 20
-16.18770955413996
 30
0.0
 11
-0.8438631606103966
 21
-16.18770955413999
 31
0.0
  0
LINE
  5
D27
330
1F
100
AcDbEntity
  8
0
  6
Continuous
 62
     7
100
AcDbLine
 10
90.35623683938949
 20
-103.3498503710035
 30
0.0
 11
104.8562368393895
 21
-103.3498503710035
 31
0.0
  0
LINE
  5
D28
330
1F
100
AcDbEntity
  8
0
  6
Continuous
 62
     7
100
AcDbLine
 10
90.35623683938949
 20
-86.62920856729583
 30
0.0
 11
104.8562368393895
 21
-86.62920856729583
 31
0.0
  0
LINE
  5
D29
330
1F
100
AcDbEntity
  8
0
  6
Continuous
 62
     7
100
AcDbLine
 10
90.35623683938949
 20
34.60314298898275
 30
0.0
 11
104.8562368393894
 21
34.60314298898275
 31
0.0
  0
LINE
  5
D2A
330
1F
100
AcDbEntity
  8
0
  6
Continuous
 62
     7
100
AcDbLine
 10
5.156136839389604
 20
44.81229044585997
 30
0.0
 11
5.156136839389604
 21
-30.18770955414008
 31
0.0
  0
LINE
  5
D2B
330
1F
100
AcDbEntity
  8
0
  6
Continuous
 62
     7
100
AcDbLine
 10
21.1561368393896
 20
44.81229044585997
 30
0.0
 11
21.1561368393896
 21
-100.18770955414
 31
0.0
  0
LINE
  5
D2C
330
1F
100
AcDbEntity
  8
0
  6
Continuous
 62
     7
100
AcDbLine
 10
90.35623683938949
 20
-111.8890891837486
 30
0.0
 11
90.35623683938949
 21
44.81229044585989
 31
0.0
  0
LINE
  5
D2D
330
1F
100
AcDbEntity
  8
0
  6
Continuous
 62
     7
100
AcDbLine
 10
97.55623683938948
 20
-113.1877095541401
 30
0.0
 11
92.22922018559687
 21
-113.1877095541401
 31
0.0
  0
LINE
  5
D2E
330
1F
100
AcDbEntity
  8
0
  6
Continuous
 62
     7
100
AcDbLine
 10
88.35623683938951
 20
-110.1877095541402
 30
0.0
 11
31.1561368393896
 21
-110.1877095541401
 31
0.0
  0
LINE
  5
D2F
330
1F
100
AcDbEntity
  8
0
  6
Continuous
 62
     7
100
AcDbLine
 10
5.156136839389604
 20
-30.18770955414008
 30
0.0
 11
18.1561368393896
 21
-30.18770955414008
 31
0.0
  0
LINE
  5
D30
330
1F
100
AcDbEntity
  8
10
  6
Continuous
 62
     7
100
AcDbLine
 10
97.55623683938948
 20
-113.1877095541401
 30
0.0
 11
102.9831368393896
 21
-113.1877095541401
 31
0.0
  0
LINE
  5
D31
330
1F
100
AcDbEntity
  8
10
  6
Continuous
 62
     7
100
AcDbLine
 10
97.55623683938948
 20
-113.1877095541401
 30
0.0
 11
97.55623683938948
 21
44.81229044585989
 31
0.0
  0
LINE
  5
D32
330
1F
100
AcDbEntity
  8
10
  6
Continuous
 62
     7
100
AcDbLine
 10
161.8561368393895
 20
-113.1877095541401
 30
0.0
 11
161.8561368393895
 21
-112.1877095541401
 31
0.0
  0
LINE
  5
D33
330
1F
100
AcDbEntity
  8
0
  6
Continuous
 62
     7
100
AcDbLine
 10
159.8561368393895
 20
-110.1877095541401
 30
0.0
 11
106.8562368393895
 21
-110.1877095541401
 31
0.0
  0
LINE
  5
D34
330
1F
100
AcDbEntity
  8
10
  6
Continuous
 62
     7
100
AcDbLine
 10
169.3561368393895
 20
-24.83274011417765
 30
0.0
 11
169.3561368393895
 21
44.81229044585993
 31
0.0
  0
LINE
  5
D35
330
1F
100
AcDbEntity
  8
100
  6
DASH_CENTER
 62
    30
100
AcDbLine
 10
160.2543368393896
 20
-29.28560955414003
 30
0.0
 11
171.7845368393895
 21
-40.81590955413992
 31
0.0
  0
LINE
  5
D36
330
1F
100
AcDbEntity
  8
0
  6
Continuous
 62
     7
100
AcDbLine
 10
224.1561368393895
 20
184.8122904458599
 30
0.0
 11
224.1561368393895
 21
155.78289044586
 31
0.0
  0
LINE
  5
D37
330
1F
100
AcDbEntity
  8
0
  6
Continuous
 62
     7
100
AcDbLine
 10
209.1561368393895
 20
199.8122904458599
 30
0.0
 11
181.3561368393895
 21
199.8122904458599
 31
0.0
  0
LINE
  5
D38
330
1F
100
AcDbEntity
  8
0
  6
Continuous
 62
     7
100
AcDbLine
 10
224.1561368393895
 20
-20.81412880989496
 30
0.0
 11
224.1561368393895
 21
44.81229044585993
 31
0.0
  0
LINE
  5
D39
330
1F
100
AcDbEntity
  8
0
  6
Continuous
 62
     7
100
AcDbLine
 10
179.3561368393895
 20
-19.35435411804685
 30
0.0
 11
179.3561368393895
 21
44.81229044585997
 31
0.0
  0
LINE
  5
D3A
330
1F
100
AcDbEntity
  8
100
  6
DASH_CENTER
 62
    30
100
AcDbLine
 10
200.1561368393895
 20
-130.5410130845162
 30
0.0
 11
200.1561368393895
 21
-7.834406023763811
 31
0.0
  0
LINE
  5
D3B
330
1F
100
AcDbEntity
  8
100
  6
DASH_CENTER
 62
    30
100
AcDbLine
 10
260.9905697829467
 20
-69.18770955414004
 30
0.0
 11
138.8028333090133
 21
-69.18770955414004
 31
0.0
  0
LINE
  5
D3C
330
1F
100
AcDbEntity
  8
10
  6
Continuous
 62
     7
100
AcDbLine
 10
169.3561368393895
 20
-113.1877095541401
 30
0.0
 11
161.8561368393895
 21
-113.1877095541401
 31
0.0
  0
LINE
  5
D3D
330
1F
100
AcDbEntity
  8
0
  6
Continuous
 62
     7
100
AcDbLine
 10
162.0561368393894
 20
34.60314298898275
 30
0.0
 11
179.3561368393895
 21
34.60314298898275
 31
0.0
  0
LINE
  5
D3E
330
1F
100
AcDbEntity
  8
10
  6
Continuous
 62
     7
100
AcDbLine
 10
169.3561368393895
 20
-24.83274011417765
 30
0.0
 11
169.3561368393895
 21
44.81229044585993
 31
0.0
  0
LINE
  5
D3F
330
1F
100
AcDbEntity
  8
10
  6
Continuous
 62
     7
100
AcDbLine
 10
162.0561368393894
 20
-113.1877095541401
 30
0.0
 11
162.0561368393894
 21
-112.1877095541401
 31
0.0
  0
LINE
  5
D40
330
1F
100
AcDbEntity
  8
10
  6
Continuous
 62
     7
100
AcDbLine
 10
169.3561368393895
 20
-113.1877095541401
 30
0.0
 11
162.0561368393894
 21
-113.1877095541401
 31
0.0
  0
LINE
  5
D41
330
1F
100
AcDbEntity
  8
0
  6
Continuous
 62
     7
100
AcDbLine
 10
176.8562368393896
 20
34.60314298898275
 30
0.0
 11
161.8561368393895
 21
34.60314298898275
 31
0.0
  0
LINE
  5
D42
330
1F
100
AcDbEntity
  8
10
  6
Continuous
 62
     7
100
AcDbLine
 10
162.0561368393894
 20
-112.1877095541401
 30
0.0
 11
162.0561368393894
 21
-107.4551018616907
 31
0.0
  0
LINE
  5
D43
330
1F
100
AcDbEntity
  8
10
  6
Continuous
 62
     7
100
AcDbLine
 10
162.0561368393894
 20
-30.92031724658933
 30
0.0
 11
162.0561368393894
 21
44.81229044585997
 31
0.0
  0
LINE
  5
D44
330
1F
100
AcDbEntity
  8
0
  6
Continuous
 62
     7
100
AcDbLine
 10
229.1561368393906
 20
44.81219044586011
 30
0.0
 11
229.1561368393881
 21
-21.29188595499678
 31
0.0
  0
LINE
  5
D45
330
1F
100
AcDbEntity
  8
0
  6
Continuous
 62
     7
100
AcDbLine
 10
230.2551995535524
 20
121.7960657120932
 30
0.0
 11
278.2715907937914
 21
121.008911757336
 31
0.0
  0
LINE
  5
D46
330
1F
100
AcDbEntity
  8
0
  6
Continuous
 62
     7
100
AcDbLine
 10
351.8284216838883
 20
119.6729827233362
 30
0.0
 11
377.4842689189734
 21
113.2590209145642
 31
0.0
  0
LINE
  5
D47
330
1F
100
AcDbEntity
  8
0
  6
Continuous
 62
     7
100
AcDbLine
 10
228.2715907937914
 20
123.8121904458601
 30
0.0
 11
224.1561368393895
 21
123.8121904458601
 31
0.0
  0
LINE
  5
D48
330
1F
100
AcDbEntity
  8
0
  6
Continuous
 62
     7
100
AcDbLine
 10
278.2715907937914
 20
121.008911757336
 30
0.0
 11
350.6976997599033
 21
119.8215984955962
 31
0.0
  0
LINE
  5
D49
330
1F
100
AcDbEntity
  8
0
  6
Continuous
 62
     7
100
AcDbLine
 10
229.2715907937914
 20
122.8121904458601
 30
0.0
 11
229.2715907937914
 21
122.7959313666911
 31
0.0
  0
LINE
  5
D4A
330
1F
100
AcDbEntity
  8
0
  6
Continuous
 62
     7
100
AcDbLine
 10
377.4842689189734
 20
-23.63464002284489
 30
0.0
 11
351.8284216838883
 21
-30.04860183161484
 31
0.0
  0
LINE
  5
D4B
330
1F
100
AcDbEntity
  8
0
  6
Continuous
 62
     7
100
AcDbLine
 10
381.271590793791
 20
44.81219044586011
 30
0.0
 11
381.271590793791
 21
-18.78392752211787
 31
0.0
  0
LINE
  5
D4C
330
1F
100
AcDbEntity
  8
0
  6
Continuous
 62
     7
100
AcDbLine
 10
329.1561368393882
 20
-28.18780955413988
 30
0.0
 11
329.1561368393882
 21
-18.66980696139282
 31
0.0
  0
LINE
  5
D4D
330
1F
100
AcDbEntity
  8
0
  6
Continuous
 62
     7
100
AcDbLine
 10
351.2715907937915
 20
44.81219044586011
 30
0.0
 11
351.2715907937915
 21
-30.18780955413986
 31
0.0
  0
LINE
  5
D4E
330
1F
100
AcDbEntity
  8
0
  6
Continuous
 62
     7
100
AcDbLine
 10
253.1561368393895
 20
-28.18780955413994
 30
0.0
 11
253.1561368393895
 21
-29.32783965829408
 31
0.0
  0
LINE
  5
D56
330
1F
100
AcDbEntity
  8
0
  6
Continuous
 62
     7
100
AcDbLine
 10
381.271590793791
 20
108.4083084138381
 30
0.0
 11
381.271590793791
 21
44.81219044586011
 31
0.0
  0
LINE
  5
D57
330
1F
100
AcDbEntity
  8
0
  6
Continuous
 62
     7
100
AcDbLine
 10
230.6561368393886
 20
-20.54188595499679
 30
0.0
 11
232.8216368393885
 21
-20.35248595499682
 31
0.0
  0
LINE
  5
D58
330
1F
100
AcDbEntity
  8
0
  6
Continuous
 62
     7
100
AcDbLine
 10
230.6561368393886
 20
-10.04188595499678
 30
0.0
 11
232.8216368393885
 21
-10.23138595499696
 31
0.0
  0
LINE
  5
D59
330
1F
100
AcDbEntity
  8
0
  6
Continuous
 62
     7
100
AcDbLine
 10
234.5560368393888
 20
-12.12418595499682
 30
0.0
 11
234.5560368393888
 21
-18.45968595499691
 31
0.0
  0
LINE
  5
D5A
330
1F
100
AcDbEntity
  8
0
  6
Continuous
 62
     7
100
AcDbLine
 10
230.6561368393886
 20
-10.04188595499678
 30
0.0
 11
230.6561368393886
 21
-20.54188595499679
 31
0.0
  0
LINE
  5
D5B
330
1F
100
AcDbEntity
  8
0
  6
Continuous
 62
     7
100
AcDbLine
 10
230.6561368393886
 20
-9.191985954996802
 30
0.0
 11
229.1561368393886
 21
-9.191985954996802
 31
0.0
  0
LINE
  5
D5C
330
1F
100
AcDbEntity
  8
0
  6
Continuous
 62
     7
100
AcDbLine
 10
230.6561368393886
 20
-21.39198595499668
 30
0.0
 11
229.1561368393886
 21
-21.39198595499668
 31
0.0
  0
LINE
  5
D5D
330
1F
100
AcDbEntity
  8
0
  6
Continuous
 62
     7
100
AcDbLine
 10
230.6561368393886
 20
-14.88998595499672
 30
0.0
 11
229.1561368393886
 21
-15.29188595499678
 31
0.0
  0
LINE
  5
D5E
330
1F
100
AcDbEntity
  8
0
  6
Continuous
 62
     7
100
AcDbLine
 10
230.6561368393886
 20
-15.29188595499678
 30
0.0
 11
229.1561368393886
 21
-15.69378595499686
 31
0.0
  0
LINE
  5
D5F
330
1F
100
AcDbEntity
  8
0
  6
Continuous
 62
     7
100
AcDbLine
 10
230.6561368393886
 20
-9.191985954996802
 30
0.0
 11
230.6561368393886
 21
-14.88998595499672
 31
0.0
  0
LINE
  5
D60
330
1F
100
AcDbEntity
  8
0
  6
Continuous
 62
     7
100
AcDbLine
 10
230.6561368393886
 20
-15.29188595499678
 30
0.0
 11
230.6561368393886
 21
-21.39198595499668
 31
0.0
  0
LINE
  5
D61
330
1F
100
AcDbEntity
  8
0
  6
Continuous
 62
     7
100
AcDbLine
 10
229.1561368393886
 20
-9.191985954996802
 30
0.0
 11
229.1561368393886
 21
-15.29188595499678
 31
0.0
  0
LINE
  5
D62
330
1F
100
AcDbEntity
  8
0
  6
Continuous
 62
     7
100
AcDbLine
 10
229.1561368393886
 20
-15.69378595499686
 30
0.0
 11
229.1561368393886
 21
-21.39198595499668
 31
0.0
  0
LINE
  5
D63
330
1F
100
AcDbEntity
  8
0
  6
Continuous
 62
     7
100
AcDbLine
 10
234.5560368393888
 20
-17.66980696139282
 30
0.0
 11
329.5381028506382
 21
-17.66980696139282
 31
0.0
  0
LINE
  5
D66
330
1F
100
AcDbEntity
  8
0
  6
Continuous
 62
     7
100
AcDbLine
 10
253.1561368393895
 20
-30.59459382310699
 30
0.0
 11
253.1561368393895
 21
-31.32678066902528
 31
0.0
  0
LINE
  5
D67
330
1F
100
AcDbEntity
  8
0
  6
Continuous
 62
     7
100
AcDbLine
 10
253.1561368393895
 20
-29.32783965829408
 30
0.0
 11
253.1561368393895
 21
-30.59459382310699
 31
0.0
  0
LINE
  5
D68
330
1F
100
AcDbEntity
  8
0
  6
Continuous
 62
     7
100
AcDbLine
 10
329.1561368393882
 20
-28.18780955413988
 30
0.0
 11
329.1561368393882
 21
-30.48780955413989
 31
0.0
  0
LINE
  5
D69
330
1F
100
AcDbEntity
  8
0
  6
Continuous
 62
     7
100
AcDbLine
 10
329.1561368393882
 20
-30.48780955413989
 30
0.0
 11
329.1642427538866
 21
-30.55022509577757
 31
0.0
  0
LINE
  5
D6A
330
1F
100
AcDbEntity
  8
0
  6
Continuous
 62
     7
100
AcDbLine
 10
341.1561368393866
 20
-122.8878095541399
 30
0.0
 11
341.1561368393865
 21
-125.1878095541399
 31
0.0
  0
LINE
  5
D6B
330
1F
100
AcDbEntity
  8
0
  6
Continuous
 62
     7
100
AcDbLine
 10
241.1561368393864
 20
-125.1878095541399
 30
0.0
 11
250.6561368393866
 21
-125.1878095541399
 31
0.0
  0
LINE
  5
D6C
330
1F
100
AcDbEntity
  8
0
  6
Continuous
 62
     7
100
AcDbLine
 10
241.1561368393866
 20
-122.8878095541399
 30
0.0
 11
250.6561368393866
 21
-122.8878095541399
 31
0.0
  0
LINE
  5
D6D
330
1F
100
AcDbEntity
  8
0
  6
Continuous
 62
     7
100
AcDbLine
 10
241.1561368393866
 20
-122.8878095541399
 30
0.0
 11
241.1561368393864
 21
-125.1878095541399
 31
0.0
  0
LINE
  5
D6E
330
1F
100
AcDbEntity
  8
0
  6
Continuous
 62
     7
100
AcDbLine
 10
261.1561368393882
 20
-28.18780955413988
 30
0.0
 11
329.1561368393882
 21
-28.18780955413988
 31
0.0
  0
LINE
  5
D6F
330
1F
100
AcDbEntity
  8
0
  6
Continuous
 62
     7
100
AcDbLine
 10
256.156136839388
 20
-39.38780955413977
 30
0.0
 11
256.156136839388
 21
-42.18780955413988
 31
0.0
  0
LINE
  5
D70
330
1F
100
AcDbEntity
  8
0
  6
Continuous
 62
     7
100
AcDbLine
 10
256.1561368393866
 20
-122.8878095541399
 30
0.0
 11
261.6561368393866
 21
-122.8878095541399
 31
0.0
  0
LINE
  5
D71
330
1F
100
AcDbEntity
  8
0
  6
Continuous
 62
     7
100
AcDbLine
 10
256.156136839388
 20
-42.18780955413988
 30
0.0
 11
258.456136839388
 21
-42.18780955413988
 31
0.0
  0
LINE
  5
D72
330
1F
100
AcDbEntity
  8
0
  6
Continuous
 62
     7
100
AcDbLine
 10
256.156136839388
 20
-42.18780955413988
 30
0.0
 11
256.1561368393867
 21
-117.799846544324
 31
0.0
  0
LINE
  5
D73
330
1F
100
AcDbEntity
  8
0
  6
Continuous
 62
     7
100
AcDbLine
 10
258.456136839388
 20
-39.48780955413982
 30
0.0
 11
258.456136839388
 21
-42.18780955413988
 31
0.0
  0
LINE
  5
D74
330
1F
100
AcDbEntity
  8
0
  6
Continuous
 62
     7
100
AcDbLine
 10
258.456136839388
 20
-42.18780955413988
 30
0.0
 11
261.1561368393879
 21
-42.18780955413988
 31
0.0
  0
LINE
  5
D75
330
1F
100
AcDbEntity
  8
0
  6
Continuous
 62
     7
100
AcDbLine
 10
261.1561368393882
 20
-28.18780955413988
 30
0.0
 11
261.1561368393882
 21
-30.55022509577757
 31
0.0
  0
LINE
  5
D76
330
1F
100
AcDbEntity
  8
0
  6
Continuous
 62
     7
100
AcDbLine
 10
261.1561368393881
 20
-36.50284724282002
 30
0.0
 11
261.1561368393879
 21
-42.18780955413988
 31
0.0
  0
LINE
  5
D77
330
1F
100
AcDbEntity
  8
0
  6
Continuous
 62
     7
100
AcDbLine
 10
253.1561368393895
 20
-31.32678066902528
 30
0.0
 11
253.1561368393895
 21
-31.79625961896583
 31
0.0
  0
LINE
  5
D78
330
1F
100
AcDbEntity
  8
0
  6
Continuous
 62
     7
100
AcDbLine
 10
253.1561368393895
 20
-31.79625961896583
 30
0.0
 11
261.1561368393882
 21
-31.66511207798226
 31
0.0
  0
LINE
  5
D79
330
1F
100
AcDbEntity
  8
0
  6
Continuous
 62
     7
100
AcDbLine
 10
329.1642427538866
 20
-30.55022509577757
 30
0.0
 11
350.6976997599033
 21
-30.19721760387572
 31
0.0
  0
LINE
  5
D7A
330
1F
100
AcDbEntity
  8
0
  6
DASHED
 62
     2
100
AcDbLine
 10
329.1642427538866
 20
-30.55022509577757
 30
0.0
 11
261.1561368393882
 21
-30.55022509577757
 31
0.0
  0
LINE
  5
D7B
330
1F
100
AcDbEntity
  8
0
  6
Continuous
 62
     7
100
AcDbLine
 10
329.1642427538866
 20
-30.55022509577757
 30
0.0
 11
339.0470903114295
 21
-106.6481512888685
 31
0.0
  0
LINE
  5
D7C
330
1F
100
AcDbEntity
  8
0
  6
Continuous
 62
     7
100
AcDbLine
 10
261.1561368393882
 20
-30.55022509577757
 30
0.0
 11
261.1561368393881
 21
-36.50284724282002
 31
0.0
  0
LINE
  5
D7D
330
1F
100
AcDbEntity
  8
110
  6
DASH_CENTER
 62
    30
100
AcDbLine
 10
-228.4769587408302
 20
-69.18770955414003
 30
0.0
 11
-379.2015315814357
 21
-69.18770955414
 31
0.0
  0
LINE
  5
D7E
330
1F
100
AcDbEntity
  8
100
  6
DASH_CENTER
 62
    30
100
AcDbLine
 10
-265.8872081783254
 20
-103.1272920768705
 30
0.0
 11
-288.9565970060355
 21
-103.1332558953841
 31
0.0
  0
LINE
  5
D7F
330
1F
100
AcDbEntity
  8
0
  6
Continuous
 62
     7
100
AcDbLine
 10
-270.8249528085651
 20
-107.4685135737703
 30
0.0
 11
-272.6645528085652
 21
-107.6297135737703
 31
0.0
  0
LINE
  5
D80
330
1F
100
AcDbEntity
  8
0
  6
Continuous
 62
     7
100
AcDbLine
 10
-270.8249528085651
 20
-98.79061357377009
 30
0.0
 11
-272.6645528085652
 21
-98.62971357377027
 31
0.0
  0
LINE
  5
D81
330
1F
100
AcDbEntity
  8
0
  6
Continuous
 62
     7
100
AcDbLine
 10
-269.3647528085651
 20
-100.3846135737701
 30
0.0
 11
-269.3647528085651
 21
-105.8748135737702
 31
0.0
  0
LINE
  5
D82
330
1F
100
AcDbEntity
  8
0
  6
Continuous
 62
     7
100
AcDbLine
 10
-272.6645528085652
 20
-107.6297135737703
 30
0.0
 11
-272.6645528085652
 21
-98.62971357377027
 31
0.0
  0
LINE
  5
D83
330
1F
100
AcDbEntity
  8
100
  6
DASH_CENTER
 62
    30
100
AcDbLine
 10
-288.9565970060355
 20
-35.24216321289596
 30
0.0
 11
-265.8872081783254
 21
-35.24812703140961
 31
0.0
  0
LINE
  5
D84
330
1F
100
AcDbEntity
  8
0
  6
Continuous
 62
     7
100
AcDbLine
 10
-272.6645528085652
 20
-30.74570553450981
 30
0.0
 11
-270.8249528085651
 21
-30.9069055345098
 31
0.0
  0
LINE
  5
D85
330
1F
100
AcDbEntity
  8
0
  6
Continuous
 62
     7
100
AcDbLine
 10
-272.6645528085652
 20
-39.7457055345098
 30
0.0
 11
-270.8249528085651
 21
-39.58480553451
 31
0.0
  0
LINE
  5
D86
330
1F
100
AcDbEntity
  8
0
  6
Continuous
 62
     7
100
AcDbLine
 10
-269.3647528085651
 20
-32.50060553450992
 30
0.0
 11
-269.3647528085651
 21
-37.99080553450993
 31
0.0
  0
LINE
  5
D87
330
1F
100
AcDbEntity
  8
0
  6
Continuous
 62
     7
100
AcDbLine
 10
-272.6645528085652
 20
-39.7457055345098
 30
0.0
 11
-272.6645528085652
 21
-30.74570553450981
 31
0.0
  0
LINE
  5
D88
330
1F
100
AcDbEntity
  8
0
  6
Continuous
 62
     7
100
AcDbLine
 10
-272.6645528085652
 20
-121.1877095541401
 30
0.0
 11
-272.6645528085652
 21
-17.18770955414003
 31
0.0
  0
LINE
  5
D89
330
1F
100
AcDbEntity
  8
10
  6
Continuous
 62
     7
100
AcDbLine
 10
-274.6645528085652
 20
-15.18770955414003
 30
0.0
 11
-281.6650528085651
 21
-15.18770955414003
 31
0.0
  0
LINE
  5
D8A
330
1F
100
AcDbEntity
  8
10
  6
Continuous
 62
     7
100
AcDbLine
 10
-274.6645528085652
 20
-123.1877095541401
 30
0.0
 11
-281.6650528085651
 21
-123.1877095541401
 31
0.0
  0
LINE
  5
D8B
330
1F
100
AcDbEntity
  8
0
  6
Continuous
 62
     7
100
AcDbLine
 10
-270.6645528085652
 20
-110.1877095541401
 30
0.0
 11
-242.6645528085652
 21
-110.18770955414
 31
0.0
  0
LINE
  5
D8C
330
1F
100
AcDbEntity
  8
0
  6
Continuous
 62
     7
100
AcDbLine
 10
-242.6645528085652
 20
-28.18770955414004
 30
0.0
 11
-270.6645528085652
 21
-28.18770955414004
 31
0.0
  0
LINE
  5
D8D
330
1F
100
AcDbEntity
  8
0
  6
Continuous
 62
     7
100
AcDbLine
 10
-241.6645528085652
 20
-109.18770955414
 30
0.0
 11
-241.6645528085652
 21
-29.18770955414004
 31
0.0
  0
LINE
  5
D8E
330
1F
100
AcDbEntity
  8
10
  6
Continuous
 62
     7
100
AcDbLine
 10
-283.6647528085653
 20
-121.18780955414
 30
0.0
 11
-283.6647528085653
 21
-17.1530698370558
 31
0.0
  0
LINE
  5
D8F
330
1F
100
AcDbEntity
  8
10
  6
Continuous
 62
     7
100
AcDbLine
 10
-441.0221517441971
 20
-110.18780955414
 30
0.0
 11
-286.6645528085652
 21
-110.18780955414
 31
0.0
  0
LINE
  5
D90
330
1F
100
AcDbEntity
  8
10
  6
Continuous
 62
     7
100
AcDbLine
 10
-326.6684528085651
 20
-28.18760955414005
 30
0.0
 11
-286.6645528085652
 21
-28.18760955414005
 31
0.0
  0
LINE
  5
D91
330
1F
100
AcDbEntity
  8
10
  6
Continuous
 62
     7
100
AcDbLine
 10
-276.6645528085652
 20
-123.1877095541401
 30
0.0
 11
-276.6645528085652
 21
-15.18770955414003
 31
0.0
  0
LINE
  5
D92
330
1F
100
AcDbEntity
  8
0
  6
CENTER_DASH_DASH
 62
   171
100
AcDbLine
 10
-499.1647528085652
 20
-28.18770955414001
 30
0.0
 11
-499.1647528085652
 21
-28.5481212214689
 31
0.0
  0
LINE
  5
D93
330
1F
100
AcDbEntity
  8
0
  6
CENTER_DASH_DASH
 62
   171
100
AcDbLine
 10
-516.6647528085652
 20
-28.18770955414001
 30
0.0
 11
-499.1647528085652
 21
-28.18770955414001
 31
0.0
  0
LINE
  5
D94
330
1F
100
AcDbEntity
  8
0
  6
CENTER_DASH_DASH
 62
   171
100
AcDbLine
 10
-516.6647528085652
 20
-24.96646264094997
 30
0.0
 11
-516.6647528085652
 21
-28.18770955414001
 31
0.0
  0
LINE
  5
D95
330
1F
100
AcDbEntity
  8
0
  6
CENTER_DASH_DASH
 62
   171
100
AcDbLine
 10
-529.9198163343093
 20
-22.04316739790586
 30
0.0
 11
-522.9854762907883
 21
-20.14404732458601
 31
0.0
  0
LINE
  5
D96
330
1F
100
AcDbEntity
  8
0
  6
CENTER_DASH_DASH
 62
    30
100
AcDbLine
 10
-540.7238714511713
 20
113.8714090884661
 30
0.0
 11
-520.9244022066793
 21
94.07193984397407
 31
0.0
  0
LINE
  5
D97
330
1F
100
AcDbEntity
  8
0
  6
CENTER_DASH_DASH
 62
    30
100
AcDbLine
 10
-540.7238714511713
 20
-24.24682819674588
 30
0.0
 11
-520.9244022066793
 21
-4.447358952253887
 31
0.0
  0
LINE
  5
D98
330
1F
100
AcDbEntity
  8
0
  6
CENTER_DASH_DASH
 62
   171
100
AcDbLine
 10
-535.989432171248
 20
-4.20203111248597
 30
0.0
 11
-538.5202106523311
 21
-13.44277307988395
 31
0.0
  0
LINE
  5
D99
330
1F
100
AcDbEntity
  8
0
  6
CENTER_DASH_DASH
 62
   171
100
AcDbLine
 10
-538.5202106523311
 20
103.0673539716051
 30
0.0
 11
-535.989432171248
 21
93.82661200420708
 31
0.0
  0
LINE
  5
D9A
330
1F
100
AcDbEntity
  8
0
  6
CENTER_DASH_DASH
 62
   171
100
AcDbLine
 10
-529.9198163343093
 20
111.667748289627
 30
0.0
 11
-520.6790743669113
 21
109.136969808544
 31
0.0
  0
LINE
  5
D9B
330
1F
100
AcDbEntity
  8
0
  6
CENTER_DASH_DASH
 62
   171
100
AcDbLine
 10
-444.1647528085653
 20
-28.5481212214689
 30
0.0
 11
-444.1647528085653
 21
-28.18770955414001
 31
0.0
  0
LINE
  5
D9C
330
1F
100
AcDbEntity
  8
0
  6
CENTER_DASH_DASH
 62
   171
100
AcDbLine
 10
-444.1647528085653
 20
-28.18770955414001
 30
0.0
 11
-426.6647528085653
 21
-28.18770955414001
 31
0.0
  0
LINE
  5
D9D
330
1F
100
AcDbEntity
  8
0
  6
CENTER_DASH_DASH
 62
   171
100
AcDbLine
 10
-426.6647528085653
 20
-28.18770955414001
 30
0.0
 11
-426.6647528085653
 21
-24.96646264094997
 31
0.0
  0
LINE
  5
D9E
330
1F
100
AcDbEntity
  8
0
  6
CENTER_DASH_DASH
 62
   171
100
AcDbLine
 10
-420.3440293263421
 20
-20.14404732458601
 30
0.0
 11
-413.4096892828211
 21
-22.04316739790586
 31
0.0
  0
LINE
  5
D9F
330
1F
100
AcDbEntity
  8
0
  6
CENTER_DASH_DASH
 62
    30
100
AcDbLine
 10
-422.4051034104512
 20
94.07193984397407
 30
0.0
 11
-402.6056341659593
 21
113.8714090884661
 31
0.0
  0
LINE
  5
DA0
330
1F
100
AcDbEntity
  8
0
  6
CENTER_DASH_DASH
 62
    30
100
AcDbLine
 10
-422.4051034104512
 20
-4.447358952253887
 30
0.0
 11
-402.6056341659593
 21
-24.24682819674588
 31
0.0
  0
LINE
  5
DA1
330
1F
100
AcDbEntity
  8
0
  6
CENTER_DASH_DASH
 62
   171
100
AcDbLine
 10
-404.8092949647992
 20
-13.44277307988395
 30
0.0
 11
-407.3400734458823
 21
-4.20203111248597
 31
0.0
  0
LINE
  5
DA2
330
1F
100
AcDbEntity
  8
0
  6
CENTER_DASH_DASH
 62
   171
100
AcDbLine
 10
-407.3400734458823
 20
93.82661200420708
 30
0.0
 11
-404.8092949647992
 21
103.0673539716051
 31
0.0
  0
LINE
  5
DA3
330
1F
100
AcDbEntity
  8
0
  6
CENTER_DASH_DASH
 62
   171
100
AcDbLine
 10
-422.6504312502191
 20
109.136969808544
 30
0.0
 11
-413.4096892828211
 21
111.667748289627
 31
0.0
  0
LINE
  5
DA4
330
1F
100
AcDbEntity
  8
0
  6
Continuous
 62
     7
100
AcDbLine
 10
-311.3379998079232
 20
53.78249142653789
 30
0.0
 11
-305.7064249763803
 21
51.15644495511652
 31
0.0
  0
LINE
  5
DA5
330
1F
100
AcDbEntity
  8
0
  6
Continuous
 62
     7
100
AcDbLine
 10
-305.7064249763803
 20
38.46813593660343
 30
0.0
 11
-311.3379998079232
 21
35.84208946518206
 31
0.0
  0
LINE
  5
DA6
330
1F
100
AcDbEntity
  8
0
  6
Continuous
 62
     7
100
AcDbLine
 10
-308.0649528085654
 20
47.69209044585989
 30
0.0
 11
-309.264852808565
 21
47.69209044585989
 31
0.0
  0
LINE
  5
DA7
330
1F
100
AcDbEntity
  8
0
  6
Continuous
 62
     7
100
AcDbLine
 10
-308.0649528085654
 20
41.93209044585986
 30
0.0
 11
-309.264852808565
 21
41.93209044585986
 31
0.0
  0
LINE
  5
DA8
330
1F
100
AcDbEntity
  8
0
  6
Continuous
 62
     7
100
AcDbLine
 10
-305.7851528085653
 20
44.21219044586009
 30
0.0
 11
-305.7851528085653
 21
45.41209044585992
 31
0.0
  0
LINE
  5
DA9
330
1F
100
AcDbEntity
  8
0
  6
Continuous
 62
     7
100
AcDbLine
 10
-311.5446528085652
 20
44.21219044586009
 30
0.0
 11
-311.5446528085652
 21
45.41209044585992
 31
0.0
  0
LINE
  5
DAA
330
1F
100
AcDbEntity
  8
0
  6
Continuous
 62
     7
100
AcDbLine
 10
-308.0649528085654
 20
46.01219044586003
 30
0.0
 11
-308.0649528085654
 21
47.69209044585989
 31
0.0
  0
LINE
  5
DAB
330
1F
100
AcDbEntity
  8
0
  6
Continuous
 62
     7
100
AcDbLine
 10
-309.8649528085652
 20
45.41209044585992
 30
0.0
 11
-311.5446528085652
 21
45.41209044585992
 31
0.0
  0
LINE
  5
DAC
330
1F
100
AcDbEntity
  8
0
  6
Continuous
 62
     7
100
AcDbLine
 10
-309.8649528085652
 20
44.21219044586009
 30
0.0
 11
-311.5446528085652
 21
44.21219044586009
 31
0.0
  0
LINE
  5
DAD
330
1F
100
AcDbEntity
  8
0
  6
Continuous
 62
     7
100
AcDbLine
 10
-309.264852808565
 20
46.01219044586003
 30
0.0
 11
-309.264852808565
 21
47.69209044585989
 31
0.0
  0
LINE
  5
DAE
330
1F
100
AcDbEntity
  8
0
  6
Continuous
 62
     7
100
AcDbLine
 10
-305.7851528085653
 20
45.41209044585992
 30
0.0
 11
-307.4648528085651
 21
45.41209044585992
 31
0.0
  0
LINE
  5
DAF
330
1F
100
AcDbEntity
  8
0
  6
Continuous
 62
     7
100
AcDbLine
 10
-305.7851528085653
 20
44.21219044586009
 30
0.0
 11
-307.4648528085651
 21
44.21219044586009
 31
0.0
  0
LINE
  5
DB0
330
1F
100
AcDbEntity
  8
0
  6
Continuous
 62
     7
100
AcDbLine
 10
-308.0649528085654
 20
41.93209044585986
 30
0.0
 11
-308.0649528085654
 21
43.61209044585995
 31
0.0
  0
LINE
  5
DB1
330
1F
100
AcDbEntity
  8
0
  6
Continuous
 62
     7
100
AcDbLine
 10
-309.264852808565
 20
41.93209044585986
 30
0.0
 11
-309.264852808565
 21
43.61209044585995
 31
0.0
  0
LINE
  5
DB2
330
1F
100
AcDbEntity
  8
0
  6
Continuous
 62
     7
100
AcDbLine
 10
-383.191389921923
 20
185.3643410634898
 30
0.0
 11
-383.7329543819249
 21
179.17423096035
 31
0.0
  0
LINE
  5
DB3
330
1F
100
AcDbEntity
  8
0
  6
Continuous
 62
     7
100
AcDbLine
 10
-392.3588327663836
 20
187.9337732999132
 30
0.0
 11
-392.9587827663834
 21
186.8946294179125
 31
0.0
  0
LINE
  5
DB4
330
1F
100
AcDbEntity
  8
0
  6
Continuous
 62
     7
100
AcDbLine
 10
-387.3705264405853
 20
185.0537732999132
 30
0.0
 11
-387.9704764405851
 21
184.0146294179125
 31
0.0
  0
LINE
  5
DB5
330
1F
100
AcDbEntity
  8
0
  6
Continuous
 62
     7
100
AcDbLine
 10
-388.2052509637542
 20
188.1681880154611
 30
0.0
 11
-389.2443948457552
 21
188.768138015461
 31
0.0
  0
LINE
  5
DB6
330
1F
100
AcDbEntity
  8
0
  6
Continuous
 62
     7
100
AcDbLine
 10
-391.0850009637542
 20
183.1803147023647
 30
0.0
 11
-392.1241448457548
 21
183.7802647023645
 31
0.0
  0
LINE
  5
DB7
330
1F
100
AcDbEntity
  8
0
  6
Continuous
 62
     7
100
AcDbLine
 10
-390.9039966905663
 20
187.0938232999133
 30
0.0
 11
-392.3588327663836
 21
187.9337732999132
 31
0.0
  0
LINE
  5
DB8
330
1F
100
AcDbEntity
  8
0
  6
Continuous
 62
     7
100
AcDbLine
 10
-391.2842948457549
 20
185.2349275731013
 30
0.0
 11
-392.1241448457548
 21
183.7802647023645
 31
0.0
  0
LINE
  5
DB9
330
1F
100
AcDbEntity
  8
0
  6
Continuous
 62
     7
100
AcDbLine
 10
-390.2451509637542
 20
184.6349775731014
 30
0.0
 11
-391.0850009637542
 21
183.1803147023647
 31
0.0
  0
LINE
  5
DBA
330
1F
100
AcDbEntity
  8
0
  6
Continuous
 62
     7
100
AcDbLine
 10
-391.503946690566
 20
186.0546794179125
 30
0.0
 11
-392.9587827663834
 21
186.8946294179125
 31
0.0
  0
LINE
  5
DBB
330
1F
100
AcDbEntity
  8
0
  6
Continuous
 62
     7
100
AcDbLine
 10
-389.2443948457552
 20
188.768138015461
 30
0.0
 11
-390.0842448457552
 21
187.3134751447243
 31
0.0
  0
LINE
  5
DBC
330
1F
100
AcDbEntity
  8
0
  6
Continuous
 62
     7
100
AcDbLine
 10
-388.2052509637542
 20
188.1681880154611
 30
0.0
 11
-389.0451009637544
 21
186.7135251447244
 31
0.0
  0
LINE
  5
DBD
330
1F
100
AcDbEntity
  8
0
  6
Continuous
 62
     7
100
AcDbLine
 10
-387.3705264405853
 20
185.0537732999132
 30
0.0
 11
-388.825449118943
 21
185.8937732999133
 31
0.0
  0
LINE
  5
DBE
330
1F
100
AcDbEntity
  8
0
  6
Continuous
 62
     7
100
AcDbLine
 10
-387.9704764405851
 20
184.0146294179125
 30
0.0
 11
-389.4253991189431
 21
184.8546294179125
 31
0.0
  0
LINE
  5
DBF
330
1F
100
AcDbEntity
  8
0
  6
Continuous
 62
     7
100
AcDbLine
 10
-559.5965512352051
 20
179.1742309603499
 30
0.0
 11
-560.1381156952072
 21
185.3643410634898
 31
0.0
  0
LINE
  5
DC0
330
1F
100
AcDbEntity
  8
0
  6
Continuous
 62
     7
100
AcDbLine
 10
-549.1497177541075
 20
191.7084955727464
 30
0.0
 11
-544.059707382567
 21
188.144431941028
 31
0.0
  0
LINE
  5
DC1
330
1F
100
AcDbEntity
  8
0
  6
Continuous
 62
     7
100
AcDbLine
 10
-555.9586327663835
 20
185.0539732999133
 30
0.0
 11
-555.3586827663832
 21
184.0148294179126
 31
0.0
  0
LINE
  5
DC2
330
1F
100
AcDbEntity
  8
0
  6
Continuous
 62
     7
100
AcDbLine
 10
-550.9703264405853
 20
187.9339732999133
 30
0.0
 11
-550.3703764405851
 21
186.8948294179126
 31
0.0
  0
LINE
  5
DC3
330
1F
100
AcDbEntity
  8
0
  6
Continuous
 62
     7
100
AcDbLine
 10
-554.0848509637542
 20
188.768288015461
 30
0.0
 11
-555.1239948457552
 21
188.168338015461
 31
0.0
  0
LINE
  5
DC4
330
1F
100
AcDbEntity
  8
0
  6
Continuous
 62
     7
100
AcDbLine
 10
-551.2051009637543
 20
183.7804147023645
 30
0.0
 11
-552.2442448457549
 21
183.1804647023647
 31
0.0
  0
LINE
  5
DC5
330
1F
100
AcDbEntity
  8
0
  6
Continuous
 62
     7
100
AcDbLine
 10
-554.5037966905661
 20
185.8939232999132
 30
0.0
 11
-555.9586327663835
 21
185.0539732999133
 31
0.0
  0
LINE
  5
DC6
330
1F
100
AcDbEntity
  8
0
  6
Continuous
 62
     7
100
AcDbLine
 10
-553.0840948457547
 20
184.6351275731014
 30
0.0
 11
-552.2442448457549
 21
183.1804647023647
 31
0.0
  0
LINE
  5
DC7
330
1F
100
AcDbEntity
  8
0
  6
Continuous
 62
     7
100
AcDbLine
 10
-552.0449509637542
 20
185.2350775731013
 30
0.0
 11
-551.2051009637543
 21
183.7804147023645
 31
0.0
  0
LINE
  5
DC8
330
1F
100
AcDbEntity
  8
0
  6
Continuous
 62
     7
100
AcDbLine
 10
-553.903846690566
 20
184.8547794179125
 30
0.0
 11
-555.3586827663832
 21
184.0148294179126
 31
0.0
  0
LINE
  5
DC9
330
1F
100
AcDbEntity
  8
0
  6
Continuous
 62
     7
100
AcDbLine
 10
-555.1239948457552
 20
188.168338015461
 30
0.0
 11
-554.2841448457551
 21
186.7136751447244
 31
0.0
  0
LINE
  5
DCA
330
1F
100
AcDbEntity
  8
0
  6
Continuous
 62
     7
100
AcDbLine
 10
-554.0848509637542
 20
188.768288015461
 30
0.0
 11
-553.2450009637543
 21
187.3136251447243
 31
0.0
  0
LINE
  5
DCB
330
1F
100
AcDbEntity
  8
0
  6
Continuous
 62
     7
100
AcDbLine
 10
-550.9703264405853
 20
187.9339732999133
 30
0.0
 11
-552.4252491189431
 21
187.0939732999133
 31
0.0
  0
LINE
  5
DCC
330
1F
100
AcDbEntity
  8
0
  6
Continuous
 62
     7
100
AcDbLine
 10
-550.3703764405851
 20
186.8948294179126
 30
0.0
 11
-551.825299118943
 21
186.0548294179125
 31
0.0
  0
LINE
  5
DCD
330
1F
100
AcDbEntity
  8
0
  6
Continuous
 62
     7
100
AcDbLine
 10
-631.9915058092071
 20
35.8420894651822
 30
0.0
 11
-637.6230806407502
 21
38.4681359366035
 31
0.0
  0
LINE
  5
DCE
330
1F
100
AcDbEntity
  8
0
  6
Continuous
 62
     7
100
AcDbLine
 10
-637.6230806407502
 20
51.1564449551166
 30
0.0
 11
-631.9915058092071
 21
53.78249142653796
 31
0.0
  0
LINE
  5
DCF
330
1F
100
AcDbEntity
  8
0
  6
Continuous
 62
     7
100
AcDbLine
 10
-635.2645528085651
 20
41.93249044586013
 30
0.0
 11
-634.0646528085652
 21
41.93249044586013
 31
0.0
  0
LINE
  5
DD0
330
1F
100
AcDbEntity
  8
0
  6
Continuous
 62
     7
100
AcDbLine
 10
-635.2645528085651
 20
47.69249044586013
 30
0.0
 11
-634.0646528085652
 21
47.6924904458601
 31
0.0
  0
LINE
  5
DD1
330
1F
100
AcDbEntity
  8
0
  6
Continuous
 62
     7
100
AcDbLine
 10
-637.5443528085652
 20
45.4123904458599
 30
0.0
 11
-637.5443528085652
 21
44.21249044586009
 31
0.0
  0
LINE
  5
DD2
330
1F
100
AcDbEntity
  8
0
  6
Continuous
 62
     7
100
AcDbLine
 10
-631.7848528085651
 20
45.4123904458599
 30
0.0
 11
-631.7848528085651
 21
44.21249044586009
 31
0.0
  0
LINE
  5
DD3
330
1F
100
AcDbEntity
  8
0
  6
Continuous
 62
     7
100
AcDbLine
 10
-635.2645528085651
 20
43.61239044585999
 30
0.0
 11
-635.2645528085651
 21
41.93249044586013
 31
0.0
  0
LINE
  5
DD4
330
1F
100
AcDbEntity
  8
0
  6
Continuous
 62
     7
100
AcDbLine
 10
-633.4645528085652
 20
44.21249044586009
 30
0.0
 11
-631.7848528085651
 21
44.21249044586009
 31
0.0
  0
LINE
  5
DD5
330
1F
100
AcDbEntity
  8
0
  6
Continuous
 62
     7
100
AcDbLine
 10
-633.4645528085652
 20
45.4123904458599
 30
0.0
 11
-631.7848528085651
 21
45.4123904458599
 31
0.0
  0
LINE
  5
DD6
330
1F
100
AcDbEntity
  8
0
  6
Continuous
 62
     7
100
AcDbLine
 10
-634.0646528085652
 20
43.61239044585995
 30
0.0
 11
-634.0646528085652
 21
41.93249044586013
 31
0.0
  0
LINE
  5
DD7
330
1F
100
AcDbEntity
  8
0
  6
Continuous
 62
     7
100
AcDbLine
 10
-637.5443528085652
 20
44.21249044586009
 30
0.0
 11
-635.8646528085651
 21
44.21249044586009
 31
0.0
  0
LINE
  5
DD8
330
1F
100
AcDbEntity
  8
0
  6
Continuous
 62
     7
100
AcDbLine
 10
-637.5443528085652
 20
45.4123904458599
 30
0.0
 11
-635.8646528085651
 21
45.4123904458599
 31
0.0
  0
LINE
  5
DD9
330
1F
100
AcDbEntity
  8
0
  6
Continuous
 62
     7
100
AcDbLine
 10
-635.2645528085651
 20
47.69249044586013
 30
0.0
 11
-635.2645528085651
 21
46.01249044586004
 31
0.0
  0
LINE
  5
DDA
330
1F
100
AcDbEntity
  8
0
  6
Continuous
 62
     7
100
AcDbLine
 10
-634.0646528085652
 20
47.6924904458601
 30
0.0
 11
-634.0646528085652
 21
46.01249044586004
 31
0.0
  0
LINE
  5
DDB
330
1F
100
AcDbEntity
  8
0
  6
Continuous
 62
     7
100
AcDbLine
 10
-544.059707382567
 20
-98.51985104930797
 30
0.0
 11
-549.1497177541081
 21
-102.0839146810265
 31
0.0
  0
LINE
  5
DDC
330
1F
100
AcDbEntity
  8
0
  6
Continuous
 62
     7
100
AcDbLine
 10
-560.1381156952076
 20
-95.73976017176986
 30
0.0
 11
-559.7746973584865
 21
-91.58586957526614
 31
0.0
  0
LINE
  5
DDD
330
1F
100
AcDbEntity
  8
0
  6
Continuous
 62
     7
100
AcDbLine
 10
-550.9706728507468
 20
-98.30919240819328
 30
0.0
 11
-550.3707228507468
 21
-97.27004852619257
 31
0.0
  0
LINE
  5
DDE
330
1F
100
AcDbEntity
  8
0
  6
Continuous
 62
     7
100
AcDbLine
 10
-555.9589791765453
 20
-95.4291924081933
 30
0.0
 11
-555.3590291765455
 21
-94.39004852619252
 31
0.0
  0
LINE
  5
DDF
330
1F
100
AcDbEntity
  8
0
  6
Continuous
 62
     7
100
AcDbLine
 10
-555.1242546533761
 20
-98.54360712374118
 30
0.0
 11
-554.0851107713753
 21
-99.14355712374108
 31
0.0
  0
LINE
  5
DE0
330
1F
100
AcDbEntity
  8
0
  6
Continuous
 62
     7
100
AcDbLine
 10
-552.2445046533761
 20
-93.55573381064472
 30
0.0
 11
-551.2053607713752
 21
-94.15568381064469
 31
0.0
  0
LINE
  5
DE1
330
1F
100
AcDbEntity
  8
0
  6
Continuous
 62
     7
100
AcDbLine
 10
-552.4255089265643
 20
-97.46924240819339
 30
0.0
 11
-550.9706728507468
 21
-98.30919240819328
 31
0.0
  0
LINE
  5
DE2
330
1F
100
AcDbEntity
  8
0
  6
Continuous
 62
     7
100
AcDbLine
 10
-552.0452107713753
 20
-95.61034668138139
 30
0.0
 11
-551.2053607713752
 21
-94.15568381064469
 31
0.0
  0
LINE
  5
DE3
330
1F
100
AcDbEntity
  8
0
  6
Continuous
 62
     7
100
AcDbLine
 10
-553.0843546533763
 20
-95.01039668138149
 30
0.0
 11
-552.2445046533761
 21
-93.55573381064472
 31
0.0
  0
LINE
  5
DE4
330
1F
100
AcDbEntity
  8
0
  6
Continuous
 62
     7
100
AcDbLine
 10
-551.8255589265643
 20
-96.43009852619259
 30
0.0
 11
-550.3707228507468
 21
-97.27004852619257
 31
0.0
  0
LINE
  5
DE5
330
1F
100
AcDbEntity
  8
0
  6
Continuous
 62
     7
100
AcDbLine
 10
-554.0851107713753
 20
-99.14355712374108
 30
0.0
 11
-553.2452607713756
 21
-97.68889425300438
 31
0.0
  0
LINE
  5
DE6
330
1F
100
AcDbEntity
  8
0
  6
Continuous
 62
     7
100
AcDbLine
 10
-555.1242546533761
 20
-98.54360712374118
 30
0.0
 11
-554.2844046533762
 21
-97.08894425300449
 31
0.0
  0
LINE
  5
DE7
330
1F
100
AcDbEntity
  8
0
  6
Continuous
 62
     7
100
AcDbLine
 10
-555.9589791765453
 20
-95.4291924081933
 30
0.0
 11
-554.5040564981873
 21
-96.26919240819333
 31
0.0
  0
LINE
  5
DE8
330
1F
100
AcDbEntity
  8
0
  6
Continuous
 62
     7
100
AcDbLine
 10
-555.3590291765455
 20
-94.39004852619252
 30
0.0
 11
-553.9041064981875
 21
-95.23004852619257
 31
0.0
  0
LINE
  5
DE9
330
1F
100
AcDbEntity
  8
0
  6
Continuous
 62
     7
100
AcDbLine
 10
-383.7329543819249
 20
-89.54965006863018
 30
0.0
 11
-383.191389921923
 21
-95.73976017177001
 31
0.0
  0
LINE
  5
DEA
330
1F
100
AcDbEntity
  8
0
  6
Continuous
 62
     7
100
AcDbLine
 10
-394.1797878630226
 20
-102.0839146810266
 30
0.0
 11
-399.2697982345632
 21
-98.51985104930808
 31
0.0
  0
LINE
  5
DEB
330
1F
100
AcDbEntity
  8
0
  6
Continuous
 62
     7
100
AcDbLine
 10
-387.370872850747
 20
-95.42939240819348
 30
0.0
 11
-387.9708228507468
 21
-94.39024852619272
 31
0.0
  0
LINE
  5
DEC
330
1F
100
AcDbEntity
  8
0
  6
Continuous
 62
     7
100
AcDbLine
 10
-392.3591791765454
 20
-98.30939240819349
 30
0.0
 11
-392.9591291765452
 21
-97.27024852619269
 31
0.0
  0
LINE
  5
DED
330
1F
100
AcDbEntity
  8
0
  6
Continuous
 62
     7
100
AcDbLine
 10
-389.2446546533763
 20
-99.14370712374122
 30
0.0
 11
-388.2055107713754
 21
-98.54375712374114
 31
0.0
  0
LINE
  5
DEE
330
1F
100
AcDbEntity
  8
0
  6
Continuous
 62
     7
100
AcDbLine
 10
-392.1244046533763
 20
-94.15583381064474
 30
0.0
 11
-391.0852607713753
 21
-93.55588381064482
 31
0.0
  0
LINE
  5
DEF
330
1F
100
AcDbEntity
  8
0
  6
Continuous
 62
     7
100
AcDbLine
 10
-388.8257089265644
 20
-96.26934240819339
 30
0.0
 11
-387.370872850747
 21
-95.42939240819348
 31
0.0
  0
LINE
  5
DF0
330
1F
100
AcDbEntity
  8
0
  6
Continuous
 62
     7
100
AcDbLine
 10
-390.2454107713754
 20
-95.01054668138158
 30
0.0
 11
-391.0852607713753
 21
-93.55588381064482
 31
0.0
  0
LINE
  5
DF1
330
1F
100
AcDbEntity
  8
0
  6
Continuous
 62
     7
100
AcDbLine
 10
-391.2845546533762
 20
-95.61049668138149
 30
0.0
 11
-392.1244046533763
 21
-94.15583381064474
 31
0.0
  0
LINE
  5
DF2
330
1F
100
AcDbEntity
  8
0
  6
Continuous
 62
     7
100
AcDbLine
 10
-389.4256589265641
 20
-95.23019852619265
 30
0.0
 11
-387.9708228507468
 21
-94.39024852619272
 31
0.0
  0
LINE
  5
DF3
330
1F
100
AcDbEntity
  8
0
  6
Continuous
 62
     7
100
AcDbLine
 10
-388.2055107713754
 20
-98.54375712374114
 30
0.0
 11
-389.0453607713755
 21
-97.08909425300458
 31
0.0
  0
LINE
  5
DF4
330
1F
100
AcDbEntity
  8
0
  6
Continuous
 62
     7
100
AcDbLine
 10
-389.2446546533763
 20
-99.14370712374122
 30
0.0
 11
-390.0845046533763
 21
-97.6890442530045
 31
0.0
  0
LINE
  5
DF5
330
1F
100
AcDbEntity
  8
0
  6
Continuous
 62
     7
100
AcDbLine
 10
-392.3591791765454
 20
-98.30939240819349
 30
0.0
 11
-390.9042564981874
 21
-97.46939240819351
 31
0.0
  0
LINE
  5
DF6
330
1F
100
AcDbEntity
  8
0
  6
Continuous
 62
     7
100
AcDbLine
 10
-392.9591291765452
 20
-97.27024852619269
 30
0.0
 11
-391.5042064981872
 21
-96.43024852619269
 31
0.0
  0
LINE
  5
DF7
330
1F
100
AcDbEntity
  8
0
  6
Continuous
 62
     7
100
AcDbLine
 10
-399.2697982345632
 20
188.1444319410279
 30
0.0
 11
-394.1797878630225
 21
191.7084955727464
 31
0.0
  0
LINE
  5
DF8
330
1F
100
AcDbEntity
  8
0
  6
DASH_CENTER
 62
    30
100
AcDbLine
 10
-396.4575769331708
 20
175.0749401558115
 30
0.0
 11
-383.4958638642958
 21
197.5252857442325
 31
0.0
  0
LINE
  5
DF9
330
1F
100
AcDbEntity
  8
0
  6
DASH_CENTER
 62
    30
100
AcDbLine
 10
-559.8336417528344
 20
197.5252857442325
 30
0.0
 11
-546.8719286839593
 21
175.0749401558115
 31
0.0
  0
LINE
  5
DFA
330
1F
100
AcDbEntity
  8
0
  6
DASH_CENTER
 62
    30
100
AcDbLine
 10
-383.4958638642958
 20
-107.9007048525126
 30
0.0
 11
-396.4575769331708
 21
-85.45035926409161
 31
0.0
  0
LINE
  5
DFB
330
1F
100
AcDbEntity
  8
0
  6
DASH_CENTER
 62
    30
100
AcDbLine
 10
-546.8719286839593
 20
-85.45035926409161
 30
0.0
 11
-559.8336417528344
 21
-107.9007048525126
 31
0.0
  0
LINE
  5
DFC
330
1F
100
AcDbEntity
  8
0
  6
Continuous
 62
     7
100
AcDbLine
 10
-471.1647528085653
 20
116.2121904458601
 30
0.0
 11
-472.1647528085653
 21
116.2121904458601
 31
0.0
  0
LINE
  5
DFD
330
1F
100
AcDbEntity
  8
0
  6
Continuous
 62
     7
100
AcDbLine
 10
-471.1647528085653
 20
111.4123904458601
 30
0.0
 11
-472.1647528085653
 21
111.4123904458601
 31
0.0
  0
LINE
  5
DFE
330
1F
100
AcDbEntity
  8
0
  6
Continuous
 62
     7
100
AcDbLine
 10
-469.2648528085649
 20
113.3122904458599
 30
0.0
 11
-469.2648528085649
 21
114.3122904458599
 31
0.0
  0
LINE
  5
DFF
330
1F
100
AcDbEntity
  8
0
  6
Continuous
 62
     7
100
AcDbLine
 10
-474.0646528085648
 20
113.3122904458599
 30
0.0
 11
-474.0646528085648
 21
114.3122904458599
 31
0.0
  0
LINE
  5
E00
330
1F
100
AcDbEntity
  8
0
  6
Continuous
 62
     7
100
AcDbLine
 10
-471.1647528085653
 20
114.8122904458599
 30
0.0
 11
-471.1647528085653
 21
116.2121904458601
 31
0.0
  0
LINE
  5
E01
330
1F
100
AcDbEntity
  8
0
  6
Continuous
 62
     7
100
AcDbLine
 10
-472.6647528085653
 20
114.3122904458599
 30
0.0
 11
-474.0646528085648
 21
114.3122904458599
 31
0.0
  0
LINE
  5
E02
330
1F
100
AcDbEntity
  8
0
  6
Continuous
 62
     7
100
AcDbLine
 10
-472.6647528085653
 20
113.3122904458599
 30
0.0
 11
-474.0646528085648
 21
113.3122904458599
 31
0.0
  0
LINE
  5
E03
330
1F
100
AcDbEntity
  8
0
  6
Continuous
 62
     7
100
AcDbLine
 10
-472.1647528085653
 20
114.8122904458599
 30
0.0
 11
-472.1647528085653
 21
116.2121904458601
 31
0.0
  0
LINE
  5
E04
330
1F
100
AcDbEntity
  8
0
  6
Continuous
 62
     7
100
AcDbLine
 10
-469.2648528085649
 20
114.3122904458599
 30
0.0
 11
-470.6647528085651
 21
114.3122904458599
 31
0.0
  0
LINE
  5
E05
330
1F
100
AcDbEntity
  8
0
  6
Continuous
 62
     7
100
AcDbLine
 10
-469.2648528085649
 20
113.3122904458599
 30
0.0
 11
-470.6647528085651
 21
113.3122904458599
 31
0.0
  0
LINE
  5
E06
330
1F
100
AcDbEntity
  8
0
  6
Continuous
 62
     7
100
AcDbLine
 10
-471.1647528085653
 20
111.4123904458601
 30
0.0
 11
-471.1647528085653
 21
112.8122904458599
 31
0.0
  0
LINE
  5
E07
330
1F
100
AcDbEntity
  8
0
  6
Continuous
 62
     7
100
AcDbLine
 10
-472.1647528085653
 20
111.4123904458601
 30
0.0
 11
-472.1647528085653
 21
112.8122904458599
 31
0.0
  0
LINE
  5
E08
330
1F
100
AcDbEntity
  8
0
  6
Continuous
 62
     7
100
AcDbLine
 10
-543.0646528085652
 20
45.31229044585999
 30
0.0
 11
-543.0646528085652
 21
44.31229044585999
 31
0.0
  0
LINE
  5
E09
330
1F
100
AcDbEntity
  8
0
  6
Continuous
 62
     7
100
AcDbLine
 10
-538.2648528085652
 20
45.31229044585999
 30
0.0
 11
-538.2648528085652
 21
44.31229044585999
 31
0.0
  0
LINE
  5
E0A
330
1F
100
AcDbEntity
  8
0
  6
Continuous
 62
     7
100
AcDbLine
 10
-540.1647528085653
 20
47.21219044586021
 30
0.0
 11
-541.1647528085652
 21
47.21219044586021
 31
0.0
  0
LINE
  5
E0B
330
1F
100
AcDbEntity
  8
0
  6
Continuous
 62
     7
100
AcDbLine
 10
-540.1647528085653
 20
42.41239044586021
 30
0.0
 11
-541.1647528085652
 21
42.41239044586021
 31
0.0
  0
LINE
  5
E0C
330
1F
100
AcDbEntity
  8
0
  6
Continuous
 62
     7
100
AcDbLine
 10
-541.6647528085652
 20
45.31229044585999
 30
0.0
 11
-543.0646528085652
 21
45.31229044585999
 31
0.0
  0
LINE
  5
E0D
330
1F
100
AcDbEntity
  8
0
  6
Continuous
 62
     7
100
AcDbLine
 10
-541.1647528085652
 20
43.81229044585999
 30
0.0
 11
-541.1647528085652
 21
42.41239044586021
 31
0.0
  0
LINE
  5
E0E
330
1F
100
AcDbEntity
  8
0
  6
Continuous
 62
     7
100
AcDbLine
 10
-540.1647528085653
 20
43.81229044585999
 30
0.0
 11
-540.1647528085653
 21
42.41239044586021
 31
0.0
  0
LINE
  5
E0F
330
1F
100
AcDbEntity
  8
0
  6
Continuous
 62
     7
100
AcDbLine
 10
-541.6647528085652
 20
44.31229044585999
 30
0.0
 11
-543.0646528085652
 21
44.31229044585999
 31
0.0
  0
LINE
  5
E10
330
1F
100
AcDbEntity
  8
0
  6
Continuous
 62
     7
100
AcDbLine
 10
-541.1647528085652
 20
47.21219044586021
 30
0.0
 11
-541.1647528085652
 21
45.81229044585999
 31
0.0
  0
LINE
  5
E11
330
1F
100
AcDbEntity
  8
0
  6
Continuous
 62
     7
100
AcDbLine
 10
-540.1647528085653
 20
47.21219044586021
 30
0.0
 11
-540.1647528085653
 21
45.81229044585999
 31
0.0
  0
LINE
  5
E12
330
1F
100
AcDbEntity
  8
0
  6
Continuous
 62
     7
100
AcDbLine
 10
-538.2648528085652
 20
45.31229044585999
 30
0.0
 11
-539.6647528085652
 21
45.31229044585999
 31
0.0
  0
LINE
  5
E13
330
1F
100
AcDbEntity
  8
0
  6
Continuous
 62
     7
100
AcDbLine
 10
-538.2648528085652
 20
44.31229044585999
 30
0.0
 11
-539.6647528085652
 21
44.31229044585999
 31
0.0
  0
LINE
  5
E14
330
1F
100
AcDbEntity
  8
0
  6
Continuous
 62
     7
100
AcDbLine
 10
-472.1647528085653
 20
-26.58760955414016
 30
0.0
 11
-471.1647528085653
 21
-26.58760955414016
 31
0.0
  0
LINE
  5
E15
330
1F
100
AcDbEntity
  8
0
  6
Continuous
 62
     7
100
AcDbLine
 10
-472.1647528085653
 20
-21.78780955414014
 30
0.0
 11
-471.1647528085653
 21
-21.78780955414014
 31
0.0
  0
LINE
  5
E16
330
1F
100
AcDbEntity
  8
0
  6
Continuous
 62
     7
100
AcDbLine
 10
-474.0646528085653
 20
-23.68770955414003
 30
0.0
 11
-474.0646528085653
 21
-24.68770955414003
 31
0.0
  0
LINE
  5
E17
330
1F
100
AcDbEntity
  8
0
  6
Continuous
 62
     7
100
AcDbLine
 10
-469.2648528085653
 20
-23.68770955414003
 30
0.0
 11
-469.2648528085653
 21
-24.68770955414003
 31
0.0
  0
LINE
  5
E18
330
1F
100
AcDbEntity
  8
0
  6
Continuous
 62
     7
100
AcDbLine
 10
-472.1647528085653
 20
-25.18770955414003
 30
0.0
 11
-472.1647528085653
 21
-26.58760955414016
 31
0.0
  0
LINE
  5
E19
330
1F
100
AcDbEntity
  8
0
  6
Continuous
 62
     7
100
AcDbLine
 10
-470.6647528085651
 20
-24.68770955414003
 30
0.0
 11
-469.2648528085653
 21
-24.68770955414003
 31
0.0
  0
LINE
  5
E1A
330
1F
100
AcDbEntity
  8
0
  6
Continuous
 62
     7
100
AcDbLine
 10
-470.6647528085651
 20
-23.68770955414003
 30
0.0
 11
-469.2648528085653
 21
-23.68770955414003
 31
0.0
  0
LINE
  5
E1B
330
1F
100
AcDbEntity
  8
0
  6
Continuous
 62
     7
100
AcDbLine
 10
-471.1647528085653
 20
-25.18770955414003
 30
0.0
 11
-471.1647528085653
 21
-26.58760955414016
 31
0.0
  0
LINE
  5
E1C
330
1F
100
AcDbEntity
  8
0
  6
Continuous
 62
     7
100
AcDbLine
 10
-474.0646528085653
 20
-24.68770955414003
 30
0.0
 11
-472.6647528085653
 21
-24.68770955414003
 31
0.0
  0
LINE
  5
E1D
330
1F
100
AcDbEntity
  8
0
  6
Continuous
 62
     7
100
AcDbLine
 10
-474.0646528085653
 20
-23.68770955414003
 30
0.0
 11
-472.6647528085653
 21
-23.68770955414003
 31
0.0
  0
LINE
  5
E1E
330
1F
100
AcDbEntity
  8
0
  6
Continuous
 62
     7
100
AcDbLine
 10
-472.1647528085653
 20
-21.78780955414014
 30
0.0
 11
-472.1647528085653
 21
-23.18770955414003
 31
0.0
  0
LINE
  5
E1F
330
1F
100
AcDbEntity
  8
0
  6
Continuous
 62
     7
100
AcDbLine
 10
-471.1647528085653
 20
-21.78780955414014
 30
0.0
 11
-471.1647528085653
 21
-23.18770955414003
 31
0.0
  0
LINE
  5
E20
330
1F
100
AcDbEntity
  8
0
  6
Continuous
 62
     7
100
AcDbLine
 10
-400.2648528085648
 20
44.31229044585996
 30
0.0
 11
-400.2648528085648
 21
45.31229044585995
 31
0.0
  0
LINE
  5
E21
330
1F
100
AcDbEntity
  8
0
  6
Continuous
 62
     7
100
AcDbLine
 10
-405.0646528085649
 20
44.31229044585996
 30
0.0
 11
-405.0646528085649
 21
45.31229044585995
 31
0.0
  0
LINE
  5
E22
330
1F
100
AcDbEntity
  8
0
  6
Continuous
 62
     7
100
AcDbLine
 10
-403.1647528085652
 20
42.41239044585973
 30
0.0
 11
-402.1647528085653
 21
42.41239044585973
 31
0.0
  0
LINE
  5
E23
330
1F
100
AcDbEntity
  8
0
  6
Continuous
 62
     7
100
AcDbLine
 10
-403.1647528085652
 20
47.21219044585974
 30
0.0
 11
-402.1647528085653
 21
47.21219044585974
 31
0.0
  0
LINE
  5
E24
330
1F
100
AcDbEntity
  8
0
  6
Continuous
 62
     7
100
AcDbLine
 10
-401.6647528085653
 20
44.31229044585996
 30
0.0
 11
-400.2648528085648
 21
44.31229044585996
 31
0.0
  0
LINE
  5
E25
330
1F
100
AcDbEntity
  8
0
  6
Continuous
 62
     7
100
AcDbLine
 10
-402.1647528085653
 20
45.81229044585995
 30
0.0
 11
-402.1647528085653
 21
47.21219044585974
 31
0.0
  0
LINE
  5
E26
330
1F
100
AcDbEntity
  8
0
  6
Continuous
 62
     7
100
AcDbLine
 10
-403.1647528085652
 20
45.81229044585995
 30
0.0
 11
-403.1647528085652
 21
47.21219044585974
 31
0.0
  0
LINE
  5
E27
330
1F
100
AcDbEntity
  8
0
  6
Continuous
 62
     7
100
AcDbLine
 10
-401.6647528085653
 20
45.31229044585995
 30
0.0
 11
-400.2648528085648
 21
45.31229044585995
 31
0.0
  0
LINE
  5
E28
330
1F
100
AcDbEntity
  8
0
  6
Continuous
 62
     7
100
AcDbLine
 10
-402.1647528085653
 20
42.41239044585973
 30
0.0
 11
-402.1647528085653
 21
43.81229044585995
 31
0.0
  0
LINE
  5
E29
330
1F
100
AcDbEntity
  8
0
  6
Continuous
 62
     7
100
AcDbLine
 10
-403.1647528085652
 20
42.41239044585973
 30
0.0
 11
-403.1647528085652
 21
43.81229044585995
 31
0.0
  0
LINE
  5
E2A
330
1F
100
AcDbEntity
  8
0
  6
Continuous
 62
     7
100
AcDbLine
 10
-405.0646528085649
 20
44.31229044585996
 30
0.0
 11
-403.6647528085651
 21
44.31229044585996
 31
0.0
  0
LINE
  5
E2B
330
1F
100
AcDbEntity
  8
0
  6
Continuous
 62
     7
100
AcDbLine
 10
-405.0646528085649
 20
45.31229044585995
 30
0.0
 11
-403.6647528085651
 21
45.31229044585995
 31
0.0
  0
LINE
  5
E2C
330
1F
100
AcDbEntity
  8
0
  6
Continuous
 62
     7
100
AcDbLine
 10
-434.4626924057731
 20
164.1479795827942
 30
0.0
 11
-441.4833210320788
 21
155.7811201951247
 31
0.0
  0
LINE
  5
E2D
330
1F
100
AcDbEntity
  8
0
  6
Continuous
 62
     7
100
AcDbLine
 10
-487.5077674512342
 20
173.8432901592319
 30
0.0
 11
-505.2738367053205
 21
154.7915133910184
 31
0.0
  0
LINE
  5
E2E
330
1F
100
AcDbEntity
  8
0
  6
Continuous
 62
     7
100
AcDbLine
 10
-487.5077674512342
 20
173.8432901592319
 30
0.0
 11
-486.2890740171831
 21
163.9178286428186
 31
0.0
  0
LINE
  5
E2F
330
1F
100
AcDbEntity
  8
0
  6
Continuous
 62
     7
100
AcDbLine
 10
-468.8976917695597
 20
169.7816601858344
 30
0.0
 11
-473.0744360945755
 21
164.8040101311497
 31
0.0
  0
LINE
  5
E30
330
1F
100
AcDbEntity
  8
0
  6
Continuous
 62
     7
100
AcDbLine
 10
-468.6647528085653
 20
71.13718360803635
 30
0.0
 11
-468.6647528085653
 21
98.98100835573854
 31
0.0
  0
LINE
  5
E31
330
1F
100
AcDbEntity
  8
0
  6
Continuous
 62
     7
100
AcDbLine
 10
-474.6647528085651
 20
71.13718360803635
 30
0.0
 11
-474.6647528085651
 21
98.98100835573854
 31
0.0
  0
LINE
  5
E32
330
1F
100
AcDbEntity
  8
0
  6
Continuous
 62
     7
100
AcDbLine
 10
-497.9896459707417
 20
47.81229044585995
 30
0.0
 11
-525.833470718444
 21
47.81229044585995
 31
0.0
  0
LINE
  5
E33
330
1F
100
AcDbEntity
  8
0
  6
Continuous
 62
     7
100
AcDbLine
 10
-497.9896459707417
 20
41.81229044585996
 30
0.0
 11
-525.833470718444
 21
41.81229044585996
 31
0.0
  0
LINE
  5
E34
330
1F
100
AcDbEntity
  8
0
  6
Continuous
 62
     7
100
AcDbLine
 10
-474.6647528085651
 20
18.48739728368362
 30
0.0
 11
-474.6647528085651
 21
-9.35642746401858
 31
0.0
  0
LINE
  5
E35
330
1F
100
AcDbEntity
  8
0
  6
Continuous
 62
     7
100
AcDbLine
 10
-468.6647528085653
 20
18.48739728368362
 30
0.0
 11
-468.6647528085653
 21
-9.35642746401858
 31
0.0
  0
LINE
  5
E36
330
1F
100
AcDbEntity
  8
0
  6
Continuous
 62
     7
100
AcDbLine
 10
-445.3398596463888
 20
41.81229044585992
 30
0.0
 11
-417.4960348986868
 21
41.81229044585992
 31
0.0
  0
LINE
  5
E37
330
1F
100
AcDbEntity
  8
0
  6
Continuous
 62
     7
100
AcDbLine
 10
-445.3398596463888
 20
47.81229044585994
 30
0.0
 11
-417.4960348986868
 21
47.81229044585994
 31
0.0
  0
LINE
  5
E38
330
1F
100
AcDbEntity
  8
0
  6
DASH_CENTER
 62
    30
100
AcDbLine
 10
-471.6647528085653
 20
219.5774365960933
 30
0.0
 11
-471.6647528085653
 21
-129.9528557043734
 31
0.0
  0
LINE
  5
E39
330
1F
100
AcDbEntity
  8
100
  6
DASH_CENTER
 62
    30
100
AcDbLine
 10
270.8063526259092
 20
-38.52756972601737
 30
0.0
 11
270.8046005702444
 21
-31.75022509577756
 31
0.0
  0
LINE
  5
E3A
330
1F
100
AcDbEntity
  8
0
  6
DASHED
 62
     2
100
AcDbLine
 10
266.4651311290093
 20
-33.58982509577772
 30
0.0
 11
266.3039311290093
 21
-31.75022509577756
 31
0.0
  0
LINE
  5
E3B
330
1F
100
AcDbEntity
  8
0
  6
DASHED
 62
     2
100
AcDbLine
 10
275.1430311290096
 20
-33.58982509577772
 30
0.0
 11
275.3039311290094
 21
-31.75022509577756
 31
0.0
  0
LINE
  5
E3C
330
1F
100
AcDbEntity
  8
0
  6
DASHED
 62
     2
100
AcDbLine
 10
273.5490311290095
 20
-35.05002509577769
 30
0.0
 11
268.0588311290095
 21
-35.05002509577769
 31
0.0
  0
LINE
  5
E3D
330
1F
100
AcDbEntity
  8
0
  6
DASHED
 62
     2
100
AcDbLine
 10
266.3039311290093
 20
-31.75022509577756
 30
0.0
 11
270.8046005702444
 21
-31.75022509577756
 31
0.0
  0
LINE
  5
E3E
330
1F
100
AcDbEntity
  8
0
  6
DASHED
 62
     2
100
AcDbLine
 10
265.8042901833229
 20
-30.55022509577757
 30
0.0
 11
271.1561368393882
 21
-30.55022509577757
 31
0.0
  0
LINE
  5
E3F
330
1F
100
AcDbEntity
  8
0
  6
DASHED
 62
     2
100
AcDbLine
 10
275.8042905174768
 20
-30.55022509577757
 30
0.0
 11
275.8046007373213
 21
-31.75022509577756
 31
0.0
  0
LINE
  5
E40
330
1F
100
AcDbEntity
  8
0
  6
DASHED
 62
     2
100
AcDbLine
 10
265.8042901833229
 20
-30.55022509577757
 30
0.0
 11
265.8046004031674
 21
-31.75022509577756
 31
0.0
  0
LINE
  5
E41
330
1F
100
AcDbEntity
  8
0
  6
DASHED
 62
     2
100
AcDbLine
 10
265.8046004031674
 20
-31.75022509577756
 30
0.0
 11
270.8046005702444
 21
-31.75022509577756
 31
0.0
  0
LINE
  5
E42
330
1F
100
AcDbEntity
  8
0
  6
DASHED
 62
     2
100
AcDbLine
 10
271.1561368393882
 20
-30.55022509577757
 30
0.0
 11
270.8046005702444
 21
-31.75022509577756
 31
0.0
  0
LINE
  5
E43
330
1F
100
AcDbEntity
  8
0
  6
DASHED
 62
     2
100
AcDbLine
 10
271.1561368393882
 20
-30.55022509577757
 30
0.0
 11
271.6441826712501
 21
-30.55022509577757
 31
0.0
  0
LINE
  5
E44
330
1F
100
AcDbEntity
  8
0
  6
DASHED
 62
     2
100
AcDbLine
 10
270.8046005702444
 20
-31.75022509577756
 30
0.0
 11
271.3438467747201
 21
-31.75022509577756
 31
0.0
  0
LINE
  5
E45
330
1F
100
AcDbEntity
  8
0
  6
DASHED
 62
     2
100
AcDbLine
 10
270.8046005702444
 20
-31.75022509577756
 30
0.0
 11
271.3438467747201
 21
-31.75022509577756
 31
0.0
  0
LINE
  5
E46
330
1F
100
AcDbEntity
  8
0
  6
DASHED
 62
     2
100
AcDbLine
 10
271.6441826712501
 20
-30.55022509577757
 30
0.0
 11
271.3438467747201
 21
-31.75022509577756
 31
0.0
  0
LINE
  5
E47
330
1F
100
AcDbEntity
  8
0
  6
DASHED
 62
     2
100
AcDbLine
 10
271.6441826712501
 20
-30.55022509577757
 30
0.0
 11
275.8042905174768
 21
-30.55022509577757
 31
0.0
  0
LINE
  5
E48
330
1F
100
AcDbEntity
  8
0
  6
DASHED
 62
     2
100
AcDbLine
 10
271.3438467747201
 20
-31.75022509577756
 30
0.0
 11
275.3039311290094
 21
-31.75022509577756
 31
0.0
  0
LINE
  5
E49
330
1F
100
AcDbEntity
  8
0
  6
DASHED
 62
     2
100
AcDbLine
 10
271.3438467747201
 20
-31.75022509577756
 30
0.0
 11
275.8046007373213
 21
-31.75022509577756
 31
0.0
  0
LINE
  5
E4A
330
1F
100
AcDbEntity
  8
100
  6
DASH_CENTER
 62
    30
100
AcDbLine
 10
320.3183067940472
 20
-38.52756972601737
 30
0.0
 11
320.3165547383824
 21
-31.75022509577756
 31
0.0
  0
LINE
  5
E4B
330
1F
100
AcDbEntity
  8
0
  6
DASHED
 62
     2
100
AcDbLine
 10
315.9770852971474
 20
-33.58982509577772
 30
0.0
 11
315.8158852971474
 21
-31.75022509577756
 31
0.0
  0
LINE
  5
E4C
330
1F
100
AcDbEntity
  8
0
  6
DASHED
 62
     2
100
AcDbLine
 10
324.6549852971474
 20
-33.58982509577772
 30
0.0
 11
324.8158852971475
 21
-31.75022509577756
 31
0.0
  0
LINE
  5
E4D
330
1F
100
AcDbEntity
  8
0
  6
DASHED
 62
     2
100
AcDbLine
 10
323.0609852971475
 20
-35.05002509577769
 30
0.0
 11
317.5707852971474
 21
-35.05002509577769
 31
0.0
  0
LINE
  5
E4E
330
1F
100
AcDbEntity
  8
0
  6
DASHED
 62
     2
100
AcDbLine
 10
315.8158852971474
 20
-31.75022509577756
 30
0.0
 11
320.3165547383824
 21
-31.75022509577756
 31
0.0
  0
LINE
  5
E4F
330
1F
100
AcDbEntity
  8
0
  6
DASHED
 62
     2
100
AcDbLine
 10
315.316244351461
 20
-30.55022509577757
 30
0.0
 11
320.6680910075262
 21
-30.55022509577757
 31
0.0
  0
LINE
  5
E50
330
1F
100
AcDbEntity
  8
0
  6
DASHED
 62
     2
100
AcDbLine
 10
325.3162446856147
 20
-30.55022509577757
 30
0.0
 11
325.3165549054593
 21
-31.75022509577756
 31
0.0
  0
LINE
  5
E51
330
1F
100
AcDbEntity
  8
0
  6
DASHED
 62
     2
100
AcDbLine
 10
315.316244351461
 20
-30.55022509577757
 30
0.0
 11
315.3165545713055
 21
-31.75022509577756
 31
0.0
  0
LINE
  5
E52
330
1F
100
AcDbEntity
  8
0
  6
DASHED
 62
     2
100
AcDbLine
 10
315.3165545713055
 20
-31.75022509577756
 30
0.0
 11
320.3165547383824
 21
-31.75022509577756
 31
0.0
  0
LINE
  5
E53
330
1F
100
AcDbEntity
  8
0
  6
DASHED
 62
     2
100
AcDbLine
 10
320.6680910075262
 20
-30.55022509577757
 30
0.0
 11
320.3165547383824
 21
-31.75022509577756
 31
0.0
  0
LINE
  5
E54
330
1F
100
AcDbEntity
  8
0
  6
DASHED
 62
     2
100
AcDbLine
 10
320.6680910075262
 20
-30.55022509577757
 30
0.0
 11
321.1561368393882
 21
-30.55022509577757
 31
0.0
  0
LINE
  5
E55
330
1F
100
AcDbEntity
  8
0
  6
DASHED
 62
     2
100
AcDbLine
 10
320.3165547383824
 20
-31.75022509577756
 30
0.0
 11
320.8558009428582
 21
-31.75022509577756
 31
0.0
  0
LINE
  5
E56
330
1F
100
AcDbEntity
  8
0
  6
DASHED
 62
     2
100
AcDbLine
 10
320.3165547383824
 20
-31.75022509577756
 30
0.0
 11
320.8558009428582
 21
-31.75022509577756
 31
0.0
  0
LINE
  5
E57
330
1F
100
AcDbEntity
  8
0
  6
DASHED
 62
     2
100
AcDbLine
 10
321.1561368393882
 20
-30.55022509577757
 30
0.0
 11
320.8558009428582
 21
-31.75022509577756
 31
0.0
  0
LINE
  5
E58
330
1F
100
AcDbEntity
  8
0
  6
DASHED
 62
     2
100
AcDbLine
 10
321.1561368393882
 20
-30.55022509577757
 30
0.0
 11
325.3162446856147
 21
-30.55022509577757
 31
0.0
  0
LINE
  5
E59
330
1F
100
AcDbEntity
  8
0
  6
DASHED
 62
     2
100
AcDbLine
 10
320.8558009428582
 20
-31.75022509577756
 30
0.0
 11
324.8158852971475
 21
-31.75022509577756
 31
0.0
  0
LINE
  5
E5A
330
1F
100
AcDbEntity
  8
0
  6
DASHED
 62
     2
100
AcDbLine
 10
320.8558009428582
 20
-31.75022509577756
 30
0.0
 11
325.3165549054593
 21
-31.75022509577756
 31
0.0
  0
LINE
  5
E5B
330
1F
100
AcDbEntity
  8
0
  6
DASH_CENTER
 62
     2
100
AcDbLine
 10
256.1561368393867
 20
-117.799846544324
 30
0.0
 11
256.1561368393864
 21
-130.7922711000869
 31
0.0
  0
LINE
  5
E5D
330
1F
100
AcDbEntity
  8
0
  6
DASHED
 62
     2
100
AcDbLine
 10
261.6561368393866
 20
-122.8878095541399
 30
0.0
 11
261.6561368393866
 21
-125.1878095541399
 31
0.0
  0
LINE
  5
E5E
330
1F
100
AcDbEntity
  8
0
  6
Continuous
 62
     7
100
AcDbLine
 10
261.6561368393866
 20
-122.8878095541399
 30
0.0
 11
341.1561368393866
 21
-122.8878095541399
 31
0.0
  0
LINE
  5
E5F
330
1F
100
AcDbEntity
  8
0
  6
Continuous
 62
     7
100
AcDbLine
 10
261.6561368393866
 20
-125.1878095541399
 30
0.0
 11
341.1561368393865
 21
-125.1878095541399
 31
0.0
  0
LINE
  5
E60
330
1F
100
AcDbEntity
  8
0
  6
DASHED
 62
     2
100
AcDbLine
 10
250.6561368393866
 20
-122.8878095541399
 30
0.0
 11
250.6561368393866
 21
-125.1878095541399
 31
0.0
  0
LINE
  5
E61
330
1F
100
AcDbEntity
  8
0
  6
Continuous
 62
     7
100
AcDbLine
 10
250.6561368393866
 20
-122.8878095541399
 30
0.0
 11
256.1561368393866
 21
-122.8878095541399
 31
0.0
  0
LINE
  5
E62
330
1F
100
AcDbEntity
  8
0
  6
Continuous
 62
     7
100
AcDbLine
 10
250.6561368393866
 20
-125.1878095541399
 30
0.0
 11
261.6561368393866
 21
-125.1878095541399
 31
0.0
  0
LINE
  5
E63
330
1F
100
AcDbEntity
  8
0
  6
Continuous
 62
     7
100
AcDbLine
 10
291.1561368393856
 20
-122.8878095541399
 30
0.0
 11
296.6561368393856
 21
-122.8878095541399
 31
0.0
  0
LINE
  5
E64
330
1F
100
AcDbEntity
  8
0
  6
DASH_CENTER
 62
     2
100
AcDbLine
 10
291.1561368393857
 20
-117.799846544324
 30
0.0
 11
291.1561368393854
 21
-130.7922711000869
 31
0.0
  0
LINE
  5
E66
330
1F
100
AcDbEntity
  8
0
  6
DASHED
 62
     2
100
AcDbLine
 10
296.6561368393856
 20
-122.8878095541399
 30
0.0
 11
296.6561368393856
 21
-125.1878095541399
 31
0.0
  0
LINE
  5
E67
330
1F
100
AcDbEntity
  8
0
  6
DASHED
 62
     2
100
AcDbLine
 10
285.6561368393855
 20
-122.8878095541399
 30
0.0
 11
285.6561368393855
 21
-125.1878095541399
 31
0.0
  0
LINE
  5
E68
330
1F
100
AcDbEntity
  8
0
  6
Continuous
 62
     7
100
AcDbLine
 10
285.6561368393855
 20
-122.8878095541399
 30
0.0
 11
291.1561368393856
 21
-122.8878095541399
 31
0.0
  0
LINE
  5
E69
330
1F
100
AcDbEntity
  8
0
  6
Continuous
 62
     7
100
AcDbLine
 10
285.6561368393855
 20
-125.1878095541399
 30
0.0
 11
296.6561368393856
 21
-125.1878095541399
 31
0.0
  0
LINE
  5
E6A
330
1F
100
AcDbEntity
  8
0
  6
Continuous
 62
     7
100
AcDbLine
 10
326.1561368393857
 20
-122.8878095541399
 30
0.0
 11
331.6561368393857
 21
-122.8878095541399
 31
0.0
  0
LINE
  5
E6B
330
1F
100
AcDbEntity
  8
0
  6
DASH_CENTER
 62
     2
100
AcDbLine
 10
326.1561368393857
 20
-117.799846544324
 30
0.0
 11
326.1561368393854
 21
-130.7922711000869
 31
0.0
  0
LINE
  5
E6D
330
1F
100
AcDbEntity
  8
0
  6
DASHED
 62
     2
100
AcDbLine
 10
331.6561368393857
 20
-122.8878095541399
 30
0.0
 11
331.6561368393857
 21
-125.1878095541399
 31
0.0
  0
LINE
  5
E6E
330
1F
100
AcDbEntity
  8
0
  6
DASHED
 62
     2
100
AcDbLine
 10
320.6561368393857
 20
-122.8878095541399
 30
0.0
 11
320.6561368393857
 21
-125.1878095541399
 31
0.0
  0
LINE
  5
E6F
330
1F
100
AcDbEntity
  8
0
  6
Continuous
 62
     7
100
AcDbLine
 10
320.6561368393857
 20
-122.8878095541399
 30
0.0
 11
326.1561368393857
 21
-122.8878095541399
 31
0.0
  0
LINE
  5
E70
330
1F
100
AcDbEntity
  8
0
  6
Continuous
 62
     7
100
AcDbLine
 10
320.6561368393857
 20
-125.1878095541399
 30
0.0
 11
331.6561368393857
 21
-125.1878095541399
 31
0.0
  0
LINE
  5
E71
330
1F
100
AcDbEntity
  8
0
  6
DASH_CENTER
 62
    30
100
AcDbLine
 10
-646.4298989587987
 20
44.81229044585997
 30
0.0
 11
-641.6647528085652
 21
44.81229044585997
 31
0.0
  0
LINE
  5
E72
330
1F
100
AcDbEntity
  8
0
  6
DASHED
 62
     2
100
AcDbLine
 10
-551.8154299030006
 20
43.88010950657377
 30
0.0
 11
-550.6613920195021
 21
44.08359752219422
 31
0.0
  0
LINE
  5
E73
330
1F
100
AcDbEntity
  8
0
  6
DASHED
 62
     2
100
AcDbLine
 10
-547.3005772836605
 20
18.27510792825635
 30
0.0
 11
-546.1465394001622
 21
18.47859594387681
 31
0.0
  0
LINE
  5
E74
330
1F
100
AcDbEntity
  8
0
  6
DASHED
 62
     2
100
AcDbLine
 10
-499.1647528085652
 20
-28.5481212214689
 30
0.0
 11
-499.1647528085652
 21
-30.48770955414001
 31
0.0
  0
LINE
  5
E75
330
1F
100
AcDbEntity
  8
0
  6
DASHED
 62
     2
 48
0.9
100
AcDbLine
 10
-499.1647528085652
 20
-30.48770955414001
 30
0.0
 11
-515.3647528085651
 21
-30.48770955414001
 31
0.0
  0
LINE
  5
E76
330
1F
100
AcDbEntity
  8
0
  6
DASHED
 62
     2
 48
0.9
100
AcDbLine
 10
-519.6647528085653
 20
-32.25865192127593
 30
0.0
 11
-519.6647528085653
 21
-105.7200980956098
 31
0.0
  0
LINE
  5
E77
330
1F
100
AcDbEntity
  8
0
  6
Continuous
 62
     7
100
AcDbLine
 10
-545.1647528085652
 20
-122.8878095541399
 30
0.0
 11
-545.1647528085652
 21
-125.1878095541399
 31
0.0
  0
LINE
  5
E78
330
1F
100
AcDbEntity
  8
0
  6
Continuous
 62
     7
100
AcDbLine
 10
-545.1647528085652
 20
-122.8878095541399
 30
0.0
 11
-521.6647528085652
 21
-122.8878095541399
 31
0.0
  0
LINE
  5
E79
330
1F
100
AcDbEntity
  8
0
  6
Continuous
 62
     7
100
AcDbLine
 10
-545.1647528085652
 20
-125.1878095541399
 30
0.0
 11
-521.3647528085653
 21
-125.1878095541399
 31
0.0
  0
LINE
  5
E7A
330
1F
100
AcDbEntity
  8
0
  6
DASHED
 62
     7
100
AcDbLine
 10
-507.3647528085652
 20
-110.1878095541399
 30
0.0
 11
-502.3073538729341
 21
-110.1878095541399
 31
0.0
  0
LINE
  5
E7B
330
1F
100
AcDbEntity
  8
0
  6
Continuous
 62
     7
100
AcDbLine
 10
-517.3647528085653
 20
-120.1878095541399
 30
0.0
 11
-517.3647528085653
 21
-121.1878095541399
 31
0.0
  0
LINE
  5
E7C
330
1F
100
AcDbEntity
  8
0
  6
DASHED
 62
     2
 48
0.9
100
AcDbLine
 10
-517.3647528085653
 20
-120.1878095541399
 30
0.0
 11
-517.3647528085653
 21
-106.434230175277
 31
0.0
  0
LINE
  5
E7D
330
1F
100
AcDbEntity
  8
0
  6
Continuous
 62
     7
100
AcDbLine
 10
-519.6647528085653
 20
-105.7200980956098
 30
0.0
 11
-519.6647528085653
 21
-120.8878095541399
 31
0.0
  0
LINE
  5
E7E
330
1F
100
AcDbEntity
  8
0
  6
DASHED
 62
     2
 48
0.9
100
AcDbLine
 10
-517.3647528085653
 20
-106.434230175277
 30
0.0
 11
-517.3647528085653
 21
-32.48770955414001
 31
0.0
  0
LINE
  5
E7F
330
1F
100
AcDbEntity
  8
0
  6
DASHED
 62
     2
 48
0.9
100
AcDbLine
 10
-510.5039120299558
 20
-33.52730955414016
 30
0.0
 11
-510.6651120299558
 21
-31.68770955414003
 31
0.0
  0
LINE
  5
E80
330
1F
100
AcDbEntity
  8
0
  6
DASHED
 62
     2
 48
0.9
100
AcDbLine
 10
-501.8260120299554
 20
-33.52730955414016
 30
0.0
 11
-501.6651120299555
 21
-31.68770955414003
 31
0.0
  0
LINE
  5
E81
330
1F
100
AcDbEntity
  8
0
  6
DASHED
 62
     2
 48
0.9
100
AcDbLine
 10
-503.4200120299556
 20
-34.98750955414015
 30
0.0
 11
-508.9102120299555
 21
-34.98750955414015
 31
0.0
  0
LINE
  5
E82
330
1F
100
AcDbEntity
  8
0
  6
DASHED
 62
     2
 48
0.9
100
AcDbLine
 10
-510.6651120299558
 20
-31.68770955414003
 30
0.0
 11
-506.1644425887207
 21
-31.68770955414003
 31
0.0
  0
LINE
  5
E83
330
1F
100
AcDbEntity
  8
0
  6
DASHED
 62
     2
 48
0.9
100
AcDbLine
 10
-511.1647529756421
 20
-30.48770955414003
 30
0.0
 11
-505.8129063195768
 21
-30.48770955414003
 31
0.0
  0
LINE
  5
E84
330
1F
100
AcDbEntity
  8
0
  6
DASHED
 62
     2
 48
0.9
100
AcDbLine
 10
-501.1647526414883
 20
-30.48770955414003
 30
0.0
 11
-501.1644424216436
 21
-31.68770955414003
 31
0.0
  0
LINE
  5
E85
330
1F
100
AcDbEntity
  8
0
  6
DASHED
 62
     2
 48
0.9
100
AcDbLine
 10
-511.1647529756421
 20
-30.48770955414003
 30
0.0
 11
-511.1644427557976
 21
-31.68770955414003
 31
0.0
  0
LINE
  5
E86
330
1F
100
AcDbEntity
  8
0
  6
DASHED
 62
     2
 48
0.9
100
AcDbLine
 10
-511.1644427557976
 20
-31.68770955414003
 30
0.0
 11
-506.1644425887207
 21
-31.68770955414003
 31
0.0
  0
LINE
  5
E87
330
1F
100
AcDbEntity
  8
0
  6
DASHED
 62
     2
 48
0.9
100
AcDbLine
 10
-505.8129063195768
 20
-30.48770955414003
 30
0.0
 11
-506.1644425887207
 21
-31.68770955414003
 31
0.0
  0
LINE
  5
E88
330
1F
100
AcDbEntity
  8
0
  6
DASHED
 62
     2
 48
0.9
100
AcDbLine
 10
-505.8129063195768
 20
-30.48770955414003
 30
0.0
 11
-505.3248604877148
 21
-30.48770955414003
 31
0.0
  0
LINE
  5
E89
330
1F
100
AcDbEntity
  8
0
  6
DASHED
 62
     2
 48
0.9
100
AcDbLine
 10
-506.1644425887207
 20
-31.68770955414003
 30
0.0
 11
-505.6251963842448
 21
-31.68770955414003
 31
0.0
  0
LINE
  5
E8A
330
1F
100
AcDbEntity
  8
0
  6
DASHED
 62
     2
 48
0.9
100
AcDbLine
 10
-506.1644425887207
 20
-31.68770955414003
 30
0.0
 11
-505.6251963842448
 21
-31.68770955414003
 31
0.0
  0
LINE
  5
E8B
330
1F
100
AcDbEntity
  8
0
  6
DASHED
 62
     2
 48
0.9
100
AcDbLine
 10
-505.3248604877148
 20
-30.48770955414003
 30
0.0
 11
-505.6251963842448
 21
-31.68770955414003
 31
0.0
  0
LINE
  5
E8C
330
1F
100
AcDbEntity
  8
0
  6
DASHED
 62
     2
 48
0.9
100
AcDbLine
 10
-505.3248604877148
 20
-30.48770955414003
 30
0.0
 11
-501.1647526414883
 21
-30.48770955414003
 31
0.0
  0
LINE
  5
E8D
330
1F
100
AcDbEntity
  8
0
  6
DASHED
 62
     2
 48
0.9
100
AcDbLine
 10
-505.6251963842448
 20
-31.68770955414003
 30
0.0
 11
-501.6651120299555
 21
-31.68770955414003
 31
0.0
  0
LINE
  5
E8E
330
1F
100
AcDbEntity
  8
0
  6
DASHED
 62
     2
 48
0.9
100
AcDbLine
 10
-505.6251963842448
 20
-31.68770955414003
 30
0.0
 11
-501.1644424216436
 21
-31.68770955414003
 31
0.0
  0
LINE
  5
E8F
330
1F
100
AcDbEntity
  8
100
  6
DASH_CENTER
 62
    30
100
AcDbLine
 10
-506.1655767493333
 20
-27.30052169708257
 30
0.0
 11
-506.1626905330558
 21
-38.46505418437981
 31
0.0
  0
LINE
  5
E90
330
1F
100
AcDbEntity
  8
0
  6
Continuous
 62
     7
100
AcDbLine
 10
-398.1647528085653
 20
-125.1878095541399
 30
0.0
 11
-398.1647528085653
 21
-122.8878095541399
 31
0.0
  0
LINE
  5
E91
330
1F
100
AcDbEntity
  8
0
  6
Continuous
 62
     7
100
AcDbLine
 10
-421.6647528085653
 20
-122.8878095541399
 30
0.0
 11
-398.1647528085653
 21
-122.8878095541399
 31
0.0
  0
LINE
  5
E92
330
1F
100
AcDbEntity
  8
0
  6
Continuous
 62
     7
100
AcDbLine
 10
-421.9647528085651
 20
-125.1878095541399
 30
0.0
 11
-398.1647528085653
 21
-125.1878095541399
 31
0.0
  0
LINE
  5
E93
330
1F
100
AcDbEntity
  8
0
  6
Continuous
 62
     7
100
AcDbLine
 10
-425.9647528085651
 20
-121.1878095541399
 30
0.0
 11
-425.9647528085651
 21
-120.1878095541399
 31
0.0
  0
LINE
  5
E94
330
1F
100
AcDbEntity
  8
0
  6
DASHED
 62
     2
100
AcDbLine
 10
-425.9647528085651
 20
-106.434230175277
 30
0.0
 11
-425.9647528085651
 21
-120.1878095541399
 31
0.0
  0
LINE
  5
E95
330
1F
100
AcDbEntity
  8
0
  6
Continuous
 62
     7
100
AcDbLine
 10
-423.6647528085653
 20
-120.8878095541399
 30
0.0
 11
-423.6647528085653
 21
-110.1878095541399
 31
0.0
  0
LINE
  5
E96
330
1F
100
AcDbEntity
  8
0
  6
DASHED
 62
     2
 48
0.9
100
AcDbLine
 10
-425.9647528085651
 20
-32.48770955414001
 30
0.0
 11
-425.9647528085651
 21
-106.434230175277
 31
0.0
  0
LINE
  5
E97
330
1F
100
AcDbEntity
  8
0
  6
DASHED
 62
     2
 48
0.9
100
AcDbLine
 10
-423.6647528085653
 20
-105.7200980956098
 30
0.0
 11
-423.6647528085653
 21
-32.25865192127593
 31
0.0
  0
LINE
  5
E98
330
1F
100
AcDbEntity
  8
0
  6
DASHED
 62
     2
 48
0.9
100
AcDbLine
 10
-427.9647528085653
 20
-30.48770955414001
 30
0.0
 11
-444.1647528085653
 21
-30.48770955414001
 31
0.0
  0
LINE
  5
E99
330
1F
100
AcDbEntity
  8
0
  6
DASHED
 62
     2
 48
0.9
100
AcDbLine
 10
-432.6643935871749
 20
-31.68770955414003
 30
0.0
 11
-432.8255935871749
 21
-33.52730955414016
 31
0.0
  0
LINE
  5
E9A
330
1F
100
AcDbEntity
  8
0
  6
DASHED
 62
     2
 48
0.9
100
AcDbLine
 10
-441.6643935871749
 20
-31.68770955414003
 30
0.0
 11
-441.5034935871751
 21
-33.52730955414016
 31
0.0
  0
LINE
  5
E9B
330
1F
100
AcDbEntity
  8
0
  6
DASHED
 62
     2
 48
0.9
100
AcDbLine
 10
-434.419293587175
 20
-34.98750955414015
 30
0.0
 11
-439.9094935871751
 21
-34.98750955414015
 31
0.0
  0
LINE
  5
E9C
330
1F
100
AcDbEntity
  8
0
  6
DASHED
 62
     2
 48
0.9
100
AcDbLine
 10
-437.1650630284098
 20
-31.68770955414003
 30
0.0
 11
-432.6643935871749
 21
-31.68770955414003
 31
0.0
  0
LINE
  5
E9D
330
1F
100
AcDbEntity
  8
0
  6
DASHED
 62
     2
 48
0.9
100
AcDbLine
 10
-437.5165992975537
 20
-30.48770955414003
 30
0.0
 11
-432.1647526414883
 21
-30.48770955414003
 31
0.0
  0
LINE
  5
E9E
330
1F
100
AcDbEntity
  8
0
  6
DASHED
 62
     2
 48
0.9
100
AcDbLine
 10
-442.1650631954868
 20
-31.68770955414003
 30
0.0
 11
-442.1647529756423
 21
-30.48770955414003
 31
0.0
  0
LINE
  5
E9F
330
1F
100
AcDbEntity
  8
0
  6
DASHED
 62
     2
100
AcDbLine
 10
-432.165062861333
 20
-31.68770955414003
 30
0.0
 11
-432.1647526414883
 21
-30.48770955414003
 31
0.0
  0
LINE
  5
EA0
330
1F
100
AcDbEntity
  8
0
  6
DASHED
 62
     2
 48
0.9
100
AcDbLine
 10
-437.1650630284098
 20
-31.68770955414003
 30
0.0
 11
-432.165062861333
 21
-31.68770955414003
 31
0.0
  0
LINE
  5
EA1
330
1F
100
AcDbEntity
  8
0
  6
DASHED
 62
     2
 48
0.9
100
AcDbLine
 10
-437.1650630284098
 20
-31.68770955414003
 30
0.0
 11
-437.5165992975537
 21
-30.48770955414003
 31
0.0
  0
LINE
  5
EA2
330
1F
100
AcDbEntity
  8
0
  6
DASHED
 62
     2
 48
0.9
100
AcDbLine
 10
-438.0046451294155
 20
-30.48770955414003
 30
0.0
 11
-437.5165992975537
 21
-30.48770955414003
 31
0.0
  0
LINE
  5
EA3
330
1F
100
AcDbEntity
  8
0
  6
DASHED
 62
     2
 48
0.9
100
AcDbLine
 10
-437.7043092328857
 20
-31.68770955414003
 30
0.0
 11
-437.1650630284098
 21
-31.68770955414003
 31
0.0
  0
LINE
  5
EA4
330
1F
100
AcDbEntity
  8
0
  6
DASHED
 62
     2
 48
0.9
100
AcDbLine
 10
-437.7043092328857
 20
-31.68770955414003
 30
0.0
 11
-437.1650630284098
 21
-31.68770955414003
 31
0.0
  0
LINE
  5
EA5
330
1F
100
AcDbEntity
  8
0
  6
DASHED
 62
     2
 48
0.9
100
AcDbLine
 10
-437.7043092328857
 20
-31.68770955414003
 30
0.0
 11
-438.0046451294155
 21
-30.48770955414003
 31
0.0
  0
LINE
  5
EA6
330
1F
100
AcDbEntity
  8
0
  6
DASHED
 62
     2
 48
0.9
100
AcDbLine
 10
-442.1647529756423
 20
-30.48770955414003
 30
0.0
 11
-438.0046451294155
 21
-30.48770955414003
 31
0.0
  0
LINE
  5
EA7
330
1F
100
AcDbEntity
  8
0
  6
DASHED
 62
     2
 48
0.9
100
AcDbLine
 10
-441.6643935871749
 20
-31.68770955414003
 30
0.0
 11
-437.7043092328857
 21
-31.68770955414003
 31
0.0
  0
LINE
  5
EA8
330
1F
100
AcDbEntity
  8
0
  6
DASHED
 62
     2
 48
0.9
100
AcDbLine
 10
-442.1650631954868
 20
-31.68770955414003
 30
0.0
 11
-437.7043092328857
 21
-31.68770955414003
 31
0.0
  0
LINE
  5
EA9
330
1F
100
AcDbEntity
  8
0
  6
DASHED
 62
     2
 48
0.9
100
AcDbLine
 10
-444.1647528085653
 20
-30.48770955414001
 30
0.0
 11
-444.1647528085653
 21
-28.5481212214689
 31
0.0
  0
LINE
  5
EAA
330
1F
100
AcDbEntity
  8
0
  6
DASHED
 62
     2
 48
0.9
100
AcDbLine
 10
-427.9647528085653
 20
-30.48770955414001
 30
0.0
 11
-444.1647528085653
 21
-30.48770955414001
 31
0.0
  0
LINE
  5
EAB
330
1F
100
AcDbEntity
  8
0
  6
DASHED
 62
     2
100
AcDbLine
 10
-423.6647528085653
 20
-110.1878095541399
 30
0.0
 11
-423.6647528085653
 21
-105.7200980956098
 31
0.0
  0
LINE
  5
EAC
330
1F
100
AcDbEntity
  8
0
  6
Continuous
 62
     7
100
AcDbLine
 10
-531.6647528085652
 20
-122.8878095541399
 30
0.0
 11
-526.1647528085652
 21
-122.8878095541399
 31
0.0
  0
LINE
  5
EAD
330
1F
100
AcDbEntity
  8
0
  6
DASH_CENTER
 62
     2
100
AcDbLine
 10
-531.6647528085652
 20
-117.799846544324
 30
0.0
 11
-531.6647528085652
 21
-130.792271100087
 31
0.0
  0
LINE
  5
EAF
330
1F
100
AcDbEntity
  8
0
  6
DASHED
 62
     2
100
AcDbLine
 10
-526.1647528085652
 20
-122.8878095541399
 30
0.0
 11
-526.1647528085652
 21
-125.1878095541399
 31
0.0
  0
LINE
  5
EB0
330
1F
100
AcDbEntity
  8
0
  6
DASHED
 62
     2
100
AcDbLine
 10
-537.1647528085652
 20
-122.8878095541399
 30
0.0
 11
-537.1647528085652
 21
-125.1878095541399
 31
0.0
  0
LINE
  5
EB1
330
1F
100
AcDbEntity
  8
0
  6
Continuous
 62
     7
100
AcDbLine
 10
-537.1647528085652
 20
-122.8878095541399
 30
0.0
 11
-531.6647528085652
 21
-122.8878095541399
 31
0.0
  0
LINE
  5
EB2
330
1F
100
AcDbEntity
  8
0
  6
Continuous
 62
     7
100
AcDbLine
 10
-537.1647528085652
 20
-125.1878095541399
 30
0.0
 11
-526.1647528085652
 21
-125.1878095541399
 31
0.0
  0
LINE
  5
EB3
330
1F
100
AcDbEntity
  8
0
  6
Continuous
 62
     7
100
AcDbLine
 10
-417.1647528085653
 20
-122.8878095541399
 30
0.0
 11
-411.6647528085652
 21
-122.8878095541399
 31
0.0
  0
LINE
  5
EB4
330
1F
100
AcDbEntity
  8
0
  6
DASH_CENTER
 62
     2
100
AcDbLine
 10
-411.6647528085651
 20
-130.792271100087
 30
0.0
 11
-411.6647528085652
 21
-117.799846544324
 31
0.0
  0
LINE
  5
EB6
330
1F
100
AcDbEntity
  8
0
  6
DASHED
 62
     2
100
AcDbLine
 10
-417.1647528085653
 20
-125.1878095541399
 30
0.0
 11
-417.1647528085653
 21
-122.8878095541399
 31
0.0
  0
LINE
  5
EB7
330
1F
100
AcDbEntity
  8
0
  6
DASHED
 62
     2
100
AcDbLine
 10
-406.1647528085653
 20
-125.1878095541399
 30
0.0
 11
-406.1647528085653
 21
-122.8878095541399
 31
0.0
  0
LINE
  5
EB8
330
1F
100
AcDbEntity
  8
0
  6
Continuous
 62
     7
100
AcDbLine
 10
-411.6647528085652
 20
-122.8878095541399
 30
0.0
 11
-406.1647528085653
 21
-122.8878095541399
 31
0.0
  0
LINE
  5
EB9
330
1F
100
AcDbEntity
  8
0
  6
Continuous
 62
     7
100
AcDbLine
 10
-417.1647528085653
 20
-125.1878095541399
 30
0.0
 11
-406.1647528085653
 21
-125.1878095541399
 31
0.0
  0
LINE
  5
EBA
330
1F
100
AcDbEntity
  8
0
  6
Continuous
 62
     7
100
AcDbLine
 10
-0.6834631606104155
 20
49.15114361662173
 30
0.0
 11
1.156136839389602
 21
49.31234361662172
 31
0.0
  0
LINE
  5
EBB
330
1F
100
AcDbEntity
  8
0
  6
DASH_CENTER
 62
    30
100
AcDbLine
 10
17.21310958124911
 20
113.81229044586
 30
0.0
 11
-6.799531607317218
 21
113.81229044586
 31
0.0
  0
LINE
  5
EBC
330
1F
100
AcDbEntity
  8
0
  6
Continuous
 62
     7
100
AcDbLine
 10
-0.6834631606104155
 20
118.1511436166218
 30
0.0
 11
1.156136839389602
 21
118.3123436166218
 31
0.0
  0
LINE
  5
EBD
330
1F
100
AcDbEntity
  8
0
  6
Continuous
 62
     7
100
AcDbLine
 10
-0.6834631606104155
 20
109.4732436166216
 30
0.0
 11
1.156136839389602
 21
109.3123436166218
 31
0.0
  0
LINE
  5
EBE
330
1F
100
AcDbEntity
  8
0
  6
Continuous
 62
     7
100
AcDbLine
 10
-2.143663160610628
 20
111.0672436166217
 30
0.0
 11
-2.143663160610628
 21
116.5574436166217
 31
0.0
  0
LINE
  5
EBF
330
1F
100
AcDbEntity
  8
0
  6
Continuous
 62
     7
100
AcDbLine
 10
1.156136839389602
 20
118.3123436166218
 30
0.0
 11
1.156136839389602
 21
109.3123436166218
 31
0.0
  0
LINE
  5
EC0
330
1F
100
AcDbEntity
  8
0
  6
Continuous
 62
     7
100
AcDbLine
 10
1.156136839389602
 20
117.81229044586
 30
0.0
 11
1.156136839389602
 21
44.81229044585996
 31
0.0
  0
LINE
  5
EC1
330
1F
100
AcDbEntity
  8
0
  6
Continuous
 62
     7
100
AcDbLine
 10
5.156136839389604
 20
119.8122904458599
 30
0.0
 11
3.156136839389603
 21
119.8122904458599
 31
0.0
  0
LINE
  5
EC2
330
1F
100
AcDbEntity
  8
0
  6
Continuous
 62
     7
100
AcDbLine
 10
-34.8438631606104
 20
44.81229044585996
 30
0.0
 11
-34.8438631606104
 21
104.31229044586
 31
0.0
  0
LINE
  5
EC3
330
1F
100
AcDbEntity
  8
0
  6
Continuous
 62
     7
100
AcDbLine
 10
-0.8438631606103966
 20
105.81229044586
 30
0.0
 11
-33.3438631606104
 21
105.81229044586
 31
0.0
  0
LINE
  5
EC4
330
1F
100
AcDbEntity
  8
0
  6
Continuous
 62
     7
100
AcDbLine
 10
104.8562368393894
 20
55.02143790273716
 30
0.0
 11
90.35623683938949
 21
55.02143790273716
 31
0.0
  0
LINE
  5
EC5
330
1F
100
AcDbEntity
  8
0
  6
Continuous
 62
     7
100
AcDbLine
 10
21.1561368393896
 20
189.81229044586
 30
0.0
 11
21.1561368393896
 21
44.81229044585997
 31
0.0
  0
LINE
  5
EC6
330
1F
100
AcDbEntity
  8
0
  6
Continuous
 62
     7
100
AcDbLine
 10
90.35623683938949
 20
44.81229044585989
 30
0.0
 11
90.35623683938949
 21
201.5136700754689
 31
0.0
  0
LINE
  5
EC7
330
1F
100
AcDbEntity
  8
0
  6
Continuous
 62
     7
100
AcDbLine
 10
92.22922018559687
 20
202.8122904458599
 30
0.0
 11
97.55623683938948
 21
202.8122904458601
 31
0.0
  0
LINE
  5
EC8
330
1F
100
AcDbEntity
  8
0
  6
Continuous
 62
     7
100
AcDbLine
 10
31.1561368393896
 20
199.8122904458599
 30
0.0
 11
88.35623683938951
 21
199.8122904458601
 31
0.0
  0
LINE
  5
EC9
330
1F
100
AcDbEntity
  8
0
  6
Continuous
 62
     7
100
AcDbLine
 10
18.1561368393896
 20
119.81229044586
 30
0.0
 11
5.156136839389604
 21
119.8122904458599
 31
0.0
  0
LINE
  5
ECA
330
1F
100
AcDbEntity
  8
10
  6
Continuous
 62
     7
100
AcDbLine
 10
102.9831368393896
 20
202.8122904458601
 30
0.0
 11
97.55623683938948
 21
202.8122904458601
 31
0.0
  0
LINE
  5
ECB
330
1F
100
AcDbEntity
  8
10
  6
Continuous
 62
     7
100
AcDbLine
 10
97.55623683938948
 20
44.81229044585989
 30
0.0
 11
97.55623683938948
 21
202.8122904458601
 31
0.0
  0
LINE
  5
ECC
330
1F
100
AcDbEntity
  8
10
  6
Continuous
 62
     7
100
AcDbLine
 10
104.8562368393895
 20
44.8122904458599
 30
0.0
 11
104.8562368393895
 21
201.5133584810751
 31
0.0
  0
LINE
  5
ECD
330
1F
100
AcDbEntity
  8
0
  6
Continuous
 62
     7
100
AcDbLine
 10
106.8562368393895
 20
199.81229044586
 30
0.0
 11
159.8561368393895
 21
199.8122904458599
 31
0.0
  0
LINE
  5
ECE
330
1F
100
AcDbEntity
  8
10
  6
Continuous
 62
     7
100
AcDbLine
 10
169.3561368393895
 20
44.81229044585993
 30
0.0
 11
169.3561368393895
 21
114.4573210058975
 31
0.0
  0
LINE
  5
ECF
330
1F
100
AcDbEntity
  8
0
  6
Continuous
 62
     7
100
AcDbLine
 10
169.3561368393895
 20
44.81229044585993
 30
0.0
 11
169.3561368393895
 21
202.8122904458601
 31
0.0
  0
LINE
  5
ED0
330
1F
100
AcDbEntity
  8
10
  6
Continuous
 62
     7
100
AcDbLine
 10
162.0561368393894
 20
202.8122904458601
 30
0.0
 11
169.3561368393895
 21
202.8122904458601
 31
0.0
  0
LINE
  5
ED1
330
1F
100
AcDbEntity
  8
10
  6
Continuous
 62
     7
100
AcDbLine
 10
174.9831368393895
 20
202.8122904458601
 30
0.0
 11
169.3562368393895
 21
202.8122904458601
 31
0.0
  0
LINE
  5
ED2
330
1F
100
AcDbEntity
  8
0
  6
Continuous
 62
     7
100
AcDbLine
 10
176.8562368393894
 20
176.2537894590157
 30
0.0
 11
162.0561368393894
 21
176.2537894590157
 31
0.0
  0
LINE
  5
ED3
330
1F
100
AcDbEntity
  8
0
  6
Continuous
 62
     7
100
AcDbLine
 10
176.8562368393894
 20
192.9744312627234
 30
0.0
 11
162.0561368393894
 21
192.9744312627234
 31
0.0
  0
LINE
  5
ED4
330
1F
100
AcDbEntity
  8
0
  6
DASH_CENTER
 62
    30
100
AcDbLine
 10
183.3044191792844
 20
185.9744312627234
 30
0.0
 11
153.8558529332724
 21
185.9744312627234
 31
0.0
  0
LINE
  5
ED5
330
1F
100
AcDbEntity
  8
0
  6
Continuous
 62
     7
100
AcDbLine
 10
162.0561368393894
 20
55.02143790273716
 30
0.0
 11
176.8562368393896
 21
55.02143790273716
 31
0.0
  0
LINE
  5
ED6
330
1F
100
AcDbEntity
  8
0
  6
Continuous
 62
     7
100
AcDbLine
 10
108.0562368393896
 20
199.81229044586
 30
0.0
 11
160.0561368393894
 21
199.81229044586
 31
0.0
  0
LINE
  5
ED7
330
1F
100
AcDbEntity
  8
0
  6
Continuous
 62
     7
100
AcDbLine
 10
179.3561368393895
 20
55.02143790273716
 30
0.0
 11
162.0561368393894
 21
55.02143790273716
 31
0.0
  0
LINE
  5
ED8
330
1F
100
AcDbEntity
  8
0
  6
Continuous
 62
     7
100
AcDbLine
 10
104.8562368393895
 20
-99.34970037100356
 30
0.0
 11
109.8562368393895
 21
-99.34970037100356
 31
0.0
  0
LINE
  5
ED9
330
1F
100
AcDbEntity
  8
100
  6
Continuous
 62
    30
100
AcDbLine
 10
104.8562368393895
 20
-98.84970037100352
 30
0.0
 11
110.3562368393895
 21
-98.84970037100352
 31
0.0
  0
LINE
  5
EDA
330
1F
100
AcDbEntity
  8
100
  6
Continuous
 62
    30
100
AcDbLine
 10
104.8562368393896
 20
-93.85000037100343
 30
0.0
 11
110.3562368393895
 21
-93.85000037100343
 31
0.0
  0
LINE
  5
EDB
330
1F
100
AcDbEntity
  8
0
  6
Continuous
 62
     7
100
AcDbLine
 10
104.8562368393895
 20
-93.35000037100346
 30
0.0
 11
109.8562368393895
 21
-93.35000037100346
 31
0.0
  0
LINE
  5
EDC
330
1F
100
AcDbEntity
  8
10
  6
Continuous
 62
     7
100
AcDbLine
 10
104.8562368393895
 20
-111.8888005895984
 30
0.0
 11
104.8562368393895
 21
44.8122904458599
 31
0.0
  0
LINE
  5
EDD
330
1F
100
AcDbEntity
  8
0
  6
Continuous
 62
     7
100
AcDbLine
 10
85.75663683938961
 20
-96.34985037100369
 30
0.0
 11
85.75663683938961
 21
-99.0959397311537
 31
0.0
  0
LINE
  5
EDE
330
1F
100
AcDbEntity
  8
0
  6
Continuous
 62
     7
100
AcDbLine
 10
89.0564368393896
 20
-100.9497503710033
 30
0.0
 11
90.35623683938949
 21
-100.9497503710033
 31
0.0
  0
LINE
  5
EDF
330
1F
100
AcDbEntity
  8
0
  6
Continuous
 62
     7
100
AcDbLine
 10
90.35623683938949
 20
-96.34985037100348
 30
0.0
 11
89.0564368393896
 21
-96.69825037100359
 31
0.0
  0
LINE
  5
EE0
330
1F
100
AcDbEntity
  8
0
  6
Continuous
 62
     7
100
AcDbLine
 10
89.0564368393896
 20
-100.9497503710033
 30
0.0
 11
89.05663683938945
 21
-96.69825037100359
 31
0.0
  0
LINE
  5
EE1
330
1F
100
AcDbEntity
  8
0
  6
Continuous
 62
     7
100
AcDbLine
 10
90.35623683938949
 20
-100.9497503710033
 30
0.0
 11
90.35623683938949
 21
-96.34985037100348
 31
0.0
  0
LINE
  5
EE2
330
1F
100
AcDbEntity
  8
0
  6
Continuous
 62
     7
100
AcDbLine
 10
89.0564368393896
 20
-100.8508397311538
 30
0.0
 11
87.21683683938961
 21
-100.6896397311537
 31
0.0
  0
LINE
  5
EE3
330
1F
100
AcDbEntity
  8
0
  6
Continuous
 62
     7
100
AcDbLine
 10
85.75663683938961
 20
-93.60376101085329
 30
0.0
 11
85.75663683938961
 21
-96.34985037100369
 31
0.0
  0
LINE
  5
EE4
330
1F
100
AcDbEntity
  8
0
  6
Continuous
 62
     7
100
AcDbLine
 10
90.35623683938949
 20
-91.7499503710035
 30
0.0
 11
89.0564368393896
 21
-91.7499503710035
 31
0.0
  0
LINE
  5
EE5
330
1F
100
AcDbEntity
  8
0
  6
Continuous
 62
     7
100
AcDbLine
 10
90.35623683938949
 20
-95.65305037100328
 30
0.0
 11
89.0564368393896
 21
-96.0014503710034
 31
0.0
  0
LINE
  5
EE6
330
1F
100
AcDbEntity
  8
0
  6
Continuous
 62
     7
100
AcDbLine
 10
89.05663683938945
 20
-96.0014503710034
 30
0.0
 11
89.0564368393896
 21
-91.7499503710035
 31
0.0
  0
LINE
  5
EE7
330
1F
100
AcDbEntity
  8
0
  6
Continuous
 62
     7
100
AcDbLine
 10
90.35623683938949
 20
-96.34985037100348
 30
0.0
 11
90.35623683938949
 21
-91.7499503710035
 31
0.0
  0
LINE
  5
EE8
330
1F
100
AcDbEntity
  8
0
  6
Continuous
 62
     7
100
AcDbLine
 10
87.21683683938961
 20
-92.01006101085317
 30
0.0
 11
89.0564368393896
 21
-91.84886101085314
 31
0.0
  0
LINE
  5
EE9
330
1F
100
AcDbEntity
  8
0
  6
DASH_CENTER
 62
    30
100
AcDbLine
 10
115.2653011875556
 20
185.9744312627236
 30
0.0
 11
81.26429767300789
 21
185.9744312627236
 31
0.0
  0
LINE
  5
EEA
330
1F
100
AcDbEntity
  8
0
  6
Continuous
 62
     7
100
AcDbLine
 10
110.3562368393895
 20
183.4745812627235
 30
0.0
 11
110.3562368393895
 21
188.4742812627236
 31
0.0
  0
LINE
  5
EEB
330
1F
100
AcDbEntity
  8
0
  6
Continuous
 62
     7
100
AcDbLine
 10
110.3562368393895
 20
188.4742812627236
 30
0.0
 11
109.8562368393895
 21
188.9742812627236
 31
0.0
  0
LINE
  5
EEC
330
1F
100
AcDbEntity
  8
0
  6
Continuous
 62
     7
100
AcDbLine
 10
110.3562368393895
 20
183.4745812627235
 30
0.0
 11
109.8562368393895
 21
182.9745812627235
 31
0.0
  0
LINE
  5
EED
330
1F
100
AcDbEntity
  8
0
  6
Continuous
 62
     7
100
AcDbLine
 10
109.8562368393895
 20
188.9742812627236
 30
0.0
 11
109.8562368393895
 21
182.9745812627235
 31
0.0
  0
LINE
  5
EEE
330
1F
100
AcDbEntity
  8
0
  6
Continuous
 62
     7
100
AcDbLine
 10
104.8562368393895
 20
192.9744312627235
 30
0.0
 11
90.35623683938949
 21
192.9744312627235
 31
0.0
  0
LINE
  5
EEF
330
1F
100
AcDbEntity
  8
0
  6
Continuous
 62
     7
100
AcDbLine
 10
104.8562368393895
 20
176.2537894590158
 30
0.0
 11
90.35623683938949
 21
176.2537894590158
 31
0.0
  0
LINE
  5
EF0
330
1F
100
AcDbEntity
  8
0
  6
Continuous
 62
     7
100
AcDbLine
 10
109.8562368393895
 20
188.9742812627236
 30
0.0
 11
104.8562368393895
 21
188.9742812627236
 31
0.0
  0
LINE
  5
EF1
330
1F
100
AcDbEntity
  8
100
  6
Continuous
 62
    30
100
AcDbLine
 10
110.3562368393895
 20
188.4742812627236
 30
0.0
 11
104.8562368393895
 21
188.4742812627236
 31
0.0
  0
LINE
  5
EF2
330
1F
100
AcDbEntity
  8
100
  6
Continuous
 62
    30
100
AcDbLine
 10
110.3562368393895
 20
183.4745812627235
 30
0.0
 11
104.8562368393896
 21
183.4745812627235
 31
0.0
  0
LINE
  5
EF3
330
1F
100
AcDbEntity
  8
0
  6
Continuous
 62
     7
100
AcDbLine
 10
109.8562368393895
 20
182.9745812627235
 30
0.0
 11
104.8562368393895
 21
182.9745812627235
 31
0.0
  0
LINE
  5
EF4
330
1F
100
AcDbEntity
  8
0
  6
Continuous
 62
     7
100
AcDbLine
 10
85.75663683938961
 20
188.7205206228737
 30
0.0
 11
85.75663683938961
 21
185.9744312627237
 31
0.0
  0
LINE
  5
EF5
330
1F
100
AcDbEntity
  8
0
  6
Continuous
 62
     7
100
AcDbLine
 10
90.35623683938949
 20
190.5743312627233
 30
0.0
 11
89.0564368393896
 21
190.5743312627233
 31
0.0
  0
LINE
  5
EF6
330
1F
100
AcDbEntity
  8
0
  6
Continuous
 62
     7
100
AcDbLine
 10
89.0564368393896
 20
186.3228312627235
 30
0.0
 11
90.35623683938949
 21
185.9744312627236
 31
0.0
  0
LINE
  5
EF7
330
1F
100
AcDbEntity
  8
0
  6
Continuous
 62
     7
100
AcDbLine
 10
90.35623683938949
 20
185.9744312627236
 30
0.0
 11
90.35623683938949
 21
190.5743312627233
 31
0.0
  0
LINE
  5
EF8
330
1F
100
AcDbEntity
  8
0
  6
Continuous
 62
     7
100
AcDbLine
 10
87.21683683938961
 20
190.3142206228738
 30
0.0
 11
89.0564368393896
 21
190.4754206228739
 31
0.0
  0
LINE
  5
EF9
330
1F
100
AcDbEntity
  8
0
  6
Continuous
 62
     7
100
AcDbLine
 10
85.75663683938961
 20
185.9744312627237
 30
0.0
 11
85.75663683938961
 21
183.2283419025733
 31
0.0
  0
LINE
  5
EFA
330
1F
100
AcDbEntity
  8
0
  6
Continuous
 62
     7
100
AcDbLine
 10
89.0564368393896
 20
181.3745312627236
 30
0.0
 11
90.35623683938949
 21
181.3745312627236
 31
0.0
  0
LINE
  5
EFB
330
1F
100
AcDbEntity
  8
0
  6
Continuous
 62
     7
100
AcDbLine
 10
89.0564368393896
 20
185.6260312627234
 30
0.0
 11
90.35623683938949
 21
185.2776312627233
 31
0.0
  0
LINE
  5
EFC
330
1F
100
AcDbEntity
  8
0
  6
Continuous
 62
     7
100
AcDbLine
 10
90.35623683938949
 20
181.3745312627236
 30
0.0
 11
90.35623683938949
 21
185.9744312627236
 31
0.0
  0
LINE
  5
EFD
330
1F
100
AcDbEntity
  8
0
  6
Continuous
 62
     7
100
AcDbLine
 10
89.0564368393896
 20
181.4734419025732
 30
0.0
 11
87.21683683938961
 21
181.6346419025732
 31
0.0
  0
LINE
  5
EFE
330
1F
100
AcDbEntity
  8
0
  6
Continuous
 62
     7
100
AcDbLine
 10
89.0564368393896
 20
190.4754206228739
 30
0.0
 11
89.0564368393896
 21
181.3745312627236
 31
0.0
  0
LINE
  5
EFF
330
1F
100
AcDbEntity
  8
0
  6
Continuous
 62
     7
100
AcDbLine
 10
110.3562368393895
 20
42.31244044585986
 30
0.0
 11
110.3562368393895
 21
47.31214044585995
 31
0.0
  0
LINE
  5
F00
330
1F
100
AcDbEntity
  8
0
  6
Continuous
 62
     7
100
AcDbLine
 10
110.3562368393895
 20
47.31214044585995
 30
0.0
 11
109.8562368393895
 21
47.81214044585996
 31
0.0
  0
LINE
  5
F01
330
1F
100
AcDbEntity
  8
0
  6
Continuous
 62
     7
100
AcDbLine
 10
110.3562368393895
 20
42.31244044585986
 30
0.0
 11
109.8562368393895
 21
41.81244044585986
 31
0.0
  0
LINE
  5
F02
330
1F
100
AcDbEntity
  8
0
  6
Continuous
 62
     7
100
AcDbLine
 10
109.8562368393895
 20
47.81214044585996
 30
0.0
 11
109.8562368393895
 21
41.81244044585986
 31
0.0
  0
LINE
  5
F03
330
1F
100
AcDbEntity
  8
0
  6
Continuous
 62
     7
100
AcDbLine
 10
109.8562368393895
 20
47.81214044585996
 30
0.0
 11
104.8562368393895
 21
47.81214044585996
 31
0.0
  0
LINE
  5
F04
330
1F
100
AcDbEntity
  8
100
  6
Continuous
 62
    30
100
AcDbLine
 10
110.3562368393895
 20
47.31214044585995
 30
0.0
 11
104.8562368393895
 21
47.31214044585995
 31
0.0
  0
LINE
  5
F05
330
1F
100
AcDbEntity
  8
100
  6
Continuous
 62
    30
100
AcDbLine
 10
110.3562368393895
 20
42.31244044585986
 30
0.0
 11
104.8562368393896
 21
42.31244044585986
 31
0.0
  0
LINE
  5
F06
330
1F
100
AcDbEntity
  8
0
  6
Continuous
 62
     7
100
AcDbLine
 10
109.8562368393895
 20
41.81244044585986
 30
0.0
 11
104.8562368393895
 21
41.81244044585986
 31
0.0
  0
LINE
  5
F07
330
1F
100
AcDbEntity
  8
0
  6
Continuous
 62
     7
100
AcDbLine
 10
85.75663683938961
 20
47.55837980601011
 30
0.0
 11
85.75663683938961
 21
44.81229044586006
 31
0.0
  0
LINE
  5
F08
330
1F
100
AcDbEntity
  8
0
  6
Continuous
 62
     7
100
AcDbLine
 10
90.35623683938949
 20
49.41219044585981
 30
0.0
 11
89.0564368393896
 21
49.41219044585981
 31
0.0
  0
LINE
  5
F09
330
1F
100
AcDbEntity
  8
0
  6
Continuous
 62
     7
100
AcDbLine
 10
89.0564368393896
 20
45.16069044585999
 30
0.0
 11
90.35623683938949
 21
44.81229044585989
 31
0.0
  0
LINE
  5
F0A
330
1F
100
AcDbEntity
  8
0
  6
Continuous
 62
     7
100
AcDbLine
 10
90.35623683938949
 20
44.81229044585989
 30
0.0
 11
90.35623683938949
 21
49.41219044585981
 31
0.0
  0
LINE
  5
F0B
330
1F
100
AcDbEntity
  8
0
  6
Continuous
 62
     7
100
AcDbLine
 10
87.21683683938961
 20
49.15207980601021
 30
0.0
 11
89.0564368393896
 21
49.31327980601029
 31
0.0
  0
LINE
  5
F0C
330
1F
100
AcDbEntity
  8
0
  6
Continuous
 62
     7
100
AcDbLine
 10
85.75663683938961
 20
44.81229044586006
 30
0.0
 11
85.75663683938961
 21
42.0662010857097
 31
0.0
  0
LINE
  5
F0D
330
1F
100
AcDbEntity
  8
0
  6
Continuous
 62
     7
100
AcDbLine
 10
89.0564368393896
 20
40.21239044585995
 30
0.0
 11
90.35623683938949
 21
40.21239044585999
 31
0.0
  0
LINE
  5
F0E
330
1F
100
AcDbEntity
  8
0
  6
Continuous
 62
     7
100
AcDbLine
 10
89.0564368393896
 20
44.4638904458598
 30
0.0
 11
90.35623683938949
 21
44.1154904458597
 31
0.0
  0
LINE
  5
F0F
330
1F
100
AcDbEntity
  8
0
  6
Continuous
 62
     7
100
AcDbLine
 10
90.35623683938949
 20
40.21239044585999
 30
0.0
 11
90.35623683938949
 21
44.81229044585989
 31
0.0
  0
LINE
  5
F10
330
1F
100
AcDbEntity
  8
0
  6
Continuous
 62
     7
100
AcDbLine
 10
89.0564368393896
 20
40.31130108570954
 30
0.0
 11
87.21683683938961
 21
40.47250108570954
 31
0.0
  0
LINE
  5
F11
330
1F
100
AcDbEntity
  8
0
  6
Continuous
 62
     7
100
AcDbLine
 10
89.0564368393896
 20
49.31327980601029
 30
0.0
 11
89.0564368393896
 21
40.21239044585995
 31
0.0
  0
LINE
  5
F12
330
1F
100
AcDbEntity
  8
0
  6
Continuous
 62
     7
100
AcDbLine
 10
89.0564368393896
 20
-100.9497503710033
 30
0.0
 11
89.0564368393896
 21
-91.84886101085314
 31
0.0
  0
LINE
  5
F13
330
1F
100
AcDbEntity
  8
0
  6
DASH_CENTER
 62
    30
100
AcDbLine
 10
153.8558529332724
 20
44.81229044585993
 30
0.0
 11
183.3044191792846
 21
44.81229044585993
 31
0.0
  0
LINE
  5
F14
330
1F
100
AcDbEntity
  8
0
  6
Continuous
 62
     7
100
AcDbLine
 10
161.8561368393895
 20
49.41219044585987
 30
0.0
 11
160.7563368393896
 21
49.41219044585986
 31
0.0
  0
LINE
  5
F15
330
1F
100
AcDbEntity
  8
0
  6
Continuous
 62
     7
100
AcDbLine
 10
160.7563368393896
 20
40.21239044586002
 30
0.0
 11
161.8561368393895
 21
40.21239044586002
 31
0.0
  0
LINE
  5
F16
330
1F
100
AcDbEntity
  8
0
  6
Continuous
 62
     7
100
AcDbLine
 10
160.5563368393896
 20
40.21239044586002
 30
0.0
 11
161.8561368393895
 21
40.21239044586002
 31
0.0
  0
LINE
  5
F17
330
1F
100
AcDbEntity
  8
0
  6
DASH_CENTER
 62
    30
100
AcDbLine
 10
153.8558529332724
 20
185.9744312627234
 30
0.0
 11
183.3044191792844
 21
185.9744312627234
 31
0.0
  0
LINE
  5
F18
330
1F
100
AcDbEntity
  8
0
  6
Continuous
 62
     7
100
AcDbLine
 10
161.8561368393895
 20
190.5743312627233
 30
0.0
 11
160.7563368393896
 21
190.5743312627233
 31
0.0
  0
LINE
  5
F19
330
1F
100
AcDbEntity
  8
0
  6
Continuous
 62
     7
100
AcDbLine
 10
160.7563368393896
 20
181.3745312627235
 30
0.0
 11
161.8561368393895
 21
181.3745312627235
 31
0.0
  0
LINE
  5
F1A
330
1F
100
AcDbEntity
  8
0
  6
Continuous
 62
     7
100
AcDbLine
 10
160.5563368393896
 20
181.3745312627235
 30
0.0
 11
161.8561368393895
 21
181.3745312627235
 31
0.0
  0
LINE
  5
F1B
330
1F
100
AcDbEntity
  8
10
  6
Continuous
 62
     7
100
AcDbLine
 10
162.0561368393894
 20
201.81229044586
 30
0.0
 11
162.0561368393894
 21
202.8122904458601
 31
0.0
  0
LINE
  5
F1C
330
1F
100
AcDbEntity
  8
10
  6
Continuous
 62
     7
100
AcDbLine
 10
162.0561368393894
 20
202.8122904458601
 30
0.0
 11
169.3561368393895
 21
202.8122904458601
 31
0.0
  0
LINE
  5
F1D
330
1F
100
AcDbEntity
  8
0
  6
Continuous
 62
     7
100
AcDbLine
 10
157.4565368393894
 20
188.7205206228736
 30
0.0
 11
157.4565368393894
 21
185.9744312627236
 31
0.0
  0
LINE
  5
F1E
330
1F
100
AcDbEntity
  8
0
  6
Continuous
 62
     7
100
AcDbLine
 10
162.0561368393894
 20
190.5743312627233
 30
0.0
 11
160.7563368393896
 21
190.5743312627233
 31
0.0
  0
LINE
  5
F1F
330
1F
100
AcDbEntity
  8
0
  6
Continuous
 62
     7
100
AcDbLine
 10
160.7563368393896
 20
186.3228312627235
 30
0.0
 11
162.0561368393894
 21
185.9744312627234
 31
0.0
  0
LINE
  5
F20
330
1F
100
AcDbEntity
  8
0
  6
Continuous
 62
     7
100
AcDbLine
 10
160.7565368393894
 20
186.3228312627235
 30
0.0
 11
160.7563368393896
 21
190.5743312627233
 31
0.0
  0
LINE
  5
F21
330
1F
100
AcDbEntity
  8
0
  6
Continuous
 62
     7
100
AcDbLine
 10
162.0561368393894
 20
185.9744312627234
 30
0.0
 11
162.0561368393894
 21
190.5743312627233
 31
0.0
  0
LINE
  5
F22
330
1F
100
AcDbEntity
  8
0
  6
Continuous
 62
     7
100
AcDbLine
 10
158.9167368393895
 20
190.3142206228737
 30
0.0
 11
160.7563368393896
 21
190.4754206228738
 31
0.0
  0
LINE
  5
F23
330
1F
100
AcDbEntity
  8
0
  6
Continuous
 62
     7
100
AcDbLine
 10
157.4565368393894
 20
185.9744312627236
 30
0.0
 11
157.4565368393894
 21
183.2283419025732
 31
0.0
  0
LINE
  5
F24
330
1F
100
AcDbEntity
  8
0
  6
Continuous
 62
     7
100
AcDbLine
 10
160.7563368393896
 20
181.3745312627235
 30
0.0
 11
162.0561368393894
 21
181.3745312627235
 31
0.0
  0
LINE
  5
F25
330
1F
100
AcDbEntity
  8
0
  6
Continuous
 62
     7
100
AcDbLine
 10
160.7563368393896
 20
185.6260312627233
 30
0.0
 11
162.0561368393894
 21
185.2776312627232
 31
0.0
  0
LINE
  5
F26
330
1F
100
AcDbEntity
  8
0
  6
Continuous
 62
     7
100
AcDbLine
 10
160.7563368393896
 20
181.3745312627235
 30
0.0
 11
160.7565368393894
 21
185.6260312627233
 31
0.0
  0
LINE
  5
F27
330
1F
100
AcDbEntity
  8
0
  6
Continuous
 62
     7
100
AcDbLine
 10
162.0561368393894
 20
181.3745312627235
 30
0.0
 11
162.0561368393894
 21
185.9744312627234
 31
0.0
  0
LINE
  5
F28
330
1F
100
AcDbEntity
  8
0
  6
Continuous
 62
     7
100
AcDbLine
 10
160.7563368393896
 20
181.473441902573
 30
0.0
 11
158.9167368393895
 21
181.6346419025731
 31
0.0
  0
LINE
  5
F29
330
1F
100
AcDbEntity
  8
0
  6
DASH_CENTER
 62
    30
100
AcDbLine
 10
183.3044191792844
 20
185.9744312627234
 30
0.0
 11
154.0558529332725
 21
185.9744312627234
 31
0.0
  0
LINE
  5
F2A
330
1F
100
AcDbEntity
  8
0
  6
Continuous
 62
     7
100
AcDbLine
 10
181.8561368393895
 20
183.4745812627233
 30
0.0
 11
181.8561368393895
 21
188.4742812627234
 31
0.0
  0
LINE
  5
F2B
330
1F
100
AcDbEntity
  8
0
  6
Continuous
 62
     7
100
AcDbLine
 10
181.3561368393895
 20
182.9745812627233
 30
0.0
 11
181.8561368393895
 21
183.4745812627233
 31
0.0
  0
LINE
  5
F2C
330
1F
100
AcDbEntity
  8
0
  6
Continuous
 62
     7
100
AcDbLine
 10
181.3561368393895
 20
188.9742812627234
 30
0.0
 11
181.8561368393895
 21
188.4742812627234
 31
0.0
  0
LINE
  5
F2D
330
1F
100
AcDbEntity
  8
0
  6
Continuous
 62
     7
100
AcDbLine
 10
181.3561368393895
 20
188.9742812627234
 30
0.0
 11
181.3561368393895
 21
182.9745812627233
 31
0.0
  0
LINE
  5
F2E
330
1F
100
AcDbEntity
  8
0
  6
Continuous
 62
     7
100
AcDbLine
 10
160.7563368393896
 20
190.4754206228738
 30
0.0
 11
160.7563368393896
 21
181.3745312627235
 31
0.0
  0
LINE
  5
F2F
330
1F
100
AcDbEntity
  8
10
  6
Continuous
 62
     7
100
AcDbLine
 10
162.0561368393894
 20
202.8122904458601
 30
0.0
 11
162.0561368393894
 21
44.81229044585997
 31
0.0
  0
LINE
  5
F30
330
1F
100
AcDbEntity
  8
10
  6
Continuous
 62
     7
100
AcDbLine
 10
169.3561368393895
 20
202.8122904458601
 30
0.0
 11
169.3561368393895
 21
44.81229044585993
 31
0.0
  0
LINE
  5
F31
330
1F
100
AcDbEntity
  8
10
  6
Continuous
 62
     7
100
AcDbLine
 10
177.4195368393895
 20
202.8122904458601
 30
0.0
 11
169.3562368393895
 21
202.8122904458601
 31
0.0
  0
LINE
  5
F32
330
1F
100
AcDbEntity
  8
0
  6
Continuous
 62
     7
100
AcDbLine
 10
179.3561368393895
 20
201.31229044586
 30
0.0
 11
179.3561368393895
 21
44.81229044585997
 31
0.0
  0
LINE
  5
F33
330
1F
100
AcDbEntity
  8
0
  6
Continuous
 62
     7
100
AcDbLine
 10
179.3561368393895
 20
176.2537894590157
 30
0.0
 11
162.1562368393894
 21
176.2537894590157
 31
0.0
  0
LINE
  5
F34
330
1F
100
AcDbEntity
  8
0
  6
Continuous
 62
     7
100
AcDbLine
 10
179.3561368393895
 20
192.9744312627234
 30
0.0
 11
162.1562368393894
 21
192.9744312627234
 31
0.0
  0
LINE
  5
F35
330
1F
100
AcDbEntity
  8
0
  6
Continuous
 62
     7
100
AcDbLine
 10
179.3561368393895
 20
188.9742812627234
 30
0.0
 11
181.3561368393895
 21
188.9742812627234
 31
0.0
  0
LINE
  5
F36
330
1F
100
AcDbEntity
  8
100
  6
Continuous
 62
    30
100
AcDbLine
 10
179.3561368393895
 20
188.4742812627234
 30
0.0
 11
181.8561368393895
 21
188.4742812627234
 31
0.0
  0
LINE
  5
F37
330
1F
100
AcDbEntity
  8
100
  6
Continuous
 62
    30
100
AcDbLine
 10
179.3561368393895
 20
183.4745812627233
 30
0.0
 11
181.8561368393895
 21
183.4745812627233
 31
0.0
  0
LINE
  5
F38
330
1F
100
AcDbEntity
  8
0
  6
Continuous
 62
     7
100
AcDbLine
 10
179.3561368393895
 20
182.9745812627233
 30
0.0
 11
181.3561368393895
 21
182.9745812627233
 31
0.0
  0
LINE
  5
F39
330
1F
100
AcDbEntity
  8
0
  6
Continuous
 62
     7
100
AcDbLine
 10
157.4565368393894
 20
47.5583798060102
 30
0.0
 11
157.4565368393894
 21
44.81229044586013
 31
0.0
  0
LINE
  5
F3A
330
1F
100
AcDbEntity
  8
0
  6
Continuous
 62
     7
100
AcDbLine
 10
162.0561368393894
 20
49.41219044585986
 30
0.0
 11
160.7563368393896
 21
49.41219044585986
 31
0.0
  0
LINE
  5
F3B
330
1F
100
AcDbEntity
  8
0
  6
Continuous
 62
     7
100
AcDbLine
 10
160.7563368393896
 20
45.16069044586006
 30
0.0
 11
162.0561368393894
 21
44.81229044585997
 31
0.0
  0
LINE
  5
F3C
330
1F
100
AcDbEntity
  8
0
  6
Continuous
 62
     7
100
AcDbLine
 10
160.7565368393894
 20
45.16069044586006
 30
0.0
 11
160.7563368393896
 21
49.41219044585986
 31
0.0
  0
LINE
  5
F3D
330
1F
100
AcDbEntity
  8
0
  6
Continuous
 62
     7
100
AcDbLine
 10
162.0561368393894
 20
44.81229044585997
 30
0.0
 11
162.0561368393894
 21
49.41219044585986
 31
0.0
  0
LINE
  5
F3E
330
1F
100
AcDbEntity
  8
0
  6
Continuous
 62
     7
100
AcDbLine
 10
158.9167368393895
 20
49.15207980601028
 30
0.0
 11
160.7563368393896
 21
49.31327980601036
 31
0.0
  0
LINE
  5
F3F
330
1F
100
AcDbEntity
  8
0
  6
Continuous
 62
     7
100
AcDbLine
 10
157.4565368393894
 20
44.81229044586013
 30
0.0
 11
157.4565368393894
 21
42.06620108570976
 31
0.0
  0
LINE
  5
F40
330
1F
100
AcDbEntity
  8
0
  6
Continuous
 62
     7
100
AcDbLine
 10
160.7563368393896
 20
40.21239044586002
 30
0.0
 11
162.0561368393894
 21
40.21239044586002
 31
0.0
  0
LINE
  5
F41
330
1F
100
AcDbEntity
  8
0
  6
Continuous
 62
     7
100
AcDbLine
 10
160.7563368393896
 20
44.46389044585989
 30
0.0
 11
162.0561368393894
 21
44.11549044585977
 31
0.0
  0
LINE
  5
F42
330
1F
100
AcDbEntity
  8
0
  6
Continuous
 62
     7
100
AcDbLine
 10
160.7563368393896
 20
40.21239044586002
 30
0.0
 11
160.7565368393894
 21
44.46389044585989
 31
0.0
  0
LINE
  5
F43
330
1F
100
AcDbEntity
  8
0
  6
Continuous
 62
     7
100
AcDbLine
 10
162.0561368393894
 20
40.21239044586002
 30
0.0
 11
162.0561368393894
 21
44.81229044585997
 31
0.0
  0
LINE
  5
F44
330
1F
100
AcDbEntity
  8
0
  6
Continuous
 62
     7
100
AcDbLine
 10
160.7563368393896
 20
40.31130108570962
 30
0.0
 11
158.9167368393895
 21
40.47250108570966
 31
0.0
  0
LINE
  5
F45
330
1F
100
AcDbEntity
  8
0
  6
Continuous
 62
     7
100
AcDbLine
 10
181.8561368393895
 20
42.31244044585992
 30
0.0
 11
181.8561368393895
 21
47.31214044586002
 31
0.0
  0
LINE
  5
F46
330
1F
100
AcDbEntity
  8
0
  6
Continuous
 62
     7
100
AcDbLine
 10
181.3561368393895
 20
41.81244044585993
 30
0.0
 11
181.8561368393895
 21
42.31244044585992
 31
0.0
  0
LINE
  5
F47
330
1F
100
AcDbEntity
  8
0
  6
Continuous
 62
     7
100
AcDbLine
 10
181.3561368393895
 20
47.81214044586
 30
0.0
 11
181.8561368393895
 21
47.31214044586002
 31
0.0
  0
LINE
  5
F48
330
1F
100
AcDbEntity
  8
0
  6
Continuous
 62
     7
100
AcDbLine
 10
181.3561368393895
 20
47.81214044586
 30
0.0
 11
181.3561368393895
 21
41.81244044585993
 31
0.0
  0
LINE
  5
F49
330
1F
100
AcDbEntity
  8
0
  6
Continuous
 62
     7
100
AcDbLine
 10
160.7563368393896
 20
49.31327980601036
 30
0.0
 11
160.7563368393896
 21
40.21239044586002
 31
0.0
  0
LINE
  5
F4A
330
1F
100
AcDbEntity
  8
0
  6
Continuous
 62
     7
100
AcDbLine
 10
179.3561368393895
 20
47.81214044586
 30
0.0
 11
181.3561368393895
 21
47.81214044586
 31
0.0
  0
LINE
  5
F4B
330
1F
100
AcDbEntity
  8
100
  6
Continuous
 62
    30
100
AcDbLine
 10
179.3561368393895
 20
47.31214044586002
 30
0.0
 11
181.8561368393895
 21
47.31214044586002
 31
0.0
  0
LINE
  5
F4C
330
1F
100
AcDbEntity
  8
100
  6
Continuous
 62
    30
100
AcDbLine
 10
179.3561368393895
 20
42.31244044585992
 30
0.0
 11
181.8561368393895
 21
42.31244044585992
 31
0.0
  0
LINE
  5
F4D
330
1F
100
AcDbEntity
  8
0
  6
Continuous
 62
     7
100
AcDbLine
 10
179.3561368393895
 20
41.81244044585993
 30
0.0
 11
181.3561368393895
 21
41.81244044585993
 31
0.0
  0
LINE
  5
F4E
330
1F
100
AcDbEntity
  8
0
  6
Continuous
 62
     7
100
AcDbLine
 10
224.1561368393895
 20
155.7827904458601
 30
0.0
 11
224.1561368393895
 21
44.81229044585993
 31
0.0
  0
LINE
  5
F4F
330
1F
100
AcDbEntity
  8
0
  6
Continuous
 62
     7
100
AcDbLine
 10
351.2715907937915
 20
43.39033415964951
 30
0.0
 11
351.2715907937915
 21
119.7790700374326
 31
0.0
  0
LINE
  5
F50
330
1F
100
AcDbEntity
  8
0
  6
Continuous
 62
     7
100
AcDbLine
 10
232.8216368393885
 20
109.9770668467167
 30
0.0
 11
230.6561368393886
 21
110.1664668467167
 31
0.0
  0
LINE
  5
F51
330
1F
100
AcDbEntity
  8
0
  6
Continuous
 62
     7
100
AcDbLine
 10
232.8216368393885
 20
99.85596684671683
 30
0.0
 11
230.6561368393886
 21
99.66646684671673
 31
0.0
  0
LINE
  5
F52
330
1F
100
AcDbEntity
  8
0
  6
Continuous
 62
     7
100
AcDbLine
 10
234.5560368393888
 20
108.0842668467168
 30
0.0
 11
234.5560368393888
 21
101.7487668467167
 31
0.0
  0
LINE
  5
F53
330
1F
100
AcDbEntity
  8
0
  6
Continuous
 62
     7
100
AcDbLine
 10
230.6561368393886
 20
110.1664668467167
 30
0.0
 11
230.6561368393886
 21
99.66646684671673
 31
0.0
  0
LINE
  5
F54
330
1F
100
AcDbEntity
  8
0
  6
Continuous
 62
     7
100
AcDbLine
 10
229.1561368393886
 20
98.81656684671673
 30
0.0
 11
230.6561368393886
 21
98.81656684671673
 31
0.0
  0
LINE
  5
F55
330
1F
100
AcDbEntity
  8
0
  6
Continuous
 62
     7
100
AcDbLine
 10
229.1561368393886
 20
111.0165668467166
 30
0.0
 11
230.6561368393886
 21
111.0165668467166
 31
0.0
  0
LINE
  5
F56
330
1F
100
AcDbEntity
  8
0
  6
Continuous
 62
     7
100
AcDbLine
 10
229.1561368393886
 20
104.9164668467167
 30
0.0
 11
230.6561368393886
 21
104.5145668467166
 31
0.0
  0
LINE
  5
F57
330
1F
100
AcDbEntity
  8
0
  6
Continuous
 62
     7
100
AcDbLine
 10
229.1561368393886
 20
105.3183668467167
 30
0.0
 11
230.6561368393886
 21
104.9164668467167
 31
0.0
  0
LINE
  5
F58
330
1F
100
AcDbEntity
  8
0
  6
Continuous
 62
     7
100
AcDbLine
 10
230.6561368393886
 20
104.5145668467166
 30
0.0
 11
230.6561368393886
 21
98.81656684671673
 31
0.0
  0
LINE
  5
F59
330
1F
100
AcDbEntity
  8
0
  6
Continuous
 62
     7
100
AcDbLine
 10
230.6561368393886
 20
111.0165668467166
 30
0.0
 11
230.6561368393886
 21
104.9164668467167
 31
0.0
  0
LINE
  5
F5A
330
1F
100
AcDbEntity
  8
0
  6
Continuous
 62
     7
100
AcDbLine
 10
229.1561368393886
 20
104.9164668467167
 30
0.0
 11
229.1561368393886
 21
98.81656684671673
 31
0.0
  0
LINE
  5
F5B
330
1F
100
AcDbEntity
  8
0
  6
Continuous
 62
     7
100
AcDbLine
 10
229.1561368393886
 20
111.0165668467166
 30
0.0
 11
229.1561368393886
 21
105.3183668467167
 31
0.0
  0
LINE
  5
F5C
330
1F
100
AcDbEntity
  8
0
  6
DASH_CENTER
 62
    30
100
AcDbLine
 10
217.1846471798385
 20
-15.29188595499678
 30
0.0
 11
237.7719139713403
 21
-15.29188595499678
 31
0.0
  0
LINE
  5
F5D
330
1F
100
AcDbEntity
  8
0
  6
Continuous
 62
     7
100
AcDbLine
 10
228.1561368393881
 20
111.9164668467167
 30
0.0
 11
224.1561368393895
 21
111.9164668467167
 31
0.0
  0
LINE
  5
F5E
330
1F
100
AcDbEntity
  8
0
  6
Continuous
 62
     7
100
AcDbLine
 10
228.1561368393881
 20
91.54033212552368
 30
0.0
 11
224.1561368393895
 21
91.54033212552379
 31
0.0
  0
LINE
  5
F5F
330
1F
100
AcDbEntity
  8
0
  6
Continuous
 62
     7
100
AcDbLine
 10
229.1561368393906
 20
44.81219044586011
 30
0.0
 11
229.1561368393906
 21
122.7959313666911
 31
0.0
  0
LINE
  5
F60
330
1F
100
AcDbEntity
  8
0
  6
DASH_CENTER
 62
    30
100
AcDbLine
 10
213.8083269985475
 20
104.9165168467167
 30
0.0
 11
240.9369947212675
 21
104.9165168467167
 31
0.0
  0
LINE
  5
F61
330
1F
100
AcDbEntity
  8
0
  6
Continuous
 62
     7
100
AcDbLine
 10
249.6603687195724
 20
120.9650429343599
 30
0.0
 11
312.6519049592064
 21
120.4453000497061
 31
0.0
  0
LINE
  5
F62
330
1F
100
AcDbEntity
  8
0
  6
Continuous
 62
     7
100
AcDbLine
 10
312.6519049592064
 20
120.4453000497061
 30
0.0
 11
312.6519049592064
 21
101.0908290978819
 31
0.0
  0
LINE
  5
F63
330
1F
100
AcDbEntity
  8
0
  6
Continuous
 62
     7
100
AcDbLine
 10
312.6519049592064
 20
101.0908290978819
 30
0.0
 11
249.6603687195724
 21
101.0908290978819
 31
0.0
  0
LINE
  5
F64
330
1F
100
AcDbEntity
  8
0
  6
Continuous
 62
     7
100
AcDbLine
 10
249.6603687195724
 20
101.0908290978819
 30
0.0
 11
249.6603687195724
 21
120.9650429343599
 31
0.0
  0
LINE
  5
F65
330
1F
100
AcDbEntity
  8
0
  6
Continuous
 62
     7
100
AcDbLine
 10
-2.143763160610403
 20
47.55744361662157
 30
0.0
 11
-2.143763160610403
 21
42.06713727509834
 31
0.0
  0
LINE
  5
F66
330
1F
100
AcDbEntity
  8
0
  6
Continuous
 62
     7
100
AcDbLine
 10
-20.15487889182771
 20
102.81229044586
 30
0.0
 11
-34.8438631606104
 21
102.81229044586
 31
0.0
  0
LINE
  5
F67
330
1F
100
AcDbEntity
  8
0
  6
Continuous
 62
     7
100
AcDbLine
 10
5.156136839389604
 20
119.8122904458599
 30
0.0
 11
5.156136839389604
 21
44.81229044585997
 31
0.0
  0
LINE
  5
F68
330
1F
100
AcDbEntity
  8
110
  6
DASH_CENTER
 62
    30
100
AcDbLine
 10
-38.22190770593561
 20
44.81229044585999
 30
0.0
 11
391.5257580801342
 21
44.81229044585993
 31
0.0
  0
LINE
  5
F69
330
1F
100
AcDbEntity
  8
0
  6
Continuous
 62
     7
100
AcDbLine
 10
169.3561368393895
 20
-24.83274011417765
 30
0.0
 11
169.3561368393895
 21
44.81229044585993
 31
0.0
  0
LINE
  5
F6A
330
1F
100
AcDbEntity
  8
0
  6
DASH_CENTER
 62
     2
100
AcDbLine
 10
-536.5070354395808
 20
-65.32806263893556
 30
0.0
 11
-515.3963017571652
 21
-65.84108858666093
 31
0.0
  0
LINE
  5
F6B
330
1F
100
AcDbEntity
  8
0
  6
Continuous
 62
     7
100
AcDbLine
 10
-563.9532644397572
 20
-93.07197287355496
 30
0.0
 11
-584.6752234503106
 21
-100.4417173418483
 31
0.0
  0
LINE
  5
F6C
330
1F
100
AcDbEntity
  8
0
  6
DASHED
 62
     2
 48
0.9
100
AcDbLine
 10
-535.9525046888801
 20
-49.34024163207953
 30
0.0
 11
-551.4057169582144
 21
-38.93053437981791
 31
0.0
  0
LINE
  5
F6D
330
1F
100
AcDbEntity
  8
0
  6
DASHED
 62
     2
 48
0.9
100
AcDbLine
 10
-520.6647528085657
 20
-58.16037301763735
 30
0.0
 11
-520.664752808565
 21
-74.39339588846195
 31
0.0
  0
LINE
  5
F6E
330
1F
100
AcDbEntity
  8
0
  6
DASHED
 62
     2
 48
0.9
100
AcDbLine
 10
-531.240256569194
 20
-40.52011024652057
 30
0.0
 11
-545.9452083654992
 21
-30.55301410775098
 31
0.0
  0
LINE
  5
F6F
330
1F
100
AcDbEntity
  8
0
  6
DASHED
 62
     2
 48
0.9
100
AcDbLine
 10
-530.6647528085658
 20
-58.16037301763749
 30
0.0
 11
-530.6647528085652
 21
-74.39339588846206
 31
0.0
  0
LINE
  5
F70
330
1F
100
AcDbEntity
  8
0
  6
DASHED
 62
     2
 48
0.9
100
AcDbLine
 10
-535.4846426951501
 20
-82.94713537554587
 30
0.0
 11
-559.7746973584865
 21
-91.58586957526614
 31
0.0
  0
LINE
  5
F71
330
1F
100
AcDbEntity
  8
0
  6
DASHED
 62
     2
 48
0.9
100
AcDbLine
 10
-550.4846997727852
 20
-22.17549383568496
 30
0.0
 11
-550.4846997727852
 21
-0.6954495544119901
 31
0.0
  0
LINE
  5
F72
330
1F
100
AcDbEntity
  8
0
  6
DASHED
 62
     2
 48
0.9
100
AcDbLine
 10
-560.4846997727852
 20
-22.17549383568496
 30
0.0
 11
-560.4846997727852
 21
-0.6954495544119901
 31
0.0
  0
LINE
  5
F73
330
1F
100
AcDbEntity
  8
0
  6
DASHED
 62
     2
 48
0.9
100
AcDbLine
 10
-519.6647528085653
 20
-59.32806263893584
 30
0.0
 11
-519.6647528085653
 21
-71.32806263893584
 31
0.0
  0
LINE
  5
F74
330
1F
100
AcDbEntity
  8
0
  6
DASHED
 62
     2
 48
0.9
100
AcDbLine
 10
-531.6647528085652
 20
-59.32806263893578
 30
0.0
 11
-519.6647528085653
 21
-59.32806263893584
 31
0.0
  0
LINE
  5
F75
330
1F
100
AcDbEntity
  8
0
  6
DASHED
 62
     2
 48
0.9
100
AcDbLine
 10
-531.6647528085652
 20
-71.32806263893579
 30
0.0
 11
-519.6647528085653
 21
-71.32806263893584
 31
0.0
  0
LINE
  5
F76
330
1F
100
AcDbEntity
  8
0
  6
DASHED
 62
     2
 48
0.9
100
AcDbLine
 10
-531.6647528085652
 20
-59.32806263893578
 30
0.0
 11
-531.6647528085652
 21
-71.32806263893579
 31
0.0
  0
LINE
  5
F77
330
1F
100
AcDbEntity
  8
0
  6
Continuous
 62
     2
100
AcDbLine
 10
-544.2740472773691
 20
24.85507729515791
 30
0.0
 11
-543.5841292348311
 21
25.14793012946404
 31
0.0
  0
LINE
  5
F78
330
1F
100
AcDbEntity
  8
0
  6
Continuous
 62
     2
100
AcDbLine
 10
-536.4594247075831
 20
6.4449802261089
 30
0.0
 11
-535.8213644474033
 21
6.715820737780057
 31
0.0
  0
LINE
  5
F79
330
1F
100
AcDbEntity
  8
0
  6
DASHED
 62
     2
100
AcDbLine
 10
-543.4252143101462
 20
19.78358362588608
 30
0.0
 11
-548.2993223425701
 21
17.71464751463702
 31
0.0
  0
LINE
  5
F7A
330
1F
100
AcDbEntity
  8
0
  6
DASHED
 62
     2
100
AcDbLine
 10
-544.3920110576782
 20
8.509598980113079
 30
0.0
 11
-539.5179030252531
 21
10.57853509136191
 31
0.0
  0
LINE
  5
F7B
330
1F
100
AcDbEntity
  8
0
  6
Continuous
 62
     7
100
AcDbLine
 10
-558.352903497153
 20
-101.0491154659417
 30
0.0
 11
-581.3243449860054
 21
-109.863586239124
 31
0.0
  0
LINE
  5
F7C
330
1F
100
AcDbEntity
  8
0
  6
DASHED
 62
     2
 48
0.9
100
AcDbLine
 10
-554.5646236716826
 20
-99.5954982944441
 30
0.0
 11
-530.3045325817357
 21
-91.50087486262965
 31
0.0
  0
LINE
  5
F7D
330
1F
100
AcDbEntity
  8
0
  6
DASHED
 62
     2
100
AcDbLine
 10
-558.352903497153
 20
-101.0491154659417
 30
0.0
 11
-554.5646236716826
 21
-99.5954982944441
 31
0.0
  0
LINE
  5
F7E
330
1F
100
AcDbEntity
  8
0
  6
Continuous
 62
     7
100
AcDbLine
 10
-563.9532644397572
 20
-93.07197287355496
 30
0.0
 11
-559.7746973584865
 21
-91.58586957526614
 31
0.0
  0
LINE
  5
F7F
330
1F
100
AcDbEntity
  8
0
  6
Continuous
 62
     7
100
AcDbLine
 10
-559.7746973584865
 20
-91.58586957526614
 30
0.0
 11
-559.5965512352054
 21
-89.54965006863009
 31
0.0
  0
LINE
  5
F80
330
1F
100
AcDbEntity
  8
0
  6
Continuous
 62
     7
100
AcDbLine
 10
226.9289783579515
 20
-22.29188595499679
 30
0.0
 11
228.1561368393881
 21
-22.29188595499679
 31
0.0
  0
LINE
  5
F81
330
1F
100
AcDbEntity
  8
0
  6
Continuous
 62
     7
100
AcDbLine
 10
235.2988674391877
 20
-28.18780955413988
 30
0.0
 11
261.1561368393882
 21
-28.18780955413988
 31
0.0
  0
LINE
  5
F82
330
1F
100
AcDbEntity
  8
0
  6
Continuous
 62
     7
100
AcDbLine
 10
236.6665620123787
 20
-29.40087545405674
 30
0.0
 11
253.1561368393895
 21
-29.32783965829408
 31
0.0
  0
LINE
  5
F83
330
1F
100
AcDbEntity
  8
0
  6
Continuous
 62
     7
100
AcDbLine
 10
237.9261610939632
 20
-30.59459382310699
 30
0.0
 11
253.1561368393895
 21
-30.59459382310699
 31
0.0
  0
LINE
  5
F84
330
1F
100
AcDbEntity
  8
0
  6
Continuous
 62
     7
100
AcDbLine
 10
238.7514248859216
 20
-31.41990508227249
 30
0.0
 11
253.1561368393895
 21
-31.32678066902528
 31
0.0
  0
LINE
  5
F85
330
1F
100
AcDbEntity
  8
0
  6
Continuous
 62
     7
100
AcDbLine
 10
239.332387851702
 20
-32.02287845482953
 30
0.0
 11
253.1561368393895
 21
-31.79625961896583
 31
0.0
  0
LINE
  5
F86
330
1F
100
AcDbEntity
  8
0
  6
Continuous
 62
     7
100
AcDbLine
 10
224.1561368393895
 20
-1.915751233803879
 30
0.0
 11
228.1561368393881
 21
-1.915751233803765
 31
0.0
  0
LINE
  5
F87
330
1F
100
AcDbEntity
  8
0
  6
DASHED
 62
     2
 48
0.9
100
AcDbLine
 10
281.1515217250965
 20
-107.2456574139708
 30
0.0
 11
281.1515217250965
 21
-111.2456574139708
 31
0.0
  0
LINE
  5
F88
330
1F
100
AcDbEntity
  8
0
  6
DASHED
 62
     2
 48
0.9
100
AcDbLine
 10
281.1515217250965
 20
-107.2456574139708
 30
0.0
 11
276.377484804481
 21
-107.2456574139708
 31
0.0
  0
LINE
  5
F89
330
1F
100
AcDbEntity
  8
0
  6
DASHED
 62
     2
 48
0.9
100
AcDbLine
 10
281.1515217250965
 20
-111.2456574139708
 30
0.0
 11
275.1515217250965
 21
-111.2456574139708
 31
0.0
  0
LINE
  5
F8A
330
1F
100
AcDbEntity
  8
0
  6
DASHED
 62
     2
 48
0.9
100
AcDbLine
 10
281.1515217250965
 20
-103.2456574139708
 30
0.0
 11
281.1515217250965
 21
-107.2456574139708
 31
0.0
  0
LINE
  5
F8B
330
1F
100
AcDbEntity
  8
0
  6
DASHED
 62
     2
 48
0.9
100
AcDbLine
 10
275.1515217250965
 20
-103.2456574139708
 30
0.0
 11
281.1515217250965
 21
-103.2456574139708
 31
0.0
  0
LINE
  5
F8C
330
1F
100
AcDbEntity
  8
0
  6
Continuous
 62
     7
100
AcDbLine
 10
386.6016155276473
 20
-130.7856612131309
 30
0.0
 11
386.5304262628182
 21
-130.9480512824148
 31
0.0
  0
LINE
  5
F8D
330
1F
100
AcDbEntity
  8
0
  6
Continuous
 62
     7
100
AcDbLine
 10
386.6016155276473
 20
-130.7856612131309
 30
0.0
 11
391.1786741341223
 21
-132.7982629201308
 31
0.0
  0
LINE
  5
F8E
330
1F
100
AcDbEntity
  8
0
  6
Continuous
 62
     7
100
AcDbLine
 10
384.7882475973313
 20
-134.9221408431457
 30
0.0
 11
384.7343115218269
 21
-135.0451746047549
 31
0.0
  0
LINE
  5
F8F
330
1F
100
AcDbEntity
  8
0
  6
Continuous
 62
     7
100
AcDbLine
 10
384.7882475973313
 20
-134.9221408431457
 30
0.0
 11
389.3860410042591
 21
-136.887444327723
 31
0.0
  0
LINE
  5
F90
330
1F
100
AcDbEntity
  8
0
  6
Continuous
 62
     7
100
AcDbLine
 10
384.8412508090803
 20
-134.8012350401589
 30
0.0
 11
384.7882475973313
 21
-134.9221408431457
 31
0.0
  0
LINE
  5
F91
330
1F
100
AcDbEntity
  8
0
  6
Continuous
 62
     7
100
AcDbLine
 10
384.8412508090803
 20
-134.8012350401589
 30
0.0
 11
389.4398216897532
 21
-136.7647650267837
 31
0.0
  0
LINE
  5
F92
330
1F
100
AcDbEntity
  8
0
  6
Continuous
 62
     7
100
AcDbLine
 10
384.9083363790462
 20
-134.6482059229068
 30
0.0
 11
384.8412508090803
 21
-134.8012350401589
 31
0.0
  0
LINE
  5
F93
330
1F
100
AcDbEntity
  8
0
  6
Continuous
 62
     7
100
AcDbLine
 10
384.9083363790462
 20
-134.6482059229068
 30
0.0
 11
389.4988869191964
 21
-136.6300311350308
 31
0.0
  0
LINE
  5
F94
330
1F
100
AcDbEntity
  8
0
  6
Continuous
 62
     7
100
AcDbLine
 10
385.0012249672776
 20
-134.4363174546838
 30
0.0
 11
384.9083363790462
 21
-134.6482059229068
 31
0.0
  0
LINE
  5
F95
330
1F
100
AcDbEntity
  8
0
  6
Continuous
 62
     7
100
AcDbLine
 10
385.0012249672776
 20
-134.4363174546838
 30
0.0
 11
389.5868943388175
 21
-136.4292771167939
 31
0.0
  0
LINE
  5
F96
330
1F
100
AcDbEntity
  8
0
  6
Continuous
 62
     7
100
AcDbLine
 10
385.094329881642
 20
-134.2239355241947
 30
0.0
 11
385.0012249672776
 21
-134.4363174546838
 31
0.0
  0
LINE
  5
F97
330
1F
100
AcDbEntity
  8
0
  6
Continuous
 62
     7
100
AcDbLine
 10
385.094329881642
 20
-134.2239355241947
 30
0.0
 11
389.6688397407463
 21
-136.2423511873207
 31
0.0
  0
LINE
  5
F98
330
1F
100
AcDbEntity
  8
0
  6
Continuous
 62
     7
100
AcDbLine
 10
385.1516238374595
 20
-134.0932420906149
 30
0.0
 11
385.094329881642
 21
-134.2239355241947
 31
0.0
  0
LINE
  5
F99
330
1F
100
AcDbEntity
  8
0
  6
Continuous
 62
     7
100
AcDbLine
 10
385.1516238374595
 20
-134.0932420906149
 30
0.0
 11
389.7494172443866
 21
-136.0585455751929
 31
0.0
  0
LINE
  5
F9A
330
1F
100
AcDbEntity
  8
0
  6
Continuous
 62
     7
100
AcDbLine
 10
385.2146057125612
 20
-133.9495739253927
 30
0.0
 11
385.1516238374595
 21
-134.0932420906149
 31
0.0
  0
LINE
  5
F9B
330
1F
100
AcDbEntity
  8
0
  6
Continuous
 62
     7
100
AcDbLine
 10
385.2146057125612
 20
-133.9495739253927
 30
0.0
 11
389.8200160846734
 21
-135.8975023252988
 31
0.0
  0
LINE
  5
F9C
330
1F
100
AcDbEntity
  8
0
  6
Continuous
 62
     7
100
AcDbLine
 10
385.2938153179131
 20
-133.7688886306077
 30
0.0
 11
385.2146057125612
 21
-133.9495739253927
 31
0.0
  0
LINE
  5
F9D
330
1F
100
AcDbEntity
  8
0
  6
Continuous
 62
     7
100
AcDbLine
 10
385.2938153179131
 20
-133.7688886306077
 30
0.0
 11
389.885733756351
 21
-135.7475935253887
 31
0.0
  0
LINE
  5
F9E
330
1F
100
AcDbEntity
  8
0
  6
Continuous
 62
     7
100
AcDbLine
 10
385.3603906844094
 20
-133.6170233401919
 30
0.0
 11
385.2938153179131
 21
-133.7688886306077
 31
0.0
  0
LINE
  5
F9F
330
1F
100
AcDbEntity
  8
0
  6
Continuous
 62
     7
100
AcDbLine
 10
385.3603906844094
 20
-133.6170233401919
 30
0.0
 11
389.9429192109221
 21
-135.6171475943628
 31
0.0
  0
LINE
  5
FA0
330
1F
100
AcDbEntity
  8
0
  6
Continuous
 62
     7
100
AcDbLine
 10
385.4316867773702
 20
-133.4543895848999
 30
0.0
 11
385.3603906844094
 21
-133.6170233401919
 31
0.0
  0
LINE
  5
FA1
330
1F
100
AcDbEntity
  8
0
  6
Continuous
 62
     7
100
AcDbLine
 10
385.4316867773702
 20
-133.4543895848999
 30
0.0
 11
390.0247860648922
 21
-135.4304008408988
 31
0.0
  0
LINE
  5
FA2
330
1F
100
AcDbEntity
  8
0
  6
Continuous
 62
     7
100
AcDbLine
 10
385.4927103296434
 20
-133.3151885564118
 30
0.0
 11
385.4316867773702
 21
-133.4543895848999
 31
0.0
  0
LINE
  5
FA3
330
1F
100
AcDbEntity
  8
0
  6
Continuous
 62
     7
100
AcDbLine
 10
385.4927103296434
 20
-133.3151885564118
 30
0.0
 11
390.0805250732172
 21
-135.3032544032249
 31
0.0
  0
LINE
  5
FA4
330
1F
100
AcDbEntity
  8
0
  6
Continuous
 62
     7
100
AcDbLine
 10
386.7580764155225
 20
-130.4287577602958
 30
0.0
 11
386.6634433475771
 21
-130.6446255670097
 31
0.0
  0
LINE
  5
FA5
330
1F
100
AcDbEntity
  8
0
  6
Continuous
 62
     7
100
AcDbLine
 10
386.7580764155225
 20
-130.4287577602958
 30
0.0
 11
391.3437457870634
 21
-132.4217174224048
 31
0.0
  0
LINE
  5
FA6
330
1F
100
AcDbEntity
  8
0
  6
Continuous
 62
     7
100
AcDbLine
 10
386.210074571086
 20
-131.6788065941938
 30
0.0
 11
386.1395582377042
 21
-131.8396616373117
 31
0.0
  0
LINE
  5
FA7
330
1F
100
AcDbEntity
  8
0
  6
Continuous
 62
     7
100
AcDbLine
 10
386.210074571086
 20
-131.6788065941938
 30
0.0
 11
390.7998476374903
 21
-133.6624053042719
 31
0.0
  0
LINE
  5
FA8
330
1F
100
AcDbEntity
  8
0
  6
Continuous
 62
     7
100
AcDbLine
 10
386.2818542604586
 20
-131.5150697055198
 30
0.0
 11
386.210074571086
 21
-131.6788065941938
 31
0.0
  0
LINE
  5
FA9
330
1F
100
AcDbEntity
  8
0
  6
Continuous
 62
     7
100
AcDbLine
 10
386.2818542604586
 20
-131.5150697055198
 30
0.0
 11
390.8770989200132
 21
-133.4861871462219
 31
0.0
  0
LINE
  5
FAA
330
1F
100
AcDbEntity
  8
0
  6
Continuous
 62
     7
100
AcDbLine
 10
386.3428778127302
 20
-131.3758686770317
 30
0.0
 11
386.2818542604586
 21
-131.5150697055198
 31
0.0
  0
LINE
  5
FAB
330
1F
100
AcDbEntity
  8
0
  6
Continuous
 62
     7
100
AcDbLine
 10
386.3428778127302
 20
-131.3758686770317
 30
0.0
 11
390.9549406270782
 21
-133.3086221687808
 31
0.0
  0
LINE
  5
FAC
330
1F
100
AcDbEntity
  8
0
  6
Continuous
 62
     7
100
AcDbLine
 10
386.4134766530171
 20
-131.2148254271377
 30
0.0
 11
386.3428778127302
 21
-131.3758686770317
 31
0.0
  0
LINE
  5
FAD
330
1F
100
AcDbEntity
  8
0
  6
Continuous
 62
     7
100
AcDbLine
 10
386.4134766530171
 20
-131.2148254271377
 30
0.0
 11
391.0374764535484
 21
-133.1203494199177
 31
0.0
  0
LINE
  5
FAE
330
1F
100
AcDbEntity
  8
0
  6
Continuous
 62
     7
100
AcDbLine
 10
386.5304262628182
 20
-130.9480512824148
 30
0.0
 11
386.4134766530171
 21
-131.2148254271377
 31
0.0
  0
LINE
  5
FAF
330
1F
100
AcDbEntity
  8
0
  6
Continuous
 62
     7
100
AcDbLine
 10
386.5304262628182
 20
-130.9480512824148
 30
0.0
 11
391.1160956343595
 21
-132.9410109445237
 31
0.0
  0
LINE
  5
FB0
330
1F
100
AcDbEntity
  8
0
  6
Continuous
 62
     7
100
AcDbLine
 10
386.6634433475771
 20
-130.6446255670097
 30
0.0
 11
386.6016155276473
 21
-130.7856612131309
 31
0.0
  0
LINE
  5
FB1
330
1F
100
AcDbEntity
  8
0
  6
Continuous
 62
     7
100
AcDbLine
 10
386.6634433475771
 20
-130.6446255670097
 30
0.0
 11
391.2584380733731
 21
-132.6163131324429
 31
0.0
  0
LINE
  5
FB2
330
1F
100
AcDbEntity
  8
0
  6
Continuous
 62
     7
100
AcDbLine
 10
386.840357941133
 20
-130.2410650979709
 30
0.0
 11
391.4095633064134
 21
-132.2715808596379
 31
0.0
  0
LINE
  5
FB3
330
1F
100
AcDbEntity
  8
0
  6
Continuous
 62
     7
100
AcDbLine
 10
386.840357941133
 20
-130.2410650979709
 30
0.0
 11
386.7580764155225
 21
-130.4287577602958
 31
0.0
  0
LINE
  5
FB4
330
1F
100
AcDbEntity
  8
0
  6
Continuous
 62
     7
100
AcDbLine
 10
386.840357941133
 20
-130.2410650979709
 30
0.0
 11
391.4095633064134
 21
-132.2715808596379
 31
0.0
  0
LINE
  5
FB5
330
1F
100
AcDbEntity
  8
0
  6
Continuous
 62
     7
100
AcDbLine
 10
384.7343115218269
 20
-135.0451746047549
 30
0.0
 11
384.4331872255673
 21
-135.7320702406359
 31
0.0
  0
LINE
  5
FB6
330
1F
100
AcDbEntity
  8
0
  6
Continuous
 62
     7
100
AcDbLine
 10
384.7343115218269
 20
-135.0451746047549
 30
0.0
 11
389.3168400483403
 21
-137.0452988589259
 31
0.0
  0
LINE
  5
FB7
330
1F
100
AcDbEntity
  8
0
  6
Continuous
 62
     7
100
AcDbLine
 10
385.5373096451851
 20
-133.2134529090729
 30
0.0
 11
385.4927103296434
 21
-133.3151885564118
 31
0.0
  0
LINE
  5
FB8
330
1F
100
AcDbEntity
  8
0
  6
Continuous
 62
     7
100
AcDbLine
 10
385.5373096451851
 20
-133.2134529090729
 30
0.0
 11
390.1198381716985
 21
-135.2135771632438
 31
0.0
  0
LINE
  5
FB9
330
1F
100
AcDbEntity
  8
0
  6
Continuous
 62
     7
100
AcDbLine
 10
386.1395582377042
 20
-131.8396616373117
 30
0.0
 11
385.5373096451851
 21
-133.2134529090729
 31
0.0
  0
LINE
  5
FBA
330
1F
100
AcDbEntity
  8
0
  6
Continuous
 62
     7
100
AcDbLine
 10
386.1395582377042
 20
-131.8396616373117
 30
0.0
 11
390.7220867642175
 21
-133.8397858914829
 31
0.0
  0
LINE
  5
FBB
330
1F
100
AcDbEntity
  8
0
  6
Continuous
 62
     7
100
AcDbLine
 10
386.9425563610623
 20
-130.0079399416308
 30
0.0
 11
386.840357941133
 21
-130.2410650979709
 31
0.0
  0
LINE
  5
FBC
330
1F
100
AcDbEntity
  8
0
  6
Continuous
 62
     7
100
AcDbLine
 10
386.9425563610623
 20
-130.0079399416308
 30
0.0
 11
391.5250848875766
 21
-132.0080641958009
 31
0.0
  0
LINE
  5
FBD
330
1F
100
AcDbEntity
  8
0
  6
Continuous
 62
     7
100
AcDbLine
 10
384.4309751325111
 20
-135.7311047341588
 30
0.0
 11
366.1008610264605
 21
-127.730607717474
 31
0.0
  0
LINE
  5
FBE
330
1F
100
AcDbEntity
  8
0
  6
Continuous
 62
     7
100
AcDbLine
 10
387.2311454633411
 20
-129.3155731023807
 30
0.0
 11
368.9010313572901
 21
-121.3150760856959
 31
0.0
  0
LINE
  5
FBF
330
1F
100
AcDbEntity
  8
0
  6
Continuous
 62
     7
100
AcDbLine
 10
387.2423825143254
 20
-129.3240055040677
 30
0.0
 11
386.9425563610623
 21
-130.0079399416308
 31
0.0
  0
LINE
  5
FC0
330
1F
100
AcDbEntity
  8
0
  6
Continuous
 62
     7
100
AcDbLine
 10
385.831060297926
 20
-132.5233389182699
 30
0.0
 11
367.5009461918751
 21
-124.5228419015848
 31
0.0
  0
LINE
  5
FC1
330
1F
100
AcDbEntity
  8
0
  6
DASHED
 62
     2
 48
0.9
100
AcDbLine
 10
227.9996820912594
 20
15.9317754336221
 30
0.0
 11
227.9996820912594
 21
7.257938912641087
 31
0.0
  0
LINE
  5
FC2
330
1F
100
AcDbEntity
  8
0
  6
DASHED
 62
     2
 48
0.7
100
AcDbLine
 10
266.8155911732081
 20
-68.65509316501491
 30
0.0
 11
266.2155911732082
 21
-68.65509316501491
 31
0.0
  0
LINE
  5
FC3
330
1F
100
AcDbEntity
  8
0
  6
DASHED
 62
     2
 48
0.7
100
AcDbLine
 10
262.7155911732081
 20
-65.75509316501481
 30
0.0
 11
262.7155911732081
 21
-65.15509316501489
 31
0.0
  0
LINE
  5
FC4
330
1F
100
AcDbEntity
  8
0
  6
DASHED
 62
     2
 48
0.7
100
AcDbLine
 10
265.6155911732083
 20
-61.6550931650149
 30
0.0
 11
266.2155911732082
 21
-61.6550931650149
 31
0.0
  0
LINE
  5
FC5
330
1F
100
AcDbEntity
  8
0
  6
DASHED
 62
     2
 48
0.7
100
AcDbLine
 10
266.8155911732081
 20
-67.25509316501481
 30
0.0
 11
266.8155911732081
 21
-68.65509316501491
 31
0.0
  0
LINE
  5
FC6
330
1F
100
AcDbEntity
  8
0
  6
DASHED
 62
     2
 48
0.7
100
AcDbLine
 10
264.1155911732083
 20
-65.75509316501481
 30
0.0
 11
262.7155911732081
 21
-65.75509316501481
 31
0.0
  0
LINE
  5
FC7
330
1F
100
AcDbEntity
  8
0
  6
DASHED
 62
     2
 48
0.7
100
AcDbLine
 10
265.6155911732083
 20
-63.05509316501478
 30
0.0
 11
265.6155911732083
 21
-61.6550931650149
 31
0.0
  0
LINE
  5
FC8
330
1F
100
AcDbEntity
  8
0
  6
DASHED
 62
     2
 48
0.7
100
AcDbLine
 10
269.7155911732082
 20
-65.75509316501481
 30
0.0
 11
268.3155911732081
 21
-65.75509316501481
 31
0.0
  0
LINE
  5
FC9
330
1F
100
AcDbEntity
  8
0
  6
DASHED
 62
     2
 48
0.7
100
AcDbLine
 10
265.6155911732083
 20
-68.65509316501491
 30
0.0
 11
265.6155911732083
 21
-67.25509316501481
 31
0.0
  0
LINE
  5
FCA
330
1F
100
AcDbEntity
  8
0
  6
DASHED
 62
     2
 48
0.7
100
AcDbLine
 10
262.7155911732081
 20
-64.55509316501475
 30
0.0
 11
264.1155911732083
 21
-64.55509316501475
 31
0.0
  0
LINE
  5
FCB
330
1F
100
AcDbEntity
  8
0
  6
DASHED
 62
     2
 48
0.7
100
AcDbLine
 10
269.7155911732082
 20
-65.15509316501489
 30
0.0
 11
269.7155911732082
 21
-65.75509316501481
 31
0.0
  0
LINE
  5
FCC
330
1F
100
AcDbEntity
  8
0
  6
DASHED
 62
     2
 48
0.7
100
AcDbLine
 10
266.2155911732082
 20
-68.65509316501491
 30
0.0
 11
265.6155911732083
 21
-68.65509316501491
 31
0.0
  0
LINE
  5
FCD
330
1F
100
AcDbEntity
  8
0
  6
DASHED
 62
     2
 48
0.7
100
AcDbLine
 10
262.7155911732081
 20
-65.15509316501489
 30
0.0
 11
262.7155911732081
 21
-64.55509316501475
 31
0.0
  0
LINE
  5
FCE
330
1F
100
AcDbEntity
  8
0
  6
DASHED
 62
     2
 48
0.7
100
AcDbLine
 10
269.7155911732082
 20
-64.55509316501475
 30
0.0
 11
269.7155911732082
 21
-65.15509316501489
 31
0.0
  0
LINE
  5
FCF
330
1F
100
AcDbEntity
  8
0
  6
DASHED
 62
     2
 48
0.7
100
AcDbLine
 10
268.3155911732081
 20
-64.55509316501475
 30
0.0
 11
269.7155911732082
 21
-64.55509316501475
 31
0.0
  0
LINE
  5
FD0
330
1F
100
AcDbEntity
  8
0
  6
DASHED
 62
     2
 48
0.7
100
AcDbLine
 10
266.8155911732081
 20
-61.6550931650149
 30
0.0
 11
266.8155911732081
 21
-63.05509316501478
 31
0.0
  0
LINE
  5
FD1
330
1F
100
AcDbEntity
  8
0
  6
DASHED
 62
     2
 48
0.7
100
AcDbLine
 10
266.2155911732082
 20
-61.6550931650149
 30
0.0
 11
266.8155911732081
 21
-61.6550931650149
 31
0.0
  0
LINE
  5
FD2
330
1F
100
AcDbEntity
  8
0
  6
DASHED
 62
     2
 48
0.9
100
AcDbLine
 10
260.2155911732082
 20
-71.15509316501491
 30
0.0
 11
260.2155911732082
 21
-59.1550931650149
 31
0.0
  0
LINE
  5
FD3
330
1F
100
AcDbEntity
  8
0
  6
DASHED
 62
     2
 48
0.9
100
AcDbLine
 10
285.2155911732081
 20
-71.15509316501491
 30
0.0
 11
260.2155911732082
 21
-71.15509316501491
 31
0.0
  0
LINE
  5
FD4
330
1F
100
AcDbEntity
  8
0
  6
DASHED
 62
     2
 48
0.9
100
AcDbLine
 10
285.2155911732081
 20
-59.1550931650149
 30
0.0
 11
285.2155911732081
 21
-71.15509316501491
 31
0.0
  0
LINE
  5
FD5
330
1F
100
AcDbEntity
  8
0
  6
DASHED
 62
     2
 48
0.9
100
AcDbLine
 10
260.2155911732082
 20
-59.1550931650149
 30
0.0
 11
285.2155911732081
 21
-59.1550931650149
 31
0.0
  0
LINE
  5
FD6
330
1F
100
AcDbEntity
  8
0
  6
DASHED
 62
     2
 48
0.9
100
AcDbLine
 10
238.8554941394025
 20
2.530493890426228
 30
0.0
 11
281.6481550287791
 21
-39.89148698131474
 31
0.0
  0
LINE
  5
FD7
330
1F
100
AcDbEntity
  8
0
  6
DASHED
 62
     2
 48
0.9
100
AcDbLine
 10
229.7113061875454
 20
-0.8374490832768302
 30
0.0
 11
272.5039670769222
 21
-43.25942995501689
 31
0.0
  0
LINE
  5
FD8
330
1F
100
AcDbEntity
  8
0
  6
DASHED
 62
     2
 48
0.7
100
AcDbLine
 10
266.8155911732081
 20
-98.65509316501492
 30
0.0
 11
266.2155911732082
 21
-98.65509316501492
 31
0.0
  0
LINE
  5
FD9
330
1F
100
AcDbEntity
  8
0
  6
DASHED
 62
     2
 48
0.7
100
AcDbLine
 10
262.7155911732081
 20
-95.75509316501479
 30
0.0
 11
262.7155911732081
 21
-95.15509316501491
 31
0.0
  0
LINE
  5
FDA
330
1F
100
AcDbEntity
  8
0
  6
DASHED
 62
     2
 48
0.7
100
AcDbLine
 10
265.6155911732083
 20
-91.65509316501491
 30
0.0
 11
266.2155911732082
 21
-91.65509316501491
 31
0.0
  0
LINE
  5
FDB
330
1F
100
AcDbEntity
  8
0
  6
DASHED
 62
     2
 48
0.7
100
AcDbLine
 10
266.8155911732081
 20
-97.25509316501479
 30
0.0
 11
266.8155911732081
 21
-98.65509316501492
 31
0.0
  0
LINE
  5
FDC
330
1F
100
AcDbEntity
  8
0
  6
DASHED
 62
     2
 48
0.7
100
AcDbLine
 10
264.1155911732083
 20
-95.75509316501479
 30
0.0
 11
262.7155911732081
 21
-95.75509316501479
 31
0.0
  0
LINE
  5
FDD
330
1F
100
AcDbEntity
  8
0
  6
DASHED
 62
     2
 48
0.7
100
AcDbLine
 10
265.6155911732083
 20
-93.05509316501476
 30
0.0
 11
265.6155911732083
 21
-91.65509316501491
 31
0.0
  0
LINE
  5
FDE
330
1F
100
AcDbEntity
  8
0
  6
DASHED
 62
     2
 48
0.7
100
AcDbLine
 10
269.7155911732082
 20
-95.75509316501479
 30
0.0
 11
268.3155911732081
 21
-95.75509316501479
 31
0.0
  0
LINE
  5
FDF
330
1F
100
AcDbEntity
  8
0
  6
DASHED
 62
     2
 48
0.7
100
AcDbLine
 10
265.6155911732083
 20
-98.65509316501492
 30
0.0
 11
265.6155911732083
 21
-97.25509316501479
 31
0.0
  0
LINE
  5
FE0
330
1F
100
AcDbEntity
  8
0
  6
DASHED
 62
     2
 48
0.7
100
AcDbLine
 10
262.7155911732081
 20
-94.55509316501476
 30
0.0
 11
264.1155911732083
 21
-94.55509316501476
 31
0.0
  0
LINE
  5
FE1
330
1F
100
AcDbEntity
  8
0
  6
DASHED
 62
     2
 48
0.7
100
AcDbLine
 10
269.7155911732082
 20
-95.15509316501491
 30
0.0
 11
269.7155911732082
 21
-95.75509316501479
 31
0.0
  0
LINE
  5
FE2
330
1F
100
AcDbEntity
  8
0
  6
DASHED
 62
     2
 48
0.7
100
AcDbLine
 10
266.2155911732082
 20
-98.65509316501492
 30
0.0
 11
265.6155911732083
 21
-98.65509316501492
 31
0.0
  0
LINE
  5
FE3
330
1F
100
AcDbEntity
  8
0
  6
DASHED
 62
     2
 48
0.7
100
AcDbLine
 10
262.7155911732081
 20
-95.15509316501491
 30
0.0
 11
262.7155911732081
 21
-94.55509316501476
 31
0.0
  0
LINE
  5
FE4
330
1F
100
AcDbEntity
  8
0
  6
DASHED
 62
     2
 48
0.7
100
AcDbLine
 10
269.7155911732082
 20
-94.55509316501476
 30
0.0
 11
269.7155911732082
 21
-95.15509316501491
 31
0.0
  0
LINE
  5
FE5
330
1F
100
AcDbEntity
  8
0
  6
DASHED
 62
     2
 48
0.7
100
AcDbLine
 10
268.3155911732081
 20
-94.55509316501476
 30
0.0
 11
269.7155911732082
 21
-94.55509316501476
 31
0.0
  0
LINE
  5
FE6
330
1F
100
AcDbEntity
  8
0
  6
DASHED
 62
     2
 48
0.7
100
AcDbLine
 10
266.8155911732081
 20
-91.65509316501491
 30
0.0
 11
266.8155911732081
 21
-93.05509316501476
 31
0.0
  0
LINE
  5
FE7
330
1F
100
AcDbEntity
  8
0
  6
DASHED
 62
     2
 48
0.7
100
AcDbLine
 10
266.2155911732082
 20
-91.65509316501491
 30
0.0
 11
266.8155911732081
 21
-91.65509316501491
 31
0.0
  0
LINE
  5
FE8
330
1F
100
AcDbEntity
  8
0
  6
DASHED
 62
     2
 48
0.9
100
AcDbLine
 10
237.9996820912595
 20
15.9317754336221
 30
0.0
 11
237.9996820912595
 21
6.578187888385191
 31
0.0
  0
LINE
  5
FE9
330
1F
100
AcDbEntity
  8
0
  6
DASHED
 62
     2
 48
0.9
100
AcDbLine
 10
224.1561368393895
 20
25.1478301294642
 30
0.0
 11
232.9996820912594
 21
25.1478301294642
 31
0.0
  0
LINE
  5
FEA
330
1F
100
AcDbEntity
  8
0
  6
DASHED
 62
     2
 48
0.9
100
AcDbLine
 10
224.1561368393895
 20
6.715720737780222
 30
0.0
 11
232.9996820912594
 21
6.715720737780222
 31
0.0
  0
LINE
  5
FEB
330
1F
100
AcDbEntity
  8
0
  6
Continuous
 62
     7
100
AcDbLine
 10
365.4806584810521
 20
-129.0965626743215
 30
0.0
 11
369.5212339026986
 21
-119.9491211288481
 31
0.0
  0
LINE
  5
FEC
330
1F
100
AcDbEntity
  8
0
  6
DASHED
 62
     2
 48
0.9
100
AcDbLine
 10
284.2155911732082
 20
-76.16964303790493
 30
0.0
 11
284.2155911732082
 21
-52.03456897519184
 31
0.0
  0
LINE
  5
FED
330
1F
100
AcDbEntity
  8
0
  6
DASHED
 62
     2
 48
0.9
100
AcDbLine
 10
274.2155911732082
 20
-76.16964303790584
 30
0.0
 11
274.2155911732082
 21
-51.35481795093481
 31
0.0
  0
LINE
  5
FEE
330
1F
100
AcDbEntity
  8
0
  6
Continuous
 62
     7
100
AcDbLine
 10
340.5492548263999
 20
-118.2148180541418
 30
0.0
 11
341.0846871202574
 21
-118.4485167886318
 31
0.0
  0
LINE
  5
FEF
330
1F
100
AcDbEntity
  8
0
  6
Continuous
 62
     7
100
AcDbLine
 10
340.5492548263999
 20
-118.2148180541418
 30
0.0
 11
341.1561368393866
 21
-122.8878095541399
 31
0.0
  0
LINE
  5
FF0
330
1F
100
AcDbEntity
  8
0
  6
Continuous
 62
     7
100
AcDbLine
 10
339.0470903114295
 20
-106.6481512888685
 30
0.0
 11
369.5765557613952
 21
-119.9732673159857
 31
0.0
  0
LINE
  5
FF1
330
1F
100
AcDbEntity
  8
0
  6
Continuous
 62
     7
100
AcDbLine
 10
339.0470903114295
 20
-106.6481512888685
 30
0.0
 11
340.5492548263999
 21
-118.2148180541418
 31
0.0
  0
LINE
  5
FF2
330
1F
100
AcDbEntity
  8
0
  6
DASHED
 62
     2
 48
0.9
100
AcDbLine
 10
339.0470903114295
 20
-106.6481512888685
 30
0.0
 11
290.2153478434523
 21
-85.33468822615985
 31
0.0
  0
LINE
  5
FF3
330
1F
100
AcDbEntity
  8
0
  6
DASHED
 62
     2
 48
0.9
100
AcDbLine
 10
341.0846871202574
 20
-118.4485167886318
 30
0.0
 11
286.2151045136954
 21
-94.49973341441385
 31
0.0
  0
LINE
  5
FF4
330
1F
100
AcDbEntity
  8
0
  6
Continuous
 62
     7
100
AcDbLine
 10
341.0846871202574
 20
-118.4485167886318
 30
0.0
 11
365.6885092638475
 21
-129.1872827624809
 31
0.0
  0
ARC
  5
FF5
330
1F
100
AcDbEntity
  8
0
  6
DASHED
 62
   171
100
AcDbCircle
 10
-522.6644563304573
 20
-97.93389507071353
 30
0.0
 40
1.599996478112713
100
AcDbArc
 50
180.000137638251
 51
264.9982890533513
  0
ARC
  5
FF6
330
1F
100
AcDbEntity
  8
0
  6
DASHED
 62
   171
100
AcDbCircle
 10
-522.6644563304573
 20
-92.44172403756632
 30
0.0
 40
1.599996478112639
100
AcDbArc
 50
95.00171094664469
 51
179.9998623617474
  0
ARC
  5
FF7
330
1F
100
AcDbEntity
  8
10
  6
Continuous
 62
     7
100
AcDbCircle
 10
102.9831368393896
 20
200.8122904458599
 30
0.0
 40
2.000000000000088
100
AcDbArc
 50
12.85093774438569
 51
90.0
  0
ARC
  5
FF8
330
1F
100
AcDbEntity
  8
0
  6
Continuous
 62
     7
100
AcDbCircle
 10
-0.5437666825024225
 20
42.06714111867484
 30
0.0
 40
1.599996478112599
100
AcDbArc
 50
180.0001376382478
 51
264.9982890533542
  0
ARC
  5
FF9
330
1F
100
AcDbEntity
  8
60
  6
Continuous
 62
     7
100
AcDbCircle
 10
205.1563587036584
 20
-79.18779233789973
 30
0.0
 40
28.00003545395387
100
AcDbArc
 50
327.8631838874893
 51
61.7262783595675
  0
ARC
  5
FFA
330
1F
100
AcDbEntity
  8
60
  6
Continuous
 62
     7
100
AcDbCircle
 10
223.1563058852755
 20
-45.7212577586949
 30
0.0
 40
9.999969046020099
100
AcDbArc
 50
180.0002967669588
 51
241.7266662850581
  0
ARC
  5
FFB
330
1F
100
AcDbEntity
  8
60
  6
Continuous
 62
     7
100
AcDbCircle
 10
178.1563331958732
 20
-44.59101770117031
 30
0.0
 40
4.999996356490646
100
AcDbArc
 50
131.8097837566016
 51
179.9999066418416
  0
ARC
  5
FFC
330
1F
100
AcDbEntity
  8
0
  6
Continuous
 62
     7
100
AcDbCircle
 10
235.0974714083851
 20
-34.24662328336729
 30
0.0
 40
0.5
100
AcDbArc
 50
180.0
 51
270.0
  0
ARC
  5
FFD
330
1F
100
AcDbEntity
  8
0
  6
Continuous
 62
     7
100
AcDbCircle
 10
235.0974714083851
 20
-36.24662328336729
 30
0.0
 40
0.5
100
AcDbArc
 50
90.0
 51
180.0
  0
ARC
  5
FFE
330
1F
100
AcDbEntity
  8
0
  6
Continuous
 62
     7
100
AcDbCircle
 10
233.0974714083851
 20
-36.24662328336729
 30
0.0
 40
0.5
100
AcDbArc
 50
0.0
 51
90.0
  0
ARC
  5
FFF
330
1F
100
AcDbEntity
  8
0
  6
Continuous
 62
     7
100
AcDbCircle
 10
233.0974714083851
 20
-34.24662328336729
 30
0.0
 40
0.5
100
AcDbArc
 50
270.0
 51
0.0
  0
ARC
  5
1000
330
1F
100
AcDbEntity
  8
100
  6
DASH_CENTER
 62
    30
100
AcDbCircle
 10
200.1561368393895
 20
-69.18750955414004
 30
0.0
 40
47.99997867884975
100
AcDbArc
 50
19.99985731614288
 51
55.49549144422619
  0
ARC
  5
1001
330
1F
100
AcDbEntity
  8
0
  6
Continuous
 62
     7
100
AcDbCircle
 10
235.0972231101622
 20
-104.1290441231355
 30
0.0
 40
0.5
100
AcDbArc
 50
90.0
 51
180.0
  0
ARC
  5
1002
330
1F
100
AcDbEntity
  8
0
  6
Continuous
 62
     7
100
AcDbCircle
 10
233.0972231101622
 20
-104.1290441231355
 30
0.0
 40
0.5
100
AcDbArc
 50
0.0
 51
90.0
  0
ARC
  5
1003
330
1F
100
AcDbEntity
  8
0
  6
Continuous
 62
     7
100
AcDbCircle
 10
233.0972231101622
 20
-102.1290441231355
 30
0.0
 40
0.5
100
AcDbArc
 50
270.0
 51
0.0
  0
ARC
  5
1004
330
1F
100
AcDbEntity
  8
0
  6
Continuous
 62
     7
100
AcDbCircle
 10
235.0972231101622
 20
-102.1290441231355
 30
0.0
 40
0.5
100
AcDbArc
 50
180.0
 51
270.0
  0
ARC
  5
1005
330
1F
100
AcDbEntity
  8
100
  6
DASH_CENTER
 62
    30
100
AcDbCircle
 10
200.1562240566638
 20
-69.18782273443961
 30
0.0
 40
48.0000075079107
100
AcDbArc
 50
304.7059404485781
 51
325.49567903769
  0
ARC
  5
1006
330
1F
100
AcDbEntity
  8
0
  6
Continuous
 62
     7
100
AcDbCircle
 10
165.214802270394
 20
-104.1287958249129
 30
0.0
 40
0.5
100
AcDbArc
 50
0.0
 51
90.0
  0
ARC
  5
1007
330
1F
100
AcDbEntity
  8
0
  6
Continuous
 62
     7
100
AcDbCircle
 10
165.214802270394
 20
-102.1287958249128
 30
0.0
 40
0.5
100
AcDbArc
 50
270.0
 51
0.0
  0
ARC
  5
1008
330
1F
100
AcDbEntity
  8
0
  6
Continuous
 62
     7
100
AcDbCircle
 10
167.214802270394
 20
-102.1287958249128
 30
0.0
 40
0.5
100
AcDbArc
 50
180.0
 51
270.0
  0
ARC
  5
1009
330
1F
100
AcDbEntity
  8
0
  6
Continuous
 62
     7
100
AcDbCircle
 10
167.214802270394
 20
-104.1287958249129
 30
0.0
 40
0.5
100
AcDbArc
 50
90.0
 51
180.0
  0
ARC
  5
100A
330
1F
100
AcDbEntity
  8
100
  6
DASH_CENTER
 62
    30
100
AcDbCircle
 10
200.1561368393895
 20
-69.18790955414005
 30
0.0
 40
47.99997867884957
100
AcDbArc
 50
199.999694013481
 51
235.4954914442264
  0
ARC
  5
100B
330
1F
100
AcDbEntity
  8
0
  6
Continuous
 62
     7
100
AcDbCircle
 10
165.2150505686168
 20
-34.2463749851446
 30
0.0
 40
0.5
100
AcDbArc
 50
270.0
 51
0.0
  0
ARC
  5
100C
330
1F
100
AcDbEntity
  8
0
  6
Continuous
 62
     7
100
AcDbCircle
 10
167.2150505686168
 20
-34.2463749851446
 30
0.0
 40
0.5
100
AcDbArc
 50
180.0
 51
270.0
  0
ARC
  5
100D
330
1F
100
AcDbEntity
  8
0
  6
Continuous
 62
     7
100
AcDbCircle
 10
167.2150505686168
 20
-36.24637498514462
 30
0.0
 40
0.5
100
AcDbArc
 50
90.0
 51
180.0
  0
ARC
  5
100E
330
1F
100
AcDbEntity
  8
0
  6
Continuous
 62
     7
100
AcDbCircle
 10
165.2150505686168
 20
-36.24637498514462
 30
0.0
 40
0.5
100
AcDbArc
 50
0.0
 51
90.0
  0
ARC
  5
100F
330
1F
100
AcDbEntity
  8
0
  6
Continuous
 62
     7
100
AcDbCircle
 10
-0.5437168728872166
 20
-21.44261220932344
 30
0.0
 40
1.600046288488405
100
AcDbArc
 50
95.00334528745279
 51
179.9982280209453
  0
ARC
  5
1010
330
1F
100
AcDbEntity
  8
0
  6
Continuous
 62
     7
100
AcDbCircle
 10
-0.5437666825024225
 20
-26.93285888132527
 30
0.0
 40
1.599996478112599
100
AcDbArc
 50
180.0001376382478
 51
264.9982890533542
  0
ARC
  5
1011
330
1F
100
AcDbEntity
  8
10
  6
Continuous
 62
     7
100
AcDbCircle
 10
106.8562316350737
 20
-112.1877135853684
 30
0.0
 40
2.000004031235058
100
AcDbArc
 50
89.99985090763813
 51
165.5223983590695
  0
ARC
  5
1012
330
1F
100
AcDbEntity
  8
10
  6
Continuous
 62
     7
100
AcDbCircle
 10
102.9831420437053
 20
-111.1877055229118
 30
0.0
 40
2.000004031235043
100
AcDbArc
 50
269.9998509076382
 51
345.5223983590695
  0
ARC
  5
1013
330
1F
100
AcDbEntity
  8
10
  6
Continuous
 62
     7
100
AcDbCircle
 10
159.8561368381395
 20
-112.1877095528899
 30
0.0
 40
2.000000001249985
100
AcDbArc
 50
359.9999999641885
 51
89.99713517521618
  0
ARC
  5
1014
330
1F
100
AcDbEntity
  8
100
  6
DASH_CENTER
 62
    30
100
AcDbCircle
 10
200.1560496221149
 20
-69.18759637384093
 30
0.0
 40
48.00000750791074
100
AcDbArc
 50
124.7059404485774
 51
145.4956790376895
  0
ARC
  5
1015
330
1F
100
AcDbEntity
  8
0
  6
Continuous
 62
     7
100
AcDbCircle
 10
209.1561368393895
 20
184.8122904458599
 30
0.0
 40
15.0
100
AcDbArc
 50
0.0
 51
90.0
  0
ARC
  5
1016
330
1F
100
AcDbEntity
  8
10
  6
Continuous
 62
     7
100
AcDbCircle
 10
160.0561368381395
 20
-112.1877095528899
 30
0.0
 40
2.000000001249985
100
AcDbArc
 50
359.9999999641885
 51
89.99713517521291
  0
ARC
  5
1017
330
1F
100
AcDbEntity
  8
0
  6
Continuous
 62
     7
100
AcDbCircle
 10
330.6561368393882
 20
-18.66980696139282
 30
0.0
 40
1.499999999999972
100
AcDbArc
 50
138.1896851042204
 51
180.0
  0
ARC
  5
1018
330
1F
100
AcDbEntity
  8
0
  6
Continuous
 62
     7
100
AcDbCircle
 10
232.6561671325522
 20
-18.45965289504738
 30
0.0
 40
1.89996970712403
100
AcDbArc
 50
275.002313819052
 51
359.999003039063
  0
ARC
  5
1019
330
1F
100
AcDbEntity
  8
0
  6
Continuous
 62
     7
100
AcDbCircle
 10
232.6561173227227
 20
-12.12416465467658
 30
0.0
 40
1.900019516785245
100
AcDbArc
 50
359.9993576810967
 51
84.99630987471144
  0
ARC
  5
101A
330
1F
100
AcDbEntity
  8
0
  6
Continuous
 62
     7
100
AcDbCircle
 10
261.4561368393879
 20
-39.48780955413988
 30
0.0
 40
2.999999999999991
100
AcDbArc
 50
95.73917047726485
 51
179.9999999999988
  0
ARC
  5
101B
330
1F
100
AcDbEntity
  8
0
  6
Continuous
 62
     7
100
AcDbCircle
 10
-270.9646990962884
 20
-100.3845630581918
 30
0.0
 40
1.600046288488416
100
AcDbArc
 50
0.00177197905657
 51
84.99665471254719
  0
ARC
  5
101C
330
1F
100
AcDbEntity
  8
0
  6
Continuous
 62
     7
100
AcDbCircle
 10
-270.9646492866732
 20
-105.8748097301936
 30
0.0
 40
1.599996478112598
100
AcDbArc
 50
275.0017109466448
 51
359.9998623617499
  0
ARC
  5
101D
330
1F
100
AcDbEntity
  8
0
  6
Continuous
 62
     7
100
AcDbCircle
 10
-270.9646990962884
 20
-37.99085605008829
 30
0.0
 40
1.600046288488431
100
AcDbArc
 50
275.0033452874528
 51
359.9982280209437
  0
ARC
  5
101E
330
1F
100
AcDbEntity
  8
0
  6
Continuous
 62
     7
100
AcDbCircle
 10
-270.9646492866732
 20
-32.50060937808648
 30
0.0
 40
1.599996478112599
100
AcDbArc
 50
0.00013763824983
 51
84.99828905335512
  0
ARC
  5
101F
330
1F
100
AcDbEntity
  8
10
  6
Continuous
 62
     7
100
AcDbCircle
 10
-326.6684528085651
 20
-23.18770955414003
 30
0.0
 40
5.00000000000005
100
AcDbArc
 50
218.6004240928907
 51
270.0
  0
ARC
  5
1020
330
1F
100
AcDbEntity
  8
10
  6
Continuous
 62
     7
100
AcDbCircle
 10
-281.6650528098151
 20
-121.1877095528901
 30
0.0
 40
2.000000001250019
100
AcDbArc
 50
180.0028648247821
 51
270.0000000358111
  0
ARC
  5
1021
330
1F
100
AcDbEntity
  8
10
  6
Continuous
 62
     7
100
AcDbCircle
 10
-286.6645528085652
 20
-113.18780955414
 30
0.0
 40
3.0
100
AcDbArc
 50
0.0
 51
90.0
  0
ARC
  5
1022
330
1F
100
AcDbEntity
  8
10
  6
Continuous
 62
     7
100
AcDbCircle
 10
-286.6645528085652
 20
-25.18760955414006
 30
0.0
 40
3.0
100
AcDbArc
 50
270.0
 51
0.0
  0
ARC
  5
1023
330
1F
100
AcDbEntity
  8
10
  6
Continuous
 62
     7
100
AcDbCircle
 10
-281.6650528085651
 20
-17.18770955414003
 30
0.0
 40
2.000000000000002
100
AcDbArc
 50
90.0
 51
180.0
  0
ARC
  5
1024
330
1F
100
AcDbEntity
  8
0
  6
CENTER_DASH_DASH
 62
   171
100
AcDbCircle
 10
-471.6647528085653
 20
44.81229044585997
 30
0.0
 40
78.99999999999952
100
AcDbArc
 50
250.1387470532141
 51
270.0
  0
ARC
  5
1025
330
1F
100
AcDbEntity
  8
0
  6
CENTER_DASH_DASH
 62
   171
100
AcDbCircle
 10
-531.7688292094211
 20
-15.291785954996
 30
0.0
 40
6.999999999999947
100
AcDbArc
 50
164.6838632762529
 51
285.3161367237466
  0
ARC
  5
1026
330
1F
100
AcDbEntity
  8
0
  6
CENTER_DASH_DASH
 62
    30
100
AcDbCircle
 10
-471.6647528085653
 20
44.81229044585997
 30
0.0
 40
84.9999999999992
100
AcDbArc
 50
217.6082128003341
 51
232.3917871996656
  0
ARC
  5
1027
330
1F
100
AcDbEntity
  8
0
  6
CENTER_DASH_DASH
 62
   171
100
AcDbCircle
 10
-531.7688292094211
 20
104.916366846716
 30
0.0
 40
7.000000000000909
100
AcDbArc
 50
74.68386327625591
 51
195.316136723738
  0
ARC
  5
1028
330
1F
100
AcDbEntity
  8
0
  6
CENTER_DASH_DASH
 62
    30
100
AcDbCircle
 10
-471.6647528085653
 20
44.81229044585997
 30
0.0
 40
84.99999999999998
100
AcDbArc
 50
127.6082128003338
 51
142.3917871996657
  0
ARC
  5
1029
330
1F
100
AcDbEntity
  8
0
  6
CENTER_DASH_DASH
 62
   171
100
AcDbCircle
 10
-471.6647528085653
 20
44.81229044585997
 30
0.0
 40
78.99999999999997
100
AcDbArc
 50
270.0
 51
289.8612529467859
  0
ARC
  5
102A
330
1F
100
AcDbEntity
  8
0
  6
CENTER_DASH_DASH
 62
   171
100
AcDbCircle
 10
-411.5606764077093
 20
-15.291785954996
 30
0.0
 40
6.999999999999769
100
AcDbArc
 50
254.6838632762548
 51
15.31613672374657
  0
ARC
  5
102B
330
1F
100
AcDbEntity
  8
0
  6
CENTER_DASH_DASH
 62
    30
100
AcDbCircle
 10
-471.6647528085653
 20
44.81229044585997
 30
0.0
 40
84.99999999999909
100
AcDbArc
 50
307.6082128003343
 51
322.3917871996658
  0
ARC
  5
102C
330
1F
100
AcDbEntity
  8
0
  6
CENTER_DASH_DASH
 62
   171
100
AcDbCircle
 10
-411.5606764077093
 20
104.916366846716
 30
0.0
 40
6.999999999999861
100
AcDbArc
 50
344.6838632762625
 51
105.3161367237428
  0
ARC
  5
102D
330
1F
100
AcDbEntity
  8
0
  6
CENTER_DASH_DASH
 62
    30
100
AcDbCircle
 10
-471.6647528085653
 20
44.81229044585997
 30
0.0
 40
84.99999999999934
100
AcDbArc
 50
37.60821280033429
 51
52.39178719966617
  0
ARC
  5
102E
330
1F
100
AcDbEntity
  8
0
  6
Continuous
 62
     7
100
AcDbCircle
 10
-308.6647528085653
 20
44.81229044585996
 30
0.0
 40
7.000000000000051
100
AcDbArc
 50
295.0000000000009
 51
64.99999999999904
  0
ARC
  5
102F
330
1F
100
AcDbEntity
  8
0
  6
Continuous
 62
     7
100
AcDbCircle
 10
-471.6647528085653
 20
44.81229044585997
 30
0.0
 40
158.0
100
AcDbArc
 50
304.751411616165
 51
355.248588383835
  0
ARC
  5
1030
330
1F
100
AcDbEntity
  8
0
  6
Continuous
 62
     7
100
AcDbCircle
 10
-309.8649528085652
 20
46.01219044586003
 30
0.0
 40
0.6000000000001366
100
AcDbArc
 50
270.0
 51
0.0
  0
ARC
  5
1031
330
1F
100
AcDbEntity
  8
0
  6
Continuous
 62
     7
100
AcDbCircle
 10
-307.4648528085651
 20
46.01219044586003
 30
0.0
 40
0.6000000000000796
100
AcDbArc
 50
180.0
 51
270.0
  0
ARC
  5
1032
330
1F
100
AcDbEntity
  8
0
  6
Continuous
 62
     7
100
AcDbCircle
 10
-307.4648528085651
 20
43.61209044585995
 30
0.0
 40
0.5999999999999091
100
AcDbArc
 50
90.0
 51
180.0
  0
ARC
  5
1033
330
1F
100
AcDbEntity
  8
0
  6
Continuous
 62
     7
100
AcDbCircle
 10
-309.8649528085652
 20
43.61209044585995
 30
0.0
 40
0.5999999999999659
100
AcDbArc
 50
0.0
 51
90.0
  0
ARC
  5
1034
330
1F
100
AcDbEntity
  8
0
  6
Continuous
 62
     7
100
AcDbCircle
 10
-390.1647528085653
 20
185.9744312627234
 30
0.0
 40
7.000000000000072
100
AcDbArc
 50
355.0
 51
124.9999999999991
  0
ARC
  5
1035
330
1F
100
AcDbEntity
  8
0
  6
Continuous
 62
     7
100
AcDbCircle
 10
-391.8039966905661
 20
185.5349775731014
 30
0.0
 40
0.6000000000001075
100
AcDbArc
 50
329.9999999999952
 51
59.99999999999553
  0
ARC
  5
1036
330
1F
100
AcDbEntity
  8
0
  6
Continuous
 62
     7
100
AcDbCircle
 10
-390.6039466905662
 20
187.6135251447244
 30
0.0
 40
0.6000000000000402
100
AcDbArc
 50
240.0000000000009
 51
329.999999999998
  0
ARC
  5
1037
330
1F
100
AcDbEntity
  8
0
  6
Continuous
 62
     7
100
AcDbCircle
 10
-388.5253991189432
 20
186.4134751447243
 30
0.0
 40
0.5999999999998679
100
AcDbArc
 50
149.9999999999915
 51
239.9999999999955
  0
ARC
  5
1038
330
1F
100
AcDbEntity
  8
0
  6
Continuous
 62
     7
100
AcDbCircle
 10
-389.7254491189431
 20
184.3349275731014
 30
0.0
 40
0.5999999999999665
100
AcDbArc
 50
59.99999999999689
 51
150.0000000000009
  0
ARC
  5
1039
330
1F
100
AcDbEntity
  8
0
  6
Continuous
 62
     7
100
AcDbCircle
 10
-553.164752808565
 20
185.9744312627235
 30
0.0
 40
6.999999999999917
100
AcDbArc
 50
55.00000000000018
 51
185.0000000000006
  0
ARC
  5
103A
330
1F
100
AcDbEntity
  8
0
  6
Continuous
 62
     7
100
AcDbCircle
 10
-553.6037966905658
 20
184.3350775731014
 30
0.0
 40
0.5999999999998187
100
AcDbArc
 50
30.00000000001126
 51
119.9999999999984
  0
ARC
  5
103B
330
1F
100
AcDbEntity
  8
0
  6
Continuous
 62
     7
100
AcDbCircle
 10
-554.803846690566
 20
186.4136251447243
 30
0.0
 40
0.599999999999938
100
AcDbArc
 50
299.9999999999984
 51
29.99999999999659
  0
ARC
  5
103C
330
1F
100
AcDbEntity
  8
0
  6
Continuous
 62
     7
100
AcDbCircle
 10
-552.7252991189429
 20
187.6136751447244
 30
0.0
 40
0.599999999999903
100
AcDbArc
 50
210.0000000000035
 51
300.0000000000131
  0
ARC
  5
103D
330
1F
100
AcDbEntity
  8
0
  6
Continuous
 62
     7
100
AcDbCircle
 10
-551.525249118943
 20
185.5351275731014
 30
0.0
 40
0.5999999999998811
100
AcDbArc
 50
119.999999999989
 51
210.0000000000089
  0
ARC
  5
103E
330
1F
100
AcDbEntity
  8
0
  6
Continuous
 62
     7
100
AcDbCircle
 10
-634.6647528085654
 20
44.81229044586006
 30
0.0
 40
6.999999999999976
100
AcDbArc
 50
114.9999999999998
 51
245.0000000000003
  0
ARC
  5
103F
330
1F
100
AcDbEntity
  8
0
  6
Continuous
 62
     7
100
AcDbCircle
 10
-633.4645528085652
 20
43.61239044585995
 30
0.0
 40
0.6000000000001366
100
AcDbArc
 50
90.0
 51
180.0
  0
ARC
  5
1040
330
1F
100
AcDbEntity
  8
0
  6
Continuous
 62
     7
100
AcDbCircle
 10
-635.8646528085651
 20
43.61239044585999
 30
0.0
 40
0.6000000000002501
100
AcDbArc
 50
0.0
 51
90.0
  0
ARC
  5
1041
330
1F
100
AcDbEntity
  8
0
  6
Continuous
 62
     7
100
AcDbCircle
 10
-635.8646528085651
 20
46.01249044586004
 30
0.0
 40
0.5999999999999091
100
AcDbArc
 50
270.0
 51
0.0
  0
ARC
  5
1042
330
1F
100
AcDbEntity
  8
0
  6
Continuous
 62
     7
100
AcDbCircle
 10
-633.4645528085652
 20
46.01249044586004
 30
0.0
 40
0.5999999999997954
100
AcDbArc
 50
180.0
 51
270.0
  0
ARC
  5
1043
330
1F
100
AcDbEntity
  8
0
  6
Continuous
 62
     7
100
AcDbCircle
 10
-553.1647528085652
 20
-96.34985037100351
 30
0.0
 40
6.999999999999905
100
AcDbArc
 50
222.1693020941485
 51
304.9999999999986
  0
ARC
  5
1044
330
1F
100
AcDbEntity
  8
0
  6
Continuous
 62
     7
100
AcDbCircle
 10
-551.5255089265643
 20
-95.91039668138149
 30
0.0
 40
0.6000000000002409
100
AcDbArc
 50
150.0000000000058
 51
239.9999999999995
  0
ARC
  5
1045
330
1F
100
AcDbEntity
  8
0
  6
Continuous
 62
     7
100
AcDbCircle
 10
-552.725558926564
 20
-97.98894425300449
 30
0.0
 40
0.5999999999999549
100
AcDbArc
 50
60.00000000001507
 51
150.0000000000034
  0
ARC
  5
1046
330
1F
100
AcDbEntity
  8
0
  6
Continuous
 62
     7
100
AcDbCircle
 10
-554.8041064981873
 20
-96.7888942530045
 30
0.0
 40
0.5999999999998602
100
AcDbArc
 50
330.0000000000036
 51
60.00000000000702
  0
ARC
  5
1047
330
1F
100
AcDbEntity
  8
0
  6
Continuous
 62
     7
100
AcDbCircle
 10
-553.6040564981874
 20
-94.71034668138143
 30
0.0
 40
0.5999999999999704
100
AcDbArc
 50
239.9999999999907
 51
330.0000000000043
  0
ARC
  5
1048
330
1F
100
AcDbEntity
  8
0
  6
Continuous
 62
     7
100
AcDbCircle
 10
-390.1647528085653
 20
-96.34985037100364
 30
0.0
 40
7.000000000000017
100
AcDbArc
 50
235.0000000000003
 51
5.000000000000206
  0
ARC
  5
1049
330
1F
100
AcDbEntity
  8
0
  6
Continuous
 62
     7
100
AcDbCircle
 10
-389.7257089265642
 20
-94.71049668138149
 30
0.0
 40
0.6000000000002409
100
AcDbArc
 50
209.9999999999942
 51
299.9999999999951
  0
ARC
  5
104A
330
1F
100
AcDbEntity
  8
0
  6
Continuous
 62
     7
100
AcDbCircle
 10
-388.5256589265644
 20
-96.7890442530045
 30
0.0
 40
0.6000000000000032
100
AcDbArc
 50
120.0000000000011
 51
210.0000000000101
  0
ARC
  5
104B
330
1F
100
AcDbEntity
  8
0
  6
Continuous
 62
     7
100
AcDbCircle
 10
-390.6042064981874
 20
-97.9890942530045
 30
0.0
 40
0.5999999999999166
100
AcDbArc
 50
29.99999999999488
 51
119.9999999999944
  0
ARC
  5
104C
330
1F
100
AcDbEntity
  8
0
  6
Continuous
 62
     7
100
AcDbCircle
 10
-391.8042564981874
 20
-95.91054668138152
 30
0.0
 40
0.599999999999942
100
AcDbArc
 50
300.0000000000044
 51
29.99999999999842
  0
ARC
  5
104D
330
1F
100
AcDbEntity
  8
0
  6
Continuous
 62
     7
100
AcDbCircle
 10
-471.6647528085653
 20
44.81229044585997
 30
0.0
 40
158.0
100
AcDbArc
 50
258.8171620354122
 51
295.248588383835
  0
ARC
  5
104E
330
1F
100
AcDbEntity
  8
0
  6
Continuous
 62
     7
100
AcDbCircle
 10
-471.6647528085653
 20
44.81229044585997
 30
0.0
 40
158.0000000000001
100
AcDbArc
 50
184.751411616165
 51
235.248588383835
  0
ARC
  5
104F
330
1F
100
AcDbEntity
  8
0
  6
Continuous
 62
     7
100
AcDbCircle
 10
-471.6647528085653
 20
44.81229044585997
 30
0.0
 40
157.9999999999999
100
AcDbArc
 50
4.75141161616503
 51
55.24858838383496
  0
ARC
  5
1050
330
1F
100
AcDbEntity
  8
0
  6
Continuous
 62
     7
100
AcDbCircle
 10
-471.6647528085653
 20
44.81229044585997
 30
0.0
 40
157.9999999999998
100
AcDbArc
 50
90.0
 51
115.2485883838349
  0
ARC
  5
1051
330
1F
100
AcDbEntity
  8
0
  6
Continuous
 62
     7
100
AcDbCircle
 10
-471.6647528085653
 20
44.81229044585997
 30
0.0
 40
157.9999999999999
100
AcDbArc
 50
124.751411616165
 51
175.2485883838349
  0
ARC
  5
1052
330
1F
100
AcDbEntity
  8
0
  6
DASH_CENTER
 62
    30
100
AcDbCircle
 10
-471.6647528085653
 20
44.81229044585997
 30
0.0
 40
162.9999999999999
100
AcDbArc
 50
355.6048415793065
 51
4.395158420693508
  0
ARC
  5
1053
330
1F
100
AcDbEntity
  8
0
  6
DASH_CENTER
 62
    30
100
AcDbCircle
 10
-471.6647528085653
 20
44.81229044585997
 30
0.0
 40
162.9999999999999
100
AcDbArc
 50
55.60484157930645
 51
64.39515842069339
  0
ARC
  5
1054
330
1F
100
AcDbEntity
  8
0
  6
DASH_CENTER
 62
    30
100
AcDbCircle
 10
-471.6647528085653
 20
44.81229044585997
 30
0.0
 40
163.0
100
AcDbArc
 50
115.6048415793065
 51
124.3951584206934
  0
ARC
  5
1055
330
1F
100
AcDbEntity
  8
0
  6
DASH_CENTER
 62
    30
100
AcDbCircle
 10
-471.6647528085653
 20
44.81229044585997
 30
0.0
 40
163.0
100
AcDbArc
 50
175.6048415793065
 51
184.3951584206935
  0
ARC
  5
1056
330
1F
100
AcDbEntity
  8
0
  6
DASH_CENTER
 62
    30
100
AcDbCircle
 10
-471.6647528085653
 20
44.81229044585997
 30
0.0
 40
163.0
100
AcDbArc
 50
235.6048415793065
 51
244.3951584206935
  0
ARC
  5
1057
330
1F
100
AcDbEntity
  8
0
  6
DASH_CENTER
 62
    30
100
AcDbCircle
 10
-471.6647528085653
 20
44.81229044585997
 30
0.0
 40
163.0
100
AcDbArc
 50
295.6048415793063
 51
304.3951584206935
  0
ARC
  5
1058
330
1F
100
AcDbEntity
  8
0
  6
Continuous
 62
     7
100
AcDbCircle
 10
-472.6647528085653
 20
114.8122904458599
 30
0.0
 40
0.5
100
AcDbArc
 50
270.0
 51
0.0
  0
ARC
  5
1059
330
1F
100
AcDbEntity
  8
0
  6
Continuous
 62
     7
100
AcDbCircle
 10
-470.6647528085651
 20
114.8122904458599
 30
0.0
 40
0.5
100
AcDbArc
 50
180.0
 51
270.0
  0
ARC
  5
105A
330
1F
100
AcDbEntity
  8
0
  6
Continuous
 62
     7
100
AcDbCircle
 10
-470.6647528085651
 20
112.8122904458599
 30
0.0
 40
0.5
100
AcDbArc
 50
90.0
 51
180.0
  0
ARC
  5
105B
330
1F
100
AcDbEntity
  8
0
  6
Continuous
 62
     7
100
AcDbCircle
 10
-472.6647528085653
 20
112.8122904458599
 30
0.0
 40
0.5
100
AcDbArc
 50
0.0
 51
90.0
  0
ARC
  5
105C
330
1F
100
AcDbEntity
  8
0
  6
DASH_CENTER
 62
    30
100
AcDbCircle
 10
-471.6647528085653
 20
44.81229044585997
 30
0.0
 40
69.0
100
AcDbArc
 50
81.11921464672422
 51
98.88078535327558
  0
ARC
  5
105D
330
1F
100
AcDbEntity
  8
0
  6
Continuous
 62
     7
100
AcDbCircle
 10
-541.6647528085652
 20
43.81229044585999
 30
0.0
 40
0.5
100
AcDbArc
 50
0.0
 51
90.0
  0
ARC
  5
105E
330
1F
100
AcDbEntity
  8
0
  6
Continuous
 62
     7
100
AcDbCircle
 10
-541.6647528085652
 20
45.81229044585999
 30
0.0
 40
0.5
100
AcDbArc
 50
270.0
 51
0.0
  0
ARC
  5
105F
330
1F
100
AcDbEntity
  8
0
  6
Continuous
 62
     7
100
AcDbCircle
 10
-539.6647528085652
 20
45.81229044585999
 30
0.0
 40
0.5
100
AcDbArc
 50
180.0
 51
270.0
  0
ARC
  5
1060
330
1F
100
AcDbEntity
  8
0
  6
Continuous
 62
     7
100
AcDbCircle
 10
-539.6647528085652
 20
43.81229044585999
 30
0.0
 40
0.5
100
AcDbArc
 50
90.0
 51
180.0
  0
ARC
  5
1061
330
1F
100
AcDbEntity
  8
0
  6
DASH_CENTER
 62
    30
100
AcDbCircle
 10
-471.6647528085721
 20
44.81229044585981
 30
0.0
 40
68.99999999999259
100
AcDbArc
 50
170.1484943816811
 51
188.8807853532764
  0
ARC
  5
1062
330
1F
100
AcDbEntity
  8
0
  6
Continuous
 62
     7
100
AcDbCircle
 10
-470.6647528085651
 20
-25.18770955414003
 30
0.0
 40
0.5
100
AcDbArc
 50
90.0
 51
180.0
  0
ARC
  5
1063
330
1F
100
AcDbEntity
  8
0
  6
Continuous
 62
     7
100
AcDbCircle
 10
-472.6647528085653
 20
-25.18770955414003
 30
0.0
 40
0.5
100
AcDbArc
 50
0.0
 51
90.0
  0
ARC
  5
1064
330
1F
100
AcDbEntity
  8
0
  6
Continuous
 62
     7
100
AcDbCircle
 10
-472.6647528085653
 20
-23.18770955414003
 30
0.0
 40
0.5
100
AcDbArc
 50
270.0
 51
0.0
  0
ARC
  5
1065
330
1F
100
AcDbEntity
  8
0
  6
Continuous
 62
     7
100
AcDbCircle
 10
-470.6647528085651
 20
-23.18770955414003
 30
0.0
 40
0.5
100
AcDbArc
 50
180.0
 51
270.0
  0
ARC
  5
1066
330
1F
100
AcDbEntity
  8
0
  6
DASH_CENTER
 62
    30
100
AcDbCircle
 10
-471.6647528085653
 20
44.81229044585997
 30
0.0
 40
68.99999999999995
100
AcDbArc
 50
261.1192146467244
 51
278.8807853532758
  0
ARC
  5
1067
330
1F
100
AcDbEntity
  8
0
  6
Continuous
 62
     7
100
AcDbCircle
 10
-401.6647528085653
 20
45.81229044585995
 30
0.0
 40
0.5
100
AcDbArc
 50
180.0
 51
270.0
  0
ARC
  5
1068
330
1F
100
AcDbEntity
  8
0
  6
Continuous
 62
     7
100
AcDbCircle
 10
-401.6647528085653
 20
43.81229044585995
 30
0.0
 40
0.5
100
AcDbArc
 50
90.0
 51
180.0
  0
ARC
  5
1069
330
1F
100
AcDbEntity
  8
0
  6
Continuous
 62
     7
100
AcDbCircle
 10
-403.6647528085651
 20
43.81229044585995
 30
0.0
 40
0.5
100
AcDbArc
 50
0.0
 51
90.0
  0
ARC
  5
106A
330
1F
100
AcDbEntity
  8
0
  6
Continuous
 62
     7
100
AcDbCircle
 10
-403.6647528085651
 20
45.81229044585995
 30
0.0
 40
0.5
100
AcDbArc
 50
270.0
 51
0.0
  0
ARC
  5
106B
330
1F
100
AcDbEntity
  8
0
  6
DASH_CENTER
 62
    30
100
AcDbCircle
 10
-471.6647528085601
 20
44.81229044586007
 30
0.0
 40
68.99999999999497
100
AcDbArc
 50
351.179983472306
 51
8.880785353276245
  0
ARC
  5
106C
330
1F
100
AcDbEntity
  8
0
  6
CENTER_DASH_DASH
 62
   171
100
AcDbCircle
 10
-471.6647528085653
 20
44.81229044585997
 30
0.0
 40
78.99999999999959
100
AcDbArc
 50
199.471498466462
 51
214.5956277322069
  0
ARC
  5
106D
330
1F
100
AcDbEntity
  8
0
  6
Continuous
 62
     7
100
AcDbCircle
 10
-471.6647528085653
 20
44.81229044585997
 30
0.0
 40
120.0
100
AcDbArc
 50
90.6730896712097
 51
97.00000000000002
  0
ARC
  5
106E
330
1F
100
AcDbEntity
  8
0
  6
Continuous
 62
     7
100
AcDbCircle
 10
-471.6647528085653
 20
44.81229044585997
 30
0.0
 40
125.0
100
AcDbArc
 50
72.68550031586716
 51
88.7315690384662
  0
ARC
  5
106F
330
1F
100
AcDbEntity
  8
0
  6
Continuous
 62
     7
100
AcDbCircle
 10
-471.6647528085653
 20
44.81229044585997
 30
0.0
 40
115.0
100
AcDbArc
 50
74.78467803001795
 51
106.9928823084461
  0
ARC
  5
1070
330
1F
100
AcDbEntity
  8
0
  6
Continuous
 62
     7
100
AcDbCircle
 10
-471.6647528085653
 20
44.81229044585997
 30
0.0
 40
158.0
100
AcDbArc
 50
64.75141161616495
 51
90.0
  0
ARC
  5
1074
330
1F
100
AcDbEntity
  8
0
  6
DASHED
 62
     2
100
AcDbCircle
 10
273.5490816445879
 20
-33.45007880805432
 30
0.0
 40
1.600046288488416
100
AcDbArc
 50
270.0017719790566
 51
354.9966547125471
  0
ARC
  5
1075
330
1F
100
AcDbEntity
  8
0
  6
DASHED
 62
     2
100
AcDbCircle
 10
268.058834972586
 20
-33.45012861766956
 30
0.0
 40
1.599996478112554
100
AcDbArc
 50
185.0017109466455
 51
269.9998623617521
  0
ARC
  5
1076
330
1F
100
AcDbEntity
  8
0
  6
DASHED
 62
     2
100
AcDbCircle
 10
323.0610358127258
 20
-33.45007880805432
 30
0.0
 40
1.600046288488416
100
AcDbArc
 50
270.0017719790566
 51
354.9966547125471
  0
ARC
  5
1077
330
1F
100
AcDbEntity
  8
0
  6
DASHED
 62
     2
100
AcDbCircle
 10
317.570789140724
 20
-33.45012861766953
 30
0.0
 40
1.599996478112673
100
AcDbArc
 50
185.0017109466461
 51
269.9998623617521
  0
ARC
  5
1078
330
1F
100
AcDbEntity
  8
0
  6
CENTER_DASH_DASH
 62
   171
100
AcDbCircle
 10
-471.6647528085653
 20
44.81229044585997
 30
0.0
 40
78.99999999999967
100
AcDbArc
 50
325.4043722677932
 51
180.528501533538
  0
ARC
  5
1079
330
1F
100
AcDbEntity
  8
0
  6
CENTER_DASH_DASH
 62
   171
100
AcDbCircle
 10
-471.6647528085653
 20
44.81229044585997
 30
0.0
 40
78.99999999999953
100
AcDbArc
 50
180.528501533538
 51
199.471498466462
  0
ARC
  5
107A
330
1F
100
AcDbEntity
  8
0
  6
DASHED
 62
     2
100
AcDbCircle
 10
-471.6647528085653
 20
44.81229044585997
 30
0.0
 40
80.99999999999996
100
AcDbArc
 50
181.3730734413214
 51
198.6269265586786
  0
ARC
  5
107B
330
1F
100
AcDbEntity
  8
0
  6
Continuous
 62
     7
100
AcDbCircle
 10
-471.6647528085653
 20
44.81229044585997
 30
0.0
 40
157.9999999999999
100
AcDbArc
 50
244.751411616165
 51
258.8171620354122
  0
ARC
  5
107C
330
1F
100
AcDbEntity
  8
0
  6
DASHED
 62
     2
 48
0.9
100
AcDbCircle
 10
-503.4199615143772
 20
-33.38756326641676
 30
0.0
 40
1.600046288488444
100
AcDbArc
 50
270.0017719790566
 51
354.9966547125464
  0
ARC
  5
107D
330
1F
100
AcDbEntity
  8
0
  6
DASHED
 62
     2
 48
0.9
100
AcDbCircle
 10
-508.9102081863788
 20
-33.38761307603202
 30
0.0
 40
1.599996478112553
100
AcDbArc
 50
185.0017109466452
 51
269.9998623617521
  0
ARC
  5
107E
330
1F
100
AcDbEntity
  8
0
  6
DASHED
 62
     2
 48
0.9
100
AcDbCircle
 10
-439.9095441027532
 20
-33.38756326641683
 30
0.0
 40
1.600046288488383
100
AcDbArc
 50
185.0033452874513
 51
269.9982280209475
  0
ARC
  5
107F
330
1F
100
AcDbEntity
  8
0
  6
DASHED
 62
     2
 48
0.9
100
AcDbCircle
 10
-434.4192974307516
 20
-33.38761307603205
 30
0.0
 40
1.599996478112578
100
AcDbArc
 50
270.0001376382501
 51
354.998289053356
  0
ARC
  5
1080
330
1F
100
AcDbEntity
  8
0
  6
Continuous
 62
     7
100
AcDbCircle
 10
-0.5437666825024225
 20
47.55743977304507
 30
0.0
 40
1.599996478112629
100
AcDbArc
 50
95.00171094664677
 51
179.9998623617525
  0
ARC
  5
1081
330
1F
100
AcDbEntity
  8
0
  6
Continuous
 62
     7
100
AcDbCircle
 10
-0.5437168728872166
 20
111.0671931010433
 30
0.0
 40
1.600046288488416
100
AcDbArc
 50
180.0017719790549
 51
264.9966547125462
  0
ARC
  5
1082
330
1F
100
AcDbEntity
  8
0
  6
Continuous
 62
     7
100
AcDbCircle
 10
-0.5437666825024225
 20
116.5574397730452
 30
0.0
 40
1.599996478112584
100
AcDbArc
 50
95.00171094664484
 51
179.9998623617504
  0
ARC
  5
1083
330
1F
100
AcDbEntity
  8
10
  6
Continuous
 62
     7
100
AcDbCircle
 10
106.8562316350737
 20
201.8122944770882
 30
0.0
 40
2.00000403123504
100
AcDbArc
 50
194.4776016409325
 51
270.0001490923635
  0
ARC
  5
1084
330
1F
100
AcDbEntity
  8
0
  6
Continuous
 62
     7
100
AcDbCircle
 10
87.35653331749757
 20
-99.0959358875771
 30
0.0
 40
1.599996478112713
100
AcDbArc
 50
180.0001376382505
 51
264.9982890533514
  0
ARC
  5
1085
330
1F
100
AcDbEntity
  8
0
  6
Continuous
 62
     7
100
AcDbCircle
 10
87.35653331749745
 20
-93.60376485442984
 30
0.0
 40
1.599996478112674
100
AcDbArc
 50
95.00171094664663
 51
179.9998623617494
  0
ARC
  5
1086
330
1F
100
AcDbEntity
  8
0
  6
Continuous
 62
     7
100
AcDbCircle
 10
87.35653331749757
 20
188.7205167792972
 30
0.0
 40
1.599996478112678
100
AcDbArc
 50
95.00171094664869
 51
179.9998623617509
  0
ARC
  5
1087
330
1F
100
AcDbEntity
  8
0
  6
Continuous
 62
     7
100
AcDbCircle
 10
87.35653331749745
 20
183.2283457461499
 30
0.0
 40
1.599996478112655
100
AcDbArc
 50
180.000137638251
 51
264.9982890533532
  0
ARC
  5
1088
330
1F
100
AcDbEntity
  8
0
  6
Continuous
 62
     7
100
AcDbCircle
 10
87.35653331749745
 20
47.55837596243348
 30
0.0
 40
1.599996478112645
100
AcDbArc
 50
95.00171094664677
 51
179.9998623617476
  0
ARC
  5
1089
330
1F
100
AcDbEntity
  8
0
  6
Continuous
 62
     7
100
AcDbCircle
 10
87.35653331749745
 20
42.06620492928625
 30
0.0
 40
1.599996478112655
100
AcDbArc
 50
180.0001376382508
 51
264.9982890533534
  0
ARC
  5
108A
330
1F
100
AcDbEntity
  8
10
  6
Continuous
 62
     7
100
AcDbCircle
 10
160.0561368381395
 20
201.8122904446099
 30
0.0
 40
2.000000001250019
100
AcDbArc
 50
270.0028648247855
 51
0.00000003581111
  0
ARC
  5
108B
330
1F
100
AcDbEntity
  8
10
  6
Continuous
 62
     7
100
AcDbCircle
 10
181.2926316350737
 20
201.8122944770884
 30
0.0
 40
2.000004031235087
100
AcDbArc
 50
194.4776016409313
 51
270.0001490923635
  0
ARC
  5
108C
330
1F
100
AcDbEntity
  8
10
  6
Continuous
 62
     7
100
AcDbCircle
 10
177.4195420437054
 20
200.8122864146316
 30
0.0
 40
2.000004031235095
100
AcDbArc
 50
14.47760164093207
 51
90.00014909236346
  0
ARC
  5
108D
330
1F
100
AcDbEntity
  8
0
  6
Continuous
 62
     7
100
AcDbCircle
 10
159.0564333174974
 20
188.720516779297
 30
0.0
 40
1.599996478112758
100
AcDbArc
 50
95.00171094664636
 51
179.9998623617479
  0
ARC
  5
108E
330
1F
100
AcDbEntity
  8
0
  6
Continuous
 62
     7
100
AcDbCircle
 10
159.0564333174974
 20
183.2283457461498
 30
0.0
 40
1.599996478112769
100
AcDbArc
 50
180.0001376382521
 51
264.9982890533537
  0
ARC
  5
108F
330
1F
100
AcDbEntity
  8
0
  6
Continuous
 62
     7
100
AcDbCircle
 10
159.0564333174974
 20
47.55837596243355
 30
0.0
 40
1.59999647811275
100
AcDbArc
 50
95.00171094664636
 51
179.9998623617474
  0
ARC
  5
1090
330
1F
100
AcDbEntity
  8
0
  6
Continuous
 62
     7
100
AcDbCircle
 10
159.0564333174974
 20
42.06620492928641
 30
0.0
 40
1.599996478112713
100
AcDbArc
 50
180.0001376382529
 51
264.9982890533556
  0
ARC
  5
1091
330
1F
100
AcDbEntity
  8
0
  6
Continuous
 62
     7
100
AcDbCircle
 10
232.6561671325522
 20
108.0842337867673
 30
0.0
 40
1.899969707123998
100
AcDbArc
 50
0.00099696093721
 51
84.99768618094956
  0
ARC
  5
1092
330
1F
100
AcDbEntity
  8
0
  6
Continuous
 62
     7
100
AcDbCircle
 10
232.6561173227227
 20
101.7487455463965
 30
0.0
 40
1.900019516785249
100
AcDbArc
 50
275.0036901252885
 51
0.00064231890324
  0
ARC
  5
1093
330
1F
100
AcDbEntity
  8
0
  6
Continuous
 62
     7
100
AcDbCircle
 10
-579.7577149261504
 20
-101.3462116286256
 30
0.0
 40
5.000000000000111
100
AcDbArc
 50
169.5778799273564
 51
229.5778799273511
  0
ARC
  5
1094
330
1F
100
AcDbEntity
  8
0
  6
Continuous
 62
     7
100
AcDbCircle
 10
-578.0822756939977
 20
-106.0571460772634
 30
0.0
 40
5.000000000000093
100
AcDbArc
 50
169.5778799273575
 51
229.5778799273511
  0
ARC
  5
1095
330
1F
100
AcDbEntity
  8
0
  6
Continuous
 62
     7
100
AcDbCircle
 10
-587.9172927423183
 20
-104.248157503708
 30
0.0
 40
5.000000000000275
100
AcDbArc
 50
349.5778799273462
 51
49.57787992734433
  0
ARC
  5
1096
330
1F
100
AcDbEntity
  8
0
  6
DASHED
 62
     2
100
AcDbCircle
 10
-471.6647528085653
 20
44.81229044585997
 30
0.0
 40
76.00000000000024
100
AcDbArc
 50
206.7721836850573
 51
210.0271945089376
  0
ARC
  5
1097
330
1F
100
AcDbEntity
  8
0
  6
DASHED
 62
     2
100
AcDbCircle
 10
-471.6647528085653
 20
44.58637899909002
 30
0.0
 40
74.49999999999993
100
AcDbArc
 50
195.1245860831541
 51
210.5526318918996
  0
ARC
  5
1098
330
1F
100
AcDbEntity
  8
0
  6
DASHED
 62
     2
100
AcDbCircle
 10
-471.6647528085653
 20
44.81229044585997
 30
0.0
 40
76.00000000000034
100
AcDbArc
 50
195.972805491063
 51
199.2278163149432
  0
ARC
  5
1099
330
1F
100
AcDbEntity
  8
0
  6
DASHED
 62
     2
100
AcDbCircle
 10
-471.6647528085653
 20
44.81229044585997
 30
0.0
 40
76.00000000000054
100
AcDbArc
 50
199.2278163149432
 51
206.7721836850573
  0
ARC
  5
109A
330
1F
100
AcDbEntity
  8
0
  6
DASHED
 62
     2
100
AcDbCircle
 10
-471.6647528085653
 20
44.58637899909002
 30
0.0
 40
74.4999999999997
100
AcDbArc
 50
210.5526318918996
 51
215.734302922981
  0
ARC
  5
109B
330
1F
100
AcDbEntity
  8
0
  6
Continuous
 62
     7
100
AcDbCircle
 10
-553.1647528085652
 20
-96.34985037100351
 30
0.0
 40
7.000000000000132
100
AcDbArc
 50
174.9999999999999
 51
222.1693020941485
  0
ARC
  5
109C
330
1F
100
AcDbEntity
  8
0
  6
DASHED
 62
     2
 48
0.9
100
AcDbCircle
 10
232.9996820912594
 20
15.9317754336221
 30
0.0
 40
9.216054695841878
100
AcDbArc
 50
270.0
 51
0.0
  0
ARC
  5
109D
330
1F
100
AcDbEntity
  8
0
  6
DASHED
 62
     2
 48
0.9
100
AcDbCircle
 10
232.9996820912594
 20
15.9317754336221
 30
0.0
 40
9.216054695841707
100
AcDbArc
 50
0.0
 51
90.0
  0
ARC
  5
109E
330
1F
100
AcDbEntity
  8
0
  6
DASHED
 62
     2
 48
0.9
100
AcDbCircle
 10
232.9996820912594
 20
15.9317754336221
 30
0.0
 40
5.0
100
AcDbArc
 50
0.0
 51
180.0
  0
CIRCLE
  5
10A1
330
1F
100
AcDbEntity
  8
60
  6
Continuous
 62
     7
100
AcDbCircle
 10
200.1561368393895
 20
-69.18770955414004
 30
0.0
 40
38.00000000000011
  0
CIRCLE
  5
10A2
330
1F
100
AcDbEntity
  8
0
  6
Continuous
 62
     7
100
AcDbCircle
 10
234.097471408385
 20
-35.24662328336729
 30
0.0
 40
4.5
  0
CIRCLE
  5
10A3
330
1F
100
AcDbEntity
  8
0
  6
Continuous
 62
     7
100
AcDbCircle
 10
234.0972231101623
 20
-103.1290441231355
 30
0.0
 40
4.5
  0
CIRCLE
  5
10A4
330
1F
100
AcDbEntity
  8
0
  6
Continuous
 62
     7
100
AcDbCircle
 10
166.214802270394
 20
-103.1287958249128
 30
0.0
 40
4.500000000000028
  0
CIRCLE
  5
10A5
330
1F
100
AcDbEntity
  8
0
  6
Continuous
 62
     7
100
AcDbCircle
 10
166.2150505686168
 20
-35.24637498514461
 30
0.0
 40
4.5
  0
CIRCLE
  5
10A6
330
1F
100
AcDbEntity
  8
0
  6
Continuous
 62
     7
100
AcDbCircle
 10
200.1561368393895
 20
-69.18770955414004
 30
0.0
 40
54.00003068536159
  0
CIRCLE
  5
10A7
330
1F
100
AcDbEntity
  8
0
  6
Continuous
 62
     7
100
AcDbCircle
 10
200.1561368393895
 20
-69.18770955414004
 30
0.0
 40
40.99996654157149
  0
CIRCLE
  5
10A8
330
1F
100
AcDbEntity
  8
0
  6
CENTER_DASH_DASH
 62
   171
100
AcDbCircle
 10
-531.7688292094211
 20
-15.291785954996
 30
0.0
 40
3.300000000000068
  0
CIRCLE
  5
10A9
330
1F
100
AcDbEntity
  8
0
  6
CENTER_DASH_DASH
 62
   171
100
AcDbCircle
 10
-531.7688292094211
 20
104.916366846716
 30
0.0
 40
3.300000000000068
  0
CIRCLE
  5
10AA
330
1F
100
AcDbEntity
  8
0
  6
CENTER_DASH_DASH
 62
   171
100
AcDbCircle
 10
-411.5606764077093
 20
-15.291785954996
 30
0.0
 40
3.300000000000239
  0
CIRCLE
  5
10AB
330
1F
100
AcDbEntity
  8
0
  6
CENTER_DASH_DASH
 62
   171
100
AcDbCircle
 10
-411.5606764077093
 20
104.916366846716
 30
0.0
 40
3.300000000000239
  0
CIRCLE
  5
10AC
330
1F
100
AcDbEntity
  8
0
  6
Continuous
 62
     7
100
AcDbCircle
 10
-308.6647528085653
 20
44.81229044585996
 30
0.0
 40
5.25
  0
CIRCLE
  5
10AD
330
1F
100
AcDbEntity
  8
0
  6
Continuous
 62
     7
100
AcDbCircle
 10
-390.1647528085653
 20
185.9744312627234
 30
0.0
 40
5.249999999999988
  0
CIRCLE
  5
10AE
330
1F
100
AcDbEntity
  8
0
  6
Continuous
 62
     7
100
AcDbCircle
 10
-553.164752808565
 20
185.9744312627235
 30
0.0
 40
5.249999999999988
  0
CIRCLE
  5
10AF
330
1F
100
AcDbEntity
  8
0
  6
Continuous
 62
     7
100
AcDbCircle
 10
-634.6647528085654
 20
44.81229044586006
 30
0.0
 40
5.249999999999886
  0
CIRCLE
  5
10B0
330
1F
100
AcDbEntity
  8
0
  6
Continuous
 62
     7
100
AcDbCircle
 10
-553.1647528085652
 20
-96.34985037100351
 30
0.0
 40
5.249999999999988
  0
CIRCLE
  5
10B1
330
1F
100
AcDbEntity
  8
0
  6
Continuous
 62
     7
100
AcDbCircle
 10
-390.1647528085653
 20
-96.34985037100364
 30
0.0
 40
5.250000000000061
  0
CIRCLE
  5
10B2
330
1F
100
AcDbEntity
  8
0
  6
Continuous
 62
     7
100
AcDbCircle
 10
-471.6647528085653
 20
44.81229044585997
 30
0.0
 40
155.0000000000001
  0
CIRCLE
  5
10B3
330
1F
100
AcDbEntity
  8
0
  6
Continuous
 62
     7
100
AcDbCircle
 10
-471.6647528085653
 20
44.81229044585997
 30
0.0
 40
74.99999999999992
  0
CIRCLE
  5
10B4
330
1F
100
AcDbEntity
  8
0
  6
Continuous
 62
     7
100
AcDbCircle
 10
-471.6647528085653
 20
44.81229044585997
 30
0.0
 40
60.99999999999994
  0
CIRCLE
  5
10B5
330
1F
100
AcDbEntity
  8
0
  6
Continuous
 62
     7
100
AcDbCircle
 10
-471.6647528085653
 20
113.8122904458599
 30
0.0
 40
4.5
  0
CIRCLE
  5
10B6
330
1F
100
AcDbEntity
  8
0
  6
Continuous
 62
     7
100
AcDbCircle
 10
-540.6647528085652
 20
44.81229044585999
 30
0.0
 40
4.5
  0
CIRCLE
  5
10B7
330
1F
100
AcDbEntity
  8
0
  6
Continuous
 62
     7
100
AcDbCircle
 10
-471.6647528085653
 20
-24.18770955414003
 30
0.0
 40
4.5
  0
CIRCLE
  5
10B8
330
1F
100
AcDbEntity
  8
0
  6
Continuous
 62
     7
100
AcDbCircle
 10
-402.6647528085653
 20
44.81229044585996
 30
0.0
 40
4.5
  0
CIRCLE
  5
10B9
102
{ACAD_REACTORS
330
1168
102
}
330
1F
100
AcDbEntity
  8
0
  6
Continuous
 62
     7
100
AcDbCircle
 10
-471.6647528085653
 20
44.81229044585997
 30
0.0
 40
57.49999999999993
  0
CIRCLE
  5
10BA
102
{ACAD_REACTORS
330
1167
330
1168
102
}
330
1F
100
AcDbEntity
  8
0
  6
Continuous
 62
     7
100
AcDbCircle
 10
-471.6647528085653
 20
44.81229044585997
 30
0.0
 40
24.0
  0
CIRCLE
  5
10BB
330
1F
100
AcDbEntity
  8
0
  6
DASHED
 62
     2
 48
0.7
100
AcDbCircle
 10
266.2155911732082
 20
-65.15509316501489
 30
0.0
 40
5.0
  0
CIRCLE
  5
10BC
330
1F
100
AcDbEntity
  8
0
  6
DASHED
 62
     2
 48
0.7
100
AcDbCircle
 10
266.2155911732082
 20
-65.15509316501489
 30
0.0
 40
4.5
  0
CIRCLE
  5
10BD
330
1F
100
AcDbEntity
  8
0
  6
DASHED
 62
     2
 48
0.7
100
AcDbCircle
 10
266.2155911732082
 20
-95.15509316501491
 30
0.0
 40
5.0
  0
CIRCLE
  5
10BE
330
1F
100
AcDbEntity
  8
0
  6
DASHED
 62
     2
 48
0.7
100
AcDbCircle
 10
266.2155911732082
 20
-95.15509316501491
 30
0.0
 40
4.5
  0
SPLINE
  5
10BF
330
1F
100
AcDbEntity
  8
0
  6
Continuous
 62
     2
100
AcDbSpline
210
0.0
220
0.0
230
1.0
 70
  1064
 71
     3
 72
    19
 73
    15
 74
    13
 42
0.0000000001
 43
0.0000000001
 44
0.00000001
 40
0.0
 40
0.0
 40
0.0
 40
0.0
 40
4.820319278460433
 40
9.813544832997624
 40
11.59187901047694
 40
13.18014963726419
 40
14.69762220232134
 40
16.33162450634342
 40
17.94440735782923
 40
19.54369682585139
 40
21.66510073870037
 40
23.61446178729534
 40
25.48985349610743
 40
27.75195741047832
 40
27.75195741047832
 40
27.75195741047832
 40
27.75195741047832
 10
-34.8438631606104
 20
90.95699716826285
 30
0.0
 10
-33.62420272750972
 20
92.0011960696339
 30
0.0
 10
-31.14113227214114
 20
94.12704958395247
 30
0.0
 10
-27.73395728173928
 20
96.09404229613781
 30
0.0
 10
-25.10286324175706
 20
96.93215868054762
 30
0.0
 10
-23.63196296829268
 20
97.83404768768344
 30
0.0
 10
-23.15097493085567
 20
99.40754103561122
 30
0.0
 10
-22.75769866625967
 20
100.9459477306046
 30
0.0
 10
-21.68747845208979
 20
102.2371383425623
 30
0.0
 10
-20.00356754492979
 20
103.0184755821827
 30
0.0
 10
-18.10176693794545
 20
102.7793587704458
 30
0.0
 10
-16.05188128755317
 20
102.5619304337897
 30
0.0
 10
-14.31067476044028
 20
103.8897566261554
 30
0.0
 10
-13.70329354412726
 20
105.1327211606533
 30
0.0
 10
-13.37121840680555
 20
105.81229044586
 30
0.0
 11
-34.8438631606104
 21
90.95699716826285
 31
0.0
 11
-31.08803620119502
 21
93.97846069084007
 31
0.0
 11
-26.71241736068254
 21
96.38392555628064
 31
0.0
 11
-25.05578992878464
 21
97.03049960733416
 31
0.0
 11
-23.77283115050622
 21
97.96677966945242
 31
0.0
 11
-23.17663395350093
 21
99.36222650883145
 31
0.0
 11
-22.64222106966923
 21
100.906365879629
 31
0.0
 11
-21.60766498871962
 21
102.1436056470369
 31
0.0
 11
-20.15487889182771
 21
102.81229044586
 31
0.0
 11
-18.03374729473032
 21
102.7783006531798
 31
0.0
 11
-16.0846826008144
 21
102.81229044586
 31
0.0
 11
-14.53967686761501
 21
103.8753291689821
 31
0.0
 11
-13.37121840680555
 21
105.81229044586
 31
0.0
  0
ARC
  5
10C0
330
1F
100
AcDbEntity
  8
0
  6
Continuous
 62
     7
100
AcDbCircle
 10
-33.3438631606104
 20
104.31229044586
 30
0.0
 40
1.5
100
AcDbArc
 50
90.0
 51
180.0
  0
ARC
  5
10C1
330
1F
100
AcDbEntity
  8
0
  6
Continuous
 62
     7
100
AcDbCircle
 10
-33.3438631606104
 20
-14.68770955413996
 30
0.0
 40
1.5
100
AcDbArc
 50
180.0
 51
270.0
  0
ARC
  5
10C2
330
1F
100
AcDbEntity
  8
0
  6
Continuous
 62
     7
100
AcDbCircle
 10
-0.8438631606103966
 20
-18.18770955413999
 30
0.0
 40
2.0
100
AcDbArc
 50
0.0
 51
90.0
  0
ARC
  5
10C3
330
1F
100
AcDbEntity
  8
0
  6
Continuous
 62
     7
100
AcDbCircle
 10
3.156136839389603
 20
-28.18770955414008
 30
0.0
 40
2.0
100
AcDbArc
 50
180.0
 51
270.0
  0
ARC
  5
10C4
330
1F
100
AcDbEntity
  8
0
  6
Continuous
 62
     7
100
AcDbCircle
 10
92.22922018559687
 20
-111.1877095541401
 30
0.0
 40
2.00000000000014
100
AcDbArc
 50
194.4775121859318
 51
270.0
  0
ARC
  5
10C5
330
1F
100
AcDbEntity
  8
0
  6
Continuous
 62
     7
100
AcDbCircle
 10
88.35623683938951
 20
-112.1877095541402
 30
0.0
 40
1.99999999999984
100
AcDbArc
 50
14.47751218593108
 51
90.0
  0
ARC
  5
10C6
330
1F
100
AcDbEntity
  8
0
  6
Continuous
 62
     7
100
AcDbCircle
 10
31.1561368393896
 20
-100.18770955414
 30
0.0
 40
10.0
100
AcDbArc
 50
180.0
 51
270.0
  0
ARC
  5
10C7
330
1F
100
AcDbEntity
  8
0
  6
Continuous
 62
     7
100
AcDbCircle
 10
18.1561368393896
 20
-33.18770955414008
 30
0.0
 40
3.0
100
AcDbArc
 50
0.0
 51
90.0
  0
ARC
  5
10C8
330
1F
100
AcDbEntity
  8
0
  6
Continuous
 62
     7
100
AcDbCircle
 10
230.2715907937914
 20
122.7959313666911
 30
0.0
 40
1.0
100
AcDbArc
 50
180.0
 51
269.0608090542796
  0
ARC
  5
10C9
330
1F
100
AcDbEntity
  8
0
  6
Continuous
 62
     7
100
AcDbCircle
 10
228.2715907937914
 20
122.8121904458601
 30
0.0
 40
1.0
100
AcDbArc
 50
0.0
 51
90.0
  0
ARC
  5
10CA
330
1F
100
AcDbEntity
  8
0
  6
Continuous
 62
     7
100
AcDbCircle
 10
376.271590793791
 20
108.4083084138381
 30
0.0
 40
5.0
100
AcDbArc
 50
0.0
 51
75.96375653206528
  0
ARC
  5
10CB
330
1F
100
AcDbEntity
  8
0
  6
Continuous
 62
     7
100
AcDbCircle
 10
350.6157435587063
 20
114.8222702226092
 30
0.0
 40
5.00000000000042
100
AcDbArc
 50
75.96375653207029
 51
89.06080905425827
  0
ARC
  5
10CC
330
1F
100
AcDbEntity
  8
0
  6
Continuous
 62
     7
100
AcDbCircle
 10
350.6157435587063
 20
-25.19788933088874
 30
0.0
 40
5.000000000000162
100
AcDbArc
 50
270.9391909457417
 51
284.0362434679322
  0
ARC
  5
10CD
330
1F
100
AcDbEntity
  8
0
  6
Continuous
 62
     7
100
AcDbCircle
 10
376.271590793791
 20
-18.78392752211787
 30
0.0
 40
5.000000000000495
100
AcDbArc
 50
284.0362434679321
 51
0.0
  0
ARC
  5
10CE
330
1F
100
AcDbEntity
  8
0
  6
Continuous
 62
     7
100
AcDbCircle
 10
228.1561368393881
 20
-21.29188595499678
 30
0.0
 40
1.0
100
AcDbArc
 50
270.0
 51
0.0
  0
ARC
  5
10CF
330
1F
100
AcDbEntity
  8
0
  6
Continuous
 62
     7
100
AcDbCircle
 10
261.356136839388
 20
-39.38780955413989
 30
0.0
 40
5.200000000000009
100
AcDbArc
 50
90.0
 51
179.9999999999987
  0
ARC
  5
10D0
330
1F
100
AcDbEntity
  8
0
  6
Continuous
 62
     7
100
AcDbCircle
 10
-242.6645528085652
 20
-109.18770955414
 30
0.0
 40
1.0
100
AcDbArc
 50
270.0
 51
0.0
  0
ARC
  5
10D1
330
1F
100
AcDbEntity
  8
0
  6
Continuous
 62
     7
100
AcDbCircle
 10
-242.6645528085652
 20
-29.18770955414004
 30
0.0
 40
1.0
100
AcDbArc
 50
0.0
 51
90.0
  0
ARC
  5
10D2
330
1F
100
AcDbEntity
  8
0
  6
Continuous
 62
     7
100
AcDbCircle
 10
-274.6645528085652
 20
-121.1877095541401
 30
0.0
 40
2.0
100
AcDbArc
 50
270.0
 51
0.0
  0
ARC
  5
10D3
330
1F
100
AcDbEntity
  8
0
  6
Continuous
 62
     7
100
AcDbCircle
 10
-270.6645528085652
 20
-112.1877095541401
 30
0.0
 40
2.0
100
AcDbArc
 50
90.0
 51
180.0
  0
ARC
  5
10D4
330
1F
100
AcDbEntity
  8
0
  6
Continuous
 62
     7
100
AcDbCircle
 10
-270.6645528085652
 20
-26.18770955414004
 30
0.0
 40
2.0
100
AcDbArc
 50
180.0
 51
270.0
  0
ARC
  5
10D5
330
1F
100
AcDbEntity
  8
0
  6
Continuous
 62
     7
100
AcDbCircle
 10
-274.6645528085652
 20
-17.18770955414003
 30
0.0
 40
2.0
100
AcDbArc
 50
0.0
 51
90.0
  0
ARC
  5
10D6
330
1F
100
AcDbEntity
  8
0
  6
CENTER_DASH_DASH
 62
   171
100
AcDbCircle
 10
-498.1647528085653
 20
-28.5481212214689
 30
0.0
 40
1.0
100
AcDbArc
 50
180.0
 51
250.1387470532332
  0
ARC
  5
10D7
330
1F
100
AcDbEntity
  8
0
  6
CENTER_DASH_DASH
 62
   171
100
AcDbCircle
 10
-521.6647528085652
 20
-24.96646264094997
 30
0.0
 40
5.0
100
AcDbArc
 50
0.0
 51
105.3161367237491
  0
ARC
  5
10D8
330
1F
100
AcDbEntity
  8
0
  6
CENTER_DASH_DASH
 62
   171
100
AcDbCircle
 10
-540.8118474876121
 20
-2.88130763026387
 30
0.0
 40
4.999999999999565
100
AcDbArc
 50
344.6838632762612
 51
34.59562773221588
  0
ARC
  5
10D9
330
1F
100
AcDbEntity
  8
0
  6
CENTER_DASH_DASH
 62
   171
100
AcDbCircle
 10
-540.8118474876121
 20
92.50588852198408
 30
0.0
 40
4.999999999999531
100
AcDbArc
 50
325.4043722677927
 51
15.31613672374886
  0
ARC
  5
10DA
330
1F
100
AcDbEntity
  8
0
  6
CENTER_DASH_DASH
 62
   171
100
AcDbCircle
 10
-519.3583508846892
 20
113.959385124907
 30
0.0
 40
4.999999999998536
100
AcDbArc
 50
254.6838632762579
 51
304.5956277322217
  0
ARC
  5
10DB
330
1F
100
AcDbEntity
  8
0
  6
CENTER_DASH_DASH
 62
   171
100
AcDbCircle
 10
-445.1647528085652
 20
-28.5481212214689
 30
0.0
 40
0.9999999999997417
100
AcDbArc
 50
289.8612529467639
 51
0.0
  0
ARC
  5
10DC
330
1F
100
AcDbEntity
  8
0
  6
CENTER_DASH_DASH
 62
   171
100
AcDbCircle
 10
-421.6647528085653
 20
-24.96646264094997
 30
0.0
 40
4.999999999999669
100
AcDbArc
 50
74.68386327625205
 51
180.0
  0
ARC
  5
10DD
330
1F
100
AcDbEntity
  8
0
  6
CENTER_DASH_DASH
 62
   171
100
AcDbCircle
 10
-402.5176581295182
 20
-2.88130763026387
 30
0.0
 40
5.0
100
AcDbArc
 50
145.4043722677838
 51
195.3161367237384
  0
ARC
  5
10DE
330
1F
100
AcDbEntity
  8
0
  6
CENTER_DASH_DASH
 62
   171
100
AcDbCircle
 10
-402.5176581295182
 20
92.50588852198408
 30
0.0
 40
4.999999999999912
100
AcDbArc
 50
164.6838632762515
 51
214.5956277322076
  0
ARC
  5
10DF
330
1F
100
AcDbEntity
  8
0
  6
CENTER_DASH_DASH
 62
   171
100
AcDbCircle
 10
-423.9711547324413
 20
113.959385124907
 30
0.0
 40
4.999999999999212
100
AcDbArc
 50
235.4043722677767
 51
285.316136723742
  0
ARC
  5
10E0
330
1F
100
AcDbEntity
  8
0
  6
Continuous
 62
     7
100
AcDbCircle
 10
-309.2249084992196
 20
58.31403036172114
 30
0.0
 40
5.000000000000174
100
AcDbArc
 50
184.7514116161647
 51
244.9999999999991
  0
ARC
  5
10E1
330
1F
100
AcDbEntity
  8
0
  6
Continuous
 62
     7
100
AcDbCircle
 10
-309.2249084992196
 20
31.31055052999879
 30
0.0
 40
5.000000000000058
100
AcDbArc
 50
115.0000000000008
 51
175.2485883838351
  0
ARC
  5
10E2
330
1F
100
AcDbEntity
  8
0
  6
Continuous
 62
     7
100
AcDbCircle
 10
-378.7519808914664
 20
-89.11387135489183
 30
0.0
 40
5.000000000000011
100
AcDbArc
 50
124.7514116161654
 51
185.0000000000004
  0
ARC
  5
10E3
330
1F
100
AcDbEntity
  8
0
  6
Continuous
 62
     7
100
AcDbCircle
 10
-402.1376804163184
 20
-102.615611270753
 30
0.0
 40
5.00000000000012
100
AcDbArc
 50
54.99999999999753
 51
115.2485883838336
  0
ARC
  5
10E4
330
1F
100
AcDbEntity
  8
0
  6
Continuous
 62
     7
100
AcDbCircle
 10
-541.1918252008119
 20
-102.6156112707529
 30
0.0
 40
4.999999999999893
100
AcDbArc
 50
64.75141161616692
 51
125.0000000000004
  0
ARC
  5
10E5
330
1F
100
AcDbEntity
  8
0
  6
Continuous
 62
     7
100
AcDbCircle
 10
-634.1045971179108
 20
31.31055052999894
 30
0.0
 40
4.999999999999893
100
AcDbArc
 50
4.75141161616503
 51
64.99999999999909
  0
ARC
  5
10E6
330
1F
100
AcDbEntity
  8
0
  6
Continuous
 62
     7
100
AcDbCircle
 10
-634.1045971179108
 20
58.31403036172121
 30
0.0
 40
4.999999999999941
100
AcDbArc
 50
294.9999999999985
 51
355.2485883838352
  0
ARC
  5
10E7
330
1F
100
AcDbEntity
  8
0
  6
Continuous
 62
     7
100
AcDbCircle
 10
-564.5775247256643
 20
-89.1138713548918
 30
0.0
 40
5.000000000000111
100
AcDbArc
 50
354.9999999999998
 51
55.24858838383519
  0
ARC
  5
10E8
330
1F
100
AcDbEntity
  8
0
  6
Continuous
 62
     7
100
AcDbCircle
 10
-378.7519808914663
 20
178.7384522466116
 30
0.0
 40
4.99999999999988
100
AcDbArc
 50
174.9999999999998
 51
235.2485883838346
  0
ARC
  5
10E9
330
1F
100
AcDbEntity
  8
0
  6
Continuous
 62
     7
100
AcDbCircle
 10
-541.1918252008119
 20
192.2401921624729
 30
0.0
 40
4.999999999999978
100
AcDbArc
 50
234.9999999999996
 51
295.2485883838367
  0
ARC
  5
10EA
330
1F
100
AcDbEntity
  8
0
  6
Continuous
 62
     7
100
AcDbCircle
 10
-564.5775247256643
 20
178.7384522466116
 30
0.0
 40
4.999999999999952
100
AcDbArc
 50
304.7514116161666
 51
4.9999999999999
  0
ARC
  5
10EB
330
1F
100
AcDbEntity
  8
0
  6
Continuous
 62
     7
100
AcDbCircle
 10
-402.1376804163183
 20
192.2401921624729
 30
0.0
 40
5.000000000000018
100
AcDbArc
 50
244.7514116161662
 51
305.0000000000003
  0
ARC
  5
10EC
330
1F
100
AcDbEntity
  8
0
  6
Continuous
 62
     7
100
AcDbCircle
 10
-465.6647528085652
 20
98.98100835573854
 30
0.0
 40
2.999999999999991
100
AcDbArc
 50
83.67939581676033
 51
180.0
  0
ARC
  5
10ED
330
1F
100
AcDbEntity
  8
0
  6
Continuous
 62
     7
100
AcDbCircle
 10
-465.6647528085652
 20
71.13718360803635
 30
0.0
 40
3.0
100
AcDbArc
 50
180.0
 51
257.1604115930934
  0
ARC
  5
10EE
330
1F
100
AcDbEntity
  8
0
  6
Continuous
 62
     7
100
AcDbCircle
 10
-477.6647528085653
 20
71.13718360803635
 30
0.0
 40
2.999999999999993
100
AcDbArc
 50
282.8395884069034
 51
0.0
  0
ARC
  5
10EF
330
1F
100
AcDbEntity
  8
0
  6
Continuous
 62
     7
100
AcDbCircle
 10
-477.6647528085653
 20
98.98100835573854
 30
0.0
 40
3.0
100
AcDbArc
 50
0.0
 51
96.32060418324076
  0
ARC
  5
10F0
330
1F
100
AcDbEntity
  8
0
  6
Continuous
 62
     7
100
AcDbCircle
 10
-525.833470718444
 20
50.81229044585995
 30
0.0
 40
2.999999999999836
100
AcDbArc
 50
173.6793958167599
 51
270.0
  0
ARC
  5
10F1
330
1F
100
AcDbEntity
  8
0
  6
Continuous
 62
     7
100
AcDbCircle
 10
-497.9896459707417
 20
50.81229044585995
 30
0.0
 40
3.0
100
AcDbArc
 50
270.0
 51
347.1604115930952
  0
ARC
  5
10F2
330
1F
100
AcDbEntity
  8
0
  6
Continuous
 62
     7
100
AcDbCircle
 10
-497.9896459707417
 20
38.81229044585996
 30
0.0
 40
2.999999999999912
100
AcDbArc
 50
12.83958840690504
 51
90.0
  0
ARC
  5
10F3
330
1F
100
AcDbEntity
  8
0
  6
Continuous
 62
     7
100
AcDbCircle
 10
-525.833470718444
 20
38.81229044585996
 30
0.0
 40
3.0
100
AcDbArc
 50
90.0
 51
186.3206041832398
  0
ARC
  5
10F4
330
1F
100
AcDbEntity
  8
0
  6
Continuous
 62
     7
100
AcDbCircle
 10
-477.6647528085653
 20
-9.35642746401858
 30
0.0
 40
3.000000000000008
100
AcDbArc
 50
263.6793958167593
 51
0.0
  0
ARC
  5
10F5
330
1F
100
AcDbEntity
  8
0
  6
Continuous
 62
     7
100
AcDbCircle
 10
-477.6647528085653
 20
18.48739728368362
 30
0.0
 40
3.0
100
AcDbArc
 50
0.0
 51
77.16041159309654
  0
ARC
  5
10F6
330
1F
100
AcDbEntity
  8
0
  6
Continuous
 62
     7
100
AcDbCircle
 10
-465.6647528085652
 20
18.48739728368362
 30
0.0
 40
3.000000000000031
100
AcDbArc
 50
102.8395884069066
 51
180.0
  0
ARC
  5
10F7
330
1F
100
AcDbEntity
  8
0
  6
Continuous
 62
     7
100
AcDbCircle
 10
-465.6647528085652
 20
-9.35642746401858
 30
0.0
 40
3.0
100
AcDbArc
 50
180.0
 51
276.3206041832396
  0
ARC
  5
10F8
330
1F
100
AcDbEntity
  8
0
  6
Continuous
 62
     7
100
AcDbCircle
 10
-417.4960348986868
 20
38.81229044585994
 30
0.0
 40
3.000000000000003
100
AcDbArc
 50
353.6793958167603
 51
90.0
  0
ARC
  5
10F9
330
1F
100
AcDbEntity
  8
0
  6
Continuous
 62
     7
100
AcDbCircle
 10
-445.3398596463888
 20
38.81229044585994
 30
0.0
 40
3.0
100
AcDbArc
 50
90.0
 51
167.1604115930957
  0
ARC
  5
10FA
330
1F
100
AcDbEntity
  8
0
  6
Continuous
 62
     7
100
AcDbCircle
 10
-445.3398596463888
 20
50.81229044585994
 30
0.0
 40
3.000000000000075
100
AcDbArc
 50
192.8395884069041
 51
270.0
  0
ARC
  5
10FB
330
1F
100
AcDbEntity
  8
0
  6
Continuous
 62
     7
100
AcDbCircle
 10
-417.4960348986868
 20
50.81229044585994
 30
0.0
 40
3.0
100
AcDbArc
 50
270.0
 51
6.32060418323963
  0
ARC
  5
10FC
330
1F
100
AcDbEntity
  8
0
  6
DASHED
 62
     2
100
AcDbCircle
 10
-551.6417817253336
 20
42.89530175356157
 30
0.0
 40
0.9999999999999859
100
AcDbArc
 50
99.99999999999866
 51
181.3730734413212
  0
ARC
  5
10FD
330
1F
100
AcDbEntity
  8
0
  6
DASHED
 62
     2
100
AcDbCircle
 10
-547.4742254613272
 20
19.25991568126856
 30
0.0
 40
0.9999999999999042
100
AcDbArc
 50
198.6269265586797
 51
280.000000000005
  0
ARC
  5
10FE
330
1F
100
AcDbEntity
  8
0
  6
Continuous
 62
     7
100
AcDbCircle
 10
-507.3647528085652
 20
-120.1878095541399
 30
0.0
 40
10.0
100
AcDbArc
 50
90.0
 51
180.0
  0
ARC
  5
10FF
330
1F
100
AcDbEntity
  8
0
  6
Continuous
 62
     7
100
AcDbCircle
 10
-521.3647528085653
 20
-121.1878095541399
 30
0.0
 40
3.999999999999984
100
AcDbArc
 50
295.1506634125445
 51
0.0
  0
ARC
  5
1100
330
1F
100
AcDbEntity
  8
0
  6
Continuous
 62
     7
100
AcDbCircle
 10
-521.6647528085652
 20
-120.8878095541399
 30
0.0
 40
2.0
100
AcDbArc
 50
270.0
 51
0.0
  0
ARC
  5
1101
330
1F
100
AcDbEntity
  8
0
  6
DASHED
 62
     2
 48
0.9
100
AcDbCircle
 10
-515.6647528085652
 20
-32.25865192127593
 30
0.0
 40
4.0
100
AcDbArc
 50
88.9927834039652
 51
180.0
  0
ARC
  5
1102
330
1F
100
AcDbEntity
  8
0
  6
DASHED
 62
     2
 48
0.9
100
AcDbCircle
 10
-515.3647528085651
 20
-32.48770955414001
 30
0.0
 40
2.0
100
AcDbArc
 50
90.0
 51
180.0
  0
ARC
  5
1103
330
1F
100
AcDbEntity
  8
0
  6
Continuous
 62
     7
100
AcDbCircle
 10
-435.9647528085652
 20
-120.1878095541399
 30
0.0
 40
10.0
100
AcDbArc
 50
0.0
 51
90.0
  0
ARC
  5
1104
330
1F
100
AcDbEntity
  8
0
  6
Continuous
 62
     7
100
AcDbCircle
 10
-421.9647528085651
 20
-121.1878095541399
 30
0.0
 40
4.0
100
AcDbArc
 50
180.0
 51
270.0
  0
ARC
  5
1105
330
1F
100
AcDbEntity
  8
0
  6
Continuous
 62
     7
100
AcDbCircle
 10
-421.6647528085653
 20
-120.8878095541399
 30
0.0
 40
2.0
100
AcDbArc
 50
180.0
 51
270.0
  0
ARC
  5
1106
330
1F
100
AcDbEntity
  8
0
  6
DASHED
 62
     2
 48
0.9
100
AcDbCircle
 10
-427.6647528085653
 20
-32.25865192127593
 30
0.0
 40
4.0
100
AcDbArc
 50
0.0
 51
91.00721659603562
  0
ARC
  5
1107
330
1F
100
AcDbEntity
  8
0
  6
DASHED
 62
     2
100
AcDbCircle
 10
-427.9647528085653
 20
-32.48770955414001
 30
0.0
 40
2.0
100
AcDbArc
 50
0.0
 51
90.0
  0
ARC
  5
1108
330
1F
100
AcDbEntity
  8
0
  6
Continuous
 62
     7
100
AcDbCircle
 10
-33.3438631606104
 20
104.31229044586
 30
0.0
 40
1.5
100
AcDbArc
 50
90.0
 51
180.0
  0
ARC
  5
1109
330
1F
100
AcDbEntity
  8
0
  6
Continuous
 62
     7
100
AcDbCircle
 10
-0.8438631606103966
 20
107.81229044586
 30
0.0
 40
2.0
100
AcDbArc
 50
270.0
 51
0.0
  0
ARC
  5
110A
330
1F
100
AcDbEntity
  8
0
  6
Continuous
 62
     7
100
AcDbCircle
 10
3.156136839389603
 20
117.81229044586
 30
0.0
 40
1.999999999999899
100
AcDbArc
 50
90.0
 51
180.0
  0
ARC
  5
110B
330
1F
100
AcDbEntity
  8
0
  6
Continuous
 62
     7
100
AcDbCircle
 10
92.22922018559687
 20
200.8122904458601
 30
0.0
 40
1.999999999999914
100
AcDbArc
 50
90.0
 51
165.522487814071
  0
ARC
  5
110C
330
1F
100
AcDbEntity
  8
0
  6
Continuous
 62
     7
100
AcDbCircle
 10
88.35623683938951
 20
201.8122904458601
 30
0.0
 40
2.0
100
AcDbArc
 50
270.0
 51
345.5224878140658
  0
ARC
  5
110D
330
1F
100
AcDbEntity
  8
0
  6
Continuous
 62
     7
100
AcDbCircle
 10
31.1561368393896
 20
189.81229044586
 30
0.0
 40
9.999999999999916
100
AcDbArc
 50
90.0
 51
180.0
  0
ARC
  5
110E
330
1F
100
AcDbEntity
  8
0
  6
Continuous
 62
     7
100
AcDbCircle
 10
18.1561368393896
 20
122.8122904458599
 30
0.0
 40
2.999999999999901
100
AcDbArc
 50
270.0
 51
0.0
  0
ARC
  5
110F
330
1F
100
AcDbEntity
  8
0
  6
Continuous
 62
     7
100
AcDbCircle
 10
228.1561368393881
 20
110.9164668467167
 30
0.0
 40
1.0
100
AcDbArc
 50
0.0
 51
90.0
  0
ARC
  5
1110
330
1F
100
AcDbEntity
  8
0
  6
Continuous
 62
     7
100
AcDbCircle
 10
228.1561368393881
 20
110.9164668467167
 30
0.0
 40
1.0
100
AcDbArc
 50
0.0
 51
90.0
  0
ARC
  5
1111
330
1F
100
AcDbEntity
  8
0
  6
DASHED
 62
     2
 48
0.9
100
AcDbCircle
 10
-540.4846997727852
 20
-0.6954495544119901
 30
0.0
 40
10.00000000000073
100
AcDbArc
 50
112.9999999999999
 51
180.0
  0
ARC
  5
1112
330
1F
100
AcDbEntity
  8
0
  6
DASHED
 62
     2
 48
0.9
100
AcDbCircle
 10
-540.4846997727852
 20
-0.6954495544119901
 30
0.0
 40
19.99999999999996
100
AcDbArc
 50
112.9999999999982
 51
180.0
  0
ARC
  5
1113
330
1F
100
AcDbEntity
  8
0
  6
DASHED
 62
     2
 48
0.9
100
AcDbCircle
 10
-540.4846997727852
 20
-22.17549383568496
 30
0.0
 40
10.0
100
AcDbArc
 50
180.0
 51
236.9034950347039
  0
ARC
  5
1114
330
1F
100
AcDbEntity
  8
0
  6
DASHED
 62
     2
 48
0.9
100
AcDbCircle
 10
-540.4846997727852
 20
-22.17549383568496
 30
0.0
 40
20.0
100
AcDbArc
 50
180.0
 51
236.9034950347027
  0
ARC
  5
1115
330
1F
100
AcDbEntity
  8
0
  6
DASHED
 62
     2
 48
0.9
100
AcDbCircle
 10
-540.6647528085661
 20
-58.16037301763762
 30
0.0
 40
20.00000000000034
100
AcDbArc
 50
0.00000000000073
 51
61.8861688605595
  0
ARC
  5
1116
330
1F
100
AcDbEntity
  8
0
  6
DASHED
 62
     2
 48
0.9
100
AcDbCircle
 10
-540.6647528085652
 20
-74.3933958884622
 30
0.0
 40
19.99999999999981
100
AcDbArc
 50
301.1989283927972
 51
0.00000000000065
  0
ARC
  5
1117
330
1F
100
AcDbEntity
  8
0
  6
DASHED
 62
     2
 48
0.9
100
AcDbCircle
 10
-540.6647528085652
 20
-74.3933958884622
 30
0.0
 40
10.0000000000001
100
AcDbArc
 50
301.1989283927992
 51
0.00000000000065
  0
ARC
  5
1118
330
1F
100
AcDbEntity
  8
0
  6
DASHED
 62
     2
 48
0.9
100
AcDbCircle
 10
-540.6647528085661
 20
-58.16037301763762
 30
0.0
 40
10.00000000000023
100
AcDbArc
 50
0.00000000000073
 51
61.88616886055855
  0
ARC
  5
1119
330
1F
100
AcDbEntity
  8
0
  6
DASHED
 62
     2
100
AcDbCircle
 10
-543.9614623745772
 20
24.11867341239612
 30
0.0
 40
0.8000000000000735
100
AcDbArc
 50
113.0000000000405
 51
195.9728054910445
  0
ARC
  5
111A
330
1F
100
AcDbEntity
  8
0
  6
DASHED
 62
     2
100
AcDbCircle
 10
-536.7720096103753
 20
7.181384108870928
 30
0.0
 40
0.7999999999993863
100
AcDbArc
 50
210.0271945089606
 51
293.0000000000489
  0
ARC
  5
111B
330
1F
100
AcDbEntity
  8
0
  6
Continuous
 62
     7
100
AcDbCircle
 10
228.1561368393881
 20
-21.29188595499678
 30
0.0
 40
1.0
100
AcDbArc
 50
270.0
 51
0.0
  0
ARC
  5
111C
330
1F
100
AcDbEntity
  8
0
  6
Continuous
 62
     7
100
AcDbCircle
 10
228.1561368393881
 20
-21.29188595499678
 30
0.0
 40
1.0
100
AcDbArc
 50
270.0
 51
0.0
  0
ARC
  5
111D
330
1F
100
AcDbEntity
  8
0
  6
DASHED
 62
     2
 48
0.9
100
AcDbCircle
 10
247.9996820912595
 20
7.257938912641087
 30
0.0
 40
20.0
100
AcDbArc
 50
180.0
 51
203.8766773545768
  0
ARC
  5
111E
330
1F
100
AcDbEntity
  8
0
  6
DASHED
 62
     2
 48
0.9
100
AcDbCircle
 10
247.9996820912595
 20
6.578187888385191
 30
0.0
 40
10.0
100
AcDbArc
 50
180.0
 51
203.8766773545768
  0
ARC
  5
111F
330
1F
100
AcDbEntity
  8
0
  6
DASHED
 62
     2
 48
0.9
100
AcDbCircle
 10
254.2155911732081
 20
-52.03456897519184
 30
0.0
 40
30.0
100
AcDbArc
 50
0.0
 51
23.87667735457723
  0
ARC
  5
1120
330
1F
100
AcDbEntity
  8
0
  6
DASHED
 62
     2
 48
0.9
100
AcDbCircle
 10
254.2155911732081
 20
-51.35481795093481
 30
0.0
 40
20.0
100
AcDbArc
 50
0.0
 51
23.8766773545768
  0
ARC
  5
1121
330
1F
100
AcDbEntity
  8
0
  6
DASHED
 62
     2
 48
0.9
100
AcDbCircle
 10
264.2155911732082
 20
-49.24049792433581
 30
0.0
 40
10.0
100
AcDbArc
 50
0.0
 51
23.8766773545768
  0
ARC
  5
1122
330
1F
100
AcDbEntity
  8
0
  6
DASHED
 62
     2
 48
0.7
100
AcDbCircle
 10
268.3155911732081
 20
-67.25509316501481
 30
0.0
 40
1.5
100
AcDbArc
 50
90.0
 51
180.0
  0
ARC
  5
1123
330
1F
100
AcDbEntity
  8
0
  6
DASHED
 62
     2
 48
0.7
100
AcDbCircle
 10
264.1155911732083
 20
-67.25509316501481
 30
0.0
 40
1.5
100
AcDbArc
 50
0.0
 51
90.0
  0
ARC
  5
1124
330
1F
100
AcDbEntity
  8
0
  6
DASHED
 62
     2
 48
0.7
100
AcDbCircle
 10
264.1155911732083
 20
-63.05509316501478
 30
0.0
 40
1.499999999999993
100
AcDbArc
 50
270.0
 51
0.0
  0
ARC
  5
1125
330
1F
100
AcDbEntity
  8
0
  6
DASHED
 62
     2
 48
0.7
100
AcDbCircle
 10
268.3155911732081
 20
-63.05509316501478
 30
0.0
 40
1.5
100
AcDbArc
 50
180.0
 51
270.0
  0
ARC
  5
1126
330
1F
100
AcDbEntity
  8
0
  6
DASHED
 62
     2
 48
0.7
100
AcDbCircle
 10
268.3155911732081
 20
-97.25509316501479
 30
0.0
 40
1.5
100
AcDbArc
 50
90.0
 51
180.0
  0
ARC
  5
1127
330
1F
100
AcDbEntity
  8
0
  6
DASHED
 62
     2
 48
0.7
100
AcDbCircle
 10
264.1155911732083
 20
-97.25509316501479
 30
0.0
 40
1.5
100
AcDbArc
 50
0.0
 51
90.0
  0
ARC
  5
1128
330
1F
100
AcDbEntity
  8
0
  6
DASHED
 62
     2
 48
0.7
100
AcDbCircle
 10
264.1155911732083
 20
-93.05509316501476
 30
0.0
 40
1.5
100
AcDbArc
 50
270.0
 51
0.0
  0
ARC
  5
1129
330
1F
100
AcDbEntity
  8
0
  6
DASHED
 62
     2
 48
0.7
100
AcDbCircle
 10
268.3155911732081
 20
-93.05509316501476
 30
0.0
 40
1.5
100
AcDbArc
 50
180.0
 51
270.0
  0
ARC
  5
112A
330
1F
100
AcDbEntity
  8
0
  6
DASHED
 62
     2
 48
0.9
100
AcDbCircle
 10
294.2155911732082
 20
-76.16964303790493
 30
0.0
 40
10.0
100
AcDbArc
 50
180.0
 51
246.420300341382
  0
ARC
  5
112B
330
1F
100
AcDbEntity
  8
0
  6
DASHED
 62
     2
 48
0.9
100
AcDbCircle
 10
294.2155911732082
 20
-76.16964303790493
 30
0.0
 40
20.0
100
AcDbArc
 50
180.0000000000025
 51
246.4203003413786
  0
ARC
  5
112C
330
1F
100
AcDbEntity
  8
0
  6
Continuous
 62
     7
100
AcDbCircle
 10
-521.3647528085653
 20
-121.1878095541399
 30
0.0
 40
4.0
100
AcDbArc
 50
270.0
 51
295.1506634125445
  0
HATCH
  5
1167
330
1F
100
AcDbEntity
  8
0
  6
Continuous
 62
    54
100
AcDbHatch
 10
0.0
 20
0.0
 30
0.0
210
0.0
220
0.0
230
1.0
  2
CUSTOM10
 70
     0
 71
     1
 91
        1
 92
        1
 93
        1
 72
     2
 10
-471.6647528085653
 20
44.81229044585997
 40
24.0
 50
0.0
 51
360.0
 73
     1
 97
        1
330
10BA
 75
     1
 76
     2
 52
90.00000000000005
 41
2.5
 77
     0
 78
     2
 53
90.00000000000005
 43
0.0
 44
0.0
 45
-2.499999999999999
 46
-2.5
 79
     0
 53
180.0000000000001
 43
0.0
 44
0.0
 45
2.500000000000002
 46
-2.499999999999996
 79
     0
 98
        1
 10
0.0
 20
0.0
  0
HATCH
  5
1168
330
1F
100
AcDbEntity
  8
0
  6
Continuous
 62
    54
100
AcDbHatch
 10
0.0
 20
0.0
 30
0.0
210
0.0
220
0.0
230
1.0
  2
CUSTOM11
 70
     0
 71
     1
 91
        2
 92
        1
 93
        1
 72
     2
 10
-471.6647528085653
 20
44.81229044585997
 40
57.49999999999993
 50
0.0
 51
360.0
 73
     1
 97
        1
330
10B9
 92
       16
 93
        1
 72
     2
 10
-471.6647528085653
 20
44.81229044585997
 40
24.0
 50
0.0
 51
360.0
 73
     1
 97
        1
330
10BA
 75
     1
 76
     2
 52
0.0
 41
2.5
 77
     0
 78
     2
 53
0.0
 43
0.0
 44
0.0
 45
-2.5
 46
2.5
 79
     0
 53
90.00000000000005
 43
0.0
 44
0.0
 45
-2.499999999999999
 46
-2.5
 79
     0
 98
        1
 10
0.0
 20
0.0
  0
ENDSEC
  0
SECTION
  2
OBJECTS
  0
DICTIONARY
  5
C
330
0
100
AcDbDictionary
281
     1
  3
ACAD_CIP_PREVIOUS_PRODUCT_INFO
350
16F6
  3
ACAD_COLOR
350
9D5
  3
ACAD_GROUP
350
D
  3
ACAD_LAYOUT
350
1A
  3
ACAD_MATERIAL
350
9D4
  3
ACAD_MLEADERSTYLE
350
16F3
  3
ACAD_MLINESTYLE
350
17
  3
ACAD_PLOTSETTINGS
350
19
  3
ACAD_PLOTSTYLENAME
350
E
  3
ACAD_SCALELIST
350
16E1
  3
ACAD_TABLESTYLE
350
16DF
  3
ACAD_VISUALSTYLE
350
16C6
  3
ACDB_RECOMPOSE_DATA
350
1796
  3
AcDbVariableDictionary
350
1703
  3
DWGPROPS
350
1797
  0
DICTIONARY
  5
16F7
330
10
100
AcDbDictionary
280
     1
281
     1
  3
ADSK_XREC_LAYER_RECONCILED
360
16F8
  0
DICTIONARY
  5
16F9
330
32
100
AcDbDictionary
280
     1
281
     1
  3
ADSK_XREC_LAYER_RECONCILED
360
16FA
  0
DICTIONARY
  5
16FB
330
33
100
AcDbDictionary
280
     1
281
     1
  3
ADSK_XREC_LAYER_RECONCILED
360
16FC
  0
DICTIONARY
  5
16FD
330
34
100
AcDbDictionary
280
     1
281
     1
  3
ADSK_XREC_LAYER_RECONCILED
360
16FE
  0
DICTIONARY
  5
16FF
330
35
100
AcDbDictionary
280
     1
281
     1
  3
ADSK_XREC_LAYER_RECONCILED
360
1700
  0
DICTIONARY
  5
1701
330
36
100
AcDbDictionary
280
     1
281
     1
  3
ADSK_XREC_LAYER_RECONCILED
360
1702
  0
XRECORD
  5
16F6
102
{ACAD_REACTORS
330
C
102
}
330
C
100
AcDbXrecord
280
     1
300
ACDLT
300
2012
300
ACDLT_F_S
  0
DICTIONARY
  5
9D5
102
{ACAD_REACTORS
330
C
102
}
330
C
100
AcDbDictionary
281
     1
  0
DICTIONARY
  5
D
102
{ACAD_REACTORS
330
C
102
}
330
C
100
AcDbDictionary
281
     1
  0
DICTIONARY
  5
1A
102
{ACAD_REACTORS
330
C
102
}
330
C
100
AcDbDictionary
281
     1
  3
Layout1
350
1E
  3
Layout2
350
26
  3
Model
350
22
  0
DICTIONARY
  5
9D4
102
{ACAD_REACTORS
330
C
102
}
330
C
100
AcDbDictionary
281
     1
  3
ByBlock
350
16B6
  3
ByLayer
350
16AE
  3
Global
350
16BE
  0
DICTIONARY
  5
16F3
102
{ACAD_REACTORS
330
C
102
}
330
C
100
AcDbDictionary
281
     1
  3
Standard
350
16F4
  0
DICTIONARY
  5
17
102
{ACAD_REACTORS
330
C
102
}
330
C
100
AcDbDictionary
281
     1
  3
Standard
350
18
  0
DICTIONARY
  5
19
102
{ACAD_REACTORS
330
C
102
}
330
C
100
AcDbDictionary
281
     1
  0
ACDBDICTIONARYWDFLT
  5
E
102
{ACAD_REACTORS
330
C
102
}
330
C
100
AcDbDictionary
281
     1
  3
Normal
350
F
100
AcDbDictionaryWithDefault
340
F
  0
DICTIONARY
  5
16E1
102
{ACAD_REACTORS
330
C
102
}
330
C
100
AcDbDictionary
281
     1
  3
A0
350
16E2
  3
A1
350
16E3
  3
A2
350
16E4
  3
A3
350
16E5
  3
A4
350
16E6
  3
A5
350
16E7
  3
A6
350
16E8
  3
A7
350
16E9
  3
A8
350
16EA
  3
A9
350
16EB
  3
B0
350
16EC
  3
B1
350
16ED
  3
B2
350
16EE
  3
B3
350
16EF
  3
B4
350
16F0
  3
B5
350
16F1
  3
B6
350
16F2
  0
DICTIONARY
  5
16DF
102
{ACAD_REACTORS
330
C
102
}
330
C
100
AcDbDictionary
281
     1
  3
Standard
350
16E0
  0
DICTIONARY
  5
16C6
102
{ACAD_REACTORS
330
C
102
}
330
C
100
AcDbDictionary
281
     1
  3
2dWireframe
350
16CC
  3
Basic
350
16CB
  3
Brighten
350
16D2
  3
ColorChange
350
16D6
  3
Conceptual
350
16CF
  3
Dim
350
16D1
  3
EdgeColorOff
350
16DE
  3
Facepattern
350
16D5
  3
Flat
350
16C7
  3
FlatWithEdges
350
16C8
  3
Gouraud
350
16C9
  3
GouraudWithEdges
350
16CA
  3
Hidden
350
16CE
  3
JitterOff
350
16DC
  3
Linepattern
350
16D4
  3
OverhangOff
350
16DD
  3
Realistic
350
16D0
  3
Shaded
350
16DB
  3
Shaded with edges
350
16DA
  3
Shades of Gray
350
16D7
  3
Sketchy
350
16D8
  3
Thicken
350
16D3
  3
Wireframe
350
16CD
  3
X-Ray
350
16D9
  0
XRECORD
  5
1796
102
{ACAD_REACTORS
330
C
102
}
330
C
100
AcDbXrecord
280
     1
 90
        1
330
16E0
  0
DICTIONARY
  5
1703
102
{ACAD_REACTORS
330
C
102
}
330
C
100
AcDbDictionary
281
     1
  3
CANNOSCALE
350
1706
  3
CMLEADERSTYLE
350
1705
  3
CTABLESTYLE
350
1704
  3
DIMASSOC
350
170A
  3
INDEXCTL
350
1708
  3
SORTENTS
350
1707
  3
XCLIPFRAME
350
1794
  0
XRECORD
  5
1797
102
{ACAD_REACTORS
330
C
102
}
330
C
100
AcDbXrecord
280
     1
  1
DWGPROPS COOKIE
  2

  3

  4

  6

  7

  8
to.oishi
  9

300
=
301
=
302
=
303
=
304
=
305
=
306
=
307
=
308
=
309
=
 40
0.0398081712962963
 41
2455106.662304861
 42
2458860.436391435
  1

 90
        0
  0
XRECORD
  5
16F8
102
{ACAD_REACTORS
330
16F7
102
}
330
16F7
100
AcDbXrecord
280
     1
290
     1
  0
XRECORD
  5
16FA
102
{ACAD_REACTORS
330
16F9
102
}
330
16F9
100
AcDbXrecord
280
     1
290
     1
  0
XRECORD
  5
16FC
102
{ACAD_REACTORS
330
16FB
102
}
330
16FB
100
AcDbXrecord
280
     1
290
     1
  0
XRECORD
  5
16FE
102
{ACAD_REACTORS
330
16FD
102
}
330
16FD
100
AcDbXrecord
280
     1
290
     1
  0
XRECORD
  5
1700
102
{ACAD_REACTORS
330
16FF
102
}
330
16FF
100
AcDbXrecord
280
     1
290
     1
  0
XRECORD
  5
1702
102
{ACAD_REACTORS
330
1701
102
}
330
1701
100
AcDbXrecord
280
     1
290
     1
  0
LAYOUT
  5
1E
102
{ACAD_XDICTIONARY
360
1798
102
}
102
{ACAD_REACTORS
330
1A
102
}
330
1A
100
AcDbPlotSettings
  1

  2

  4

  6

 40
0.0
 41
0.0
 42
0.0
 43
0.0
 44
0.0
 45
0.0
 46
0.0
 47
0.0
 48
0.0
 49
0.0
140
0.0
141
0.0
142
1.0
143
1.0
 70
   688
 72
     0
 73
     0
 74
     5
  7
P社図面.ctb
 75
    16
147
1.0
148
0.0
149
0.0
100
AcDbLayout
  1
Layout1
 70
     1
 71
     1
 10
0.0
 20
0.0
 11
12.0
 21
9.0
 12
0.0
 22
0.0
 32
0.0
 14
1.000000000000000E+20
 24
1.000000000000000E+20
 34
1.000000000000000E+20
 15
-1.000000000000000E+20
 25
-1.000000000000000E+20
 35
-1.000000000000000E+20
146
0.0
 13
0.0
 23
0.0
 33
0.0
 16
1.0
 26
0.0
 36
0.0
 17
0.0
 27
1.0
 37
0.0
 76
     0
330
1B
  0
LAYOUT
  5
26
102
{ACAD_XDICTIONARY
360
179C
102
}
102
{ACAD_REACTORS
330
1A
102
}
330
1A
100
AcDbPlotSettings
  1

  2

  4

  6

 40
0.0
 41
0.0
 42
0.0
 43
0.0
 44
0.0
 45
0.0
 46
0.0
 47
0.0
 48
0.0
 49
0.0
140
0.0
141
0.0
142
1.0
143
1.0
 70
   688
 72
     0
 73
     0
 74
     5
  7
P社図面.ctb
 75
    16
147
1.0
148
0.0
149
0.0
100
AcDbLayout
  1
Layout2
 70
     1
 71
     2
 10
0.0
 20
0.0
 11
0.0
 21
0.0
 12
0.0
 22
0.0
 32
0.0
 14
0.0
 24
0.0
 34
0.0
 15
0.0
 25
0.0
 35
0.0
146
0.0
 13
0.0
 23
0.0
 33
0.0
 16
1.0
 26
0.0
 36
0.0
 17
0.0
 27
1.0
 37
0.0
 76
     0
330
23
  0
LAYOUT
  5
22
102
{ACAD_XDICTIONARY
360
179A
102
}
102
{ACAD_REACTORS
330
1A
102
}
330
1A
100
AcDbPlotSettings
  1

  2
RICOH IPSiO SP 6110 RPCS
  4
A3
  6

 40
5.873749732971191
 41
5.873747825622557
 42
5.873748779296875
 43
5.873748779296875
 44
296.9259948730469
 45
419.9466552734373
 46
0.0
 47
0.0
 48
0.0
 49
0.0
140
0.0
141
0.0
142
1.0
143
4.01299008278324
 70
 11952
 72
     1
 73
     1
 74
     1
  7
P社図面.ctb
 75
     0
147
0.2491907478890259
148
856.049583954848
149
572.0353094458325
100
AcDbLayout
  1
Model
 70
     1
 71
     0
 10
0.0
 20
0.0
 11
0.0
 21
0.0
 12
0.0
 22
0.0
 32
0.0
 14
-855.9995999999996
 24
-572.0004
 34
0.0
 15
781.9995999999997
 25
571.9996
 35
0.0
146
0.0
 13
0.0
 23
0.0
 33
0.0
 16
1.0
 26
0.0
 36
0.0
 17
0.0
 27
1.0
 37
0.0
 76
     0
330
1F
331
16A8
  0
MATERIAL
  5
16B6
102
{ACAD_XDICTIONARY
360
16B7
102
}
102
{ACAD_REACTORS
330
9D4
102
}
330
9D4
100
AcDbMaterial
  1
ByBlock
 72
     0
 43
0.0208333333333333
 43
0.0
 43
0.0
 43
0.0
 43
0.0
 43
0.0208333333333333
 43
0.0
 43
0.0
 43
0.0
 43
0.0
 43
1.0
 43
0.0
 43
0.0
 43
0.0
 43
0.0
 43
1.0
 77
     0
 47
0.0208333333333333
 47
0.0
 47
0.0
 47
0.0
 47
0.0
 47
0.0208333333333333
 47
0.0
 47
0.0
 47
0.0
 47
0.0
 47
1.0
 47
0.0
 47
0.0
 47
0.0
 47
0.0
 47
1.0
171
     0
 49
0.0208333333333333
 49
0.0
 49
0.0
 49
0.0
 49
0.0
 49
0.0208333333333333
 49
0.0
 49
0.0
 49
0.0
 49
0.0
 49
1.0
 49
0.0
 49
0.0
 49
0.0
 49
0.0
 49
1.0
175
     0
142
0.0208333333333333
142
0.0
142
0.0
142
0.0
142
0.0
142
0.0208333333333333
142
0.0
142
0.0
142
0.0
142
0.0
142
1.0
142
0.0
142
0.0
142
0.0
142
0.0
142
1.0
179
     0
144
0.0208333333333333
144
0.0
144
0.0
144
0.0
144
0.0
144
0.0208333333333333
144
0.0
144
0.0
144
0.0
144
0.0
144
1.0
144
0.0
144
0.0
144
0.0
144
0.0
144
1.0
147
0.0208333333333333
147
0.0
147
0.0
147
0.0
147
0.0
147
0.0208333333333333
147
0.0
147
0.0
147
0.0
147
0.0
147
1.0
147
0.0
147
0.0
147
0.0
147
0.0
147
1.0
  0
MATERIAL
  5
16AE
102
{ACAD_XDICTIONARY
360
16AF
102
}
102
{ACAD_REACTORS
330
9D4
102
}
330
9D4
100
AcDbMaterial
  1
ByLayer
 72
     0
 43
0.0208333333333333
 43
0.0
 43
0.0
 43
0.0
 43
0.0
 43
0.0208333333333333
 43
0.0
 43
0.0
 43
0.0
 43
0.0
 43
1.0
 43
0.0
 43
0.0
 43
0.0
 43
0.0
 43
1.0
 77
     0
 47
0.0208333333333333
 47
0.0
 47
0.0
 47
0.0
 47
0.0
 47
0.0208333333333333
 47
0.0
 47
0.0
 47
0.0
 47
0.0
 47
1.0
 47
0.0
 47
0.0
 47
0.0
 47
0.0
 47
1.0
171
     0
 49
0.0208333333333333
 49
0.0
 49
0.0
 49
0.0
 49
0.0
 49
0.0208333333333333
 49
0.0
 49
0.0
 49
0.0
 49
0.0
 49
1.0
 49
0.0
 49
0.0
 49
0.0
 49
0.0
 49
1.0
175
     0
142
0.0208333333333333
142
0.0
142
0.0
142
0.0
142
0.0
142
0.0208333333333333
142
0.0
142
0.0
142
0.0
142
0.0
142
1.0
142
0.0
142
0.0
142
0.0
142
0.0
142
1.0
179
     0
144
0.0208333333333333
144
0.0
144
0.0
144
0.0
144
0.0
144
0.0208333333333333
144
0.0
144
0.0
144
0.0
144
0.0
144
1.0
144
0.0
144
0.0
144
0.0
144
0.0
144
1.0
147
0.0208333333333333
147
0.0
147
0.0
147
0.0
147
0.0
147
0.0208333333333333
147
0.0
147
0.0
147
0.0
147
0.0
147
1.0
147
0.0
147
0.0
147
0.0
147
0.0
147
1.0
  0
MATERIAL
  5
16BE
102
{ACAD_XDICTIONARY
360
16BF
102
}
102
{ACAD_REACTORS
330
9D4
102
}
330
9D4
100
AcDbMaterial
  1
Global
 72
     0
 43
0.0208333333333333
 43
0.0
 43
0.0
 43
0.0
 43
0.0
 43
0.0208333333333333
 43
0.0
 43
0.0
 43
0.0
 43
0.0
 43
1.0
 43
0.0
 43
0.0
 43
0.0
 43
0.0
 43
1.0
 77
     0
 47
0.0208333333333333
 47
0.0
 47
0.0
 47
0.0
 47
0.0
 47
0.0208333333333333
 47
0.0
 47
0.0
 47
0.0
 47
0.0
 47
1.0
 47
0.0
 47
0.0
 47
0.0
 47
0.0
 47
1.0
171
     0
 49
0.0208333333333333
 49
0.0
 49
0.0
 49
0.0
 49
0.0
 49
0.0208333333333333
 49
0.0
 49
0.0
 49
0.0
 49
0.0
 49
1.0
 49
0.0
 49
0.0
 49
0.0
 49
0.0
 49
1.0
175
     0
142
0.0208333333333333
142
0.0
142
0.0
142
0.0
142
0.0
142
0.0208333333333333
142
0.0
142
0.0
142
0.0
142
0.0
142
1.0
142
0.0
142
0.0
142
0.0
142
0.0
142
1.0
179
     0
144
0.0208333333333333
144
0.0
144
0.0
144
0.0
144
0.0
144
0.0208333333333333
144
0.0
144
0.0
144
0.0
144
0.0
144
1.0
144
0.0
144
0.0
144
0.0
144
0.0
144
1.0
147
0.0208333333333333
147
0.0
147
0.0
147
0.0
147
0.0
147
0.0208333333333333
147
0.0
147
0.0
147
0.0
147
0.0
147
1.0
147
0.0
147
0.0
147
0.0
147
0.0
147
1.0
  0
MLEADERSTYLE
  5
16F4
102
{ACAD_REACTORS
330
16F3
102
}
330
16F3
100
AcDbMLeaderStyle
170
     2
171
     1
172
     0
 90
        2
 40
0.0
 41
0.0
173
     1
 91
-1056964608
340
14
 92
       -2
290
     1
 42
2.0
291
     1
 43
0.36
  3
Standard
 44
4.0
300

342
11
174
     1
178
     6
175
     1
176
     0
 93
-1056964608
 45
4.0
292
     0
297
     0
 46
4.0
 94
-1056964608
 47
1.0
 49
1.0
140
1.0
293
     1
141
0.0
294
     1
177
     0
142
1.0
295
     0
296
     0
143
0.125
1001
ACAD_MLEADERVER
1070
     2
  0
MLINESTYLE
  5
18
102
{ACAD_REACTORS
330
17
102
}
330
17
100
AcDbMlineStyle
  2
STANDARD
 70
     0
  3

 62
   256
 51
90.0
 52
90.0
 71
     2
 49
0.5
 62
   256
  6
BYLAYER
 49
-0.5
 62
   256
  6
BYLAYER
  0
ACDBPLACEHOLDER
  5
F
102
{ACAD_REACTORS
330
E
102
}
330
E
  0
SCALE
  5
16E2
102
{ACAD_REACTORS
330
16E1
102
}
330
16E1
100
AcDbScale
 70
     0
300
1:1
140
1.0
141
1.0
290
     1
  0
SCALE
  5
16E3
102
{ACAD_REACTORS
330
16E1
102
}
330
16E1
100
AcDbScale
 70
     0
300
1:2
140
1.0
141
2.0
290
     0
  0
SCALE
  5
16E4
102
{ACAD_REACTORS
330
16E1
102
}
330
16E1
100
AcDbScale
 70
     0
300
1:4
140
1.0
141
4.0
290
     0
  0
SCALE
  5
16E5
102
{ACAD_REACTORS
330
16E1
102
}
330
16E1
100
AcDbScale
 70
     0
300
1:5
140
1.0
141
5.0
290
     0
  0
SCALE
  5
16E6
102
{ACAD_REACTORS
330
16E1
102
}
330
16E1
100
AcDbScale
 70
     0
300
1:8
140
1.0
141
8.0
290
     0
  0
SCALE
  5
16E7
102
{ACAD_REACTORS
330
16E1
102
}
330
16E1
100
AcDbScale
 70
     0
300
1:10
140
1.0
141
10.0
290
     0
  0
SCALE
  5
16E8
102
{ACAD_REACTORS
330
16E1
102
}
330
16E1
100
AcDbScale
 70
     0
300
1:16
140
1.0
141
16.0
290
     0
  0
SCALE
  5
16E9
102
{ACAD_REACTORS
330
16E1
102
}
330
16E1
100
AcDbScale
 70
     0
300
1:20
140
1.0
141
20.0
290
     0
  0
SCALE
  5
16EA
102
{ACAD_REACTORS
330
16E1
102
}
330
16E1
100
AcDbScale
 70
     0
300
1:30
140
1.0
141
30.0
290
     0
  0
SCALE
  5
16EB
102
{ACAD_REACTORS
330
16E1
102
}
330
16E1
100
AcDbScale
 70
     0
300
1:40
140
1.0
141
40.0
290
     0
  0
SCALE
  5
16EC
102
{ACAD_REACTORS
330
16E1
102
}
330
16E1
100
AcDbScale
 70
     0
300
1:50
140
1.0
141
50.0
290
     0
  0
SCALE
  5
16ED
102
{ACAD_REACTORS
330
16E1
102
}
330
16E1
100
AcDbScale
 70
     0
300
1:100
140
1.0
141
100.0
290
     0
  0
SCALE
  5
16EE
102
{ACAD_REACTORS
330
16E1
102
}
330
16E1
100
AcDbScale
 70
     0
300
2:1
140
2.0
141
1.0
290
     0
  0
SCALE
  5
16EF
102
{ACAD_REACTORS
330
16E1
102
}
330
16E1
100
AcDbScale
 70
     0
300
4:1
140
4.0
141
1.0
290
     0
  0
SCALE
  5
16F0
102
{ACAD_REACTORS
330
16E1
102
}
330
16E1
100
AcDbScale
 70
     0
300
8:1
140
8.0
141
1.0
290
     0
  0
SCALE
  5
16F1
102
{ACAD_REACTORS
330
16E1
102
}
330
16E1
100
AcDbScale
 70
     0
300
10:1
140
10.0
141
1.0
290
     0
  0
SCALE
  5
16F2
102
{ACAD_REACTORS
330
16E1
102
}
330
16E1
100
AcDbScale
 70
     0
300
100:1
140
100.0
141
1.0
290
     0
  0
TABLESTYLE
  5
16E0
102
{ACAD_XDICTIONARY
360
170C
102
}
102
{ACAD_REACTORS
330
16DF
102
}
330
16DF
100
AcDbTableStyle
  3
Standard
 70
     0
 71
     0
 40
1.5
 41
1.5
280
     0
281
     0
  7
Standard
140
4.5
170
     2
 62
     0
 63
     7
283
     0
274
    -2
284
     1
 64
     0
275
    -2
285
     1
 65
     0
276
    -2
286
     1
 66
     0
277
    -2
287
     1
 67
     0
278
    -2
288
     1
 68
     0
279
    -2
289
     1
 69
     0
  7
Standard
140
6.0
170
     5
 62
     0
 63
     7
283
     0
274
    -2
284
     1
 64
     0
275
    -2
285
     1
 65
     0
276
    -2
286
     1
 66
     0
277
    -2
287
     1
 67
     0
278
    -2
288
     1
 68
     0
279
    -2
289
     1
 69
     0
  7
Standard
140
4.5
170
     5
 62
     0
 63
     7
283
     0
274
    -2
284
     1
 64
     0
275
    -2
285
     1
 65
     0
276
    -2
286
     1
 66
     0
277
    -2
287
     1
 67
     0
278
    -2
288
     1
 68
     0
279
    -2
289
     1
 69
     0
  0
VISUALSTYLE
  5
16CC
102
{ACAD_XDICTIONARY
360
17A8
102
}
102
{ACAD_REACTORS
330
16C6
102
}
330
16C6
100
AcDbVisualStyle
  2

 70
     4
 71
     0
 72
     2
 73
     0
 90
        0
 40
-0.6
 41
-30.0
 62
     5
 63
     7
 74
     1
 91
        4
 64
     7
 65
   257
 75
     1
175
     1
 42
1.0
 92
        0
 66
   257
 43
1.0
 76
     1
 77
     6
 78
     2
 67
     7
 79
     5
170
     0
171
     0
290
     0
174
     0
 93
        1
 44
0.0
173
     0
291
     0
 45
0.0
1001
ACAD
1000
AcDbSavedByObjectVersion
1070
     0
  0
VISUALSTYLE
  5
16CB
102
{ACAD_XDICTIONARY
360
17A6
102
}
102
{ACAD_REACTORS
330
16C6
102
}
330
16C6
100
AcDbVisualStyle
  2

 70
     7
 71
     1
 72
     0
 73
     1
 90
        0
 40
-0.6
 41
-30.0
 62
     5
 63
     7
 74
     0
 91
        4
 64
     7
 65
   257
 75
     1
175
     1
 42
1.0
 92
        8
 66
     7
 43
1.0
 76
     1
 77
     6
 78
     2
 67
     7
 79
     5
170
     0
171
     0
290
     0
174
     0
 93
        1
 44
0.0
173
     0
291
     1
 45
0.0
1001
ACAD
1000
AcDbSavedByObjectVersion
1070
     0
  0
VISUALSTYLE
  5
16D2
102
{ACAD_XDICTIONARY
360
17B4
102
}
102
{ACAD_REACTORS
330
16C6
102
}
330
16C6
100
AcDbVisualStyle
  2

 70
    12
 71
     2
 72
     2
 73
     0
 90
        0
 40
-0.6
 41
-30.0
 62
     5
 63
     7
 74
     1
 91
        4
 64
     7
 65
   257
 75
     1
175
     1
 42
1.0
 92
        8
 66
     7
 43
1.0
 76
     1
 77
     6
 78
     2
 67
     7
 79
     5
170
     0
171
     0
290
     0
174
     0
 93
        1
 44
50.0
173
     0
291
     1
 45
0.0
1001
ACAD
1000
AcDbSavedByObjectVersion
1070
     0
  0
VISUALSTYLE
  5
16D6
102
{ACAD_XDICTIONARY
360
17BC
102
}
102
{ACAD_REACTORS
330
16C6
102
}
330
16C6
100
AcDbVisualStyle
  2

 70
    16
 71
     2
 72
     2
 73
     3
 90
        0
 40
-0.6
 41
-30.0
 62
     5
 63
     8
 74
     1
 91
        4
 64
     7
 65
   257
 75
     1
175
     1
 42
1.0
 92
        8
 66
     8
 43
1.0
 76
     1
 77
     6
 78
     2
 67
     7
 79
     5
170
     0
171
     0
290
     0
174
     0
 93
        1
 44
0.0
173
     0
291
     1
 45
0.0
1001
ACAD
1000
AcDbSavedByObjectVersion
1070
     0
  0
VISUALSTYLE
  5
16CF
102
{ACAD_XDICTIONARY
360
17AE
102
}
102
{ACAD_REACTORS
330
16C6
102
}
330
16C6
100
AcDbVisualStyle
  2

 70
     9
 71
     3
 72
     2
 73
     0
 90
        0
 40
-0.6
 41
-30.0
 62
     5
 63
     7
 74
     2
 91
        2
 64
     7
 65
   257
 75
     1
175
     1
 42
179.0
 92
        8
 66
     7
 43
1.0
 76
     1
 77
     6
 78
     2
 67
     7
 79
     3
170
     0
171
     0
290
     0
174
     0
 93
        1
 44
0.0
173
     0
291
     0
 45
0.0
1001
ACAD
1000
AcDbSavedByObjectVersion
1070
     0
  0
VISUALSTYLE
  5
16D1
102
{ACAD_XDICTIONARY
360
17B2
102
}
102
{ACAD_REACTORS
330
16C6
102
}
330
16C6
100
AcDbVisualStyle
  2

 70
    11
 71
     2
 72
     2
 73
     0
 90
        0
 40
-0.6
 41
-30.0
 62
     5
 63
     7
 74
     1
 91
        4
 64
     7
 65
   257
 75
     1
175
     1
 42
1.0
 92
        8
 66
     7
 43
1.0
 76
     1
 77
     6
 78
     2
 67
     7
 79
     5
170
     0
171
     0
290
     0
174
     0
 93
        1
 44
-50.0
173
     0
291
     1
 45
0.0
1001
ACAD
1000
AcDbSavedByObjectVersion
1070
     0
  0
VISUALSTYLE
  5
16DE
102
{ACAD_XDICTIONARY
360
17CC
102
}
102
{ACAD_REACTORS
330
16C6
102
}
330
16C6
100
AcDbVisualStyle
  2

 70
    22
 71
     2
 72
     2
 73
     0
 90
        0
 40
-0.6
 41
-30.0
 62
     5
 63
     7
 74
     1
 91
        4
 64
     7
 65
   257
 75
     1
175
     1
 42
1.0
 92
        8
 66
     7
 43
1.0
 76
     1
 77
     6
 78
     2
 67
     7
 79
     5
170
     0
171
     0
290
     0
174
     0
 93
        1
 44
0.0
173
     0
291
     1
 45
0.0
1001
ACAD
1000
AcDbSavedByObjectVersion
1070
     0
  0
VISUALSTYLE
  5
16D5
102
{ACAD_XDICTIONARY
360
17BA
102
}
102
{ACAD_REACTORS
330
16C6
102
}
330
16C6
100
AcDbVisualStyle
  2

 70
    15
 71
     2
 72
     2
 73
     0
 90
        0
 40
-0.6
 41
-30.0
 62
     5
 63
     7
 74
     1
 91
        4
 64
     7
 65
   257
 75
     1
175
     1
 42
1.0
 92
        8
 66
     7
 43
1.0
 76
     1
 77
     6
 78
     2
 67
     7
 79
     5
170
     0
171
     0
290
     0
174
     0
 93
        1
 44
0.0
173
     0
291
     1
 45
0.0
1001
ACAD
1000
AcDbSavedByObjectVersion
1070
     0
  0
VISUALSTYLE
  5
16C7
102
{ACAD_XDICTIONARY
360
179E
102
}
102
{ACAD_REACTORS
330
16C6
102
}
330
16C6
100
AcDbVisualStyle
  2

 70
     0
 71
     2
 72
     1
 73
     1
 90
        2
 40
-0.6
 41
30.0
 62
     5
 63
     7
 74
     0
 91
        0
 64
     7
 65
   257
 75
     1
175
     1
 42
1.0
 92
        8
 66
     7
 43
1.0
 76
     1
 77
     6
 78
     2
 67
     7
 79
     5
170
     0
171
     0
290
     0
174
     0
 93
       13
 44
0.0
173
     0
291
     1
 45
0.0
1001
ACAD
1000
AcDbSavedByObjectVersion
1070
     0
  0
VISUALSTYLE
  5
16C8
102
{ACAD_XDICTIONARY
360
17A0
102
}
102
{ACAD_REACTORS
330
16C6
102
}
330
16C6
100
AcDbVisualStyle
  2

 70
     1
 71
     2
 72
     1
 73
     1
 90
        2
 40
-0.6
 41
30.0
 62
     5
 63
     7
 74
     1
 91
        0
 64
     7
 65
   257
 75
     1
175
     1
 42
1.0
 92
        0
 66
   257
 43
1.0
 76
     1
 77
     6
 78
     2
 67
     7
 79
     5
170
     0
171
     0
290
     0
174
     0
 93
       13
 44
0.0
173
     0
291
     1
 45
0.0
1001
ACAD
1000
AcDbSavedByObjectVersion
1070
     0
  0
VISUALSTYLE
  5
16C9
102
{ACAD_XDICTIONARY
360
17A2
102
}
102
{ACAD_REACTORS
330
16C6
102
}
330
16C6
100
AcDbVisualStyle
  2

 70
     2
 71
     2
 72
     2
 73
     1
 90
        2
 40
-0.6
 41
30.0
 62
     5
 63
     7
 74
     0
 91
        0
 64
     7
 65
   257
 75
     1
175
     1
 42
1.0
 92
        0
 66
     7
 43
1.0
 76
     1
 77
     6
 78
     2
 67
     7
 79
     5
170
     0
171
     0
290
     0
174
     0
 93
       13
 44
0.0
173
     0
291
     1
 45
0.0
1001
ACAD
1000
AcDbSavedByObjectVersion
1070
     0
  0
VISUALSTYLE
  5
16CA
102
{ACAD_XDICTIONARY
360
17A4
102
}
102
{ACAD_REACTORS
330
16C6
102
}
330
16C6
100
AcDbVisualStyle
  2

 70
     3
 71
     2
 72
     2
 73
     1
 90
        2
 40
-0.6
 41
30.0
 62
     5
 63
     7
 74
     1
 91
        0
 64
     7
 65
   257
 75
     1
175
     1
 42
1.0
 92
        0
 66
   257
 43
1.0
 76
     1
 77
     6
 78
     2
 67
     7
 79
     5
170
     0
171
     0
290
     0
174
     0
 93
       13
 44
0.0
173
     0
291
     1
 45
0.0
1001
ACAD
1000
AcDbSavedByObjectVersion
1070
     0
  0
VISUALSTYLE
  5
16CE
102
{ACAD_XDICTIONARY
360
17AC
102
}
102
{ACAD_REACTORS
330
16C6
102
}
330
16C6
100
AcDbVisualStyle
  2

 70
     6
 71
     1
 72
     2
 73
     2
 90
        0
 40
-0.6
 41
-30.0
 62
     5
 63
     7
 74
     2
 91
        2
 64
     7
 65
   257
 75
     2
175
     1
 42
40.0
 92
        0
 66
   257
 43
1.0
 76
     1
 77
     6
 78
     2
 67
     7
 79
     3
170
     0
171
     0
290
     0
174
     0
 93
        1
 44
0.0
173
     0
291
     0
 45
0.0
1001
ACAD
1000
AcDbSavedByObjectVersion
1070
     0
  0
VISUALSTYLE
  5
16DC
102
{ACAD_XDICTIONARY
360
17C8
102
}
102
{ACAD_REACTORS
330
16C6
102
}
330
16C6
100
AcDbVisualStyle
  2

 70
    20
 71
     2
 72
     2
 73
     0
 90
        0
 40
-0.6
 41
-30.0
 62
     5
 63
     7
 74
     1
 91
        4
 64
     7
 65
   257
 75
     1
175
     1
 42
1.0
 92
       10
 66
     7
 43
1.0
 76
     1
 77
     6
 78
     2
 67
     7
 79
     5
170
     0
171
     0
290
     0
174
     0
 93
        1
 44
0.0
173
     0
291
     1
 45
0.0
1001
ACAD
1000
AcDbSavedByObjectVersion
1070
     0
  0
VISUALSTYLE
  5
16D4
102
{ACAD_XDICTIONARY
360
17B8
102
}
102
{ACAD_REACTORS
330
16C6
102
}
330
16C6
100
AcDbVisualStyle
  2

 70
    14
 71
     2
 72
     2
 73
     0
 90
        0
 40
-0.6
 41
-30.0
 62
     5
 63
     7
 74
     1
 91
        4
 64
     7
 65
   257
 75
     7
175
     7
 42
1.0
 92
        8
 66
     7
 43
1.0
 76
     1
 77
     6
 78
     2
 67
     7
 79
     5
170
     0
171
     0
290
     0
174
     0
 93
        1
 44
0.0
173
     0
291
     1
 45
0.0
1001
ACAD
1000
AcDbSavedByObjectVersion
1070
     0
  0
VISUALSTYLE
  5
16DD
102
{ACAD_XDICTIONARY
360
17CA
102
}
102
{ACAD_REACTORS
330
16C6
102
}
330
16C6
100
AcDbVisualStyle
  2

 70
    21
 71
     2
 72
     2
 73
     0
 90
        0
 40
-0.6
 41
-30.0
 62
     5
 63
     7
 74
     1
 91
        4
 64
     7
 65
   257
 75
     1
175
     1
 42
1.0
 92
        9
 66
     7
 43
1.0
 76
     1
 77
     6
 78
     2
 67
     7
 79
     5
170
     0
171
     0
290
     0
174
     0
 93
        1
 44
0.0
173
     0
291
     1
 45
0.0
1001
ACAD
1000
AcDbSavedByObjectVersion
1070
     0
  0
VISUALSTYLE
  5
16D0
102
{ACAD_XDICTIONARY
360
17B0
102
}
102
{ACAD_REACTORS
330
16C6
102
}
330
16C6
100
AcDbVisualStyle
  2

 70
     8
 71
     2
 72
     3
 73
     0
 90
        2
 40
-0.6
 41
30.0
 62
     5
 63
     7
 74
     0
 91
        0
 64
     7
 65
   257
 75
     1
175
     1
 42
1.0
 92
        8
 66
   257
 43
1.0
 76
     1
 77
     6
 78
     2
 67
     7
 79
     3
170
     0
171
     0
290
     0
174
     0
 93
       13
 44
0.0
173
     0
291
     0
 45
0.0
1001
ACAD
1000
AcDbSavedByObjectVersion
1070
     0
  0
VISUALSTYLE
  5
16DB
102
{ACAD_XDICTIONARY
360
17C6
102
}
102
{ACAD_REACTORS
330
16C6
102
}
330
16C6
100
AcDbVisualStyle
  2

 70
    27
 71
     2
 72
     2
 73
     1
 90
        2
 40
-0.6
 41
30.0
 62
     5
 63
     7
 74
     0
 91
        4
 64
     7
 65
   257
 75
     1
175
     1
 42
1.0
 92
        8
 66
   257
 43
1.0
 76
     1
 77
     6
 78
     2
 67
     8
 79
     3
170
     0
171
     0
290
     0
174
     0
 93
        5
 44
0.0
173
     0
291
     0
 45
0.0
1001
ACAD
1000
AcDbSavedByObjectVersion
1070
     0
  0
VISUALSTYLE
  5
16DA
102
{ACAD_XDICTIONARY
360
17C4
102
}
102
{ACAD_REACTORS
330
16C6
102
}
330
16C6
100
AcDbVisualStyle
  2

 70
    26
 71
     2
 72
     2
 73
     1
 90
        2
 40
-0.6
 41
30.0
 62
     5
 63
     7
 74
     1
 91
       10
 64
     7
 65
   257
 75
     2
175
     1
 42
1.0
 92
        8
 66
   257
 43
1.0
 76
     1
 77
     6
 78
     2
 67
     7
 79
     3
170
     0
171
     0
290
     0
174
     0
 93
        5
 44
0.0
173
     0
291
     0
 45
0.0
1001
ACAD
1000
AcDbSavedByObjectVersion
1070
     0
  0
VISUALSTYLE
  5
16D7
102
{ACAD_XDICTIONARY
360
17BE
102
}
102
{ACAD_REACTORS
330
16C6
102
}
330
16C6
100
AcDbVisualStyle
  2

 70
    23
 71
     2
 72
     2
 73
     3
 90
        0
 40
-0.6
 41
-30.0
 62
     5
 63
     7
 74
     2
 91
        2
 64
     7
 65
     7
 75
     1
175
     1
 42
40.0
 92
        8
 66
     7
 43
1.0
 76
     1
 77
     6
 78
     2
 67
     7
 79
     3
170
     0
171
     0
290
     0
174
     0
 93
        1
 44
0.0
173
     0
291
     0
 45
0.0
1001
ACAD
1000
AcDbSavedByObjectVersion
1070
     0
  0
VISUALSTYLE
  5
16D8
102
{ACAD_XDICTIONARY
360
17C0
102
}
102
{ACAD_REACTORS
330
16C6
102
}
330
16C6
100
AcDbVisualStyle
  2

 70
    24
 71
     1
 72
     2
 73
     2
 90
        0
 40
-0.6
 41
-30.0
 62
     5
 63
     7
 74
     2
 91
        2
 64
     7
 65
     7
 75
     1
175
     1
 42
40.0
 92
       11
 66
     7
 43
1.0
 76
     1
 77
     6
 78
     2
 67
     7
 79
     6
170
     0
171
     0
290
     0
174
     0
 93
        1
 44
0.0
173
     0
291
     0
 45
0.0
1001
ACAD
1000
AcDbSavedByObjectVersion
1070
     0
  0
VISUALSTYLE
  5
16D3
102
{ACAD_XDICTIONARY
360
17B6
102
}
102
{ACAD_REACTORS
330
16C6
102
}
330
16C6
100
AcDbVisualStyle
  2

 70
    13
 71
     2
 72
     2
 73
     0
 90
        0
 40
-0.6
 41
-30.0
 62
     5
 63
     7
 74
     1
 91
        4
 64
     7
 65
   257
 75
     1
175
     1
 42
1.0
 92
       12
 66
     7
 43
1.0
 76
     1
 77
     6
 78
     2
 67
     7
 79
     5
170
     0
171
     0
290
     0
174
     0
 93
        1
 44
0.0
173
     0
291
     1
 45
0.0
1001
ACAD
1000
AcDbSavedByObjectVersion
1070
     0
  0
VISUALSTYLE
  5
16CD
102
{ACAD_XDICTIONARY
360
17AA
102
}
102
{ACAD_REACTORS
330
16C6
102
}
330
16C6
100
AcDbVisualStyle
  2

 70
     5
 71
     0
 72
     2
 73
     0
 90
        0
 40
-0.6
 41
-30.0
 62
     5
 63
     7
 74
     1
 91
        4
 64
     7
 65
   257
 75
     1
175
     1
 42
1.0
 92
        0
 66
   257
 43
1.0
 76
     1
 77
     6
 78
     2
 67
     7
 79
     3
170
     0
171
     0
290
     0
174
     0
 93
        1
 44
0.0
173
     0
291
     0
 45
0.0
1001
ACAD
1000
AcDbSavedByObjectVersion
1070
     0
  0
VISUALSTYLE
  5
16D9
102
{ACAD_XDICTIONARY
360
17C2
102
}
102
{ACAD_REACTORS
330
16C6
102
}
330
16C6
100
AcDbVisualStyle
  2

 70
    25
 71
     2
 72
     2
 73
     1
 90
        1
 40
0.5
 41
-30.0
 62
     5
 63
     7
 74
     1
 91
        0
 64
     7
 65
   257
 75
     1
175
     1
 42
1.0
 92
        8
 66
     7
 43
1.0
 76
     1
 77
     6
 78
     2
 67
     7
 79
     3
170
     0
171
     0
290
     0
174
     0
 93
       13
 44
0.0
173
     0
291
     0
 45
0.0
1001
ACAD
1000
AcDbSavedByObjectVersion
1070
     0
  0
DICTIONARYVAR
  5
1706
102
{ACAD_REACTORS
330
1703
102
}
330
1703
100
DictionaryVariables
280
     0
  1
1:1
  0
DICTIONARYVAR
  5
1705
102
{ACAD_REACTORS
330
1703
102
}
330
1703
100
DictionaryVariables
280
     0
  1
STANDARD
  0
DICTIONARYVAR
  5
1704
102
{ACAD_REACTORS
330
1703
102
}
330
1703
100
DictionaryVariables
280
     0
  1
STANDARD
  0
DICTIONARYVAR
  5
170A
102
{ACAD_REACTORS
330
1703
102
}
330
1703
100
DictionaryVariables
280
     0
  1
1
  0
DICTIONARYVAR
  5
1708
102
{ACAD_REACTORS
330
1703
102
}
330
1703
100
DictionaryVariables
280
     0
  1
0
  0
DICTIONARYVAR
  5
1707
102
{ACAD_REACTORS
330
1703
102
}
330
1703
100
DictionaryVariables
280
     0
  1
127
  0
DICTIONARYVAR
  5
1794
102
{ACAD_REACTORS
330
1703
102
}
330
1703
100
DictionaryVariables
280
     0
  1
2
  0
DICTIONARY
  5
1798
330
1E
100
AcDbDictionary
280
     1
281
     1
  3
ACAD_XREC_ROUNDTRIP
360
1799
  0
DICTIONARY
  5
179C
330
26
100
AcDbDictionary
280
     1
281
     1
  3
ACAD_XREC_ROUNDTRIP
360
179D
  0
DICTIONARY
  5
179A
330
22
100
AcDbDictionary
280
     1
281
     1
  3
ACAD_XREC_ROUNDTRIP
360
179B
  0
DICTIONARY
  5
16B7
330
16B6
100
AcDbDictionary
280
     1
281
     1
  3
ACAD_XREC_ROUNDTRIP
360
1717
  3
BUMPTILE
360
16B9
  3
DIFFUSETILE
360
16B8
  3
OPACITYTILE
360
16BC
  3
REFLECTIONTILE
360
16BB
  3
REFRACTIONTILE
360
16BD
  3
SPECULARTILE
360
16BA
  0
DICTIONARY
  5
16AF
330
16AE
100
AcDbDictionary
280
     1
281
     1
  3
ACAD_XREC_ROUNDTRIP
360
1716
  3
BUMPTILE
360
16B1
  3
DIFFUSETILE
360
16B0
  3
OPACITYTILE
360
16B4
  3
REFLECTIONTILE
360
16B3
  3
REFRACTIONTILE
360
16B5
  3
SPECULARTILE
360
16B2
  0
DICTIONARY
  5
16BF
330
16BE
100
AcDbDictionary
280
     1
281
     1
  3
ACAD_XREC_ROUNDTRIP
360
1718
  3
BUMPTILE
360
16C1
  3
DIFFUSETILE
360
16C0
  3
OPACITYTILE
360
16C4
  3
REFLECTIONTILE
360
16C3
  3
REFRACTIONTILE
360
16C5
  3
SPECULARTILE
360
16C2
  0
DICTIONARY
  5
170C
330
16E0
100
AcDbDictionary
280
     1
281
     1
  3
ACAD_ROUNDTRIP_2008_TABLESTYLE_CELLSTYLEMAP
360
1795
  3
ACAD_XREC_ROUNDTRIP
360
17CE
  0
DICTIONARY
  5
17A8
330
16CC
100
AcDbDictionary
280
     1
281
     1
  3
ACAD_XREC_ROUNDTRIP
360
17A9
  0
DICTIONARY
  5
17A6
330
16CB
100
AcDbDictionary
280
     1
281
     1
  3
ACAD_XREC_ROUNDTRIP
360
17A7
  0
DICTIONARY
  5
17B4
330
16D2
100
AcDbDictionary
280
     1
281
     1
  3
ACAD_XREC_ROUNDTRIP
360
17B5
  0
DICTIONARY
  5
17BC
330
16D6
100
AcDbDictionary
280
     1
281
     1
  3
ACAD_XREC_ROUNDTRIP
360
17BD
  0
DICTIONARY
  5
17AE
330
16CF
100
AcDbDictionary
280
     1
281
     1
  3
ACAD_XREC_ROUNDTRIP
360
17AF
  0
DICTIONARY
  5
17B2
330
16D1
100
AcDbDictionary
280
     1
281
     1
  3
ACAD_XREC_ROUNDTRIP
360
17B3
  0
DICTIONARY
  5
17CC
330
16DE
100
AcDbDictionary
280
     1
281
     1
  3
ACAD_XREC_ROUNDTRIP
360
17CD
  0
DICTIONARY
  5
17BA
330
16D5
100
AcDbDictionary
280
     1
281
     1
  3
ACAD_XREC_ROUNDTRIP
360
17BB
  0
DICTIONARY
  5
179E
330
16C7
100
AcDbDictionary
280
     1
281
     1
  3
ACAD_XREC_ROUNDTRIP
360
179F
  0
DICTIONARY
  5
17A0
330
16C8
100
AcDbDictionary
280
     1
281
     1
  3
ACAD_XREC_ROUNDTRIP
360
17A1
  0
DICTIONARY
  5
17A2
330
16C9
100
AcDbDictionary
280
     1
281
     1
  3
ACAD_XREC_ROUNDTRIP
360
17A3
  0
DICTIONARY
  5
17A4
330
16CA
100
AcDbDictionary
280
     1
281
     1
  3
ACAD_XREC_ROUNDTRIP
360
17A5
  0
DICTIONARY
  5
17AC
330
16CE
100
AcDbDictionary
280
     1
281
     1
  3
ACAD_XREC_ROUNDTRIP
360
17AD
  0
DICTIONARY
  5
17C8
330
16DC
100
AcDbDictionary
280
     1
281
     1
  3
ACAD_XREC_ROUNDTRIP
360
17C9
  0
DICTIONARY
  5
17B8
330
16D4
100
AcDbDictionary
280
     1
281
     1
  3
ACAD_XREC_ROUNDTRIP
360
17B9
  0
DICTIONARY
  5
17CA
330
16DD
100
AcDbDictionary
280
     1
281
     1
  3
ACAD_XREC_ROUNDTRIP
360
17CB
  0
DICTIONARY
  5
17B0
330
16D0
100
AcDbDictionary
280
     1
281
     1
  3
ACAD_XREC_ROUNDTRIP
360
17B1
  0
DICTIONARY
  5
17C6
330
16DB
100
AcDbDictionary
280
     1
281
     1
  3
ACAD_XREC_ROUNDTRIP
360
17C7
  0
DICTIONARY
  5
17C4
330
16DA
100
AcDbDictionary
280
     1
281
     1
  3
ACAD_XREC_ROUNDTRIP
360
17C5
  0
DICTIONARY
  5
17BE
330
16D7
100
AcDbDictionary
280
     1
281
     1
  3
ACAD_XREC_ROUNDTRIP
360
17BF
  0
DICTIONARY
  5
17C0
330
16D8
100
AcDbDictionary
280
     1
281
     1
  3
ACAD_XREC_ROUNDTRIP
360
17C1
  0
DICTIONARY
  5
17B6
330
16D3
100
AcDbDictionary
280
     1
281
     1
  3
ACAD_XREC_ROUNDTRIP
360
17B7
  0
DICTIONARY
  5
17AA
330
16CD
100
AcDbDictionary
280
     1
281
     1
  3
ACAD_XREC_ROUNDTRIP
360
17AB
  0
DICTIONARY
  5
17C2
330
16D9
100
AcDbDictionary
280
     1
281
     1
  3
ACAD_XREC_ROUNDTRIP
360
17C3
  0
XRECORD
  5
1799
102
{ACAD_REACTORS
330
1798
102
}
330
1798
100
AcDbXrecord
280
     1
102
SHADEPLOT
 70
     0
102
SHADEPLOTRESLEVEL
 70
     2
102
SHADEPLOTCUSTOMDPI
 70
   300
  0
XRECORD
  5
179D
102
{ACAD_REACTORS
330
179C
102
}
330
179C
100
AcDbXrecord
280
     1
102
SHADEPLOT
 70
     0
102
SHADEPLOTRESLEVEL
 70
     2
102
SHADEPLOTCUSTOMDPI
 70
   300
  0
XRECORD
  5
179B
102
{ACAD_REACTORS
330
179A
102
}
330
179A
100
AcDbXrecord
280
     1
102
SHADEPLOT
 70
     0
102
SHADEPLOTRESLEVEL
 70
     2
102
SHADEPLOTCUSTOMDPI
 70
   300
  0
XRECORD
  5
1717
102
{ACAD_REACTORS
330
16B7
102
}
330
16B7
100
AcDbXrecord
280
     1
102
MATERIAL
148
0.0
149
0.0
149
0.0
 93
        0
 94
      127
282
     0
 72
     0
 77
     0
171
     0
175
     0
179
     0
273
     0
  0
XRECORD
  5
16B9
102
{ACAD_REACTORS
330
16B7
102
}
330
16B7
100
AcDbXrecord
280
     1
270
     1
271
     1
  0
XRECORD
  5
16B8
102
{ACAD_REACTORS
330
16B7
102
}
330
16B7
100
AcDbXrecord
280
     1
270
     1
271
     1
  0
XRECORD
  5
16BC
102
{ACAD_REACTORS
330
16B7
102
}
330
16B7
100
AcDbXrecord
280
     1
270
     1
271
     1
  0
XRECORD
  5
16BB
102
{ACAD_REACTORS
330
16B7
102
}
330
16B7
100
AcDbXrecord
280
     1
270
     1
271
     1
  0
XRECORD
  5
16BD
102
{ACAD_REACTORS
330
16B7
102
}
330
16B7
100
AcDbXrecord
280
     1
270
     1
271
     1
  0
XRECORD
  5
16BA
102
{ACAD_REACTORS
330
16B7
102
}
330
16B7
100
AcDbXrecord
280
     1
270
     1
271
     1
  0
XRECORD
  5
1716
102
{ACAD_REACTORS
330
16AF
102
}
330
16AF
100
AcDbXrecord
280
     1
102
MATERIAL
148
0.0
149
0.0
149
0.0
 93
        0
 94
      127
282
     0
 72
     0
 77
     0
171
     0
175
     0
179
     0
273
     0
  0
XRECORD
  5
16B1
102
{ACAD_REACTORS
330
16AF
102
}
330
16AF
100
AcDbXrecord
280
     1
270
     1
271
     1
  0
XRECORD
  5
16B0
102
{ACAD_REACTORS
330
16AF
102
}
330
16AF
100
AcDbXrecord
280
     1
270
     1
271
     1
  0
XRECORD
  5
16B4
102
{ACAD_REACTORS
330
16AF
102
}
330
16AF
100
AcDbXrecord
280
     1
270
     1
271
     1
  0
XRECORD
  5
16B3
102
{ACAD_REACTORS
330
16AF
102
}
330
16AF
100
AcDbXrecord
280
     1
270
     1
271
     1
  0
XRECORD
  5
16B5
102
{ACAD_REACTORS
330
16AF
102
}
330
16AF
100
AcDbXrecord
280
     1
270
     1
271
     1
  0
XRECORD
  5
16B2
102
{ACAD_REACTORS
330
16AF
102
}
330
16AF
100
AcDbXrecord
280
     1
270
     1
271
     1
  0
XRECORD
  5
1718
102
{ACAD_REACTORS
330
16BF
102
}
330
16BF
100
AcDbXrecord
280
     1
102
MATERIAL
148
0.0
149
0.0
149
0.0
 93
        0
 94
      127
282
     0
 72
     0
 77
     0
171
     0
175
     0
179
     0
273
     0
  0
XRECORD
  5
16C1
102
{ACAD_REACTORS
330
16BF
102
}
330
16BF
100
AcDbXrecord
280
     1
270
     1
271
     1
  0
XRECORD
  5
16C0
102
{ACAD_REACTORS
330
16BF
102
}
330
16BF
100
AcDbXrecord
280
     1
270
     1
271
     1
  0
XRECORD
  5
16C4
102
{ACAD_REACTORS
330
16BF
102
}
330
16BF
100
AcDbXrecord
280
     1
270
     1
271
     1
  0
XRECORD
  5
16C3
102
{ACAD_REACTORS
330
16BF
102
}
330
16BF
100
AcDbXrecord
280
     1
270
     1
271
     1
  0
XRECORD
  5
16C5
102
{ACAD_REACTORS
330
16BF
102
}
330
16BF
100
AcDbXrecord
280
     1
270
     1
271
     1
  0
XRECORD
  5
16C2
102
{ACAD_REACTORS
330
16BF
102
}
330
16BF
100
AcDbXrecord
280
     1
270
     1
271
     1
  0
CELLSTYLEMAP
  5
1795
102
{ACAD_REACTORS
330
170C
102
}
330
170C
100
AcDbCellStyleMap
 90
        3
300
CELLSTYLE
  1
TABLEFORMAT_BEGIN
 90
        5
170
     1
 91
        0
 92
    32768
 62
   257
 93
        1
300
CONTENTFORMAT
  1
CONTENTFORMAT_BEGIN
 90
        0
 91
        0
 92
      512
 93
        0
300

 40
0.0
140
1.0
 94
        5
 62
     0
340
11
144
6.0
309
CONTENTFORMAT_END
171
     1
301
MARGIN
  1
CELLMARGIN_BEGIN
 40
1.5
 40
1.5
 40
1.5
 40
1.5
 40
0.18
 40
0.18
309
CELLMARGIN_END
 94
        6
 95
        1
302
GRIDFORMAT
  1
GRIDFORMAT_BEGIN
 90
        0
 91
        1
 62
     0
 92
       -2
340
0
 93
        0
 40
1.125
309
GRIDFORMAT_END
 95
        2
302
GRIDFORMAT
  1
GRIDFORMAT_BEGIN
 90
        0
 91
        1
 62
     0
 92
       -2
340
0
 93
        0
 40
1.125
309
GRIDFORMAT_END
 95
        4
302
GRIDFORMAT
  1
GRIDFORMAT_BEGIN
 90
        0
 91
        1
 62
     0
 92
       -2
340
0
 93
        0
 40
1.125
309
GRIDFORMAT_END
 95
        8
302
GRIDFORMAT
  1
GRIDFORMAT_BEGIN
 90
        0
 91
        1
 62
     0
 92
       -2
340
0
 93
        0
 40
1.125
309
GRIDFORMAT_END
 95
       16
302
GRIDFORMAT
  1
GRIDFORMAT_BEGIN
 90
        0
 91
        1
 62
     0
 92
       -2
340
0
 93
        0
 40
1.125
309
GRIDFORMAT_END
 95
       32
302
GRIDFORMAT
  1
GRIDFORMAT_BEGIN
 90
        0
 91
        1
 62
     0
 92
       -2
340
0
 93
        0
 40
1.125
309
GRIDFORMAT_END
309
TABLEFORMAT_END
  1
CELLSTYLE_BEGIN
 90
        1
 91
        1
300
_TITLE
309
CELLSTYLE_END
300
CELLSTYLE
  1
TABLEFORMAT_BEGIN
 90
        5
170
     1
 91
        0
 92
        0
 62
   257
 93
        1
300
CONTENTFORMAT
  1
CONTENTFORMAT_BEGIN
 90
        0
 91
        0
 92
      512
 93
        0
300

 40
0.0
140
1.0
 94
        5
 62
     0
340
11
144
4.5
309
CONTENTFORMAT_END
171
     1
301
MARGIN
  1
CELLMARGIN_BEGIN
 40
1.5
 40
1.5
 40
1.5
 40
1.5
 40
0.18
 40
0.18
309
CELLMARGIN_END
 94
        6
 95
        1
302
GRIDFORMAT
  1
GRIDFORMAT_BEGIN
 90
        0
 91
        1
 62
     0
 92
       -2
340
0
 93
        0
 40
1.125
309
GRIDFORMAT_END
 95
        2
302
GRIDFORMAT
  1
GRIDFORMAT_BEGIN
 90
        0
 91
        1
 62
     0
 92
       -2
340
0
 93
        0
 40
1.125
309
GRIDFORMAT_END
 95
        4
302
GRIDFORMAT
  1
GRIDFORMAT_BEGIN
 90
        0
 91
        1
 62
     0
 92
       -2
340
0
 93
        0
 40
1.125
309
GRIDFORMAT_END
 95
        8
302
GRIDFORMAT
  1
GRIDFORMAT_BEGIN
 90
        0
 91
        1
 62
     0
 92
       -2
340
0
 93
        0
 40
1.125
309
GRIDFORMAT_END
 95
       16
302
GRIDFORMAT
  1
GRIDFORMAT_BEGIN
 90
        0
 91
        1
 62
     0
 92
       -2
340
0
 93
        0
 40
1.125
309
GRIDFORMAT_END
 95
       32
302
GRIDFORMAT
  1
GRIDFORMAT_BEGIN
 90
        0
 91
        1
 62
     0
 92
       -2
340
0
 93
        0
 40
1.125
309
GRIDFORMAT_END
309
TABLEFORMAT_END
  1
CELLSTYLE_BEGIN
 90
        2
 91
        1
300
_HEADER
309
CELLSTYLE_END
300
CELLSTYLE
  1
TABLEFORMAT_BEGIN
 90
        5
170
     1
 91
        0
 92
        0
 62
   257
 93
        1
300
CONTENTFORMAT
  1
CONTENTFORMAT_BEGIN
 90
        0
 91
        0
 92
      512
 93
        0
300

 40
0.0
140
1.0
 94
        2
 62
     0
340
11
144
4.5
309
CONTENTFORMAT_END
171
     1
301
MARGIN
  1
CELLMARGIN_BEGIN
 40
1.5
 40
1.5
 40
1.5
 40
1.5
 40
0.18
 40
0.18
309
CELLMARGIN_END
 94
        6
 95
        1
302
GRIDFORMAT
  1
GRIDFORMAT_BEGIN
 90
        0
 91
        1
 62
     0
 92
       -2
340
0
 93
        0
 40
1.125
309
GRIDFORMAT_END
 95
        2
302
GRIDFORMAT
  1
GRIDFORMAT_BEGIN
 90
        0
 91
        1
 62
     0
 92
       -2
340
0
 93
        0
 40
1.125
309
GRIDFORMAT_END
 95
        4
302
GRIDFORMAT
  1
GRIDFORMAT_BEGIN
 90
        0
 91
        1
 62
     0
 92
       -2
340
0
 93
        0
 40
1.125
309
GRIDFORMAT_END
 95
        8
302
GRIDFORMAT
  1
GRIDFORMAT_BEGIN
 90
        0
 91
        1
 62
     0
 92
       -2
340
0
 93
        0
 40
1.125
309
GRIDFORMAT_END
 95
       16
302
GRIDFORMAT
  1
GRIDFORMAT_BEGIN
 90
        0
 91
        1
 62
     0
 92
       -2
340
0
 93
        0
 40
1.125
309
GRIDFORMAT_END
 95
       32
302
GRIDFORMAT
  1
GRIDFORMAT_BEGIN
 90
        0
 91
        1
 62
     0
 92
       -2
340
0
 93
        0
 40
1.125
309
GRIDFORMAT_END
309
TABLEFORMAT_END
  1
CELLSTYLE_BEGIN
 90
        3
 91
        2
300
_DATA
309
CELLSTYLE_END
  0
XRECORD
  5
17CE
102
{ACAD_REACTORS
330
170C
102
}
330
170C
100
AcDbXrecord
280
     1
102
ACAD_ROUNDTRIP_PRE2007_TABLESTYLE
 90
      512
 91
        0
  1

 92
      512
 93
        0
  2

 94
      512
 95
        0
  3

  0
XRECORD
  5
17A9
102
{ACAD_REACTORS
330
17A8
102
}
330
17A8
100
AcDbXrecord
280
     1
102
RTVSPropertyOp0
 70
     1
102
RTVSPropertyOp1
 70
     1
102
RTVSPropertyOp2
 70
     1
102
RTVSPropertyOp3
 70
     1
102
RTVSPropertyOp4
 70
     1
102
RTVSPropertyOp5
 70
     1
102
RTVSPropertyOp6
 70
     1
102
RTVSPropertyOp7
 70
     1
102
RTVSPropertyOp8
 70
     1
102
RTVSPropertyOp9
 70
     1
102
RTVSPropertyOp10
 70
     1
102
RTVSPropertyOp11
 70
     1
102
RTVSPropertyOp12
 70
     1
102
RTVSPropertyOp13
 70
     1
102
RTVSPropertyOp14
 70
     1
102
RTVSPropertyOp15
 70
     1
102
RTVSPropertyOp16
 70
     1
102
RTVSPropertyOp17
 70
     1
102
RTVSPropertyOp18
 70
     1
102
RTVSPropertyOp19
 70
     1
102
RTVSPropertyOp20
 70
     1
102
RTVSPropertyOp21
 70
     1
102
RTVSPropertyOp22
 70
     1
102
RTVSPropertyOp23
 70
     1
102
RTVSPropertyOp24
 70
     1
102
RTVSPropertyOp25
 70
     1
102
RTVSPropertyOp26
 70
     1
102
RTVSPropertyOp27
 70
     1
102
RTVSPropertyOp28
 70
     1
102
RTVSPropertyOp29
 70
     1
102
RTVSPropertyOp30
 70
     1
102
RTVSPropertyOp31
 70
     1
102
RTVSPropertyOp32
 70
     1
  0
XRECORD
  5
17A7
102
{ACAD_REACTORS
330
17A6
102
}
330
17A6
100
AcDbXrecord
280
     1
102
RTVSPropertyOp0
 70
     1
102
RTVSPropertyOp1
 70
     1
102
RTVSPropertyOp2
 70
     1
102
RTVSPropertyOp3
 70
     1
102
RTVSPropertyOp4
 70
     1
102
RTVSPropertyOp5
 70
     1
102
RTVSPropertyOp6
 70
     1
102
RTVSPropertyOp7
 70
     1
102
RTVSPropertyOp8
 70
     1
102
RTVSPropertyOp9
 70
     1
102
RTVSPropertyOp10
 70
     1
102
RTVSPropertyOp11
 70
     1
102
RTVSPropertyOp12
 70
     1
102
RTVSPropertyOp13
 70
     1
102
RTVSPropertyOp14
 70
     1
102
RTVSPropertyOp15
 70
     1
102
RTVSPropertyOp16
 70
     1
102
RTVSPropertyOp17
 70
     1
102
RTVSPropertyOp18
 70
     1
102
RTVSPropertyOp19
 70
     1
102
RTVSPropertyOp20
 70
     1
102
RTVSPropertyOp21
 70
     1
102
RTVSPropertyOp22
 70
     1
102
RTVSPropertyOp23
 70
     1
102
RTVSPropertyOp24
 70
     1
102
RTVSPropertyOp25
 70
     1
102
RTVSPropertyOp26
 70
     1
102
RTVSPropertyOp27
 70
     1
102
RTVSPropertyOp28
 70
     1
102
RTVSPropertyOp29
 70
     1
102
RTVSPropertyOp30
 70
     1
102
RTVSPropertyOp31
 70
     1
102
RTVSPropertyOp32
 70
     1
  0
XRECORD
  5
17B5
102
{ACAD_REACTORS
330
17B4
102
}
330
17B4
100
AcDbXrecord
280
     1
102
RTVSPropertyOp0
 70
     1
102
RTVSPropertyOp1
 70
     1
102
RTVSPropertyOp2
 70
     1
102
RTVSPropertyOp3
 70
     1
102
RTVSPropertyOp4
 70
     1
102
RTVSPropertyOp5
 70
     1
102
RTVSPropertyOp6
 70
     1
102
RTVSPropertyOp7
 70
     1
102
RTVSPropertyOp8
 70
     1
102
RTVSPropertyOp9
 70
     1
102
RTVSPropertyOp10
 70
     1
102
RTVSPropertyOp11
 70
     1
102
RTVSPropertyOp12
 70
     1
102
RTVSPropertyOp13
 70
     1
102
RTVSPropertyOp14
 70
     1
102
RTVSPropertyOp15
 70
     1
102
RTVSPropertyOp16
 70
     1
102
RTVSPropertyOp17
 70
     1
102
RTVSPropertyOp18
 70
     1
102
RTVSPropertyOp19
 70
     1
102
RTVSPropertyOp20
 70
     1
102
RTVSPropertyOp21
 70
     1
102
RTVSPropertyOp22
 70
     1
102
RTVSPropertyOp23
 70
     1
102
RTVSPropertyOp24
 70
     1
102
RTVSPropertyOp25
 70
     1
102
RTVSPropertyOp26
 70
     1
102
RTVSPropertyOp27
 70
     1
102
RTVSPropertyOp28
 70
     1
102
RTVSPropertyOp29
 70
     1
102
RTVSPropertyOp30
 70
     1
102
RTVSPropertyOp31
 70
     1
102
RTVSPropertyOp32
 70
     1
  0
XRECORD
  5
17BD
102
{ACAD_REACTORS
330
17BC
102
}
330
17BC
100
AcDbXrecord
280
     1
102
RTVSPropertyOp0
 70
     1
102
RTVSPropertyOp1
 70
     1
102
RTVSPropertyOp2
 70
     1
102
RTVSPropertyOp3
 70
     1
102
RTVSPropertyOp4
 70
     1
102
RTVSPropertyOp5
 70
     1
102
RTVSPropertyOp6
 70
     1
102
RTVSPropertyOp7
 70
     1
102
RTVSPropertyOp8
 70
     1
102
RTVSPropertyOp9
 70
     1
102
RTVSPropertyOp10
 70
     1
102
RTVSPropertyOp11
 70
     1
102
RTVSPropertyOp12
 70
     1
102
RTVSPropertyOp13
 70
     1
102
RTVSPropertyOp14
 70
     1
102
RTVSPropertyOp15
 70
     1
102
RTVSPropertyOp16
 70
     1
102
RTVSPropertyOp17
 70
     1
102
RTVSPropertyOp18
 70
     1
102
RTVSPropertyOp19
 70
     1
102
RTVSPropertyOp20
 70
     1
102
RTVSPropertyOp21
 70
     1
102
RTVSPropertyOp22
 70
     1
102
RTVSPropertyOp23
 70
     1
102
RTVSPropertyOp24
 70
     1
102
RTVSPropertyOp25
 70
     1
102
RTVSPropertyOp26
 70
     1
102
RTVSPropertyOp27
 70
     1
102
RTVSPropertyOp28
 70
     1
102
RTVSPropertyOp29
 70
     1
102
RTVSPropertyOp30
 70
     1
102
RTVSPropertyOp31
 70
     1
102
RTVSPropertyOp32
 70
     1
  0
XRECORD
  5
17AF
102
{ACAD_REACTORS
330
17AE
102
}
330
17AE
100
AcDbXrecord
280
     1
102
RTVSPropertyOp0
 70
     1
102
RTVSPropertyOp1
 70
     1
102
RTVSPropertyOp2
 70
     1
102
RTVSPropertyOp3
 70
     1
102
RTVSPropertyOp4
 70
     1
102
RTVSPropertyOp5
 70
     1
102
RTVSPropertyOp6
 70
     1
102
RTVSPropertyOp7
 70
     1
102
RTVSPropertyOp8
 70
     1
102
RTVSPropertyOp9
 70
     1
102
RTVSPropertyOp10
 70
     1
102
RTVSPropertyOp11
 70
     1
102
RTVSPropertyOp12
 70
     1
102
RTVSPropertyOp13
 70
     1
102
RTVSPropertyOp14
 70
     1
102
RTVSPropertyOp15
 70
     1
102
RTVSPropertyOp16
 70
     1
102
RTVSPropertyOp17
 70
     1
102
RTVSPropertyOp18
 70
     1
102
RTVSPropertyOp19
 70
     1
102
RTVSPropertyOp20
 70
     1
102
RTVSPropertyOp21
 70
     1
102
RTVSPropertyOp22
 70
     1
102
RTVSPropertyOp23
 70
     1
102
RTVSPropertyOp24
 70
     1
102
RTVSPropertyOp25
 70
     1
102
RTVSPropertyOp26
 70
     1
102
RTVSPropertyOp27
 70
     1
102
RTVSPropertyOp28
 70
     1
102
RTVSPropertyOp29
 70
     1
102
RTVSPropertyOp30
 70
     1
102
RTVSPropertyOp31
 70
     1
102
RTVSPropertyOp32
 70
     1
  0
XRECORD
  5
17B3
102
{ACAD_REACTORS
330
17B2
102
}
330
17B2
100
AcDbXrecord
280
     1
102
RTVSPropertyOp0
 70
     1
102
RTVSPropertyOp1
 70
     1
102
RTVSPropertyOp2
 70
     1
102
RTVSPropertyOp3
 70
     1
102
RTVSPropertyOp4
 70
     1
102
RTVSPropertyOp5
 70
     1
102
RTVSPropertyOp6
 70
     1
102
RTVSPropertyOp7
 70
     1
102
RTVSPropertyOp8
 70
     1
102
RTVSPropertyOp9
 70
     1
102
RTVSPropertyOp10
 70
     1
102
RTVSPropertyOp11
 70
     1
102
RTVSPropertyOp12
 70
     1
102
RTVSPropertyOp13
 70
     1
102
RTVSPropertyOp14
 70
     1
102
RTVSPropertyOp15
 70
     1
102
RTVSPropertyOp16
 70
     1
102
RTVSPropertyOp17
 70
     1
102
RTVSPropertyOp18
 70
     1
102
RTVSPropertyOp19
 70
     1
102
RTVSPropertyOp20
 70
     1
102
RTVSPropertyOp21
 70
     1
102
RTVSPropertyOp22
 70
     1
102
RTVSPropertyOp23
 70
     1
102
RTVSPropertyOp24
 70
     1
102
RTVSPropertyOp25
 70
     1
102
RTVSPropertyOp26
 70
     1
102
RTVSPropertyOp27
 70
     1
102
RTVSPropertyOp28
 70
     1
102
RTVSPropertyOp29
 70
     1
102
RTVSPropertyOp30
 70
     1
102
RTVSPropertyOp31
 70
     1
102
RTVSPropertyOp32
 70
     1
  0
XRECORD
  5
17CD
102
{ACAD_REACTORS
330
17CC
102
}
330
17CC
100
AcDbXrecord
280
     1
102
RTVSPropertyOp0
 70
     0
102
RTVSPropertyOp1
 70
     0
102
RTVSPropertyOp2
 70
     0
102
RTVSPropertyOp3
 70
     0
102
RTVSPropertyOp4
 70
     0
102
RTVSPropertyOp5
 70
     0
102
RTVSPropertyOp6
 70
     0
102
RTVSPropertyOp7
 70
     0
102
RTVSPropertyOp8
 70
     0
102
RTVSPropertyOp9
 70
     0
102
RTVSPropertyOp10
 70
     0
102
RTVSPropertyOp11
 70
     0
102
RTVSPropertyOp12
 70
     0
102
RTVSPropertyOp13
 70
     0
102
RTVSPropertyOp14
 70
     2
102
RTVSPropertyOp15
 70
     0
102
RTVSPropertyOp16
 70
     0
102
RTVSPropertyOp17
 70
     0
102
RTVSPropertyOp18
 70
     0
102
RTVSPropertyOp19
 70
     0
102
RTVSPropertyOp20
 70
     0
102
RTVSPropertyOp21
 70
     0
102
RTVSPropertyOp22
 70
     0
102
RTVSPropertyOp23
 70
     0
102
RTVSPropertyOp24
 70
     0
102
RTVSPropertyOp25
 70
     0
102
RTVSPropertyOp26
 70
     0
102
RTVSPropertyOp27
 70
     0
102
RTVSPropertyOp28
 70
     0
102
RTVSPropertyOp29
 70
     0
102
RTVSPropertyOp30
 70
     0
102
RTVSPropertyOp31
 70
     0
102
RTVSPropertyOp32
 70
     0
  0
XRECORD
  5
17BB
102
{ACAD_REACTORS
330
17BA
102
}
330
17BA
100
AcDbXrecord
280
     1
102
RTVSPropertyOp0
 70
     1
102
RTVSPropertyOp1
 70
     1
102
RTVSPropertyOp2
 70
     1
102
RTVSPropertyOp3
 70
     1
102
RTVSPropertyOp4
 70
     1
102
RTVSPropertyOp5
 70
     1
102
RTVSPropertyOp6
 70
     1
102
RTVSPropertyOp7
 70
     1
102
RTVSPropertyOp8
 70
     1
102
RTVSPropertyOp9
 70
     1
102
RTVSPropertyOp10
 70
     1
102
RTVSPropertyOp11
 70
     1
102
RTVSPropertyOp12
 70
     1
102
RTVSPropertyOp13
 70
     1
102
RTVSPropertyOp14
 70
     1
102
RTVSPropertyOp15
 70
     1
102
RTVSPropertyOp16
 70
     1
102
RTVSPropertyOp17
 70
     1
102
RTVSPropertyOp18
 70
     1
102
RTVSPropertyOp19
 70
     1
102
RTVSPropertyOp20
 70
     1
102
RTVSPropertyOp21
 70
     1
102
RTVSPropertyOp22
 70
     1
102
RTVSPropertyOp23
 70
     1
102
RTVSPropertyOp24
 70
     1
102
RTVSPropertyOp25
 70
     1
102
RTVSPropertyOp26
 70
     1
102
RTVSPropertyOp27
 70
     1
102
RTVSPropertyOp28
 70
     1
102
RTVSPropertyOp29
 70
     1
102
RTVSPropertyOp30
 70
     1
102
RTVSPropertyOp31
 70
     1
102
RTVSPropertyOp32
 70
     1
  0
XRECORD
  5
179F
102
{ACAD_REACTORS
330
179E
102
}
330
179E
100
AcDbXrecord
280
     1
102
RTVSPropertyOp0
 70
     1
102
RTVSPropertyOp1
 70
     1
102
RTVSPropertyOp2
 70
     1
102
RTVSPropertyOp3
 70
     1
102
RTVSPropertyOp4
 70
     1
102
RTVSPropertyOp5
 70
     1
102
RTVSPropertyOp6
 70
     1
102
RTVSPropertyOp7
 70
     1
102
RTVSPropertyOp8
 70
     1
102
RTVSPropertyOp9
 70
     1
102
RTVSPropertyOp10
 70
     1
102
RTVSPropertyOp11
 70
     1
102
RTVSPropertyOp12
 70
     1
102
RTVSPropertyOp13
 70
     1
102
RTVSPropertyOp14
 70
     1
102
RTVSPropertyOp15
 70
     1
102
RTVSPropertyOp16
 70
     1
102
RTVSPropertyOp17
 70
     1
102
RTVSPropertyOp18
 70
     1
102
RTVSPropertyOp19
 70
     1
102
RTVSPropertyOp20
 70
     1
102
RTVSPropertyOp21
 70
     1
102
RTVSPropertyOp22
 70
     1
102
RTVSPropertyOp23
 70
     1
102
RTVSPropertyOp24
 70
     1
102
RTVSPropertyOp25
 70
     1
102
RTVSPropertyOp26
 70
     1
102
RTVSPropertyOp27
 70
     1
102
RTVSPropertyOp28
 70
     1
102
RTVSPropertyOp29
 70
     1
102
RTVSPropertyOp30
 70
     1
102
RTVSPropertyOp31
 70
     1
102
RTVSPropertyOp32
 70
     1
  0
XRECORD
  5
17A1
102
{ACAD_REACTORS
330
17A0
102
}
330
17A0
100
AcDbXrecord
280
     1
102
RTVSPropertyOp0
 70
     1
102
RTVSPropertyOp1
 70
     1
102
RTVSPropertyOp2
 70
     1
102
RTVSPropertyOp3
 70
     1
102
RTVSPropertyOp4
 70
     1
102
RTVSPropertyOp5
 70
     1
102
RTVSPropertyOp6
 70
     1
102
RTVSPropertyOp7
 70
     1
102
RTVSPropertyOp8
 70
     1
102
RTVSPropertyOp9
 70
     1
102
RTVSPropertyOp10
 70
     1
102
RTVSPropertyOp11
 70
     1
102
RTVSPropertyOp12
 70
     1
102
RTVSPropertyOp13
 70
     1
102
RTVSPropertyOp14
 70
     1
102
RTVSPropertyOp15
 70
     1
102
RTVSPropertyOp16
 70
     1
102
RTVSPropertyOp17
 70
     1
102
RTVSPropertyOp18
 70
     1
102
RTVSPropertyOp19
 70
     1
102
RTVSPropertyOp20
 70
     1
102
RTVSPropertyOp21
 70
     1
102
RTVSPropertyOp22
 70
     1
102
RTVSPropertyOp23
 70
     1
102
RTVSPropertyOp24
 70
     1
102
RTVSPropertyOp25
 70
     1
102
RTVSPropertyOp26
 70
     1
102
RTVSPropertyOp27
 70
     1
102
RTVSPropertyOp28
 70
     1
102
RTVSPropertyOp29
 70
     1
102
RTVSPropertyOp30
 70
     1
102
RTVSPropertyOp31
 70
     1
102
RTVSPropertyOp32
 70
     1
  0
XRECORD
  5
17A3
102
{ACAD_REACTORS
330
17A2
102
}
330
17A2
100
AcDbXrecord
280
     1
102
RTVSPropertyOp0
 70
     1
102
RTVSPropertyOp1
 70
     1
102
RTVSPropertyOp2
 70
     1
102
RTVSPropertyOp3
 70
     1
102
RTVSPropertyOp4
 70
     1
102
RTVSPropertyOp5
 70
     1
102
RTVSPropertyOp6
 70
     1
102
RTVSPropertyOp7
 70
     1
102
RTVSPropertyOp8
 70
     1
102
RTVSPropertyOp9
 70
     1
102
RTVSPropertyOp10
 70
     1
102
RTVSPropertyOp11
 70
     1
102
RTVSPropertyOp12
 70
     1
102
RTVSPropertyOp13
 70
     1
102
RTVSPropertyOp14
 70
     1
102
RTVSPropertyOp15
 70
     1
102
RTVSPropertyOp16
 70
     1
102
RTVSPropertyOp17
 70
     1
102
RTVSPropertyOp18
 70
     1
102
RTVSPropertyOp19
 70
     1
102
RTVSPropertyOp20
 70
     1
102
RTVSPropertyOp21
 70
     1
102
RTVSPropertyOp22
 70
     1
102
RTVSPropertyOp23
 70
     1
102
RTVSPropertyOp24
 70
     1
102
RTVSPropertyOp25
 70
     1
102
RTVSPropertyOp26
 70
     1
102
RTVSPropertyOp27
 70
     1
102
RTVSPropertyOp28
 70
     1
102
RTVSPropertyOp29
 70
     1
102
RTVSPropertyOp30
 70
     1
102
RTVSPropertyOp31
 70
     1
102
RTVSPropertyOp32
 70
     1
  0
XRECORD
  5
17A5
102
{ACAD_REACTORS
330
17A4
102
}
330
17A4
100
AcDbXrecord
280
     1
102
RTVSPropertyOp0
 70
     1
102
RTVSPropertyOp1
 70
     1
102
RTVSPropertyOp2
 70
     1
102
RTVSPropertyOp3
 70
     1
102
RTVSPropertyOp4
 70
     1
102
RTVSPropertyOp5
 70
     1
102
RTVSPropertyOp6
 70
     1
102
RTVSPropertyOp7
 70
     1
102
RTVSPropertyOp8
 70
     1
102
RTVSPropertyOp9
 70
     1
102
RTVSPropertyOp10
 70
     1
102
RTVSPropertyOp11
 70
     1
102
RTVSPropertyOp12
 70
     1
102
RTVSPropertyOp13
 70
     1
102
RTVSPropertyOp14
 70
     1
102
RTVSPropertyOp15
 70
     1
102
RTVSPropertyOp16
 70
     1
102
RTVSPropertyOp17
 70
     1
102
RTVSPropertyOp18
 70
     1
102
RTVSPropertyOp19
 70
     1
102
RTVSPropertyOp20
 70
     1
102
RTVSPropertyOp21
 70
     1
102
RTVSPropertyOp22
 70
     1
102
RTVSPropertyOp23
 70
     1
102
RTVSPropertyOp24
 70
     1
102
RTVSPropertyOp25
 70
     1
102
RTVSPropertyOp26
 70
     1
102
RTVSPropertyOp27
 70
     1
102
RTVSPropertyOp28
 70
     1
102
RTVSPropertyOp29
 70
     1
102
RTVSPropertyOp30
 70
     1
102
RTVSPropertyOp31
 70
     1
102
RTVSPropertyOp32
 70
     1
  0
XRECORD
  5
17AD
102
{ACAD_REACTORS
330
17AC
102
}
330
17AC
100
AcDbXrecord
280
     1
102
RTVSPropertyOp0
 70
     1
102
RTVSPropertyOp1
 70
     1
102
RTVSPropertyOp2
 70
     1
102
RTVSPropertyOp3
 70
     1
102
RTVSPropertyOp4
 70
     1
102
RTVSPropertyOp5
 70
     1
102
RTVSPropertyOp6
 70
     1
102
RTVSPropertyOp7
 70
     1
102
RTVSPropertyOp8
 70
     1
102
RTVSPropertyOp9
 70
     1
102
RTVSPropertyOp10
 70
     1
102
RTVSPropertyOp11
 70
     1
102
RTVSPropertyOp12
 70
     1
102
RTVSPropertyOp13
 70
     1
102
RTVSPropertyOp14
 70
     1
102
RTVSPropertyOp15
 70
     1
102
RTVSPropertyOp16
 70
     1
102
RTVSPropertyOp17
 70
     1
102
RTVSPropertyOp18
 70
     1
102
RTVSPropertyOp19
 70
     1
102
RTVSPropertyOp20
 70
     1
102
RTVSPropertyOp21
 70
     1
102
RTVSPropertyOp22
 70
     1
102
RTVSPropertyOp23
 70
     1
102
RTVSPropertyOp24
 70
     1
102
RTVSPropertyOp25
 70
     1
102
RTVSPropertyOp26
 70
     1
102
RTVSPropertyOp27
 70
     1
102
RTVSPropertyOp28
 70
     1
102
RTVSPropertyOp29
 70
     1
102
RTVSPropertyOp30
 70
     1
102
RTVSPropertyOp31
 70
     1
102
RTVSPropertyOp32
 70
     1
  0
XRECORD
  5
17C9
102
{ACAD_REACTORS
330
17C8
102
}
330
17C8
100
AcDbXrecord
280
     1
102
RTVSPropertyOp0
 70
     0
102
RTVSPropertyOp1
 70
     0
102
RTVSPropertyOp2
 70
     0
102
RTVSPropertyOp3
 70
     0
102
RTVSPropertyOp4
 70
     0
102
RTVSPropertyOp5
 70
     0
102
RTVSPropertyOp6
 70
     0
102
RTVSPropertyOp7
 70
     0
102
RTVSPropertyOp8
 70
     0
102
RTVSPropertyOp9
 70
     0
102
RTVSPropertyOp10
 70
     0
102
RTVSPropertyOp11
 70
     0
102
RTVSPropertyOp12
 70
     0
102
RTVSPropertyOp13
 70
     0
102
RTVSPropertyOp14
 70
     2
102
RTVSPropertyOp15
 70
     0
102
RTVSPropertyOp16
 70
     0
102
RTVSPropertyOp17
 70
     0
102
RTVSPropertyOp18
 70
     0
102
RTVSPropertyOp19
 70
     0
102
RTVSPropertyOp20
 70
     0
102
RTVSPropertyOp21
 70
     0
102
RTVSPropertyOp22
 70
     0
102
RTVSPropertyOp23
 70
     0
102
RTVSPropertyOp24
 70
     0
102
RTVSPropertyOp25
 70
     0
102
RTVSPropertyOp26
 70
     0
102
RTVSPropertyOp27
 70
     0
102
RTVSPropertyOp28
 70
     0
102
RTVSPropertyOp29
 70
     0
102
RTVSPropertyOp30
 70
     0
102
RTVSPropertyOp31
 70
     0
102
RTVSPropertyOp32
 70
     0
  0
XRECORD
  5
17B9
102
{ACAD_REACTORS
330
17B8
102
}
330
17B8
100
AcDbXrecord
280
     1
102
RTVSPropertyOp0
 70
     1
102
RTVSPropertyOp1
 70
     1
102
RTVSPropertyOp2
 70
     1
102
RTVSPropertyOp3
 70
     1
102
RTVSPropertyOp4
 70
     1
102
RTVSPropertyOp5
 70
     1
102
RTVSPropertyOp6
 70
     1
102
RTVSPropertyOp7
 70
     1
102
RTVSPropertyOp8
 70
     1
102
RTVSPropertyOp9
 70
     1
102
RTVSPropertyOp10
 70
     1
102
RTVSPropertyOp11
 70
     1
102
RTVSPropertyOp12
 70
     1
102
RTVSPropertyOp13
 70
     1
102
RTVSPropertyOp14
 70
     1
102
RTVSPropertyOp15
 70
     1
102
RTVSPropertyOp16
 70
     1
102
RTVSPropertyOp17
 70
     1
102
RTVSPropertyOp18
 70
     1
102
RTVSPropertyOp19
 70
     1
102
RTVSPropertyOp20
 70
     1
102
RTVSPropertyOp21
 70
     1
102
RTVSPropertyOp22
 70
     1
102
RTVSPropertyOp23
 70
     1
102
RTVSPropertyOp24
 70
     1
102
RTVSPropertyOp25
 70
     1
102
RTVSPropertyOp26
 70
     1
102
RTVSPropertyOp27
 70
     1
102
RTVSPropertyOp28
 70
     1
102
RTVSPropertyOp29
 70
     1
102
RTVSPropertyOp30
 70
     1
102
RTVSPropertyOp31
 70
     1
102
RTVSPropertyOp32
 70
     1
  0
XRECORD
  5
17CB
102
{ACAD_REACTORS
330
17CA
102
}
330
17CA
100
AcDbXrecord
280
     1
102
RTVSPropertyOp0
 70
     0
102
RTVSPropertyOp1
 70
     0
102
RTVSPropertyOp2
 70
     0
102
RTVSPropertyOp3
 70
     0
102
RTVSPropertyOp4
 70
     0
102
RTVSPropertyOp5
 70
     0
102
RTVSPropertyOp6
 70
     0
102
RTVSPropertyOp7
 70
     0
102
RTVSPropertyOp8
 70
     0
102
RTVSPropertyOp9
 70
     0
102
RTVSPropertyOp10
 70
     0
102
RTVSPropertyOp11
 70
     0
102
RTVSPropertyOp12
 70
     0
102
RTVSPropertyOp13
 70
     0
102
RTVSPropertyOp14
 70
     2
102
RTVSPropertyOp15
 70
     0
102
RTVSPropertyOp16
 70
     0
102
RTVSPropertyOp17
 70
     0
102
RTVSPropertyOp18
 70
     0
102
RTVSPropertyOp19
 70
     0
102
RTVSPropertyOp20
 70
     0
102
RTVSPropertyOp21
 70
     0
102
RTVSPropertyOp22
 70
     0
102
RTVSPropertyOp23
 70
     0
102
RTVSPropertyOp24
 70
     0
102
RTVSPropertyOp25
 70
     0
102
RTVSPropertyOp26
 70
     0
102
RTVSPropertyOp27
 70
     0
102
RTVSPropertyOp28
 70
     0
102
RTVSPropertyOp29
 70
     0
102
RTVSPropertyOp30
 70
     0
102
RTVSPropertyOp31
 70
     0
102
RTVSPropertyOp32
 70
     0
  0
XRECORD
  5
17B1
102
{ACAD_REACTORS
330
17B0
102
}
330
17B0
100
AcDbXrecord
280
     1
102
RTVSPropertyOp0
 70
     1
102
RTVSPropertyOp1
 70
     1
102
RTVSPropertyOp2
 70
     1
102
RTVSPropertyOp3
 70
     1
102
RTVSPropertyOp4
 70
     1
102
RTVSPropertyOp5
 70
     1
102
RTVSPropertyOp6
 70
     1
102
RTVSPropertyOp7
 70
     1
102
RTVSPropertyOp8
 70
     1
102
RTVSPropertyOp9
 70
     1
102
RTVSPropertyOp10
 70
     1
102
RTVSPropertyOp11
 70
     1
102
RTVSPropertyOp12
 70
     1
102
RTVSPropertyOp13
 70
     1
102
RTVSPropertyOp14
 70
     1
102
RTVSPropertyOp15
 70
     1
102
RTVSPropertyOp16
 70
     1
102
RTVSPropertyOp17
 70
     1
102
RTVSPropertyOp18
 70
     1
102
RTVSPropertyOp19
 70
     1
102
RTVSPropertyOp20
 70
     1
102
RTVSPropertyOp21
 70
     1
102
RTVSPropertyOp22
 70
     1
102
RTVSPropertyOp23
 70
     1
102
RTVSPropertyOp24
 70
     1
102
RTVSPropertyOp25
 70
     1
102
RTVSPropertyOp26
 70
     1
102
RTVSPropertyOp27
 70
     1
102
RTVSPropertyOp28
 70
     1
102
RTVSPropertyOp29
 70
     1
102
RTVSPropertyOp30
 70
     1
102
RTVSPropertyOp31
 70
     1
102
RTVSPropertyOp32
 70
     1
  0
XRECORD
  5
17C7
102
{ACAD_REACTORS
330
17C6
102
}
330
17C6
100
AcDbXrecord
280
     1
102
RTVSPropertyOp0
 70
     1
102
RTVSPropertyOp1
 70
     1
102
RTVSPropertyOp2
 70
     1
102
RTVSPropertyOp3
 70
     1
102
RTVSPropertyOp4
 70
     1
102
RTVSPropertyOp5
 70
     1
102
RTVSPropertyOp6
 70
     1
102
RTVSPropertyOp7
 70
     1
102
RTVSPropertyOp8
 70
     1
102
RTVSPropertyOp9
 70
     1
102
RTVSPropertyOp10
 70
     1
102
RTVSPropertyOp11
 70
     1
102
RTVSPropertyOp12
 70
     1
102
RTVSPropertyOp13
 70
     1
102
RTVSPropertyOp14
 70
     1
102
RTVSPropertyOp15
 70
     1
102
RTVSPropertyOp16
 70
     1
102
RTVSPropertyOp17
 70
     1
102
RTVSPropertyOp18
 70
     1
102
RTVSPropertyOp19
 70
     1
102
RTVSPropertyOp20
 70
     1
102
RTVSPropertyOp21
 70
     1
102
RTVSPropertyOp22
 70
     1
102
RTVSPropertyOp23
 70
     1
102
RTVSPropertyOp24
 70
     1
102
RTVSPropertyOp25
 70
     1
102
RTVSPropertyOp26
 70
     1
102
RTVSPropertyOp27
 70
     1
102
RTVSPropertyOp28
 70
     1
102
RTVSPropertyOp29
 70
     1
102
RTVSPropertyOp30
 70
     1
102
RTVSPropertyOp31
 70
     1
102
RTVSPropertyOp32
 70
     1
  0
XRECORD
  5
17C5
102
{ACAD_REACTORS
330
17C4
102
}
330
17C4
100
AcDbXrecord
280
     1
102
RTVSPropertyOp0
 70
     1
102
RTVSPropertyOp1
 70
     1
102
RTVSPropertyOp2
 70
     1
102
RTVSPropertyOp3
 70
     1
102
RTVSPropertyOp4
 70
     1
102
RTVSPropertyOp5
 70
     1
102
RTVSPropertyOp6
 70
     1
102
RTVSPropertyOp7
 70
     1
102
RTVSPropertyOp8
 70
     1
102
RTVSPropertyOp9
 70
     1
102
RTVSPropertyOp10
 70
     1
102
RTVSPropertyOp11
 70
     1
102
RTVSPropertyOp12
 70
     1
102
RTVSPropertyOp13
 70
     1
102
RTVSPropertyOp14
 70
     1
102
RTVSPropertyOp15
 70
     1
102
RTVSPropertyOp16
 70
     1
102
RTVSPropertyOp17
 70
     1
102
RTVSPropertyOp18
 70
     1
102
RTVSPropertyOp19
 70
     1
102
RTVSPropertyOp20
 70
     1
102
RTVSPropertyOp21
 70
     1
102
RTVSPropertyOp22
 70
     1
102
RTVSPropertyOp23
 70
     1
102
RTVSPropertyOp24
 70
     1
102
RTVSPropertyOp25
 70
     1
102
RTVSPropertyOp26
 70
     1
102
RTVSPropertyOp27
 70
     1
102
RTVSPropertyOp28
 70
     1
102
RTVSPropertyOp29
 70
     1
102
RTVSPropertyOp30
 70
     1
102
RTVSPropertyOp31
 70
     1
102
RTVSPropertyOp32
 70
     1
  0
XRECORD
  5
17BF
102
{ACAD_REACTORS
330
17BE
102
}
330
17BE
100
AcDbXrecord
280
     1
102
RTVSPropertyOp0
 70
     1
102
RTVSPropertyOp1
 70
     1
102
RTVSPropertyOp2
 70
     1
102
RTVSPropertyOp3
 70
     1
102
RTVSPropertyOp4
 70
     1
102
RTVSPropertyOp5
 70
     1
102
RTVSPropertyOp6
 70
     1
102
RTVSPropertyOp7
 70
     1
102
RTVSPropertyOp8
 70
     1
102
RTVSPropertyOp9
 70
     1
102
RTVSPropertyOp10
 70
     1
102
RTVSPropertyOp11
 70
     1
102
RTVSPropertyOp12
 70
     1
102
RTVSPropertyOp13
 70
     1
102
RTVSPropertyOp14
 70
     1
102
RTVSPropertyOp15
 70
     1
102
RTVSPropertyOp16
 70
     1
102
RTVSPropertyOp17
 70
     1
102
RTVSPropertyOp18
 70
     1
102
RTVSPropertyOp19
 70
     1
102
RTVSPropertyOp20
 70
     1
102
RTVSPropertyOp21
 70
     1
102
RTVSPropertyOp22
 70
     1
102
RTVSPropertyOp23
 70
     1
102
RTVSPropertyOp24
 70
     1
102
RTVSPropertyOp25
 70
     1
102
RTVSPropertyOp26
 70
     1
102
RTVSPropertyOp27
 70
     1
102
RTVSPropertyOp28
 70
     1
102
RTVSPropertyOp29
 70
     1
102
RTVSPropertyOp30
 70
     1
102
RTVSPropertyOp31
 70
     1
102
RTVSPropertyOp32
 70
     1
  0
XRECORD
  5
17C1
102
{ACAD_REACTORS
330
17C0
102
}
330
17C0
100
AcDbXrecord
280
     1
102
RTVSPropertyOp0
 70
     1
102
RTVSPropertyOp1
 70
     1
102
RTVSPropertyOp2
 70
     1
102
RTVSPropertyOp3
 70
     1
102
RTVSPropertyOp4
 70
     1
102
RTVSPropertyOp5
 70
     1
102
RTVSPropertyOp6
 70
     1
102
RTVSPropertyOp7
 70
     1
102
RTVSPropertyOp8
 70
     1
102
RTVSPropertyOp9
 70
     1
102
RTVSPropertyOp10
 70
     1
102
RTVSPropertyOp11
 70
     1
102
RTVSPropertyOp12
 70
     1
102
RTVSPropertyOp13
 70
     1
102
RTVSPropertyOp14
 70
     1
102
RTVSPropertyOp15
 70
     1
102
RTVSPropertyOp16
 70
     1
102
RTVSPropertyOp17
 70
     1
102
RTVSPropertyOp18
 70
     1
102
RTVSPropertyOp19
 70
     1
102
RTVSPropertyOp20
 70
     1
102
RTVSPropertyOp21
 70
     1
102
RTVSPropertyOp22
 70
     1
102
RTVSPropertyOp23
 70
     1
102
RTVSPropertyOp24
 70
     1
102
RTVSPropertyOp25
 70
     1
102
RTVSPropertyOp26
 70
     1
102
RTVSPropertyOp27
 70
     1
102
RTVSPropertyOp28
 70
     1
102
RTVSPropertyOp29
 70
     1
102
RTVSPropertyOp30
 70
     1
102
RTVSPropertyOp31
 70
     1
102
RTVSPropertyOp32
 70
     1
  0
XRECORD
  5
17B7
102
{ACAD_REACTORS
330
17B6
102
}
330
17B6
100
AcDbXrecord
280
     1
102
RTVSPropertyOp0
 70
     1
102
RTVSPropertyOp1
 70
     1
102
RTVSPropertyOp2
 70
     1
102
RTVSPropertyOp3
 70
     1
102
RTVSPropertyOp4
 70
     1
102
RTVSPropertyOp5
 70
     1
102
RTVSPropertyOp6
 70
     1
102
RTVSPropertyOp7
 70
     1
102
RTVSPropertyOp8
 70
     1
102
RTVSPropertyOp9
 70
     1
102
RTVSPropertyOp10
 70
     1
102
RTVSPropertyOp11
 70
     1
102
RTVSPropertyOp12
 70
     1
102
RTVSPropertyOp13
 70
     1
102
RTVSPropertyOp14
 70
     1
102
RTVSPropertyOp15
 70
     1
102
RTVSPropertyOp16
 70
     1
102
RTVSPropertyOp17
 70
     1
102
RTVSPropertyOp18
 70
     1
102
RTVSPropertyOp19
 70
     1
102
RTVSPropertyOp20
 70
     1
102
RTVSPropertyOp21
 70
     1
102
RTVSPropertyOp22
 70
     1
102
RTVSPropertyOp23
 70
     1
102
RTVSPropertyOp24
 70
     1
102
RTVSPropertyOp25
 70
     1
102
RTVSPropertyOp26
 70
     1
102
RTVSPropertyOp27
 70
     1
102
RTVSPropertyOp28
 70
     1
102
RTVSPropertyOp29
 70
     1
102
RTVSPropertyOp30
 70
     1
102
RTVSPropertyOp31
 70
     1
102
RTVSPropertyOp32
 70
     1
  0
XRECORD
  5
17AB
102
{ACAD_REACTORS
330
17AA
102
}
330
17AA
100
AcDbXrecord
280
     1
102
RTVSPropertyOp0
 70
     1
102
RTVSPropertyOp1
 70
     1
102
RTVSPropertyOp2
 70
     1
102
RTVSPropertyOp3
 70
     1
102
RTVSPropertyOp4
 70
     1
102
RTVSPropertyOp5
 70
     1
102
RTVSPropertyOp6
 70
     1
102
RTVSPropertyOp7
 70
     1
102
RTVSPropertyOp8
 70
     1
102
RTVSPropertyOp9
 70
     1
102
RTVSPropertyOp10
 70
     1
102
RTVSPropertyOp11
 70
     1
102
RTVSPropertyOp12
 70
     1
102
RTVSPropertyOp13
 70
     1
102
RTVSPropertyOp14
 70
     1
102
RTVSPropertyOp15
 70
     1
102
RTVSPropertyOp16
 70
     1
102
RTVSPropertyOp17
 70
     1
102
RTVSPropertyOp18
 70
     1
102
RTVSPropertyOp19
 70
     1
102
RTVSPropertyOp20
 70
     1
102
RTVSPropertyOp21
 70
     1
102
RTVSPropertyOp22
 70
     1
102
RTVSPropertyOp23
 70
     1
102
RTVSPropertyOp24
 70
     1
102
RTVSPropertyOp25
 70
     1
102
RTVSPropertyOp26
 70
     1
102
RTVSPropertyOp27
 70
     1
102
RTVSPropertyOp28
 70
     1
102
RTVSPropertyOp29
 70
     1
102
RTVSPropertyOp30
 70
     1
102
RTVSPropertyOp31
 70
     1
102
RTVSPropertyOp32
 70
     1
  0
XRECORD
  5
17C3
102
{ACAD_REACTORS
330
17C2
102
}
330
17C2
100
AcDbXrecord
280
     1
102
RTVSPropertyOp0
 70
     1
102
RTVSPropertyOp1
 70
     1
102
RTVSPropertyOp2
 70
     1
102
RTVSPropertyOp3
 70
     1
102
RTVSPropertyOp4
 70
     1
102
RTVSPropertyOp5
 70
     1
102
RTVSPropertyOp6
 70
     1
102
RTVSPropertyOp7
 70
     1
102
RTVSPropertyOp8
 70
     1
102
RTVSPropertyOp9
 70
     1
102
RTVSPropertyOp10
 70
     1
102
RTVSPropertyOp11
 70
     1
102
RTVSPropertyOp12
 70
     1
102
RTVSPropertyOp13
 70
     1
102
RTVSPropertyOp14
 70
     1
102
RTVSPropertyOp15
 70
     1
102
RTVSPropertyOp16
 70
     1
102
RTVSPropertyOp17
 70
     1
102
RTVSPropertyOp18
 70
     1
102
RTVSPropertyOp19
 70
     1
102
RTVSPropertyOp20
 70
     1
102
RTVSPropertyOp21
 70
     1
102
RTVSPropertyOp22
 70
     1
102
RTVSPropertyOp23
 70
     1
102
RTVSPropertyOp24
 70
     1
102
RTVSPropertyOp25
 70
     1
102
RTVSPropertyOp26
 70
     1
102
RTVSPropertyOp27
 70
     1
102
RTVSPropertyOp28
 70
     1
102
RTVSPropertyOp29
 70
     1
102
RTVSPropertyOp30
 70
     1
102
RTVSPropertyOp31
 70
     1
102
RTVSPropertyOp32
 70
     1
  0
ENDSEC
  0
EOF
