  0
SECTION
  2
HEADER
  9
$ACADVER
  1
AC1015
  9
$ACADMAINTVER
 70
    14
  9
$DWGCODEPAGE
  3
ANSI_932
  9
$INSBASE
 10
0.0
 20
0.0
 30
0.0
  9
$EXTMIN
 10
-292.3773186984208
 20
-165.3539881484513
 30
-0.0015258207003583
  9
$EXTMAX
 10
290.0125130335946
 20
124.1412511006244
 30
0.0000000349246037
  9
$LIMMIN
 10
0.0
 20
0.0
  9
$LIMMAX
 10
420.0
 20
297.0
  9
$ORTHOMODE
 70
     0
  9
$REGENMODE
 70
     1
  9
$FILLMODE
 70
     1
  9
$QTEXTMODE
 70
     0
  9
$MIRRTEXT
 70
     1
  9
$LTSCALE
 40
1.0
  9
$ATTMODE
 70
     1
  9
$TEXTSIZE
 40
2.5
  9
$TRACEWID
 40
1.0
  9
$TEXTSTYLE
  7
Standard
  9
$CLAYER
  8
0
  9
$CELTYPE
  6
ByLayer
  9
$CECOLOR
 62
   256
  9
$CELTSCALE
 40
1.0
  9
$DISPSILH
 70
     0
  9
$DIMSCALE
 40
1.0
  9
$DIMASZ
 40
2.5
  9
$DIMEXO
 40
0.625
  9
$DIMDLI
 40
3.75
  9
$DIMRND
 40
0.0
  9
$DIMDLE
 40
0.0
  9
$DIMEXE
 40
1.25
  9
$DIMTP
 40
0.0
  9
$DIMTM
 40
0.0
  9
$DIMTXT
 40
2.5
  9
$DIMCEN
 40
2.5
  9
$DIMTSZ
 40
0.0
  9
$DIMTOL
 70
     0
  9
$DIMLIM
 70
     0
  9
$DIMTIH
 70
     0
  9
$DIMTOH
 70
     0
  9
$DIMSE1
 70
     0
  9
$DIMSE2
 70
     0
  9
$DIMTAD
 70
     1
  9
$DIMZIN
 70
     8
  9
$DIMBLK
  1

  9
$DIMASO
 70
     1
  9
$DIMSHO
 70
     1
  9
$DIMPOST
  1

  9
$DIMAPOST
  1

  9
$DIMALT
 70
     0
  9
$DIMALTD
 70
     3
  9
$DIMALTF
 40
0.03937007874016
  9
$DIMLFAC
 40
1.0
  9
$DIMTOFL
 70
     1
  9
$DIMTVP
 40
0.0
  9
$DIMTIX
 70
     0
  9
$DIMSOXD
 70
     0
  9
$DIMSAH
 70
     0
  9
$DIMBLK1
  1

  9
$DIMBLK2
  1

  9
$DIMSTYLE
  2
ISO-25
  9
$DIMCLRD
 70
     0
  9
$DIMCLRE
 70
     0
  9
$DIMCLRT
 70
     0
  9
$DIMTFAC
 40
1.0
  9
$DIMGAP
 40
0.625
  9
$DIMJUST
 70
     0
  9
$DIMSD1
 70
     0
  9
$DIMSD2
 70
     0
  9
$DIMTOLJ
 70
     0
  9
$DIMTZIN
 70
     8
  9
$DIMALTZ
 70
     0
  9
$DIMALTTZ
 70
     0
  9
$DIMUPT
 70
     0
  9
$DIMDEC
 70
     2
  9
$DIMTDEC
 70
     2
  9
$DIMALTU
 70
     2
  9
$DIMALTTD
 70
     3
  9
$DIMTXSTY
  7
Standard
  9
$DIMAUNIT
 70
     0
  9
$DIMADEC
 70
     0
  9
$DIMALTRND
 40
0.0
  9
$DIMAZIN
 70
     0
  9
$DIMDSEP
 70
    44
  9
$DIMATFIT
 70
     3
  9
$DIMFRAC
 70
     0
  9
$DIMLDRBLK
  1

  9
$DIMLUNIT
 70
     2
  9
$DIMLWD
 70
    -2
  9
$DIMLWE
 70
    -2
  9
$DIMTMOVE
 70
     0
  9
$LUNITS
 70
     2
  9
$LUPREC
 70
     4
  9
$SKETCHINC
 40
1.0
  9
$FILLETRAD
 40
10.0
  9
$AUNITS
 70
     0
  9
$AUPREC
 70
     0
  9
$MENU
  1
.
  9
$ELEVATION
 40
0.0
  9
$PELEVATION
 40
0.0
  9
$THICKNESS
 40
0.0
  9
$LIMCHECK
 70
     0
  9
$CHAMFERA
 40
10.0
  9
$CHAMFERB
 40
10.0
  9
$CHAMFERC
 40
20.0
  9
$CHAMFERD
 40
0.0
  9
$SKPOLY
 70
     0
  9
$TDCREATE
 40
2456037.674200301
  9
$TDUCREATE
 40
2456037.299200301
  9
$TDUPDATE
 40
2456037.676994167
  9
$TDUUPDATE
 40
2456037.301994167
  9
$TDINDWG
 40
0.0027940509
  9
$TDUSRTIMER
 40
0.0027940509
  9
$USRTIMER
 70
     1
  9
$ANGBASE
 50
0.0
  9
$ANGDIR
 70
     0
  9
$PDMODE
 70
     0
  9
$PDSIZE
 40
0.0
  9
$PLINEWID
 40
0.0
  9
$SPLFRAME
 70
     0
  9
$SPLINETYPE
 70
     6
  9
$SPLINESEGS
 70
     8
  9
$HANDSEED
  5
90F
  9
$SURFTAB1
 70
     6
  9
$SURFTAB2
 70
     6
  9
$SURFTYPE
 70
     6
  9
$SURFU
 70
     6
  9
$SURFV
 70
     6
  9
$UCSBASE
  2

  9
$UCSNAME
  2

  9
$UCSORG
 10
0.0
 20
0.0
 30
0.0
  9
$UCSXDIR
 10
1.0
 20
0.0
 30
0.0
  9
$UCSYDIR
 10
0.0
 20
1.0
 30
0.0
  9
$UCSORTHOREF
  2

  9
$UCSORTHOVIEW
 70
     0
  9
$UCSORGTOP
 10
0.0
 20
0.0
 30
0.0
  9
$UCSORGBOTTOM
 10
0.0
 20
0.0
 30
0.0
  9
$UCSORGLEFT
 10
0.0
 20
0.0
 30
0.0
  9
$UCSORGRIGHT
 10
0.0
 20
0.0
 30
0.0
  9
$UCSORGFRONT
 10
0.0
 20
0.0
 30
0.0
  9
$UCSORGBACK
 10
0.0
 20
0.0
 30
0.0
  9
$PUCSBASE
  2

  9
$PUCSNAME
  2

  9
$PUCSORG
 10
0.0
 20
0.0
 30
0.0
  9
$PUCSXDIR
 10
1.0
 20
0.0
 30
0.0
  9
$PUCSYDIR
 10
0.0
 20
1.0
 30
0.0
  9
$PUCSORTHOREF
  2

  9
$PUCSORTHOVIEW
 70
     0
  9
$PUCSORGTOP
 10
0.0
 20
0.0
 30
0.0
  9
$PUCSORGBOTTOM
 10
0.0
 20
0.0
 30
0.0
  9
$PUCSORGLEFT
 10
0.0
 20
0.0
 30
0.0
  9
$PUCSORGRIGHT
 10
0.0
 20
0.0
 30
0.0
  9
$PUCSORGFRONT
 10
0.0
 20
0.0
 30
0.0
  9
$PUCSORGBACK
 10
0.0
 20
0.0
 30
0.0
  9
$USERI1
 70
     0
  9
$USERI2
 70
     0
  9
$USERI3
 70
     0
  9
$USERI4
 70
     0
  9
$USERI5
 70
     0
  9
$USERR1
 40
0.0
  9
$USERR2
 40
0.0
  9
$USERR3
 40
0.0
  9
$USERR4
 40
0.0
  9
$USERR5
 40
0.0
  9
$WORLDVIEW
 70
     1
  9
$SHADEDGE
 70
     3
  9
$SHADEDIF
 70
    70
  9
$TILEMODE
 70
     1
  9
$MAXACTVP
 70
    64
  9
$PINSBASE
 10
0.0
 20
0.0
 30
0.0
  9
$PLIMCHECK
 70
     0
  9
$PEXTMIN
 10
26.66076962115562
 20
20.31135699206657
 30
-0.0015258207003583
  9
$PEXTMAX
 10
240.039213369355
 20
182.8886381005154
 30
0.0000000349246037
  9
$PLIMMIN
 10
-6.350006103515625
 20
-6.349999904632568
  9
$PLIMMAX
 10
273.0499877929687
 20
209.5499939918517
  9
$UNITMODE
 70
     0
  9
$VISRETAIN
 70
     1
  9
$PLINEGEN
 70
     0
  9
$PSLTSCALE
 70
     1
  9
$TREEDEPTH
 70
  3020
  9
$CMLSTYLE
  2
Standard
  9
$CMLJUST
 70
     0
  9
$CMLSCALE
 40
20.0
  9
$PROXYGRAPHICS
 70
     1
  9
$MEASUREMENT
 70
     1
  9
$CELWEIGHT
370
    -1
  9
$ENDCAPS
280
     0
  9
$JOINSTYLE
280
     0
  9
$LWDISPLAY
290
     0
  9
$INSUNITS
 70
     4
  9
$HYPERLINKBASE
  1

  9
$STYLESHEET
  1

  9
$XEDIT
290
     1
  9
$CEPSNTYPE
380
     0
  9
$PSTYLEMODE
290
     1
  9
$FINGERPRINTGUID
  2
{FDEAD578-A652-11D2-9A35-0060089B3A3F}
  9
$VERSIONGUID
  2
{61C15CAC-74E7-494F-A929-B5B6964367B3}
  9
$EXTNAMES
290
     1
  9
$PSVPSCALE
 40
0.0
  9
$OLESTARTUP
290
     0
  0
ENDSEC
  0
SECTION
  2
CLASSES
  0
CLASS
  1
ACDBDICTIONARYWDFLT
  2
AcDbDictionaryWithDefault
  3
AutoCAD 2000
 90
        0
280
     0
281
     0
  0
CLASS
  1
ACDBPLACEHOLDER
  2
AcDbPlaceHolder
  3
AutoCAD 2000
 90
        0
280
     0
281
     0
  0
CLASS
  1
LAYOUT
  2
AcDbLayout
  3
AutoCAD 2000
 90
        0
280
     0
281
     0
  0
CLASS
  1
DICTIONARYVAR
  2
AcDbDictionaryVar
  3
AutoCAD 2000
 90
        0
280
     0
281
     0
  0
ENDSEC
  0
SECTION
  2
TABLES
  0
TABLE
  2
VPORT
  5
8
330
0
100
AcDbSymbolTable
 70
     5
  0
VPORT
  5
90E
330
8
100
AcDbSymbolTableRecord
100
AcDbViewportTableRecord
  2
*Active
 70
     0
 10
0.0
 20
0.0
 11
1.0
 21
1.0
 12
-1.182402832413117
 22
-20.60636852391343
 13
0.0
 23
0.0
 14
10.0
 24
10.0
 15
10.0
 25
10.0
 16
0.0
 26
0.0
 36
1.0
 17
0.0
 27
0.0
 37
0.0
 40
296.6561464273456
 41
1.97051597051597
 42
50.0
 43
0.0
 44
0.0
 50
0.0
 51
0.0
 71
     0
 72
   100
 73
     1
 74
     3
 75
     0
 76
     0
 77
     0
 78
     0
281
     0
 65
     1
110
0.0
120
0.0
130
0.0
111
1.0
121
0.0
131
0.0
112
0.0
122
1.0
132
0.0
 79
     0
146
0.0
  0
ENDTAB
  0
TABLE
  2
LTYPE
  5
5
330
0
100
AcDbSymbolTable
 70
     4
  0
LTYPE
  5
14
330
5
100
AcDbSymbolTableRecord
100
AcDbLinetypeTableRecord
  2
ByBlock
 70
     0
  3

 72
    65
 73
     0
 40
0.0
  0
LTYPE
  5
15
330
5
100
AcDbSymbolTableRecord
100
AcDbLinetypeTableRecord
  2
ByLayer
 70
     0
  3

 72
    65
 73
     0
 40
0.0
  0
LTYPE
  5
16
330
5
100
AcDbSymbolTableRecord
100
AcDbLinetypeTableRecord
  2
Continuous
 70
     0
  3
Solid line
 72
    65
 73
     0
 40
0.0
  0
LTYPE
  5
86
330
5
100
AcDbSymbolTableRecord
100
AcDbLinetypeTableRecord
  2
DASHED
 70
     0
  3
Dashed
 72
    65
 73
     2
 40
15.0
 49
7.0
 74
     0
 49
-8.0
 74
     0
  0
LTYPE
  5
87
330
5
100
AcDbSymbolTableRecord
100
AcDbLinetypeTableRecord
  2
DASH_CENTER
 70
     0
  3
Dash_Center
 72
    65
 73
     4
 40
14.0
 49
11.0
 74
     0
 49
-1.0
 74
     0
 49
1.0
 74
     0
 49
-1.0
 74
     0
  0
LTYPE
  5
88
330
5
100
AcDbSymbolTableRecord
100
AcDbLinetypeTableRecord
  2
PHANTOM
 70
     0
  3
Phantom
 72
    65
 73
     6
 40
13.0
 49
10.0
 74
     0
 49
-1.0
 74
     0
 49
0.0
 74
     0
 49
-1.0
 74
     0
 49
0.0
 74
     0
 49
-1.0
 74
     0
  0
ENDTAB
  0
TABLE
  2
LAYER
  5
2
330
0
100
AcDbSymbolTable
 70
     1
  0
LAYER
  5
10
330
2
100
AcDbSymbolTableRecord
100
AcDbLayerTableRecord
  2
0
 70
     0
 62
     7
  6
Continuous
370
    -3
390
F
  0
ENDTAB
  0
TABLE
  2
STYLE
  5
3
330
0
100
AcDbSymbolTable
 70
    10
  0
STYLE
  5
11
330
3
100
AcDbSymbolTableRecord
100
AcDbTextStyleTableRecord
  2
Standard
 70
     0
 40
0.0
 41
1.0
 50
0.0
 71
     0
 42
2.5
  3
txt
  4

  0
STYLE
  5
89
330
3
100
AcDbSymbolTableRecord
100
AcDbTextStyleTableRecord
  2
CONVERTER_1
 70
     0
 40
0.0
 41
0.7565
 50
0.0
 71
     0
 42
0.2
  3
txt.shx
  4
bigfont.shx
  0
STYLE
  5
8A
330
3
100
AcDbSymbolTableRecord
100
AcDbTextStyleTableRecord
  2
CONVERTER_2
 70
     0
 40
0.0
 41
0.89
 50
0.0
 71
     0
 42
0.2
  3
txt.shx
  4
bigfont.shx
  0
STYLE
  5
8B
330
3
100
AcDbSymbolTableRecord
100
AcDbTextStyleTableRecord
  2
CONVERTER_3
 70
     0
 40
0.0
 41
0.73425
 50
0.0
 71
     0
 42
0.2
  3
txt.shx
  4

  0
STYLE
  5
8C
330
3
100
AcDbSymbolTableRecord
100
AcDbTextStyleTableRecord
  2
CONVERTER_4
 70
     0
 40
0.0
 41
0.7120000000000001
 50
0.0
 71
     0
 42
0.2
  3
txt.shx
  4

  0
STYLE
  5
8D
330
3
100
AcDbSymbolTableRecord
100
AcDbTextStyleTableRecord
  2
CONVERTER_5
 70
     0
 40
0.0
 41
0.85
 50
0.0
 71
     0
 42
0.2
  3
monotxt.shx
  4

  0
STYLE
  5
8E
330
3
100
AcDbSymbolTableRecord
100
AcDbTextStyleTableRecord
  2
CONVERTER_6
 70
     0
 40
0.0
 41
0.7565
 50
0.0
 71
     0
 42
0.2
  3
txt.shx
  4

  0
STYLE
  5
8F
330
3
100
AcDbSymbolTableRecord
100
AcDbTextStyleTableRecord
  2
CONVERTER_7
 70
     0
 40
0.0
 41
0.834375
 50
0.0
 71
     0
 42
0.2
  3
txt.shx
  4
bigfont.shx
  0
STYLE
  5
90
330
3
100
AcDbSymbolTableRecord
100
AcDbTextStyleTableRecord
  2
CONVERTER_12
 70
     0
 40
0.0
 41
0.8009999999999999
 50
0.0
 71
     0
 42
0.2
  3
txt.shx
  4

  0
STYLE
  5
91
330
3
100
AcDbSymbolTableRecord
100
AcDbTextStyleTableRecord
  2
社名
 70
     0
 40
2.5
 41
0.8
 50
0.0
 71
     0
 42
2.5
  3

  4

1001
ACAD
1000
Swis721 Blk BT
1071
       34
  0
ENDTAB
  0
TABLE
  2
VIEW
  5
6
330
0
100
AcDbSymbolTable
 70
     0
  0
ENDTAB
  0
TABLE
  2
UCS
  5
7
330
0
100
AcDbSymbolTable
 70
     0
  0
ENDTAB
  0
TABLE
  2
APPID
  5
9
330
0
100
AcDbSymbolTable
 70
     2
  0
APPID
  5
12
330
9
100
AcDbSymbolTableRecord
100
AcDbRegAppTableRecord
  2
ACAD
 70
     0
  0
APPID
  5
93
330
9
100
AcDbSymbolTableRecord
100
AcDbRegAppTableRecord
  2
ACAD_PSEXT
 70
     0
  0
ENDTAB
  0
TABLE
  2
DIMSTYLE
  5
A
330
0
100
AcDbSymbolTable
 70
     2
100
AcDbDimStyleTable
 71
     0
  0
DIMSTYLE
105
27
330
A
100
AcDbSymbolTableRecord
100
AcDbDimStyleTableRecord
  2
ISO-25
 70
     0
 41
2.5
 42
0.625
 43
3.75
 44
1.25
 73
     0
 74
     0
 77
     1
 78
     8
140
2.5
141
2.5
143
0.03937007874016
147
0.625
171
     3
172
     1
271
     2
272
     2
274
     3
278
    44
283
     0
284
     8
340
11
  0
DIMSTYLE
105
92
330
A
100
AcDbSymbolTableRecord
100
AcDbDimStyleTableRecord
  2
Standard
 70
     0
340
11
  0
ENDTAB
  0
TABLE
  2
BLOCK_RECORD
  5
1
330
0
100
AcDbSymbolTable
 70
     2
  0
BLOCK_RECORD
  5
1F
330
1
100
AcDbSymbolTableRecord
100
AcDbBlockTableRecord
  2
*Model_Space
340
22
  0
BLOCK_RECORD
  5
55
330
1
100
AcDbSymbolTableRecord
100
AcDbBlockTableRecord
  2
*Paper_Space
340
56
  0
BLOCK_RECORD
  5
50
330
1
100
AcDbSymbolTableRecord
100
AcDbBlockTableRecord
  2
*Paper_Space0
340
51
  0
ENDTAB
  0
ENDSEC
  0
SECTION
  2
BLOCKS
  0
BLOCK
  5
20
330
1F
100
AcDbEntity
  8
0
100
AcDbBlockBegin
  2
*Model_Space
 70
     0
 10
0.0
 20
0.0
 30
0.0
  3
*Model_Space
  1

  0
ENDBLK
  5
21
330
1F
100
AcDbEntity
  8
0
100
AcDbBlockEnd
  0
BLOCK
  5
57
330
55
100
AcDbEntity
 67
     1
  8
0
100
AcDbBlockBegin
  2
*Paper_Space
 70
     0
 10
0.0
 20
0.0
 30
0.0
  3
*Paper_Space
  1

  0
ENDBLK
  5
58
330
55
100
AcDbEntity
 67
     1
  8
0
100
AcDbBlockEnd
  0
BLOCK
  5
52
330
50
100
AcDbEntity
  8
0
100
AcDbBlockBegin
  2
*Paper_Space0
 70
     0
 10
0.0
 20
0.0
 30
0.0
  3
*Paper_Space0
  1

  0
VIEWPORT
  5
6B
330
50
100
AcDbEntity
  8
0
100
AcDbViewport
 10
133.3499908447265
 20
101.5999970436096
 30
0.0
 40
381.3957395593834
 41
218.2856291881582
 69
     0
 12
133.3499908447265
 22
101.5999970436096
 13
0.0
 23
0.0
 14
10.0
 24
10.0
 15
10.0
 25
10.0
 16
0.0
 26
0.0
 36
1.0
 17
0.0
 27
0.0
 37
0.0
 42
50.0
 43
0.0
 44
0.0
 45
218.2856291881582
 50
0.0
 51
0.0
 72
   100
 90
    32800
  1

281
     0
 71
     1
 74
     0
110
0.0
120
0.0
130
0.0
111
1.0
121
0.0
131
0.0
112
0.0
122
1.0
132
0.0
 79
     0
146
0.0
  0
VIEWPORT
  5
6D
330
50
100
AcDbEntity
  8
0
100
AcDbViewport
 10
133.349993944168
 20
101.599993944168
 30
0.0
 40
213.3599903106689
 41
162.5599903106689
 69
     0
 12
210.0
 22
148.5
 13
0.0
 23
0.0
 14
10.0
 24
10.0
 15
10.0
 25
10.0
 16
0.0
 26
0.0
 36
1.0
 17
0.0
 27
0.0
 37
0.0
 42
50.0
 43
0.0
 44
0.0
 45
324.0677920111345
 50
0.0
 51
0.0
 72
   100
 90
    32864
  1

281
     0
 71
     1
 74
     0
110
0.0
120
0.0
130
0.0
111
1.0
121
0.0
131
0.0
112
0.0
122
1.0
132
0.0
 79
     0
146
0.0
  0
ENDBLK
  5
53
330
50
100
AcDbEntity
  8
0
100
AcDbBlockEnd
  0
ENDSEC
  0
SECTION
  2
ENTITIES
  0
LINE
  5
532
330
1F
100
AcDbEntity
  8
0
  6
Continuous
 62
     7
100
AcDbLine
 10
-189.78925
 20
55.73621032048873
 30
0.0
 11
-189.8820499999999
 21
55.65441032048855
 31
0.0
  0
LINE
  5
533
330
1F
100
AcDbEntity
  8
0
  6
Continuous
 62
     7
100
AcDbLine
 10
-186.7924500000001
 20
55.73621032048873
 30
0.0
 11
-186.6999499999999
 21
55.65441032048855
 31
0.0
  0
LINE
  5
534
330
1F
100
AcDbEntity
  8
0
  6
Continuous
 62
     7
100
AcDbLine
 10
-186.39665
 20
53.84681032048869
 30
0.0
 11
-186.5043499999998
 21
53.80701032048868
 31
0.0
  0
LINE
  5
535
330
1F
100
AcDbEntity
  8
0
  6
Continuous
 62
     7
100
AcDbLine
 10
-190.18505
 20
53.84681032048869
 30
0.0
 11
-190.0775499999999
 21
53.80701032048868
 31
0.0
  0
LINE
  5
536
330
1F
100
AcDbEntity
  8
0
  6
Continuous
 62
     7
100
AcDbLine
 10
-215.5513701329986
 20
15.78594177787863
 30
0.0
 11
-222.7908999999999
 21
29.9655
 31
0.0
  0
LINE
  5
537
330
1F
100
AcDbEntity
  8
0
  6
Continuous
 62
     7
100
AcDbLine
 10
-218.2232695400824
 20
14.42177406149449
 30
0.0
 11
-222.7908999999999
 21
23.36807074558586
 31
0.0
  0
LINE
  5
538
330
1F
100
AcDbEntity
  8
0
  6
Continuous
 62
     7
100
AcDbLine
 10
-228.7908999999999
 20
23.36807074558586
 30
0.0
 11
-233.3585304599175
 21
14.42177406149449
 31
0.0
  0
LINE
  5
539
330
1F
100
AcDbEntity
  8
0
  6
Continuous
 62
     7
100
AcDbLine
 10
-228.7908999999999
 20
29.9655
 30
0.0
 11
-236.0304298670014
 21
15.78594177787863
 31
0.0
  0
LINE
  5
53A
330
1F
100
AcDbEntity
  8
0
  6
Continuous
 62
     7
100
AcDbLine
 10
-276.6906
 20
29.9655
 30
0.0
 11
-276.6906
 21
49.01549999999999
 31
0.0
  0
LINE
  5
53B
330
1F
100
AcDbEntity
  8
0
  6
Continuous
 62
     7
100
AcDbLine
 10
-266.5908
 20
49.51549999999999
 30
0.0
 11
-276.1906
 21
49.51549999999999
 31
0.0
  0
LINE
  5
53C
330
1F
100
AcDbEntity
  8
0
  6
DASH_CENTER
 62
    30
100
AcDbLine
 10
-273.8093
 20
73.09859999999997
 30
0.0
 11
-260.4351
 21
73.09859999999997
 31
0.0
  0
LINE
  5
53D
330
1F
100
AcDbEntity
  8
0
  6
Continuous
 62
     7
100
AcDbLine
 10
-264.291
 20
29.96529999999999
 30
0.0
 11
-264.291
 21
95.56549999999999
 31
0.0
  0
LINE
  5
53E
330
1F
100
AcDbEntity
  8
0
  6
Continuous
 62
     7
100
AcDbLine
 10
-264.2907
 20
95.46550000000001
 30
0.0
 11
-266.5907
 21
95.46550000000001
 31
0.0
  0
LINE
  5
53F
330
1F
100
AcDbEntity
  8
0
  6
Continuous
 62
     7
100
AcDbLine
 10
-266.5907
 20
95.46550000000001
 30
0.0
 11
-266.5907
 21
29.9655
 31
0.0
  0
LINE
  5
540
330
1F
100
AcDbEntity
  8
0
  6
Continuous
 62
     7
100
AcDbLine
 10
-268.0038
 20
69.72239999999999
 30
0.0
 11
-266.5907
 21
69.59859999999999
 31
0.0
  0
LINE
  5
541
330
1F
100
AcDbEntity
  8
0
  6
Continuous
 62
     7
100
AcDbLine
 10
-269.1906
 20
71.01729999999998
 30
0.0
 11
-269.1906
 21
75.17989999999997
 31
0.0
  0
LINE
  5
542
330
1F
100
AcDbEntity
  8
0
  6
Continuous
 62
     7
100
AcDbLine
 10
-268.0038
 20
76.4751
 30
0.0
 11
-266.5907
 21
76.59859999999998
 31
0.0
  0
LINE
  5
543
330
1F
100
AcDbEntity
  8
0
  6
DASH_CENTER
 62
    30
100
AcDbLine
 10
-125.2748999999999
 20
73.09860000000002
 30
0.0
 11
-105.7028
 21
73.09860000000002
 31
0.0
  0
LINE
  5
544
330
1F
100
AcDbEntity
  8
0
  6
Continuous
 62
     7
100
AcDbLine
 10
-119.1733999999999
 20
69.0484
 30
0.0
 11
-119.491
 21
69.59839999999998
 31
0.0
  0
LINE
  5
545
330
1F
100
AcDbEntity
  8
0
  6
Continuous
 62
     7
100
AcDbLine
 10
-119.1733999999999
 20
77.1485
 30
0.0
 11
-116.6085999999999
 21
77.1485
 31
0.0
  0
LINE
  5
546
330
1F
100
AcDbEntity
  8
0
  6
Continuous
 62
     7
100
AcDbLine
 10
-116.291
 20
76.59839999999999
 30
0.0
 11
-116.291
 21
69.59839999999998
 31
0.0
  0
LINE
  5
547
330
1F
100
AcDbEntity
  8
0
  6
Continuous
 62
     7
100
AcDbLine
 10
-116.6085999999999
 20
69.04859999999999
 30
0.0
 11
-119.1733999999999
 21
69.04859999999999
 31
0.0
  0
LINE
  5
548
330
1F
100
AcDbEntity
  8
0
  6
Continuous
 62
     7
100
AcDbLine
 10
-116.6085999999999
 20
69.0484
 30
0.0
 11
-116.291
 21
69.59839999999998
 31
0.0
  0
LINE
  5
549
330
1F
100
AcDbEntity
  8
0
  6
Continuous
 62
     7
100
AcDbLine
 10
-119.1733999999999
 20
77.1485
 30
0.0
 11
-119.491
 21
76.59839999999999
 31
0.0
  0
LINE
  5
54A
330
1F
100
AcDbEntity
  8
0
  6
Continuous
 62
     7
100
AcDbLine
 10
-116.6085999999999
 20
77.1485
 30
0.0
 11
-116.291
 21
76.59839999999999
 31
0.0
  0
LINE
  5
54B
330
1F
100
AcDbEntity
  8
0
  6
Continuous
 62
     7
100
AcDbLine
 10
-116.291
 20
71.0984
 30
0.0
 11
-111.941
 21
71.0984
 31
0.0
  0
LINE
  5
54C
330
1F
100
AcDbEntity
  8
0
  6
Continuous
 62
     7
100
AcDbLine
 10
-116.291
 20
69.59839999999998
 30
0.0
 11
-116.291
 21
76.59839999999999
 31
0.0
  0
LINE
  5
54D
330
1F
100
AcDbEntity
  8
0
  6
Continuous
 62
     7
100
AcDbLine
 10
-116.6085
 20
75.11919999999998
 30
0.0
 11
-119.1733999999999
 21
75.11919999999998
 31
0.0
  0
LINE
  5
54E
330
1F
100
AcDbEntity
  8
0
  6
Continuous
 62
     7
100
AcDbLine
 10
-116.6085
 20
71.07769999999998
 30
0.0
 11
-119.1733999999999
 21
71.07769999999998
 31
0.0
  0
LINE
  5
54F
330
1F
100
AcDbEntity
  8
0
  6
Continuous
 62
    30
100
AcDbLine
 10
-116.291
 20
71.44849999999998
 30
0.0
 11
-111.5909
 21
71.44849999999998
 31
0.0
  0
LINE
  5
550
330
1F
100
AcDbEntity
  8
0
  6
Continuous
 62
    30
100
AcDbLine
 10
-111.5909
 20
74.74859999999998
 30
0.0
 11
-116.291
 21
74.74859999999998
 31
0.0
  0
LINE
  5
551
330
1F
100
AcDbEntity
  8
0
  6
Continuous
 62
     7
100
AcDbLine
 10
-116.291
 20
75.0984
 30
0.0
 11
-111.941
 21
75.0984
 31
0.0
  0
LINE
  5
552
330
1F
100
AcDbEntity
  8
0
  6
Continuous
 62
     7
100
AcDbLine
 10
-111.5909
 20
71.44849999999998
 30
0.0
 11
-111.5909
 21
74.74859999999998
 31
0.0
  0
LINE
  5
553
330
1F
100
AcDbEntity
  8
0
  6
Continuous
 62
     7
100
AcDbLine
 10
-111.941
 20
75.0984
 30
0.0
 11
-111.941
 21
71.0984
 31
0.0
  0
LINE
  5
554
330
1F
100
AcDbEntity
  8
0
  6
Continuous
 62
     7
100
AcDbLine
 10
-111.5909
 20
74.74859999999998
 30
0.0
 11
-111.941
 21
75.0984
 31
0.0
  0
LINE
  5
555
330
1F
100
AcDbEntity
  8
0
  6
Continuous
 62
     7
100
AcDbLine
 10
-111.941
 20
71.0984
 30
0.0
 11
-111.5909
 21
71.44849999999998
 31
0.0
  0
LINE
  5
556
330
1F
100
AcDbEntity
  8
0
  6
Continuous
 62
     7
100
AcDbLine
 10
-137.791
 20
30.7159
 30
0.0
 11
-158.791
 21
30.7159
 31
0.0
  0
LINE
  5
557
330
1F
100
AcDbEntity
  8
0
  6
Continuous
 62
     7
100
AcDbLine
 10
-121.791
 20
95.46550000000001
 30
0.0
 11
-119.491
 21
95.46550000000001
 31
0.0
  0
LINE
  5
558
330
1F
100
AcDbEntity
  8
0
  6
Continuous
 62
     7
100
AcDbLine
 10
-119.491
 20
95.46550000000001
 30
0.0
 11
-119.491
 21
29.9655
 31
0.0
  0
LINE
  5
559
330
1F
100
AcDbEntity
  8
0
  6
Continuous
 62
     7
100
AcDbLine
 10
-121.791
 20
29.96529999999999
 30
0.0
 11
-121.791
 21
95.56530000000002
 31
0.0
  0
LINE
  5
55A
330
1F
100
AcDbEntity
  8
0
  6
Continuous
 62
     7
100
AcDbLine
 10
-104.791
 20
37.3656
 30
0.0
 11
-107.3150999999999
 21
37.3656
 31
0.0
  0
LINE
  5
55B
330
1F
100
AcDbEntity
  8
0
  6
Continuous
 62
     7
100
AcDbLine
 10
-109.3909999999999
 20
29.9655
 30
0.0
 11
-109.3909999999999
 21
49.01530000000001
 31
0.0
  0
LINE
  5
55C
330
1F
100
AcDbEntity
  8
0
  6
Continuous
 62
     7
100
AcDbLine
 10
-109.8909999999999
 20
10.41569999999999
 30
0.0
 11
-119.491
 21
10.41569999999999
 31
0.0
  0
LINE
  5
55D
330
1F
100
AcDbEntity
  8
0
  6
Continuous
 62
     7
100
AcDbLine
 10
-119.491
 20
29.9655
 30
0.0
 11
-119.491
 21
-35.53450000000001
 31
0.0
  0
LINE
  5
55E
330
1F
100
AcDbEntity
  8
0
  6
Continuous
 62
     7
100
AcDbLine
 10
-121.791
 20
-35.63430000000001
 30
0.0
 11
-121.791
 21
29.9657
 31
0.0
  0
LINE
  5
55F
330
1F
100
AcDbEntity
  8
0
  6
Continuous
 62
     7
100
AcDbLine
 10
-135.791
 20
-16.78409999999999
 30
0.0
 11
-135.791
 21
-15.2841
 31
0.0
  0
LINE
  5
560
330
1F
100
AcDbEntity
  8
0
  6
Continuous
 62
     7
100
AcDbLine
 10
-158.791
 20
14.71589999999999
 30
0.0
 11
-137.791
 21
14.71589999999999
 31
0.0
  0
LINE
  5
561
330
1F
100
AcDbEntity
  8
0
  6
Continuous
 62
     7
100
AcDbLine
 10
-158.791
 20
22.7159
 30
0.0
 11
-137.791
 21
22.7159
 31
0.0
  0
LINE
  5
562
330
1F
100
AcDbEntity
  8
0
  6
Continuous
 62
     7
100
AcDbLine
 10
-137.791
 20
6.715900000000001
 30
0.0
 11
-158.791
 21
6.715900000000001
 31
0.0
  0
LINE
  5
563
330
1F
100
AcDbEntity
  8
0
  6
Continuous
 62
     7
100
AcDbLine
 10
-160.791
 20
-2.284099999999998
 30
0.0
 11
-160.791
 21
-5.284099999999998
 31
0.0
  0
LINE
  5
564
330
1F
100
AcDbEntity
  8
0
  6
Continuous
 62
     7
100
AcDbLine
 10
-160.791
 20
-15.2841
 30
0.0
 11
-160.791
 21
-16.78409999999999
 31
0.0
  0
LINE
  5
565
330
1F
100
AcDbEntity
  8
0
  6
Continuous
 62
     7
100
AcDbLine
 10
-135.791
 20
12.7159
 30
0.0
 11
-135.791
 21
8.715900000000001
 31
0.0
  0
LINE
  5
566
330
1F
100
AcDbEntity
  8
0
  6
Continuous
 62
     7
100
AcDbLine
 10
-160.791
 20
12.7159
 30
0.0
 11
-160.791
 21
8.715900000000001
 31
0.0
  0
LINE
  5
567
330
1F
100
AcDbEntity
  8
0
  6
Continuous
 62
     7
100
AcDbLine
 10
-137.791
 20
-13.28409999999999
 30
0.0
 11
-158.791
 21
-13.28409999999999
 31
0.0
  0
LINE
  5
568
330
1F
100
AcDbEntity
  8
0
  6
Continuous
 62
     7
100
AcDbLine
 10
-160.791
 20
28.7159
 30
0.0
 11
-160.791
 21
24.7159
 31
0.0
  0
LINE
  5
569
330
1F
100
AcDbEntity
  8
0
  6
Continuous
 62
     7
100
AcDbLine
 10
-135.791
 20
28.7157
 30
0.0
 11
-135.791
 21
24.7159
 31
0.0
  0
LINE
  5
56A
330
1F
100
AcDbEntity
  8
0
  6
Continuous
 62
     7
100
AcDbLine
 10
-137.791
 20
7.715900000000001
 30
0.0
 11
-158.791
 21
7.715900000000001
 31
0.0
  0
LINE
  5
56B
330
1F
100
AcDbEntity
  8
0
  6
Continuous
 62
     7
100
AcDbLine
 10
-137.791
 20
-0.2840999999999987
 30
0.0
 11
-158.791
 21
-0.2840999999999987
 31
0.0
  0
LINE
  5
56C
330
1F
100
AcDbEntity
  8
0
  6
Continuous
 62
     7
100
AcDbLine
 10
-137.791
 20
-18.78409999999999
 30
0.0
 11
-158.791
 21
-18.78409999999999
 31
0.0
  0
LINE
  5
56D
330
1F
100
AcDbEntity
  8
0
  6
Continuous
 62
     7
100
AcDbLine
 10
-137.791
 20
-17.2841
 30
0.0
 11
-158.791
 21
-17.2841
 31
0.0
  0
LINE
  5
56E
330
1F
100
AcDbEntity
  8
0
  6
Continuous
 62
     7
100
AcDbLine
 10
-137.791
 20
-6.084100000000002
 30
0.0
 11
-158.791
 21
-6.084100000000002
 31
0.0
  0
LINE
  5
56F
330
1F
100
AcDbEntity
  8
0
  6
Continuous
 62
     7
100
AcDbLine
 10
-137.791
 20
-7.284099999999998
 30
0.0
 11
-158.791
 21
-7.284099999999998
 31
0.0
  0
LINE
  5
570
330
1F
100
AcDbEntity
  8
0
  6
Continuous
 62
     7
100
AcDbLine
 10
-135.791
 20
-2.284099999999998
 30
0.0
 11
-135.791
 21
-5.284099999999998
 31
0.0
  0
LINE
  5
571
330
1F
100
AcDbEntity
  8
0
  6
Continuous
 62
     7
100
AcDbLine
 10
-234.791
 20
-2.284099999999998
 30
0.0
 11
-234.791
 21
-5.284099999999998
 31
0.0
  0
LINE
  5
572
330
1F
100
AcDbEntity
  8
0
  6
Continuous
 62
     7
100
AcDbLine
 10
-234.791
 20
-15.2841
 30
0.0
 11
-234.791
 21
-16.78409999999999
 31
0.0
  0
LINE
  5
573
330
1F
100
AcDbEntity
  8
0
  6
Continuous
 62
     7
100
AcDbLine
 10
-211.791
 20
-13.28409999999999
 30
0.0
 11
-232.791
 21
-13.28409999999999
 31
0.0
  0
LINE
  5
574
330
1F
100
AcDbEntity
  8
0
  6
Continuous
 62
     7
100
AcDbLine
 10
-211.791
 20
-0.2840999999999987
 30
0.0
 11
-232.791
 21
-0.2840999999999987
 31
0.0
  0
LINE
  5
575
330
1F
100
AcDbEntity
  8
0
  6
Continuous
 62
     7
100
AcDbLine
 10
-222.4835
 20
-18.78409999999999
 30
0.0
 11
-232.791
 21
-18.78409999999999
 31
0.0
  0
LINE
  5
576
330
1F
100
AcDbEntity
  8
0
  6
Continuous
 62
     7
100
AcDbLine
 10
-221.3506999999999
 20
-17.2841
 30
0.0
 11
-232.791
 21
-17.2841
 31
0.0
  0
LINE
  5
577
330
1F
100
AcDbEntity
  8
0
  6
Continuous
 62
     7
100
AcDbLine
 10
-211.791
 20
-6.084100000000002
 30
0.0
 11
-232.791
 21
-6.084100000000002
 31
0.0
  0
LINE
  5
578
330
1F
100
AcDbEntity
  8
0
  6
Continuous
 62
     7
100
AcDbLine
 10
-211.791
 20
-7.284099999999998
 30
0.0
 11
-232.791
 21
-7.284099999999998
 31
0.0
  0
LINE
  5
579
330
1F
100
AcDbEntity
  8
0
  6
Continuous
 62
     7
100
AcDbLine
 10
-209.791
 20
-2.284099999999998
 30
0.0
 11
-209.791
 21
-5.284099999999998
 31
0.0
  0
LINE
  5
57A
330
1F
100
AcDbEntity
  8
0
  6
Continuous
 62
     7
100
AcDbLine
 10
-219.7909
 20
-40.03379999999999
 30
0.0
 11
-169.7908999999999
 21
-40.03379999999999
 31
0.0
  0
LINE
  5
57B
330
1F
100
AcDbEntity
  8
0
  6
Continuous
 62
     7
100
AcDbLine
 10
-221.2908999999999
 20
-36.8341
 30
0.0
 11
-168.2908999999999
 21
-36.8336
 31
0.0
  0
LINE
  5
57C
330
1F
100
AcDbEntity
  8
0
  6
Continuous
 62
     7
100
AcDbLine
 10
-167.2908999999999
 20
-37.8336
 30
0.0
 11
-139.7909
 21
-37.8336
 31
0.0
  0
LINE
  5
57D
330
1F
100
AcDbEntity
  8
0
  6
Continuous
 62
     7
100
AcDbLine
 10
-223.8808
 20
-22.68029999999999
 30
0.0
 11
-225.4601
 21
-35.2086
 31
0.0
  0
LINE
  5
57E
330
1F
100
AcDbEntity
  8
0
  6
Continuous
 62
     7
100
AcDbLine
 10
-239.3527
 20
-29.5336
 30
0.0
 11
-231.3585
 21
-29.5336
 31
0.0
  0
LINE
  5
57F
330
1F
100
AcDbEntity
  8
0
  6
Continuous
 62
     7
100
AcDbLine
 10
-219.7909
 20
-41.0338
 30
0.0
 11
-249.7908999999999
 21
-41.03360000000001
 31
0.0
  0
LINE
  5
580
330
1F
100
AcDbEntity
  8
0
  6
Continuous
 62
     7
100
AcDbLine
 10
-145.3683
 20
-33.3622
 30
0.0
 11
-144.6599999999999
 21
-36.30210000000001
 31
0.0
  0
LINE
  5
581
330
1F
100
AcDbEntity
  8
0
  6
Continuous
 62
     7
100
AcDbLine
 10
-244.2135
 20
-33.3622
 30
0.0
 11
-244.9218
 21
-36.30210000000001
 31
0.0
  0
LINE
  5
582
330
1F
100
AcDbEntity
  8
0
  6
Continuous
 62
     7
100
AcDbLine
 10
-169.7908999999999
 20
-41.0338
 30
0.0
 11
-139.7909
 21
-41.03360000000001
 31
0.0
  0
LINE
  5
583
330
1F
100
AcDbEntity
  8
0
  6
Continuous
 62
     7
100
AcDbLine
 10
-150.2290999999999
 20
-29.5336
 30
0.0
 11
-158.2232999999999
 21
-29.5336
 31
0.0
  0
LINE
  5
584
330
1F
100
AcDbEntity
  8
0
  6
Continuous
 62
     7
100
AcDbLine
 10
-222.2909
 20
-37.8336
 30
0.0
 11
-249.7908999999999
 21
-37.8336
 31
0.0
  0
LINE
  5
585
330
1F
100
AcDbEntity
  8
0
  6
Continuous
 62
     7
100
AcDbLine
 10
-175.6095
 20
-14.03379999999999
 30
0.0
 11
-213.9723
 21
-14.03379999999999
 31
0.0
  0
LINE
  5
586
330
1F
100
AcDbEntity
  8
0
  6
Continuous
 62
     7
100
AcDbLine
 10
-165.7010999999999
 20
-22.68029999999999
 30
0.0
 11
-164.1217
 21
-35.2086
 31
0.0
  0
LINE
  5
587
330
1F
100
AcDbEntity
  8
0
  6
Continuous
 62
     7
100
AcDbLine
 10
-264.291
 20
-35.6345
 30
0.0
 11
-264.291
 21
29.9657
 31
0.0
  0
LINE
  5
588
330
1F
100
AcDbEntity
  8
0
  6
Continuous
 62
     7
100
AcDbLine
 10
-104.791
 20
29.9655
 30
0.0
 11
-104.791
 21
37.36569999999999
 31
0.0
  0
LINE
  5
589
330
1F
100
AcDbEntity
  8
0
  6
Continuous
 62
     7
100
AcDbLine
 10
-104.491
 20
36.9655
 30
0.0
 11
-101.791
 21
36.9655
 31
0.0
  0
LINE
  5
58A
330
1F
100
AcDbEntity
  8
0
  6
Continuous
 62
     7
100
AcDbLine
 10
-101.791
 20
35.9655
 30
0.0
 11
-74.79099999999997
 21
35.9655
 31
0.0
  0
LINE
  5
58B
330
1F
100
AcDbEntity
  8
0
  6
Continuous
 62
     7
100
AcDbLine
 10
-75.79100000000003
 20
22.96549999999999
 30
0.0
 11
-75.79100000000003
 21
35.9655
 31
0.0
  0
LINE
  5
58C
330
1F
100
AcDbEntity
  8
0
  6
Continuous
 62
     7
100
AcDbLine
 10
-109.8909999999999
 20
49.5153
 30
0.0
 11
-119.491
 21
49.5153
 31
0.0
  0
LINE
  5
58D
330
1F
100
AcDbEntity
  8
0
  6
Continuous
 62
     7
100
AcDbLine
 10
-109.3909999999999
 20
49.01530000000001
 30
0.0
 11
-109.3909999999999
 21
47.6572
 31
0.0
  0
LINE
  5
58E
330
1F
100
AcDbEntity
  8
0
  6
Continuous
 62
     7
100
AcDbLine
 10
-276.6906
 20
10.91549999999999
 30
0.0
 11
-276.6906
 21
29.9655
 31
0.0
  0
LINE
  5
58F
330
1F
100
AcDbEntity
  8
0
  6
Continuous
 62
     7
100
AcDbLine
 10
-276.6906
 20
49.01559999999999
 30
0.0
 11
-276.6906
 21
47.6572
 31
0.0
  0
LINE
  5
590
330
1F
100
AcDbEntity
  8
0
  6
Continuous
 62
     7
100
AcDbLine
 10
-119.491
 20
-35.53450000000001
 30
0.0
 11
-121.791
 21
-35.53450000000001
 31
0.0
  0
LINE
  5
591
330
1F
100
AcDbEntity
  8
0
  6
Continuous
 62
     7
100
AcDbLine
 10
-276.1906
 20
10.41549999999999
 30
0.0
 11
-266.5908
 21
10.41549999999999
 31
0.0
  0
LINE
  5
592
330
1F
100
AcDbEntity
  8
0
  6
Continuous
 62
     7
100
AcDbLine
 10
-109.3909999999999
 20
10.91569999999999
 30
0.0
 11
-109.3909999999999
 21
29.9655
 31
0.0
  0
LINE
  5
593
330
1F
100
AcDbEntity
  8
0
  6
Continuous
 62
     7
100
AcDbLine
 10
-121.791
 20
-35.63430000000001
 30
0.0
 11
-144.8209
 21
-35.63430000000001
 31
0.0
  0
LINE
  5
594
330
1F
100
AcDbEntity
  8
0
  6
Continuous
 62
     7
100
AcDbLine
 10
-244.7608999999999
 20
-35.6345
 30
0.0
 11
-264.291
 21
-35.6346
 31
0.0
  0
LINE
  5
595
330
1F
100
AcDbEntity
  8
0
  6
Continuous
 62
     7
100
AcDbLine
 10
-266.5907
 20
-35.53450000000001
 30
0.0
 11
-264.2907
 21
-35.53450000000001
 31
0.0
  0
LINE
  5
596
330
1F
100
AcDbEntity
  8
0
  6
Continuous
 62
     7
100
AcDbLine
 10
-266.5907
 20
29.9655
 30
0.0
 11
-266.5907
 21
-35.53450000000001
 31
0.0
  0
LINE
  5
597
330
1F
100
AcDbEntity
  8
0
  6
Continuous
 62
     7
100
AcDbLine
 10
-276.1906
 20
49.5156
 30
0.0
 11
-266.5908
 21
49.5156
 31
0.0
  0
LINE
  5
598
330
1F
100
AcDbEntity
  8
0
  6
Continuous
 62
     7
100
AcDbLine
 10
-104.791
 20
29.9655
 30
0.0
 11
-104.791
 21
22.5654
 31
0.0
  0
LINE
  5
599
330
1F
100
AcDbEntity
  8
0
  6
Continuous
 62
     7
100
AcDbLine
 10
-107.3150999999999
 20
22.5654
 30
0.0
 11
-104.791
 21
22.5654
 31
0.0
  0
LINE
  5
59A
330
1F
100
AcDbEntity
  8
0
  6
DASH_CENTER
 62
    30
100
AcDbLine
 10
-260.4351
 20
-13.1676
 30
0.0
 11
-273.8093
 21
-13.1676
 31
0.0
  0
LINE
  5
59B
330
1F
100
AcDbEntity
  8
0
  6
Continuous
 62
     7
100
AcDbLine
 10
-75.79100000000003
 20
22.96549999999999
 30
0.0
 11
-104.491
 21
22.96549999999999
 31
0.0
  0
LINE
  5
59C
330
1F
100
AcDbEntity
  8
0
  6
Continuous
 62
     7
100
AcDbLine
 10
-75.79100000000003
 20
22.96549999999999
 30
0.0
 11
-74.79099999999997
 21
23.96549999999999
 31
0.0
  0
LINE
  5
59D
330
1F
100
AcDbEntity
  8
0
  6
DASH_CENTER
 62
    30
100
AcDbLine
 10
-105.7028
 20
-13.1676
 30
0.0
 11
-125.2748999999999
 21
-13.1676
 31
0.0
  0
LINE
  5
59E
330
1F
100
AcDbEntity
  8
0
  6
Continuous
 62
     7
100
AcDbLine
 10
-228.7908999999999
 20
9.7437
 30
0.0
 11
-228.7908999999999
 21
29.9655
 31
0.0
  0
LINE
  5
59F
330
1F
100
AcDbEntity
  8
0
  6
Continuous
 62
     7
100
AcDbLine
 10
-225.7909
 20
9.7437
 30
0.0
 11
-225.7909
 21
29.9655
 31
0.0
  0
LINE
  5
5A0
330
1F
100
AcDbEntity
  8
0
  6
Continuous
 62
     7
100
AcDbLine
 10
-119.491
 20
-9.667399999999997
 30
0.0
 11
-119.1733999999999
 21
-9.117399999999999
 31
0.0
  0
LINE
  5
5A1
330
1F
100
AcDbEntity
  8
0
  6
Continuous
 62
     7
100
AcDbLine
 10
-116.6085999999999
 20
-17.21749999999999
 30
0.0
 11
-119.1733999999999
 21
-17.21749999999999
 31
0.0
  0
LINE
  5
5A2
330
1F
100
AcDbEntity
  8
0
  6
Continuous
 62
     7
100
AcDbLine
 10
-116.291
 20
-9.667399999999997
 30
0.0
 11
-116.291
 21
-16.66739999999999
 31
0.0
  0
LINE
  5
5A3
330
1F
100
AcDbEntity
  8
0
  6
Continuous
 62
     7
100
AcDbLine
 10
-119.1733999999999
 20
-9.117599999999999
 30
0.0
 11
-116.6085999999999
 21
-9.117599999999999
 31
0.0
  0
LINE
  5
5A4
330
1F
100
AcDbEntity
  8
0
  6
Continuous
 62
     7
100
AcDbLine
 10
-116.291
 20
-9.667399999999997
 30
0.0
 11
-116.6085999999999
 21
-9.117399999999999
 31
0.0
  0
LINE
  5
5A5
330
1F
100
AcDbEntity
  8
0
  6
Continuous
 62
     7
100
AcDbLine
 10
-119.491
 20
-16.66739999999999
 30
0.0
 11
-119.1733999999999
 21
-17.21749999999999
 31
0.0
  0
LINE
  5
5A6
330
1F
100
AcDbEntity
  8
0
  6
Continuous
 62
     7
100
AcDbLine
 10
-116.291
 20
-16.66739999999999
 30
0.0
 11
-116.6085999999999
 21
-17.21749999999999
 31
0.0
  0
LINE
  5
5A7
330
1F
100
AcDbEntity
  8
0
  6
Continuous
 62
     7
100
AcDbLine
 10
-111.941
 20
-11.16739999999999
 30
0.0
 11
-116.291
 21
-11.16739999999999
 31
0.0
  0
LINE
  5
5A8
330
1F
100
AcDbEntity
  8
0
  6
Continuous
 62
     7
100
AcDbLine
 10
-116.291
 20
-16.66739999999999
 30
0.0
 11
-116.291
 21
-9.667399999999997
 31
0.0
  0
LINE
  5
5A9
330
1F
100
AcDbEntity
  8
0
  6
Continuous
 62
     7
100
AcDbLine
 10
-119.1733999999999
 20
-15.18819999999999
 30
0.0
 11
-116.6085
 21
-15.18819999999999
 31
0.0
  0
LINE
  5
5AA
330
1F
100
AcDbEntity
  8
0
  6
Continuous
 62
     7
100
AcDbLine
 10
-119.1733999999999
 20
-11.1467
 30
0.0
 11
-116.6085
 21
-11.1467
 31
0.0
  0
LINE
  5
5AB
330
1F
100
AcDbEntity
  8
0
  6
Continuous
 62
    30
100
AcDbLine
 10
-111.5909
 20
-11.5175
 30
0.0
 11
-116.291
 21
-11.5175
 31
0.0
  0
LINE
  5
5AC
330
1F
100
AcDbEntity
  8
0
  6
Continuous
 62
    30
100
AcDbLine
 10
-116.291
 20
-14.8176
 30
0.0
 11
-111.5909
 21
-14.8176
 31
0.0
  0
LINE
  5
5AD
330
1F
100
AcDbEntity
  8
0
  6
Continuous
 62
     7
100
AcDbLine
 10
-111.941
 20
-15.16739999999999
 30
0.0
 11
-116.291
 21
-15.16739999999999
 31
0.0
  0
LINE
  5
5AE
330
1F
100
AcDbEntity
  8
0
  6
Continuous
 62
     7
100
AcDbLine
 10
-111.5909
 20
-14.8176
 30
0.0
 11
-111.5909
 21
-11.5175
 31
0.0
  0
LINE
  5
5AF
330
1F
100
AcDbEntity
  8
0
  6
Continuous
 62
     7
100
AcDbLine
 10
-111.941
 20
-11.16739999999999
 30
0.0
 11
-111.941
 21
-15.16739999999999
 31
0.0
  0
LINE
  5
5B0
330
1F
100
AcDbEntity
  8
0
  6
Continuous
 62
     7
100
AcDbLine
 10
-111.941
 20
-15.16739999999999
 30
0.0
 11
-111.5909
 21
-14.8176
 31
0.0
  0
LINE
  5
5B1
330
1F
100
AcDbEntity
  8
0
  6
Continuous
 62
     7
100
AcDbLine
 10
-111.5909
 20
-11.5175
 30
0.0
 11
-111.941
 21
-11.16739999999999
 31
0.0
  0
LINE
  5
5B2
330
1F
100
AcDbEntity
  8
0
  6
Continuous
 62
     7
100
AcDbLine
 10
-104.791
 20
22.4655
 30
0.0
 11
-104.791
 21
22.5654
 31
0.0
  0
LINE
  5
5B3
330
1F
100
AcDbEntity
  8
0
  6
Continuous
 62
     7
100
AcDbLine
 10
-266.5907
 20
-9.667600000000003
 30
0.0
 11
-268.0038
 21
-9.791399999999999
 31
0.0
  0
LINE
  5
5B4
330
1F
100
AcDbEntity
  8
0
  6
Continuous
 62
     7
100
AcDbLine
 10
-269.1906
 20
-15.2489
 30
0.0
 11
-269.1906
 21
-11.08629999999999
 31
0.0
  0
LINE
  5
5B5
330
1F
100
AcDbEntity
  8
0
  6
Continuous
 62
     7
100
AcDbLine
 10
-266.5907
 20
-16.6676
 30
0.0
 11
-268.0038
 21
-16.54409999999999
 31
0.0
  0
LINE
  5
5B6
330
1F
100
AcDbEntity
  8
0
  6
Continuous
 62
     7
100
AcDbLine
 10
-222.7908999999999
 20
9.7437
 30
0.0
 11
-222.7908999999999
 21
29.9655
 31
0.0
  0
LINE
  5
5B7
330
1F
100
AcDbEntity
  8
0
  6
DASH_CENTER
 62
    30
100
AcDbLine
 10
-59.6867
 20
29.9655
 30
0.0
 11
-292.3668999999999
 21
29.9655
 31
0.0
  0
LINE
  5
5B8
330
1F
100
AcDbEntity
  8
0
  6
Continuous
 62
     7
100
AcDbLine
 10
-101.791
 20
35.9655
 30
0.0
 11
-101.791
 21
36.9655
 31
0.0
  0
LINE
  5
5B9
330
1F
100
AcDbEntity
  8
0
  6
Continuous
 62
     7
100
AcDbLine
 10
-74.79099999999997
 20
23.96549999999999
 30
0.0
 11
-74.79099999999997
 21
35.9655
 31
0.0
  0
LINE
  5
5BA
330
1F
100
AcDbEntity
  8
0
  6
Continuous
 62
     7
100
AcDbLine
 10
-219.7909
 20
-40.03379999999999
 30
0.0
 11
-219.7909
 21
-41.0338
 31
0.0
  0
LINE
  5
5BB
330
1F
100
AcDbEntity
  8
0
  6
Continuous
 62
     7
100
AcDbLine
 10
-249.7908999999999
 20
-37.8336
 30
0.0
 11
-249.7908999999999
 21
-41.03360000000001
 31
0.0
  0
LINE
  5
5BC
330
1F
100
AcDbEntity
  8
0
  6
DASH_CENTER
 62
    30
100
AcDbLine
 10
-149.7908999999999
 20
-34.1974
 30
0.0
 11
-149.7908999999999
 21
-44.51749999999999
 31
0.0
  0
LINE
  5
5BD
330
1F
100
AcDbEntity
  8
0
  6
DASH_CENTER
 62
    30
100
AcDbLine
 10
-239.7908999999999
 20
-34.1974
 30
0.0
 11
-239.7908999999999
 21
-44.51749999999999
 31
0.0
  0
LINE
  5
5BE
330
1F
100
AcDbEntity
  8
0
  6
Continuous
 62
     7
100
AcDbLine
 10
-139.7909
 20
-37.8336
 30
0.0
 11
-139.7909
 21
-41.03360000000001
 31
0.0
  0
LINE
  5
5BF
330
1F
100
AcDbEntity
  8
0
  6
Continuous
 62
     7
100
AcDbLine
 10
-169.7908999999999
 20
-40.03379999999999
 30
0.0
 11
-169.7908999999999
 21
-41.0338
 31
0.0
  0
LINE
  5
5C0
330
1F
100
AcDbEntity
  8
0
  6
Continuous
 62
     7
100
AcDbLine
 10
-224.7397618436318
 20
61.4058358525785
 30
0.0
 11
-151.8421381563681
 21
61.4058358525785
 31
0.0
  0
LINE
  5
5C1
330
1F
100
AcDbEntity
  8
0
  6
Continuous
 62
     7
100
AcDbLine
 10
-151.79095
 20
57.4756
 30
0.0
 11
-169.197883889236
 21
57.4756
 31
0.0
  0
LINE
  5
5C2
330
1F
100
AcDbEntity
  8
0
  6
Continuous
 62
     7
100
AcDbLine
 10
-207.3840161107638
 20
57.4756
 30
0.0
 11
-224.79095
 21
57.4756
 31
0.0
  0
LINE
  5
5C3
330
1F
100
AcDbEntity
  8
0
  6
Continuous
 62
     7
100
AcDbLine
 10
-152.2402805784862
 20
110.4939852468364
 30
0.0
 11
-224.3416194215136
 21
110.4939852468364
 31
0.0
  0
LINE
  5
5C4
330
1F
100
AcDbEntity
  8
0
  6
Continuous
 62
     7
100
AcDbLine
 10
-229.3413600675402
 20
105.5449113940605
 30
0.0
 11
-229.7395024896582
 21
66.45676199980265
 31
0.0
  0
LINE
  5
5C5
330
1F
100
AcDbEntity
  8
0
  6
Continuous
 62
     7
100
AcDbLine
 10
-146.8423975103415
 20
66.45676199980264
 30
0.0
 11
-147.2405399324598
 21
105.5449113940605
 31
0.0
  0
LINE
  5
5C6
330
1F
100
AcDbEntity
  8
0
  6
Continuous
 62
     7
100
AcDbLine
 10
-121.791000000003
 20
95.56539971850808
 30
0.0
 11
-147.149077165011
 21
95.5654354089756
 31
0.0
  0
LINE
  5
5C7
330
1F
100
AcDbEntity
  8
0
  6
Continuous
 62
     7
100
AcDbLine
 10
-229.4328216553658
 20
95.5655512200164
 30
0.0
 11
-264.091
 21
95.56560000000001
 31
0.0
  0
LINE
  5
5C8
330
1F
100
AcDbEntity
  8
0
  6
DASH_CENTER
 62
    30
100
AcDbLine
 10
-188.29095
 20
64.312159010336
 30
0.0
 11
-188.29095
 21
46.964473810387
 31
0.0
  0
LINE
  5
5C9
330
1F
100
AcDbEntity
  8
0
  6
DASH_CENTER
 62
    30
100
AcDbLine
 10
-194.791
 20
124.131763148091
 30
0.0
 11
-194.791
 21
-57.33250000000001
 31
0.0
  0
LINE
  5
5CA
330
1F
100
AcDbEntity
  8
0
  6
Continuous
 62
     7
100
AcDbLine
 10
-151.79095
 20
57.23949999999999
 30
0.0
 11
-169.197883889236
 21
57.23949999999999
 31
0.0
  0
LINE
  5
5CB
330
1F
100
AcDbEntity
  8
0
  6
Continuous
 62
     7
100
AcDbLine
 10
-207.3840161107638
 20
57.23949999999999
 30
0.0
 11
-224.79095
 21
57.23949999999999
 31
0.0
  0
LINE
  5
5CC
330
1F
100
AcDbEntity
  8
0
  6
Continuous
 62
     7
100
AcDbLine
 10
-143.79095
 20
84.3989
 30
0.0
 11
-143.79095
 21
65.4756
 31
0.0
  0
LINE
  5
5CD
330
1F
100
AcDbEntity
  8
0
  6
Continuous
 62
     7
100
AcDbLine
 10
-232.79095
 20
84.3989
 30
0.0
 11
-232.79095
 21
65.47560000000001
 31
0.0
  0
LINE
  5
5CE
330
1F
100
AcDbEntity
  8
0
  6
DASH_CENTER
 62
    30
100
AcDbLine
 10
-193.6213923403509
 20
54.96371032048868
 30
0.0
 11
-182.153068408172
 21
54.96371032048868
 31
0.0
  0
LINE
  5
5CF
330
1F
100
AcDbEntity
  8
0
  6
DASHED
 62
    30
100
AcDbLine
 10
-226.291
 20
88.87919999999999
 30
0.0
 11
-163.291
 21
88.87919999999999
 31
0.0
  0
LINE
  5
5D0
330
1F
100
AcDbEntity
  8
0
  6
DASHED
 62
    30
100
AcDbLine
 10
-163.291
 20
88.87919999999999
 30
0.0
 11
-163.291
 21
60.59499999999999
 31
0.0
  0
LINE
  5
5D1
330
1F
100
AcDbEntity
  8
0
  6
DASHED
 62
    30
100
AcDbLine
 10
-163.291
 20
60.59499999999999
 30
0.0
 11
-226.291
 21
60.59499999999999
 31
0.0
  0
LINE
  5
5D2
330
1F
100
AcDbEntity
  8
0
  6
DASHED
 62
    30
100
AcDbLine
 10
-226.291
 20
60.59499999999999
 30
0.0
 11
-226.291
 21
88.87919999999999
 31
0.0
  0
ARC
  5
5D3
330
1F
100
AcDbEntity
  8
0
  6
Continuous
 62
     7
100
AcDbCircle
 10
-188.2906999999999
 20
53.18811032048855
 30
0.0
 40
3.587656063852928
100
AcDbArc
 50
22.27828375577308
 51
157.7217162442267
  0
ARC
  5
5D4
330
1F
100
AcDbEntity
  8
0
  6
Continuous
 62
     7
100
AcDbCircle
 10
-188.2906999999999
 20
55.56771032048853
 30
0.0
 40
3.856234609369629
100
AcDbArc
 50
213.7176772666642
 51
326.2823227333357
  0
ARC
  5
5D5
330
1F
100
AcDbEntity
  8
0
  6
Continuous
 62
     7
100
AcDbCircle
 10
-186.0812494821585
 20
54.09311549521053
 30
0.0
 40
1.200040961789629
100
AcDbArc
 50
326.284553311569
 51
22.28616507362261
  0
ARC
  5
5D6
330
1F
100
AcDbEntity
  8
0
  6
Continuous
 62
     7
100
AcDbCircle
 10
-190.5001523832656
 20
54.09313413190485
 30
0.0
 40
1.199994249747653
100
AcDbArc
 50
157.7190425293811
 51
213.712264707862
  0
ARC
  5
5D7
330
1F
100
AcDbEntity
  8
0
  6
Continuous
 62
     7
100
AcDbCircle
 10
-191.3697705575815
 20
48.26898033184455
 30
0.0
 40
7.694386006787798
100
AcDbArc
 50
67.64334083504078
 51
77.13477151281484
  0
ARC
  5
5D8
330
1F
100
AcDbEntity
  8
0
  6
Continuous
 62
     7
100
AcDbCircle
 10
-191.3699769630129
 20
48.26903020512687
 30
0.0
 40
7.294368257315444
100
AcDbArc
 50
70.94505451667739
 51
77.68709755117885
  0
ARC
  5
5D9
330
1F
100
AcDbEntity
  8
0
  6
Continuous
 62
     7
100
AcDbCircle
 10
-189.6899438367736
 20
55.62388803681042
 30
0.0
 40
0.1499929354939959
100
AcDbArc
 50
75.20838473066426
 51
131.5090980829131
  0
ARC
  5
5DA
330
1F
100
AcDbEntity
  8
0
  6
Continuous
 62
     7
100
AcDbCircle
 10
-189.7826399863344
 20
55.54187178349895
 30
0.0
 40
0.1500163438250031
100
AcDbArc
 50
131.4521724219709
 51
257.6796824135404
  0
ARC
  5
5DB
330
1F
100
AcDbEntity
  8
0
  6
Continuous
 62
     7
100
AcDbCircle
 10
-185.2120810992119
 20
48.26892966311028
 30
0.0
 40
7.294313759352482
100
AcDbArc
 50
102.3109211263308
 51
109.0512867894181
  0
ARC
  5
5DC
330
1F
100
AcDbEntity
  8
0
  6
Continuous
 62
     7
100
AcDbCircle
 10
-186.7992693161598
 20
55.54183587278945
 30
0.0
 40
0.1499832460124073
100
AcDbArc
 50
282.3267166244917
 51
48.58287789320334
  0
ARC
  5
5DD
330
1F
100
AcDbEntity
  8
0
  6
Continuous
 62
     7
100
AcDbCircle
 10
-185.2122467481988
 20
48.26887957881854
 30
0.0
 40
7.694358499881217
100
AcDbArc
 50
102.9010452385163
 51
112.3541885861123
  0
ARC
  5
5DE
330
1F
100
AcDbEntity
  8
0
  6
Continuous
 62
     7
100
AcDbCircle
 10
-185.2121860341286
 20
48.26888655870999
 30
0.0
 40
7.294329315511893
100
AcDbArc
 50
116.5215072174709
 51
130.2821468822231
  0
ARC
  5
5DF
330
1F
100
AcDbEntity
  8
0
  6
Continuous
 62
     7
100
AcDbCircle
 10
-191.3695139658717
 20
48.26888655871012
 30
0.0
 40
7.294329315511909
100
AcDbArc
 50
49.71785311777659
 51
63.47849278252715
  0
ARC
  5
5E0
330
1F
100
AcDbEntity
  8
0
  6
Continuous
 62
     7
100
AcDbCircle
 10
-188.29095
 20
54.43761032048865
 30
0.0
 40
0.3999879623188507
100
AcDbArc
 50
63.47979121722669
 51
116.5202087827696
  0
ARC
  5
5E1
330
1F
100
AcDbEntity
  8
0
  6
Continuous
 62
     7
100
AcDbCircle
 10
-188.291
 20
55.75481032048859
 30
0.0
 40
0.4000620233162869
100
AcDbArc
 50
247.6467404179256
 51
292.3532595820743
  0
ARC
  5
5E2
330
1F
100
AcDbEntity
  8
0
  6
Continuous
 62
     7
100
AcDbCircle
 10
-191.3698379217333
 20
48.26911180850653
 30
0.0
 40
7.694333738960379
100
AcDbArc
 50
49.28698272308494
 51
60.74425583574541
  0
ARC
  5
5E3
330
1F
100
AcDbEntity
  8
0
  6
Continuous
 62
     7
100
AcDbCircle
 10
-187.5604531511378
 20
55.06897495771877
 30
0.0
 40
0.1000300891708905
100
AcDbArc
 50
109.0789151821379
 51
240.7368545689814
  0
ARC
  5
5E4
330
1F
100
AcDbEntity
  8
0
  6
Continuous
 62
     7
100
AcDbCircle
 10
-185.211862078266
 20
48.26911180850705
 30
0.0
 40
7.694333738960293
100
AcDbArc
 50
119.2557441642619
 51
130.7130172769212
  0
ARC
  5
5E5
330
1F
100
AcDbEntity
  8
0
  6
Continuous
 62
     7
100
AcDbCircle
 10
-189.0211476366465
 20
55.06898379841118
 30
0.0
 40
0.0999893458873725
100
AcDbArc
 50
299.2110736788486
 51
70.97315657022743
  0
ARC
  5
5E6
330
1F
100
AcDbEntity
  8
0
  6
Continuous
 62
     7
100
AcDbCircle
 10
-186.5563365596834
 20
53.94790794813737
 30
0.0
 40
0.1499947492871639
100
AcDbArc
 50
229.7008166382813
 51
290.2788364714614
  0
ARC
  5
5E7
330
1F
100
AcDbEntity
  8
0
  6
Continuous
 62
     7
100
AcDbCircle
 10
-186.4486527281081
 20
53.9873951669799
 30
0.0
 40
0.1499883654251912
100
AcDbArc
 50
290.2863221988825
 51
49.30223995816663
  0
ARC
  5
5E8
330
1F
100
AcDbEntity
  8
0
  6
Continuous
 62
     7
100
AcDbCircle
 10
-190.0255972879048
 20
53.94790197929541
 30
0.0
 40
0.1500120918268036
100
AcDbArc
 50
249.696673151375
 51
310.3105175841459
  0
ARC
  5
5E9
330
1F
100
AcDbEntity
  8
0
  6
Continuous
 62
     7
100
AcDbCircle
 10
-190.133047271892
 20
53.9873951669799
 30
0.0
 40
0.1499883654251871
100
AcDbArc
 50
130.6977600418333
 51
249.7136778011174
  0
ARC
  5
5EA
330
1F
100
AcDbEntity
  8
0
  6
Continuous
 62
     7
100
AcDbCircle
 10
-186.8917508249386
 20
55.62391051638918
 30
0.0
 40
0.1499725641551748
100
AcDbArc
 50
48.48673746596698
 51
104.7957797204435
  0
ARC
  5
5EB
330
1F
100
AcDbEntity
  8
0
  6
Continuous
 62
     7
100
AcDbCircle
 10
-225.791
 20
29.9655
 30
0.0
 40
13.49994772508396
100
AcDbArc
 50
244.3459373366713
 51
257.1607963246687
  0
ARC
  5
5EC
330
1F
100
AcDbEntity
  8
0
  6
Continuous
 62
     7
100
AcDbCircle
 10
-225.791
 20
29.9655
 30
0.0
 40
13.49994772508398
100
AcDbArc
 50
308.4627792970215
 51
231.5379919554526
  0
ARC
  5
5ED
330
1F
100
AcDbEntity
  8
0
  6
Continuous
 62
     7
100
AcDbCircle
 10
-225.791
 20
29.9655
 30
0.0
 40
13.49994772508397
100
AcDbArc
 50
282.8400742735519
 51
295.6548188825149
  0
ARC
  5
5EE
330
1F
100
AcDbEntity
  8
0
  6
Continuous
 62
    30
100
AcDbCircle
 10
-216.8100469334751
 20
16.60186623022821
 30
0.0
 40
1.5
100
AcDbArc
 50
267.0470854536314
 51
327.0470854536327
  0
ARC
  5
5EF
330
1F
100
AcDbEntity
  8
0
  6
Continuous
 62
    30
100
AcDbCircle
 10
-218.1459966370172
 20
15.91978237203614
 30
0.0
 40
1.499999999999995
100
AcDbArc
 50
267.0470854536346
 51
327.0470854536327
  0
ARC
  5
5F0
330
1F
100
AcDbEntity
  8
0
  6
Continuous
 62
    30
100
AcDbCircle
 10
-215.6286430360639
 20
14.28793346733697
 30
0.0
 40
1.500000000000004
100
AcDbArc
 50
87.04708545363635
 51
147.0470854536353
  0
ARC
  5
5F1
330
1F
100
AcDbEntity
  8
0
  6
Continuous
 62
    30
100
AcDbCircle
 10
-234.7717530665248
 20
16.60186623022821
 30
0.0
 40
1.499999999999985
100
AcDbArc
 50
212.9529145463672
 51
272.9529145463701
  0
ARC
  5
5F2
330
1F
100
AcDbEntity
  8
0
  6
Continuous
 62
    30
100
AcDbCircle
 10
-233.4358033629828
 20
15.91978237203614
 30
0.0
 40
1.499999999999985
100
AcDbArc
 50
212.9529145463672
 51
272.9529145463652
  0
ARC
  5
5F3
330
1F
100
AcDbEntity
  8
0
  6
Continuous
 62
    30
100
AcDbCircle
 10
-235.953156963936
 20
14.28793346733697
 30
0.0
 40
1.500000000000014
100
AcDbArc
 50
32.95291454636704
 51
92.95291454636853
  0
ARC
  5
5F4
330
1F
100
AcDbEntity
  8
0
  6
Continuous
 62
     7
100
AcDbCircle
 10
-224.2909
 20
29.9655
 30
0.0
 40
1.5
100
AcDbArc
 50
0.0
 51
180.0
  0
ARC
  5
5F5
330
1F
100
AcDbEntity
  8
0
  6
Continuous
 62
     7
100
AcDbCircle
 10
-227.2908999999999
 20
29.9655
 30
0.0
 40
1.5
100
AcDbArc
 50
0.0
 51
180.0
  0
ARC
  5
5F6
330
1F
100
AcDbEntity
  8
0
  6
Continuous
 62
     7
100
AcDbCircle
 10
-225.7909
 20
29.9655
 30
0.0
 40
3.0
100
AcDbArc
 50
0.0
 51
180.0
  0
ARC
  5
5F7
330
1F
100
AcDbEntity
  8
0
  6
Continuous
 62
     7
100
AcDbCircle
 10
-267.890776750911
 20
71.01727462720553
 30
0.0
 40
1.30002324933661
100
AcDbArc
 50
179.9988817476629
 51
264.9991701575255
  0
ARC
  5
5F8
330
1F
100
AcDbEntity
  8
0
  6
Continuous
 62
     7
100
AcDbCircle
 10
-267.8908265608043
 20
75.17987101521734
 30
0.0
 40
1.299973439518819
100
AcDbArc
 50
94.99881820689502
 51
179.998722507964
  0
ARC
  5
5F9
330
1F
100
AcDbEntity
  8
0
  6
Continuous
 62
     7
100
AcDbCircle
 10
-112.9027104186945
 20
69.0568470954077
 30
0.0
 40
6.588277034786307
100
AcDbArc
 50
162.1374444196878
 51
175.5807522366351
  0
ARC
  5
5FA
330
1F
100
AcDbEntity
  8
0
  6
Continuous
 62
     7
100
AcDbCircle
 10
-112.9027104186945
 20
77.1400529045923
 30
0.0
 40
6.588277034786307
100
AcDbArc
 50
184.4192477633648
 51
197.8625555803121
  0
ARC
  5
5FB
330
1F
100
AcDbEntity
  8
0
  6
Continuous
 62
     7
100
AcDbCircle
 10
-112.9027000038392
 20
73.09855516281477
 30
0.0
 40
6.588287640269252
100
AcDbArc
 50
162.140288951813
 51
197.862546490335
  0
ARC
  5
5FC
330
1F
100
AcDbEntity
  8
0
  6
Continuous
 62
     7
100
AcDbCircle
 10
-122.8793617729355
 20
69.05721375840485
 30
0.0
 40
6.588328469933762
100
AcDbArc
 50
4.416887231981299
 51
17.8590612583911
  0
ARC
  5
5FD
330
1F
100
AcDbEntity
  8
0
  6
Continuous
 62
     7
100
AcDbCircle
 10
-122.8793681231902
 20
77.1396539643791
 30
0.0
 40
6.58832461560741
100
AcDbArc
 50
342.1412228528692
 51
355.584263961768
  0
ARC
  5
5FE
330
1F
100
AcDbEntity
  8
0
  6
Continuous
 62
     7
100
AcDbCircle
 10
-122.8793
 20
73.0984
 30
0.0
 40
6.588335232059761
100
AcDbArc
 50
342.1390046073212
 51
17.86099539267873
  0
ARC
  5
5FF
330
1F
100
AcDbEntity
  8
0
  6
Continuous
 62
     7
100
AcDbCircle
 10
-137.791
 20
28.7159
 30
0.0
 40
2.0
100
AcDbArc
 50
0.0
 51
90.0
  0
ARC
  5
600
330
1F
100
AcDbEntity
  8
0
  6
Continuous
 62
     7
100
AcDbCircle
 10
-158.791
 20
28.7159
 30
0.0
 40
2.0
100
AcDbArc
 50
90.0
 51
180.0
  0
ARC
  5
601
330
1F
100
AcDbEntity
  8
0
  6
Continuous
 62
     7
100
AcDbCircle
 10
-229.3909980491543
 20
29.96546984418356
 30
0.0
 40
122.299998049158
100
AcDbArc
 50
0.0000141275636561
 51
7.40284820515617
  0
ARC
  5
602
330
1F
100
AcDbEntity
  8
0
  6
Continuous
 62
     7
100
AcDbCircle
 10
-211.7909262675314
 20
-15.28413540915486
 30
0.0
 40
2.000035410513949
100
AcDbArc
 50
38.6936850441751
 51
90.00211224223336
  0
ARC
  5
603
330
1F
100
AcDbEntity
  8
0
  6
Continuous
 62
     7
100
AcDbCircle
 10
-158.791
 20
-15.2841
 30
0.0
 40
2.0
100
AcDbArc
 50
90.0
 51
180.0
  0
ARC
  5
604
330
1F
100
AcDbEntity
  8
0
  6
Continuous
 62
     7
100
AcDbCircle
 10
-158.791
 20
-5.284099999999998
 30
0.0
 40
2.0
100
AcDbArc
 50
180.0
 51
270.0
  0
ARC
  5
605
330
1F
100
AcDbEntity
  8
0
  6
Continuous
 62
     7
100
AcDbCircle
 10
-137.791
 20
9.715900000000001
 30
0.0
 40
1.999999999999999
100
AcDbArc
 50
270.0
 51
0.0
  0
ARC
  5
606
330
1F
100
AcDbEntity
  8
0
  6
Continuous
 62
     7
100
AcDbCircle
 10
-158.791
 20
-15.2841
 30
0.0
 40
2.0
100
AcDbArc
 50
180.0
 51
270.0
  0
ARC
  5
607
330
1F
100
AcDbEntity
  8
0
  6
Continuous
 62
     7
100
AcDbCircle
 10
-137.791
 20
-4.084100000000002
 30
0.0
 40
2.0
100
AcDbArc
 50
270.0
 51
0.0
  0
ARC
  5
608
330
1F
100
AcDbEntity
  8
0
  6
Continuous
 62
     7
100
AcDbCircle
 10
-137.791
 20
-15.2841
 30
0.0
 40
1.999999999999998
100
AcDbArc
 50
270.0
 51
0.0
  0
ARC
  5
609
330
1F
100
AcDbEntity
  8
0
  6
Continuous
 62
     7
100
AcDbCircle
 10
-158.791
 20
9.715900000000001
 30
0.0
 40
2.0
100
AcDbArc
 50
180.0
 51
270.0
  0
ARC
  5
60A
330
1F
100
AcDbEntity
  8
0
  6
Continuous
 62
     7
100
AcDbCircle
 10
-158.791
 20
-4.084100000000002
 30
0.0
 40
2.0
100
AcDbArc
 50
180.0
 51
270.0
  0
ARC
  5
60B
330
1F
100
AcDbEntity
  8
0
  6
Continuous
 62
     7
100
AcDbCircle
 10
-158.791
 20
-16.78409999999999
 30
0.0
 40
2.0
100
AcDbArc
 50
180.0
 51
270.0
  0
ARC
  5
60C
330
1F
100
AcDbEntity
  8
0
  6
Continuous
 62
     7
100
AcDbCircle
 10
-137.791
 20
-16.78409999999999
 30
0.0
 40
2.0
100
AcDbArc
 50
270.0
 51
0.0
  0
ARC
  5
60D
330
1F
100
AcDbEntity
  8
0
  6
Continuous
 62
     7
100
AcDbCircle
 10
-137.791
 20
-2.284099999999998
 30
0.0
 40
2.0
100
AcDbArc
 50
0.0
 51
90.0
  0
ARC
  5
60E
330
1F
100
AcDbEntity
  8
0
  6
Continuous
 62
     7
100
AcDbCircle
 10
-158.791
 20
-2.284099999999998
 30
0.0
 40
2.0
100
AcDbArc
 50
90.0
 51
180.0
  0
ARC
  5
60F
330
1F
100
AcDbEntity
  8
0
  6
Continuous
 62
     7
100
AcDbCircle
 10
-158.791
 20
12.7159
 30
0.0
 40
2.0
100
AcDbArc
 50
90.0
 51
180.0
  0
ARC
  5
610
330
1F
100
AcDbEntity
  8
0
  6
Continuous
 62
     7
100
AcDbCircle
 10
-158.791
 20
8.715900000000001
 30
0.0
 40
2.0
100
AcDbArc
 50
180.0
 51
270.0
  0
ARC
  5
611
330
1F
100
AcDbEntity
  8
0
  6
Continuous
 62
     7
100
AcDbCircle
 10
-137.791
 20
8.715900000000001
 30
0.0
 40
1.999999999999999
100
AcDbArc
 50
270.0
 51
0.0
  0
ARC
  5
612
330
1F
100
AcDbEntity
  8
0
  6
Continuous
 62
     7
100
AcDbCircle
 10
-137.791
 20
12.7159
 30
0.0
 40
2.0
100
AcDbArc
 50
0.0
 51
90.0
  0
ARC
  5
613
330
1F
100
AcDbEntity
  8
0
  6
Continuous
 62
     7
100
AcDbCircle
 10
-137.791
 20
24.7159
 30
0.0
 40
2.0
100
AcDbArc
 50
270.0
 51
0.0
  0
ARC
  5
614
330
1F
100
AcDbEntity
  8
0
  6
Continuous
 62
     7
100
AcDbCircle
 10
-158.791
 20
24.7159
 30
0.0
 40
2.0
100
AcDbArc
 50
180.0
 51
270.0
  0
ARC
  5
615
330
1F
100
AcDbEntity
  8
0
  6
Continuous
 62
     7
100
AcDbCircle
 10
-137.791
 20
-15.2841
 30
0.0
 40
2.0
100
AcDbArc
 50
0.0
 51
90.0
  0
ARC
  5
616
330
1F
100
AcDbEntity
  8
0
  6
Continuous
 62
     7
100
AcDbCircle
 10
-137.791
 20
-5.284099999999998
 30
0.0
 40
2.0
100
AcDbArc
 50
270.0
 51
0.0
  0
ARC
  5
617
330
1F
100
AcDbEntity
  8
0
  6
Continuous
 62
     7
100
AcDbCircle
 10
-232.791
 20
-15.2841
 30
0.0
 40
2.0
100
AcDbArc
 50
90.0
 51
180.0
  0
ARC
  5
618
330
1F
100
AcDbEntity
  8
0
  6
Continuous
 62
     7
100
AcDbCircle
 10
-232.791
 20
-5.284099999999998
 30
0.0
 40
2.0
100
AcDbArc
 50
180.0
 51
270.0
  0
ARC
  5
619
330
1F
100
AcDbEntity
  8
0
  6
Continuous
 62
     7
100
AcDbCircle
 10
-232.791
 20
-15.2841
 30
0.0
 40
2.0
100
AcDbArc
 50
180.0
 51
270.0
  0
ARC
  5
61A
330
1F
100
AcDbEntity
  8
0
  6
Continuous
 62
     7
100
AcDbCircle
 10
-211.791
 20
-4.084100000000002
 30
0.0
 40
2.0
100
AcDbArc
 50
270.0
 51
0.0
  0
ARC
  5
61B
330
1F
100
AcDbEntity
  8
0
  6
Continuous
 62
     7
100
AcDbCircle
 10
-232.791
 20
-4.084100000000002
 30
0.0
 40
2.0
100
AcDbArc
 50
180.0
 51
270.0
  0
ARC
  5
61C
330
1F
100
AcDbEntity
  8
0
  6
Continuous
 62
     7
100
AcDbCircle
 10
-232.791
 20
-16.78409999999999
 30
0.0
 40
2.0
100
AcDbArc
 50
180.0
 51
270.0
  0
ARC
  5
61D
330
1F
100
AcDbEntity
  8
0
  6
Continuous
 62
     7
100
AcDbCircle
 10
-211.791
 20
-2.284099999999998
 30
0.0
 40
2.0
100
AcDbArc
 50
0.0
 51
90.0
  0
ARC
  5
61E
330
1F
100
AcDbEntity
  8
0
  6
Continuous
 62
     7
100
AcDbCircle
 10
-232.791
 20
-2.284099999999998
 30
0.0
 40
2.0
100
AcDbArc
 50
90.0
 51
180.0
  0
ARC
  5
61F
330
1F
100
AcDbEntity
  8
0
  6
Continuous
 62
     7
100
AcDbCircle
 10
-211.791
 20
-5.284099999999998
 30
0.0
 40
2.0
100
AcDbArc
 50
270.0
 51
0.0
  0
ARC
  5
620
330
1F
100
AcDbEntity
  8
0
  6
Continuous
 62
     7
100
AcDbCircle
 10
-175.6094953901593
 20
-24.03380406524622
 30
0.0
 40
10.0000040652473
100
AcDbArc
 50
7.184241258197967
 51
90.00002641243177
  0
ARC
  5
621
330
1F
100
AcDbEntity
  8
0
  6
Continuous
 62
     7
100
AcDbCircle
 10
-150.2291431451744
 20
-34.53356601589671
 30
0.0
 40
4.999966016082846
100
AcDbArc
 50
13.54769959293846
 51
89.99950558935898
  0
ARC
  5
622
330
1F
100
AcDbEntity
  8
0
  6
Continuous
 62
     7
100
AcDbCircle
 10
-221.2908999999999
 20
-37.3336
 30
0.0
 40
0.5
100
AcDbArc
 50
90.0
 51
180.0
  0
ARC
  5
623
330
1F
100
AcDbEntity
  8
0
  6
Continuous
 62
     7
100
AcDbCircle
 10
-222.290900005
 20
-37.33360000499901
 30
0.0
 40
0.5000000049999909
100
AcDbArc
 50
269.9885414170928
 51
0.0000005728442586
  0
ARC
  5
624
330
1F
100
AcDbEntity
  8
0
  6
Continuous
 62
     7
100
AcDbCircle
 10
-231.3588070604779
 20
-22.03360622634515
 30
0.0
 40
7.499993773658177
100
AcDbArc
 50
270.0000539381232
 51
352.8154362339984
  0
ARC
  5
625
330
1F
100
AcDbEntity
  8
0
  6
Continuous
 62
     7
100
AcDbCircle
 10
-228.4364253253827
 20
-34.83342233371338
 30
0.0
 40
2.999977666393506
100
AcDbArc
 50
270.0004836827825
 51
352.815770440292
  0
ARC
  5
626
330
1F
100
AcDbEntity
  8
0
  6
Continuous
 62
     7
100
AcDbCircle
 10
-142.7157291381475
 20
-35.83357704943786
 30
0.0
 40
2.00002295077437
100
AcDbArc
 50
193.5479348472159
 51
270.0008347368607
  0
ARC
  5
627
330
1F
100
AcDbEntity
  8
0
  6
Continuous
 62
     7
100
AcDbCircle
 10
-161.1453746746172
 20
-34.83342233371338
 30
0.0
 40
2.999977666393504
100
AcDbArc
 50
187.1842295597079
 51
269.9995163172174
  0
ARC
  5
628
330
1F
100
AcDbEntity
  8
0
  6
Continuous
 62
     7
100
AcDbCircle
 10
-246.8661325743055
 20
-35.83362565835972
 30
0.0
 40
1.999974341905556
100
AcDbArc
 50
270.0009331970842
 51
346.4531620128799
  0
ARC
  5
629
330
1F
100
AcDbEntity
  8
0
  6
Continuous
 62
     7
100
AcDbCircle
 10
-239.3526568548256
 20
-34.53356601589673
 30
0.0
 40
4.999966016082868
100
AcDbArc
 50
90.00049441064103
 51
166.4523004070615
  0
ARC
  5
62A
330
1F
100
AcDbEntity
  8
0
  6
Continuous
 62
     7
100
AcDbCircle
 10
-213.9723046098407
 20
-24.03380406524622
 30
0.0
 40
10.00000406524728
100
AcDbArc
 50
89.9999735875682
 51
172.815758741802
  0
ARC
  5
62B
330
1F
100
AcDbEntity
  8
0
  6
Continuous
 62
     7
100
AcDbCircle
 10
-158.2229929391321
 20
-22.03360622677263
 30
0.0
 40
7.499993773991475
100
AcDbArc
 50
187.1845637623889
 51
269.9991821145366
  0
ARC
  5
62C
330
1F
100
AcDbEntity
  8
0
  6
Continuous
 62
     7
100
AcDbCircle
 10
-167.2908999949999
 20
-37.33360000499901
 30
0.0
 40
0.500000005000004
100
AcDbArc
 50
179.9999994271557
 51
270.0114585829071
  0
ARC
  5
62D
330
1F
100
AcDbEntity
  8
0
  6
Continuous
 62
     7
100
AcDbCircle
 10
-168.2908999999999
 20
-37.3336
 30
0.0
 40
0.5
100
AcDbArc
 50
0.0
 51
90.0
  0
ARC
  5
62E
330
1F
100
AcDbEntity
  8
0
  6
Continuous
 62
     7
100
AcDbCircle
 10
-109.8909999999999
 20
49.01530000000001
 30
0.0
 40
0.5
100
AcDbArc
 50
0.0
 51
90.0
  0
ARC
  5
62F
330
1F
100
AcDbEntity
  8
0
  6
Continuous
 62
     7
100
AcDbCircle
 10
-108.8909825973343
 20
47.65717059988985
 30
0.0
 40
0.5000174035298992
100
AcDbArc
 50
179.9966311128021
 51
241.2480855901914
  0
ARC
  5
630
330
1F
100
AcDbEntity
  8
0
  6
Continuous
 62
     7
100
AcDbCircle
 10
-110.0937548289259
 20
45.46558031301979
 30
0.0
 40
2.00001607007134
100
AcDbArc
 50
7.400763346222089
 51
61.24119151599424
  0
ARC
  5
631
330
1F
100
AcDbEntity
  8
0
  6
Continuous
 62
     7
100
AcDbCircle
 10
-156.6907999999999
 20
29.9655
 30
0.0
 40
122.2999960983238
100
AcDbArc
 50
180.0
 51
187.402834077592
  0
ARC
  5
632
330
1F
100
AcDbEntity
  8
0
  6
Continuous
 62
     7
100
AcDbCircle
 10
-276.1906
 20
49.01559999999999
 30
0.0
 40
0.5
100
AcDbArc
 50
90.0
 51
180.0
  0
ARC
  5
633
330
1F
100
AcDbEntity
  8
0
  6
Continuous
 62
     7
100
AcDbCircle
 10
-275.9879451710741
 20
45.46558031301983
 30
0.0
 40
2.000016070071326
100
AcDbArc
 50
118.7588084840075
 51
172.5992366537787
  0
ARC
  5
634
330
1F
100
AcDbEntity
  8
0
  6
Continuous
 62
     7
100
AcDbCircle
 10
-277.1906174026657
 20
47.65717059988985
 30
0.0
 40
0.5000174035298912
100
AcDbArc
 50
298.7519144098067
 51
0.003368887197858
  0
ARC
  5
635
330
1F
100
AcDbEntity
  8
0
  6
Continuous
 62
     7
100
AcDbCircle
 10
-229.3909980491545
 20
29.96553015581643
 30
0.0
 40
122.2999980491582
100
AcDbArc
 50
352.5971517948436
 51
359.9999858724363
  0
ARC
  5
636
330
1F
100
AcDbEntity
  8
0
  6
Continuous
 62
     7
100
AcDbCircle
 10
-110.0937002413054
 20
14.46549964656121
 30
0.0
 40
1.999972238557284
100
AcDbArc
 50
298.7577137621002
 51
352.5967635949555
  0
ARC
  5
637
330
1F
100
AcDbEntity
  8
0
  6
Continuous
 62
     7
100
AcDbCircle
 10
-108.8910264353848
 20
12.27385535017653
 30
0.0
 40
0.4999735666088406
100
AcDbArc
 50
118.7489405057716
 51
179.9948832366051
  0
ARC
  5
638
330
1F
100
AcDbEntity
  8
0
  6
Continuous
 62
     7
100
AcDbCircle
 10
-109.8909999999999
 20
10.91569999999999
 30
0.0
 40
0.5
100
AcDbArc
 50
270.0
 51
0.0
  0
ARC
  5
639
330
1F
100
AcDbEntity
  8
0
  6
Continuous
 62
     7
100
AcDbCircle
 10
-275.9879997586946
 20
14.46549964656117
 30
0.0
 40
1.999972238557294
100
AcDbArc
 50
187.4032364050434
 51
241.2422862378978
  0
ARC
  5
63A
330
1F
100
AcDbEntity
  8
0
  6
Continuous
 62
     7
100
AcDbCircle
 10
-277.190573564615
 20
12.27385535017653
 30
0.0
 40
0.4999735666088301
100
AcDbArc
 50
0.0051167633948596
 51
61.25105949423023
  0
ARC
  5
63B
330
1F
100
AcDbEntity
  8
0
  6
Continuous
 62
     7
100
AcDbCircle
 10
-276.1906
 20
10.91549999999999
 30
0.0
 40
0.5
100
AcDbArc
 50
180.0
 51
270.0
  0
ARC
  5
63C
330
1F
100
AcDbEntity
  8
0
  6
Continuous
 62
    30
100
AcDbCircle
 10
-226.5408499999999
 20
11.043
 30
0.0
 40
1.500165205069099
100
AcDbArc
 50
240.001437808777
 51
299.998562191223
  0
ARC
  5
63D
330
1F
100
AcDbEntity
  8
0
  6
Continuous
 62
     7
100
AcDbCircle
 10
-112.9027104186945
 20
-9.12584709540771
 30
0.0
 40
6.588277034786307
100
AcDbArc
 50
184.4192477633648
 51
197.8625555803121
  0
ARC
  5
63E
330
1F
100
AcDbEntity
  8
0
  6
Continuous
 62
     7
100
AcDbCircle
 10
-112.9027104186945
 20
-17.20905290459229
 30
0.0
 40
6.588277034786307
100
AcDbArc
 50
162.1374444196878
 51
175.5807522366351
  0
ARC
  5
63F
330
1F
100
AcDbEntity
  8
0
  6
Continuous
 62
     7
100
AcDbCircle
 10
-112.9027000038392
 20
-13.16755516281477
 30
0.0
 40
6.588287640269252
100
AcDbArc
 50
162.1374535096649
 51
197.8597110481869
  0
ARC
  5
640
330
1F
100
AcDbEntity
  8
0
  6
Continuous
 62
     7
100
AcDbCircle
 10
-122.8793617729355
 20
-9.126213758404869
 30
0.0
 40
6.58832846993376
100
AcDbArc
 50
342.1409387416089
 51
355.5831127680188
  0
ARC
  5
641
330
1F
100
AcDbEntity
  8
0
  6
Continuous
 62
     7
100
AcDbCircle
 10
-122.8793681231902
 20
-17.20865396437909
 30
0.0
 40
6.58832461560741
100
AcDbArc
 50
4.415736038231985
 51
17.85877714713072
  0
ARC
  5
642
330
1F
100
AcDbEntity
  8
0
  6
Continuous
 62
     7
100
AcDbCircle
 10
-122.8793
 20
-13.16739999999999
 30
0.0
 40
6.588335232059757
100
AcDbArc
 50
342.1390046073212
 51
17.86099539267873
  0
ARC
  5
643
330
1F
100
AcDbEntity
  8
0
  6
Continuous
 62
     7
100
AcDbCircle
 10
-104.491
 20
37.2658
 30
0.0
 40
0.2999999999999972
100
AcDbArc
 50
180.0
 51
270.0
  0
ARC
  5
644
330
1F
100
AcDbEntity
  8
0
  6
Continuous
 62
    30
100
AcDbCircle
 10
-228.04085
 20
8.444599999999997
 30
0.0
 40
1.50007860210723
100
AcDbArc
 50
59.99952813254221
 51
120.0004718674595
  0
ARC
  5
645
330
1F
100
AcDbEntity
  8
0
  6
Continuous
 62
    30
100
AcDbCircle
 10
-228.04085
 20
11.04289999999999
 30
0.0
 40
1.500078602107244
100
AcDbArc
 50
239.9995281325403
 51
300.0004718674578
  0
ARC
  5
646
330
1F
100
AcDbEntity
  8
0
  6
Continuous
 62
     7
100
AcDbCircle
 10
-267.890776750911
 20
-11.08627462720555
 30
0.0
 40
1.300023249336593
100
AcDbArc
 50
95.00082984247454
 51
180.0011182523368
  0
ARC
  5
647
330
1F
100
AcDbEntity
  8
0
  6
Continuous
 62
     7
100
AcDbCircle
 10
-267.8908265608043
 20
-15.24887101521735
 30
0.0
 40
1.299973439518822
100
AcDbArc
 50
180.0012774920359
 51
265.001181793105
  0
ARC
  5
648
330
1F
100
AcDbEntity
  8
0
  6
Continuous
 62
    30
100
AcDbCircle
 10
-225.04085
 20
8.444599999999997
 30
0.0
 40
1.50007860210723
100
AcDbArc
 50
59.99952813254221
 51
120.0004718674595
  0
ARC
  5
649
330
1F
100
AcDbEntity
  8
0
  6
Continuous
 62
    30
100
AcDbCircle
 10
-223.54085
 20
11.043
 30
0.0
 40
1.500165205069099
100
AcDbArc
 50
240.001437808777
 51
299.998562191223
  0
ARC
  5
64A
330
1F
100
AcDbEntity
  8
0
  6
Continuous
 62
    30
100
AcDbCircle
 10
-225.04085
 20
11.04289999999999
 30
0.0
 40
1.500078602107244
100
AcDbArc
 50
239.9995281325403
 51
300.0004718674578
  0
ARC
  5
64B
330
1F
100
AcDbEntity
  8
0
  6
Continuous
 62
     7
100
AcDbCircle
 10
-104.491
 20
22.66599999999999
 30
0.0
 40
0.3000000000000007
100
AcDbArc
 50
90.0
 51
180.0
  0
ARC
  5
64C
330
1F
100
AcDbEntity
  8
0
  6
Continuous
 62
     7
100
AcDbCircle
 10
-188.29095
 20
66.56629999999998
 30
0.0
 40
16.99999999999999
100
AcDbArc
 50
224.9964495864534
 51
315.0035504135465
  0
ARC
  5
64D
330
1F
100
AcDbEntity
  8
0
  6
Continuous
 62
     7
100
AcDbCircle
 10
-188.29095
 20
66.33019999999999
 30
0.0
 40
17.0
100
AcDbArc
 50
224.9964495864534
 51
315.0035504135464
  0
ARC
  5
64E
330
1F
100
AcDbEntity
  8
0
  6
Continuous
 62
     7
100
AcDbCircle
 10
-149.79095
 20
84.3989
 30
0.0
 40
6.0
100
AcDbArc
 50
0.0
 51
63.24518640876277
  0
ARC
  5
64F
330
1F
100
AcDbEntity
  8
0
  6
Continuous
 62
     7
100
AcDbCircle
 10
-226.79095
 20
84.3989
 30
0.0
 40
5.999999999999985
100
AcDbArc
 50
116.7548135912372
 51
180.0
  0
ARC
  5
650
330
1F
100
AcDbEntity
  8
0
  6
Continuous
 62
     7
100
AcDbCircle
 10
-156.6907999999999
 20
29.9655
 30
0.0
 40
122.2999960983238
100
AcDbArc
 50
172.5971659224079
 51
180.0
  0
ARC
  5
651
330
1F
100
AcDbEntity
  8
0
  6
Continuous
 62
     7
100
AcDbCircle
 10
-224.3416194215136
 20
105.4939852468364
 30
0.0
 40
5.0
100
AcDbArc
 50
90.0
 51
179.4164192491388
  0
ARC
  5
652
330
1F
100
AcDbEntity
  8
0
  6
Continuous
 62
     7
100
AcDbCircle
 10
-152.2402805784862
 20
105.4939852468364
 30
0.0
 40
4.999999999999955
100
AcDbArc
 50
0.5835807508623747
 51
90.0
  0
ARC
  5
653
330
1F
100
AcDbEntity
  8
0
  6
Continuous
 62
     7
100
AcDbCircle
 10
-224.79095
 20
65.4756
 30
0.0
 40
8.0
100
AcDbArc
 50
180.0
 51
270.0
  0
ARC
  5
654
330
1F
100
AcDbEntity
  8
0
  6
Continuous
 62
     7
100
AcDbCircle
 10
-151.79095
 20
65.4756
 30
0.0
 40
8.0
100
AcDbArc
 50
270.0
 51
0.0
  0
ARC
  5
655
330
1F
100
AcDbEntity
  8
0
  6
Continuous
 62
     7
100
AcDbCircle
 10
-207.3840161107638
 20
47.4756
 30
0.0
 40
9.999999999999943
100
AcDbArc
 50
44.99644958645354
 51
90.0
  0
ARC
  5
656
330
1F
100
AcDbEntity
  8
0
  6
Continuous
 62
     7
100
AcDbCircle
 10
-169.197883889236
 20
47.4756
 30
0.0
 40
10.0
100
AcDbArc
 50
90.0
 51
135.0035504135466
  0
ARC
  5
657
330
1F
100
AcDbEntity
  8
0
  6
Continuous
 62
     7
100
AcDbCircle
 10
-224.7397618436318
 20
66.40583585257849
 30
0.0
 40
4.999999999999952
100
AcDbArc
 50
179.416419249138
 51
270.0
  0
ARC
  5
658
330
1F
100
AcDbEntity
  8
0
  6
Continuous
 62
     7
100
AcDbCircle
 10
-151.8421381563681
 20
66.40583585257849
 30
0.0
 40
5.0
100
AcDbArc
 50
270.0
 51
0.5835807508617642
  0
ARC
  5
659
330
1F
100
AcDbEntity
  8
0
  6
Continuous
 62
     7
100
AcDbCircle
 10
-169.197883889236
 20
47.23949999999999
 30
0.0
 40
10.0
100
AcDbArc
 50
90.0
 51
135.0035504135466
  0
ARC
  5
65A
330
1F
100
AcDbEntity
  8
0
  6
Continuous
 62
     7
100
AcDbCircle
 10
-151.79095
 20
65.23949999999999
 30
0.0
 40
8.0
100
AcDbArc
 50
270.0
 51
0.0
  0
ARC
  5
65B
330
1F
100
AcDbEntity
  8
0
  6
Continuous
 62
     7
100
AcDbCircle
 10
-207.3840161107638
 20
47.23949999999999
 30
0.0
 40
9.999999999999939
100
AcDbArc
 50
44.99644958645354
 51
90.0
  0
ARC
  5
65C
330
1F
100
AcDbEntity
  8
0
  6
Continuous
 62
     7
100
AcDbCircle
 10
-224.79095
 20
65.23949999999999
 30
0.0
 40
8.0
100
AcDbArc
 50
180.0
 51
270.0
  0
POINT
  5
65D
330
1F
100
AcDbEntity
  8
0
 62
     2
100
AcDbPoint
 10
124.4678
 20
29.96549999999999
 30
0.0
  0
LINE
  5
65E
330
1F
100
AcDbEntity
  8
0
  6
DASH_CENTER
 62
    30
100
AcDbLine
 10
210.8084
 20
-54.9555725103735
 30
0.0
 11
210.8084
 21
103.5892
 31
0.0
  0
LINE
  5
65F
330
1F
100
AcDbEntity
  8
0
  6
Continuous
 62
     7
100
AcDbLine
 10
127.7250999999999
 20
2.10126638278869
 30
0.0
 11
127.7250999999999
 21
17.96549999999999
 31
0.0
  0
LINE
  5
660
330
1F
100
AcDbEntity
  8
0
  6
Continuous
 62
     7
100
AcDbLine
 10
130.7250999999999
 20
2.10126638278869
 30
0.0
 11
130.7250999999999
 21
17.96549999999999
 31
0.0
  0
LINE
  5
661
330
1F
100
AcDbEntity
  8
0
  6
Continuous
 62
     7
100
AcDbLine
 10
124.7251
 20
2.10126638278869
 30
0.0
 11
124.7251
 21
17.96549999999999
 31
0.0
  0
LINE
  5
662
330
1F
100
AcDbEntity
  8
0
  6
Continuous
 62
     7
100
AcDbLine
 10
121.7251
 20
2.10126638278869
 30
0.0
 11
121.7251
 21
17.96549999999999
 31
0.0
  0
LINE
  5
663
330
1F
100
AcDbEntity
  8
0
  6
Continuous
 62
     7
100
AcDbLine
 10
118.7251
 20
2.10126638278869
 30
0.0
 11
118.7251
 21
17.96549999999999
 31
0.0
  0
LINE
  5
664
330
1F
100
AcDbEntity
  8
0
  6
DASH_CENTER
 62
    30
100
AcDbLine
 10
110.8088
 20
29.9657
 30
0.0
 11
288.7849
 21
29.9657
 31
0.0
  0
LINE
  5
665
330
1F
100
AcDbEntity
  8
0
  6
DASH_CENTER
 62
    30
100
AcDbLine
 10
154.8084
 20
-33.5909
 30
0.0
 11
154.8084
 21
-48.16590000000001
 31
0.0
  0
LINE
  5
666
330
1F
100
AcDbEntity
  8
0
  6
Continuous
 62
     7
100
AcDbLine
 10
240.8084
 20
-40.03410000000001
 30
0.0
 11
240.8084
 21
-41.03410000000001
 31
0.0
  0
LINE
  5
667
330
1F
100
AcDbEntity
  8
0
  6
Continuous
 62
     7
100
AcDbLine
 10
282.2371
 20
-35.80380000000001
 30
0.0
 11
272.827
 21
-18.82749999999999
 31
0.0
  0
LINE
  5
668
330
1F
100
AcDbEntity
  8
0
  6
Continuous
 62
     7
100
AcDbLine
 10
285.8081999999999
 20
-36.8341
 30
0.0
 11
283.9864
 21
-36.8341
 31
0.0
  0
LINE
  5
669
330
1F
100
AcDbEntity
  8
0
  6
DASH_CENTER
 62
    30
100
AcDbLine
 10
266.8083999999999
 20
-33.5909
 30
0.0
 11
266.8083999999999
 21
-48.16590000000001
 31
0.0
  0
LINE
  5
66A
330
1F
100
AcDbEntity
  8
0
  6
Continuous
 62
     7
100
AcDbLine
 10
219.0789
 20
-36.62409999999999
 30
0.0
 11
221.2817999999999
 21
-34.91490000000001
 31
0.0
  0
LINE
  5
66B
330
1F
100
AcDbEntity
  8
0
  6
Continuous
 62
     7
100
AcDbLine
 10
285.8081999999999
 20
-36.8341
 30
0.0
 11
285.8081999999999
 21
-41.03410000000001
 31
0.0
  0
LINE
  5
66C
330
1F
100
AcDbEntity
  8
0
  6
Continuous
 62
     7
100
AcDbLine
 10
240.8084
 20
-41.03410000000001
 30
0.0
 11
285.8081999999999
 21
-41.03410000000001
 31
0.0
  0
LINE
  5
66D
330
1F
100
AcDbEntity
  8
0
  6
Continuous
 62
     7
100
AcDbLine
 10
243.3333
 20
-37.8341
 30
0.0
 11
285.8081999999999
 21
-37.8341
 31
0.0
  0
LINE
  5
66E
330
1F
100
AcDbEntity
  8
0
  6
Continuous
 62
     7
100
AcDbLine
 10
202.5379
 20
-36.62409999999999
 30
0.0
 11
200.335
 21
-34.91490000000001
 31
0.0
  0
LINE
  5
66F
330
1F
100
AcDbEntity
  8
0
  6
Continuous
 62
     7
100
AcDbLine
 10
180.8084
 20
-41.03410000000001
 30
0.0
 11
135.8086
 21
-41.03410000000001
 31
0.0
  0
LINE
  5
670
330
1F
100
AcDbEntity
  8
0
  6
Continuous
 62
     7
100
AcDbLine
 10
242.3332999999999
 20
-36.8341
 30
0.0
 11
179.2835
 21
-36.8341
 31
0.0
  0
LINE
  5
671
330
1F
100
AcDbEntity
  8
0
  6
Continuous
 62
     7
100
AcDbLine
 10
135.8086
 20
-36.8341
 30
0.0
 11
135.8086
 21
-41.03410000000001
 31
0.0
  0
LINE
  5
672
330
1F
100
AcDbEntity
  8
0
  6
Continuous
 62
     7
100
AcDbLine
 10
180.8084
 20
-40.03410000000001
 30
0.0
 11
180.8084
 21
-41.03410000000001
 31
0.0
  0
LINE
  5
673
330
1F
100
AcDbEntity
  8
0
  6
Continuous
 62
     7
100
AcDbLine
 10
178.2835
 20
-37.8341
 30
0.0
 11
135.8086
 21
-37.8341
 31
0.0
  0
LINE
  5
674
330
1F
100
AcDbEntity
  8
0
  6
Continuous
 62
     7
100
AcDbLine
 10
135.8086
 20
-36.8341
 30
0.0
 11
137.6305
 21
-36.8341
 31
0.0
  0
LINE
  5
675
330
1F
100
AcDbEntity
  8
0
  6
Continuous
 62
     7
100
AcDbLine
 10
139.3797
 20
-35.80380000000001
 30
0.0
 11
148.7898999999999
 21
-18.82749999999999
 31
0.0
  0
LINE
  5
676
330
1F
100
AcDbEntity
  8
0
  6
Continuous
 62
     7
100
AcDbLine
 10
240.8084
 20
-40.03410000000001
 30
0.0
 11
180.8084
 21
-40.03410000000001
 31
0.0
  0
LINE
  5
677
330
1F
100
AcDbEntity
  8
0
  6
Continuous
 62
     7
100
AcDbLine
 10
176.222
 20
-36.382
 30
0.0
 11
177.1555999999999
 21
-33.1036
 31
0.0
  0
LINE
  5
678
330
1F
100
AcDbEntity
  8
0
  6
Continuous
 62
     7
100
AcDbLine
 10
245.3948
 20
-36.382
 30
0.0
 11
244.4611999999999
 21
-33.1036
 31
0.0
  0
LINE
  5
679
330
1F
100
AcDbEntity
  8
0
  6
Continuous
 62
     7
100
AcDbLine
 10
160.291
 20
25.966
 30
0.0
 11
189.3722999999999
 21
25.966
 31
0.0
  0
LINE
  5
67A
330
1F
100
AcDbEntity
  8
0
  6
Continuous
 62
     7
100
AcDbLine
 10
241.8735999999999
 20
-22.8214
 30
0.0
 11
243.0323
 21
-25.6188
 31
0.0
  0
LINE
  5
67B
330
1F
100
AcDbEntity
  8
0
  6
Continuous
 62
     7
100
AcDbLine
 10
226.1676
 20
-29.3268
 30
0.0
 11
227.3264
 21
-32.1244
 31
0.0
  0
LINE
  5
67C
330
1F
100
AcDbEntity
  8
0
  6
Continuous
 62
     7
100
AcDbLine
 10
270.1009
 20
14.6063
 30
0.0
 11
272.8982999999999
 21
13.44759999999999
 31
0.0
  0
LINE
  5
67D
330
1F
100
AcDbEntity
  8
0
  6
Continuous
 62
     7
100
AcDbLine
 10
263.5951999999999
 20
-1.099499999999999
 30
0.0
 11
266.3927
 21
-2.258399999999998
 31
0.0
  0
LINE
  5
67E
330
1F
100
AcDbEntity
  8
0
  6
Continuous
 62
     7
100
AcDbLine
 10
263.5951999999999
 20
61.03139999999999
 30
0.0
 11
266.3927
 21
62.1901
 31
0.0
  0
LINE
  5
67F
330
1F
100
AcDbEntity
  8
0
  6
Continuous
 62
     7
100
AcDbLine
 10
270.1007999999999
 20
45.3256
 30
0.0
 11
272.8982999999999
 21
46.4843
 31
0.0
  0
LINE
  5
680
330
1F
100
AcDbEntity
  8
0
  6
Continuous
 62
     7
100
AcDbLine
 10
226.1676
 20
89.25870000000001
 30
0.0
 11
227.3264
 21
92.056
 31
0.0
  0
LINE
  5
681
330
1F
100
AcDbEntity
  8
0
  6
Continuous
 62
     7
100
AcDbLine
 10
241.8735
 20
82.75310000000002
 30
0.0
 11
243.0323
 21
85.55070000000002
 31
0.0
  0
LINE
  5
682
330
1F
100
AcDbEntity
  8
0
  6
Continuous
 62
     7
100
AcDbLine
 10
179.7428999999999
 20
-22.8214
 30
0.0
 11
178.5842
 21
-25.6188
 31
0.0
  0
LINE
  5
683
330
1F
100
AcDbEntity
  8
0
  6
Continuous
 62
     7
100
AcDbLine
 10
168.7726999999999
 20
19.96599999999999
 30
0.0
 11
165.6419999999999
 21
19.96599999999999
 31
0.0
  0
LINE
  5
684
330
1F
100
AcDbEntity
  8
0
  6
Continuous
 62
     7
100
AcDbLine
 10
214.8082
 20
80.48329999999998
 30
0.0
 11
214.8082
 21
51.4017
 31
0.0
  0
LINE
  5
685
330
1F
100
AcDbEntity
  8
0
  6
Continuous
 62
     7
100
AcDbLine
 10
183.7714
 20
19.96599999999999
 30
0.0
 11
180.4769
 21
19.96599999999999
 31
0.0
  0
LINE
  5
686
330
1F
100
AcDbEntity
  8
0
  6
Continuous
 62
     7
100
AcDbLine
 10
220.8082
 20
72.0016
 30
0.0
 11
220.8082
 21
75.1322
 31
0.0
  0
LINE
  5
687
330
1F
100
AcDbEntity
  8
0
  6
Continuous
 62
     7
100
AcDbLine
 10
220.8082
 20
57.0028
 30
0.0
 11
220.8082
 21
60.2973
 31
0.0
  0
LINE
  5
688
330
1F
100
AcDbEntity
  8
0
  6
Continuous
 62
     7
100
AcDbLine
 10
183.7710999999999
 20
39.966
 30
0.0
 11
180.4767
 21
39.966
 31
0.0
  0
LINE
  5
689
330
1F
100
AcDbEntity
  8
0
  6
Continuous
 62
     7
100
AcDbLine
 10
160.2908999999999
 20
33.966
 30
0.0
 11
189.3721999999999
 21
33.966
 31
0.0
  0
LINE
  5
68A
330
1F
100
AcDbEntity
  8
0
  6
Continuous
 62
     7
100
AcDbLine
 10
168.7725
 20
39.966
 30
0.0
 11
165.6417999999999
 21
39.966
 31
0.0
  0
LINE
  5
68B
330
1F
100
AcDbEntity
  8
0
  6
Continuous
 62
     7
100
AcDbLine
 10
206.8083
 20
8.529700000000001
 30
0.0
 11
206.8083
 21
-20.55139999999999
 31
0.0
  0
LINE
  5
68C
330
1F
100
AcDbEntity
  8
0
  6
Continuous
 62
     7
100
AcDbLine
 10
200.8083
 20
2.928799999999998
 30
0.0
 11
200.8083
 21
-0.3656000000000006
 31
0.0
  0
LINE
  5
68D
330
1F
100
AcDbEntity
  8
0
  6
Continuous
 62
     7
100
AcDbLine
 10
200.8083
 20
-12.0699
 30
0.0
 11
200.8083
 21
-15.2005
 31
0.0
  0
LINE
  5
68E
330
1F
100
AcDbEntity
  8
0
  6
Continuous
 62
     7
100
AcDbLine
 10
200.8081999999999
 20
57.0028
 30
0.0
 11
200.8081999999999
 21
60.2973
 31
0.0
  0
LINE
  5
68F
330
1F
100
AcDbEntity
  8
0
  6
Continuous
 62
     7
100
AcDbLine
 10
200.8081999999999
 20
72.0016
 30
0.0
 11
200.8081999999999
 21
75.1322
 31
0.0
  0
LINE
  5
690
330
1F
100
AcDbEntity
  8
0
  6
Continuous
 62
     7
100
AcDbLine
 10
206.8081999999999
 20
80.48329999999998
 30
0.0
 11
206.8081999999999
 21
51.4017
 31
0.0
  0
LINE
  5
691
330
1F
100
AcDbEntity
  8
0
  6
Continuous
 62
     7
100
AcDbLine
 10
220.8082
 20
-12.0699
 30
0.0
 11
220.8082
 21
-15.2005
 31
0.0
  0
LINE
  5
692
330
1F
100
AcDbEntity
  8
0
  6
Continuous
 62
     7
100
AcDbLine
 10
220.8082
 20
2.928799999999998
 30
0.0
 11
220.8082
 21
-0.3656000000000006
 31
0.0
  0
LINE
  5
693
330
1F
100
AcDbEntity
  8
0
  6
Continuous
 62
     7
100
AcDbLine
 10
179.743
 20
82.75310000000002
 30
0.0
 11
178.5842
 21
85.55070000000002
 31
0.0
  0
LINE
  5
694
330
1F
100
AcDbEntity
  8
0
  6
Continuous
 62
     7
100
AcDbLine
 10
214.8082
 20
8.529700000000001
 30
0.0
 11
214.8082
 21
-20.55139999999999
 31
0.0
  0
LINE
  5
695
330
1F
100
AcDbEntity
  8
0
  6
Continuous
 62
     7
100
AcDbLine
 10
195.4489
 20
89.25870000000001
 30
0.0
 11
194.2900999999999
 21
92.056
 31
0.0
  0
LINE
  5
696
330
1F
100
AcDbEntity
  8
0
  6
Continuous
 62
     7
100
AcDbLine
 10
151.5157
 20
45.3256
 30
0.0
 11
148.7181999999999
 21
46.4843
 31
0.0
  0
LINE
  5
697
330
1F
100
AcDbEntity
  8
0
  6
Continuous
 62
     7
100
AcDbLine
 10
158.0211999999999
 20
61.03139999999999
 30
0.0
 11
155.2238
 21
62.1901
 31
0.0
  0
LINE
  5
698
330
1F
100
AcDbEntity
  8
0
  6
Continuous
 62
     7
100
AcDbLine
 10
158.0213
 20
-1.099499999999999
 30
0.0
 11
155.2238
 21
-2.258399999999998
 31
0.0
  0
LINE
  5
699
330
1F
100
AcDbEntity
  8
0
  6
Continuous
 62
     7
100
AcDbLine
 10
252.844
 20
39.966
 30
0.0
 11
255.9746
 21
39.966
 31
0.0
  0
LINE
  5
69A
330
1F
100
AcDbEntity
  8
0
  6
Continuous
 62
     7
100
AcDbLine
 10
261.3256
 20
33.966
 30
0.0
 11
232.2443
 21
33.966
 31
0.0
  0
LINE
  5
69B
330
1F
100
AcDbEntity
  8
0
  6
Continuous
 62
     7
100
AcDbLine
 10
237.8452999999999
 20
39.966
 30
0.0
 11
241.1398
 21
39.966
 31
0.0
  0
LINE
  5
69C
330
1F
100
AcDbEntity
  8
0
  6
Continuous
 62
     7
100
AcDbLine
 10
237.8451
 20
19.96599999999999
 30
0.0
 11
241.1395999999999
 21
19.96599999999999
 31
0.0
  0
LINE
  5
69D
330
1F
100
AcDbEntity
  8
0
  6
Continuous
 62
     7
100
AcDbLine
 10
252.8437999999999
 20
19.96599999999999
 30
0.0
 11
255.9744999999999
 21
19.96599999999999
 31
0.0
  0
LINE
  5
69E
330
1F
100
AcDbEntity
  8
0
  6
Continuous
 62
     7
100
AcDbLine
 10
261.3254999999999
 20
25.966
 30
0.0
 11
232.2440999999999
 21
25.966
 31
0.0
  0
LINE
  5
69F
330
1F
100
AcDbEntity
  8
0
  6
Continuous
 62
     7
100
AcDbLine
 10
151.5156
 20
14.6063
 30
0.0
 11
148.7181999999999
 21
13.44759999999999
 31
0.0
  0
LINE
  5
6A0
330
1F
100
AcDbEntity
  8
0
  6
Continuous
 62
     7
100
AcDbLine
 10
195.4489
 20
-29.3268
 30
0.0
 11
194.2900999999999
 21
-32.1244
 31
0.0
  0
LINE
  5
6A1
330
1F
100
AcDbEntity
  8
0
  6
DASH_CENTER
 62
    30
100
AcDbLine
 10
171.9264
 20
68.84780000000001
 30
0.0
 11
162.6608
 21
78.1134
 31
0.0
  0
LINE
  5
6A2
330
1F
100
AcDbEntity
  8
0
  6
Continuous
 62
     7
100
AcDbLine
 10
240.9562999999999
 20
88.2272
 30
0.0
 11
241.324
 21
88.9379
 31
0.0
  0
LINE
  5
6A3
330
1F
100
AcDbEntity
  8
0
  6
Continuous
 62
     7
100
AcDbLine
 10
269.7798
 20
60.4821
 30
0.0
 11
269.0693
 21
60.1144
 31
0.0
  0
LINE
  5
6A4
330
1F
100
AcDbEntity
  8
0
  6
Continuous
 62
     7
100
AcDbLine
 10
168.7208
 20
77.0033
 30
0.0
 11
171.5868
 21
74.1478
 31
0.0
  0
LINE
  5
6A5
330
1F
100
AcDbEntity
  8
0
  6
Continuous
 62
     7
100
AcDbLine
 10
171.5868
 20
74.1478
 30
0.0
 11
170.5325
 21
70.2418
 31
0.0
  0
LINE
  5
6A6
330
1F
100
AcDbEntity
  8
0
  6
Continuous
 62
     7
100
AcDbLine
 10
170.5325
 20
70.2418
 30
0.0
 11
166.6288
 21
69.1957
 31
0.0
  0
LINE
  5
6A7
330
1F
100
AcDbEntity
  8
0
  6
Continuous
 62
     7
100
AcDbLine
 10
166.6288
 20
69.1957
 30
0.0
 11
163.7628
 21
72.0514
 31
0.0
  0
LINE
  5
6A8
330
1F
100
AcDbEntity
  8
0
  6
Continuous
 62
     7
100
AcDbLine
 10
164.8171
 20
75.9572
 30
0.0
 11
168.7208
 21
77.0033
 31
0.0
  0
LINE
  5
6A9
330
1F
100
AcDbEntity
  8
0
  6
Continuous
 62
     7
100
AcDbLine
 10
163.7628
 20
72.0514
 30
0.0
 11
164.8171
 21
75.9572
 31
0.0
  0
LINE
  5
6AA
330
1F
100
AcDbEntity
  8
0
  6
Continuous
 62
     7
100
AcDbLine
 10
214.4136
 20
35.96569999999999
 30
0.0
 11
207.2025
 21
35.96569999999999
 31
0.0
  0
LINE
  5
6AB
330
1F
100
AcDbEntity
  8
0
  6
Continuous
 62
     7
100
AcDbLine
 10
142.7742
 20
32.96549999999999
 30
0.0
 11
133.7250999999999
 21
32.96549999999999
 31
0.0
  0
LINE
  5
6AC
330
1F
100
AcDbEntity
  8
0
  6
Continuous
 62
     7
100
AcDbLine
 10
146.5596999999999
 20
43.21299999999999
 30
0.0
 11
146.0996
 21
43.30799999999999
 31
0.0
  0
LINE
  5
6AD
330
1F
100
AcDbEntity
  8
0
  6
Continuous
 62
     7
100
AcDbLine
 10
146.0996
 20
16.6229
 30
0.0
 11
146.5596999999999
 21
16.7177
 31
0.0
  0
LINE
  5
6AE
330
1F
100
AcDbEntity
  8
0
  6
Continuous
 62
     7
100
AcDbLine
 10
142.7742
 20
26.9655
 30
0.0
 11
133.7250999999999
 21
26.9655
 31
0.0
  0
LINE
  5
6AF
330
1F
100
AcDbEntity
  8
0
  6
Continuous
 62
     7
100
AcDbLine
 10
133.7250999999999
 20
29.9655
 30
0.0
 11
142.7081
 21
29.9655
 31
0.0
  0
LINE
  5
6B0
330
1F
100
AcDbEntity
  8
0
  6
DASH_CENTER
 62
    30
100
AcDbLine
 10
171.9266
 20
-8.916099999999996
 30
0.0
 11
162.661
 21
-18.1817
 31
0.0
  0
LINE
  5
6B1
330
1F
100
AcDbEntity
  8
0
  6
Continuous
 62
     7
100
AcDbLine
 10
163.7710999999999
 20
-12.12159999999999
 30
0.0
 11
166.6264999999999
 21
-9.2557
 31
0.0
  0
LINE
  5
6B2
330
1F
100
AcDbEntity
  8
0
  6
Continuous
 62
     7
100
AcDbLine
 10
166.6264999999999
 20
-9.2557
 30
0.0
 11
170.5325
 21
-10.3099
 31
0.0
  0
LINE
  5
6B3
330
1F
100
AcDbEntity
  8
0
  6
Continuous
 62
     7
100
AcDbLine
 10
170.5325
 20
-10.3099
 30
0.0
 11
171.5786999999999
 21
-14.2137
 31
0.0
  0
LINE
  5
6B4
330
1F
100
AcDbEntity
  8
0
  6
Continuous
 62
     7
100
AcDbLine
 10
171.5786999999999
 20
-14.2137
 30
0.0
 11
168.7229999999999
 21
-17.07969999999999
 31
0.0
  0
LINE
  5
6B5
330
1F
100
AcDbEntity
  8
0
  6
Continuous
 62
     7
100
AcDbLine
 10
164.8172
 20
-16.0254
 30
0.0
 11
163.7710999999999
 21
-12.12159999999999
 31
0.0
  0
LINE
  5
6B6
330
1F
100
AcDbEntity
  8
0
  6
Continuous
 62
     7
100
AcDbLine
 10
168.7229999999999
 20
-17.07969999999999
 30
0.0
 11
164.8172
 21
-16.0254
 31
0.0
  0
LINE
  5
6B7
330
1F
100
AcDbEntity
  8
0
  6
DASH_CENTER
 62
    30
100
AcDbLine
 10
249.6904
 20
-8.915900000000004
 30
0.0
 11
258.9560999999999
 21
-18.18149999999999
 31
0.0
  0
LINE
  5
6B8
330
1F
100
AcDbEntity
  8
0
  6
Continuous
 62
     7
100
AcDbLine
 10
252.896
 20
-17.0714
 30
0.0
 11
250.03
 21
-14.2159
 31
0.0
  0
LINE
  5
6B9
330
1F
100
AcDbEntity
  8
0
  6
Continuous
 62
     7
100
AcDbLine
 10
250.03
 20
-14.2159
 30
0.0
 11
251.0843
 21
-10.3099
 31
0.0
  0
LINE
  5
6BA
330
1F
100
AcDbEntity
  8
0
  6
Continuous
 62
     7
100
AcDbLine
 10
251.0843
 20
-10.3099
 30
0.0
 11
254.9879999999999
 21
-9.263799999999999
 31
0.0
  0
LINE
  5
6BB
330
1F
100
AcDbEntity
  8
0
  6
Continuous
 62
     7
100
AcDbLine
 10
254.9879999999999
 20
-9.263799999999999
 30
0.0
 11
257.854
 21
-12.11949999999999
 31
0.0
  0
LINE
  5
6BC
330
1F
100
AcDbEntity
  8
0
  6
Continuous
 62
     7
100
AcDbLine
 10
256.7998
 20
-16.02529999999999
 30
0.0
 11
252.896
 21
-17.0714
 31
0.0
  0
LINE
  5
6BD
330
1F
100
AcDbEntity
  8
0
  6
Continuous
 62
     7
100
AcDbLine
 10
257.854
 20
-12.11949999999999
 30
0.0
 11
256.7998
 21
-16.02529999999999
 31
0.0
  0
LINE
  5
6BE
330
1F
100
AcDbEntity
  8
0
  6
DASH_CENTER
 62
    30
100
AcDbLine
 10
249.6903
 20
68.84789999999999
 30
0.0
 11
258.9558999999999
 21
78.11360000000002
 31
0.0
  0
LINE
  5
6BF
330
1F
100
AcDbEntity
  8
0
  6
Continuous
 62
     7
100
AcDbLine
 10
257.8457999999999
 20
72.0535
 30
0.0
 11
254.9903
 21
69.1875
 31
0.0
  0
LINE
  5
6C0
330
1F
100
AcDbEntity
  8
0
  6
Continuous
 62
     7
100
AcDbLine
 10
254.9903
 20
69.1875
 30
0.0
 11
251.0843
 21
70.2418
 31
0.0
  0
LINE
  5
6C1
330
1F
100
AcDbEntity
  8
0
  6
Continuous
 62
     7
100
AcDbLine
 10
251.0843
 20
70.2418
 30
0.0
 11
250.0382
 21
74.1455
 31
0.0
  0
LINE
  5
6C2
330
1F
100
AcDbEntity
  8
0
  6
Continuous
 62
     7
100
AcDbLine
 10
250.0382
 20
74.1455
 30
0.0
 11
252.8939
 21
77.0115
 31
0.0
  0
LINE
  5
6C3
330
1F
100
AcDbEntity
  8
0
  6
Continuous
 62
     7
100
AcDbLine
 10
256.7995999999999
 20
75.9573
 30
0.0
 11
257.8457999999999
 21
72.0535
 31
0.0
  0
LINE
  5
6C4
330
1F
100
AcDbEntity
  8
0
  6
Continuous
 62
     7
100
AcDbLine
 10
252.8939
 20
77.0115
 30
0.0
 11
256.7995999999999
 21
75.9573
 31
0.0
  0
LINE
  5
6C5
330
1F
100
AcDbEntity
  8
0
  6
Continuous
 62
     7
100
AcDbLine
 10
147.4439999999999
 20
57.3575
 30
0.0
 11
145.9080999999999
 21
53.4885
 31
0.0
  0
LINE
  5
6C6
330
1F
100
AcDbEntity
  8
0
  6
DASH_CENTER
 62
    30
100
AcDbLine
 10
151.8105
 20
53.3849
 30
0.0
 11
143.7067999999999
 21
56.6017
 31
0.0
  0
LINE
  5
6C7
330
1F
100
AcDbEntity
  8
0
  6
Continuous
 62
     7
100
AcDbLine
 10
147.8012999999999
 20
51.21059999999999
 30
0.0
 11
146.5336
 21
51.84709999999999
 31
0.0
  0
LINE
  5
6C8
330
1F
100
AcDbEntity
  8
0
  6
Continuous
 62
     7
100
AcDbLine
 10
183.4168
 20
93.33020000000001
 30
0.0
 11
187.2856999999999
 21
94.8661
 31
0.0
  0
LINE
  5
6C9
330
1F
100
AcDbEntity
  8
0
  6
Continuous
 62
     7
100
AcDbLine
 10
183.0574999999999
 20
90.39010000000001
 30
0.0
 11
182.6509
 21
91.7495
 31
0.0
  0
LINE
  5
6CA
330
1F
100
AcDbEntity
  8
0
  6
Continuous
 62
     7
100
AcDbLine
 10
183.4168
 20
93.33020000000001
 30
0.0
 11
187.2856999999999
 21
94.8661
 31
0.0
  0
LINE
  5
6CB
330
1F
100
AcDbEntity
  8
0
  6
Continuous
 62
     7
100
AcDbLine
 10
189.5636
 20
92.9729
 30
0.0
 11
188.9270999999999
 21
94.2406
 31
0.0
  0
LINE
  5
6CC
330
1F
100
AcDbEntity
  8
0
  6
Continuous
 62
     7
100
AcDbLine
 10
183.6300999999999
 20
89.67100000000002
 30
0.0
 11
183.2984999999999
 21
90.39889999999999
 31
0.0
  0
LINE
  5
6CD
330
1F
100
AcDbEntity
  8
0
  6
Continuous
 62
     7
100
AcDbLine
 10
178.6562999999999
 20
90.2733
 30
0.0
 11
163.1108
 21
104.5072
 31
0.0
  0
LINE
  5
6CE
330
1F
100
AcDbEntity
  8
0
  6
Continuous
 62
     7
100
AcDbLine
 10
191.4439
 20
92.6426
 30
0.0
 11
191.2077999999999
 21
93.40700000000001
 31
0.0
  0
LINE
  5
6CF
330
1F
100
AcDbEntity
  8
0
  6
Continuous
 62
     7
100
AcDbLine
 10
150.3840999999999
 20
57.71679999999999
 30
0.0
 11
149.0246999999999
 21
58.12339999999998
 31
0.0
  0
LINE
  5
6D0
330
1F
100
AcDbEntity
  8
0
  6
Continuous
 62
     7
100
AcDbLine
 10
151.1031999999999
 20
57.1441
 30
0.0
 11
150.3753
 21
57.4756
 31
0.0
  0
LINE
  5
6D1
330
1F
100
AcDbEntity
  8
0
  6
Continuous
 62
     7
100
AcDbLine
 10
148.1315999999999
 20
49.33019999999999
 30
0.0
 11
147.3672
 21
49.5663
 31
0.0
  0
LINE
  5
6D2
330
1F
100
AcDbEntity
  8
0
  6
DASH_CENTER
 62
    30
100
AcDbLine
 10
187.3892999999999
 20
88.96380000000002
 30
0.0
 11
184.1725
 21
97.06740000000001
 31
0.0
  0
LINE
  5
6D3
330
1F
100
AcDbEntity
  8
0
  6
Continuous
 62
     7
100
AcDbLine
 10
150.5009
 20
62.1178
 30
0.0
 11
136.267
 21
77.66339999999998
 31
0.0
  0
LINE
  5
6D4
330
1F
100
AcDbEntity
  8
0
  6
DASH_CENTER
 62
    30
100
AcDbLine
 10
122.4752
 20
-24.83203258002923
 30
0.0
 11
114.564206598105
 21
-24.83203258002923
 31
0.0
  0
LINE
  5
6D5
330
1F
100
AcDbEntity
  8
0
  6
DASH_CENTER
 62
    30
100
AcDbLine
 10
126.021615751372
 20
-24.83203258002923
 30
0.0
 11
122.4752
 21
-24.83203258002923
 31
0.0
  0
LINE
  5
6D6
330
1F
100
AcDbEntity
  8
0
  6
DASH_CENTER
 62
    30
100
AcDbLine
 10
120.3251999999999
 20
-20.25500383160133
 30
0.0
 11
120.3251999999999
 21
-30.69960333595927
 31
0.0
  0
LINE
  5
6D7
330
1F
100
AcDbEntity
  8
0
  6
Continuous
 62
     7
100
AcDbLine
 10
118.2751999999998
 20
-18.53223258002922
 30
0.0
 11
117.0954999999999
 21
-24.15453258002923
 31
0.0
  0
LINE
  5
6D8
330
1F
100
AcDbEntity
  8
0
  6
Continuous
 62
     7
100
AcDbLine
 10
122.3749999999999
 20
-18.53223258002922
 30
0.0
 11
123.5546999999999
 21
-24.15453258002923
 31
0.0
  0
LINE
  5
6D9
330
1F
100
AcDbEntity
  8
0
  6
Continuous
 62
     7
100
AcDbLine
 10
118.2751999999998
 20
-13.73223258002927
 30
0.0
 11
118.2751999999998
 21
-18.53223258002922
 31
0.0
  0
LINE
  5
6DA
330
1F
100
AcDbEntity
  8
0
  6
Continuous
 62
     7
100
AcDbLine
 10
122.3749999999999
 20
-13.73223258002927
 30
0.0
 11
122.3749999999999
 21
-18.53223258002922
 31
0.0
  0
LINE
  5
6DB
330
1F
100
AcDbEntity
  8
0
  6
Continuous
 62
     7
100
AcDbLine
 10
118.2751999999998
 20
-18.53223258002922
 30
0.0
 11
122.3749999999999
 21
-18.53223258002922
 31
0.0
  0
LINE
  5
6DC
330
1F
100
AcDbEntity
  8
0
  6
Continuous
 62
     7
100
AcDbLine
 10
122.3749999999999
 20
-13.73223258002927
 30
0.0
 11
121.9251
 21
-13.73223258002927
 31
0.0
  0
LINE
  5
6DD
330
1F
100
AcDbEntity
  8
0
  6
Continuous
 62
     7
100
AcDbLine
 10
118.7251
 20
-13.73223258002927
 30
0.0
 11
118.7251
 21
-2.875132845961299
 31
0.0
  0
LINE
  5
6DE
330
1F
100
AcDbEntity
  8
0
  6
Continuous
 62
     7
100
AcDbLine
 10
118.7251
 20
-13.73223258002927
 30
0.0
 11
118.2751999999998
 21
-13.73223258002927
 31
0.0
  0
LINE
  5
6DF
330
1F
100
AcDbEntity
  8
0
  6
Continuous
 62
     7
100
AcDbLine
 10
121.9251
 20
-2.875132845961299
 30
0.0
 11
121.9251
 21
-13.73223258002927
 31
0.0
  0
LINE
  5
6E0
330
1F
100
AcDbEntity
  8
0
  6
Continuous
 62
     7
100
AcDbLine
 10
121.9251
 20
-13.73223258002927
 30
0.0
 11
118.7251
 21
-13.73223258002927
 31
0.0
  0
ARC
  5
6E1
330
1F
100
AcDbEntity
  8
0
  6
Continuous
 62
     7
100
AcDbCircle
 10
150.2802
 20
90.494
 30
0.0
 40
18.99998524683636
100
AcDbArc
 50
47.52250800454052
 51
90.0
  0
ARC
  5
6E2
330
1F
100
AcDbEntity
  8
0
  6
Continuous
 62
     7
100
AcDbCircle
 10
150.2802
 20
90.494
 30
0.0
 40
18.99998524683639
100
AcDbArc
 50
90.0
 51
180.0
  0
ARC
  5
6E3
330
1F
100
AcDbEntity
  8
0
  6
Continuous
 62
     7
100
AcDbCircle
 10
210.8084
 20
29.9659
 30
0.0
 40
65.60000000007628
100
AcDbArc
 50
359.9998253177453
 51
90.0
  0
ARC
  5
6E4
330
1F
100
AcDbEntity
  8
0
  6
Continuous
 62
     7
100
AcDbCircle
 10
210.8084
 20
29.9659
 30
0.0
 40
65.60000000007625
100
AcDbArc
 50
90.0
 51
179.9999126588727
  0
ARC
  5
6E5
330
1F
100
AcDbEntity
  8
0
  6
Continuous
 62
     7
100
AcDbCircle
 10
210.8084
 20
29.9659
 30
0.0
 40
65.60000000007622
100
AcDbArc
 50
179.9999126588727
 51
359.9998253177453
  0
ARC
  5
6E6
330
1F
100
AcDbEntity
  8
0
  6
Continuous
 62
    30
100
AcDbCircle
 10
128.4750999999999
 20
3.400304488465348
 30
0.0
 40
1.5
100
AcDbArc
 50
239.9999999999999
 51
300.0
  0
ARC
  5
6E7
330
1F
100
AcDbEntity
  8
0
  6
Continuous
 62
    30
100
AcDbCircle
 10
129.9751
 20
3.400304488465348
 30
0.0
 40
1.499999999999999
100
AcDbArc
 50
239.9999999999999
 51
300.0
  0
ARC
  5
6E8
330
1F
100
AcDbEntity
  8
0
  6
Continuous
 62
    30
100
AcDbCircle
 10
128.4750999999999
 20
0.8022282771120288
 30
0.0
 40
1.5
100
AcDbArc
 50
59.99999999999997
 51
120.0
  0
ARC
  5
6E9
330
1F
100
AcDbEntity
  8
0
  6
Continuous
 62
    30
100
AcDbCircle
 10
125.4750999999999
 20
3.400304488465348
 30
0.0
 40
1.5
100
AcDbArc
 50
239.9999999999999
 51
300.0
  0
ARC
  5
6EA
330
1F
100
AcDbEntity
  8
0
  6
Continuous
 62
    30
100
AcDbCircle
 10
126.9751
 20
3.400304488465348
 30
0.0
 40
1.499999999999999
100
AcDbArc
 50
239.9999999999999
 51
300.0
  0
ARC
  5
6EB
330
1F
100
AcDbEntity
  8
0
  6
Continuous
 62
    30
100
AcDbCircle
 10
125.4750999999999
 20
0.8022282771120288
 30
0.0
 40
1.5
100
AcDbArc
 50
59.99999999999997
 51
120.0
  0
ARC
  5
6EC
330
1F
100
AcDbEntity
  8
0
  6
Continuous
 62
    30
100
AcDbCircle
 10
122.4750999999999
 20
3.400304488465348
 30
0.0
 40
1.5
100
AcDbArc
 50
239.9999999999999
 51
300.0
  0
ARC
  5
6ED
330
1F
100
AcDbEntity
  8
0
  6
Continuous
 62
    30
100
AcDbCircle
 10
123.9751
 20
3.400304488465348
 30
0.0
 40
1.499999999999999
100
AcDbArc
 50
239.9999999999999
 51
300.0
  0
ARC
  5
6EE
330
1F
100
AcDbEntity
  8
0
  6
Continuous
 62
    30
100
AcDbCircle
 10
122.4750999999999
 20
0.8022282771120288
 30
0.0
 40
1.5
100
AcDbArc
 50
59.99999999999997
 51
120.0
  0
ARC
  5
6EF
330
1F
100
AcDbEntity
  8
0
  6
Continuous
 62
    30
100
AcDbCircle
 10
119.4750999999999
 20
3.400304488465348
 30
0.0
 40
1.5
100
AcDbArc
 50
239.9999999999999
 51
300.0
  0
ARC
  5
6F0
330
1F
100
AcDbEntity
  8
0
  6
Continuous
 62
    30
100
AcDbCircle
 10
120.9751
 20
3.400304488465348
 30
0.0
 40
1.499999999999999
100
AcDbArc
 50
239.9999999999999
 51
300.0
  0
ARC
  5
6F1
330
1F
100
AcDbEntity
  8
0
  6
Continuous
 62
    30
100
AcDbCircle
 10
119.4750999999999
 20
0.8022282771120288
 30
0.0
 40
1.5
100
AcDbArc
 50
59.99999999999997
 51
120.0
  0
ARC
  5
6F2
330
1F
100
AcDbEntity
  8
0
  6
Continuous
 62
     7
100
AcDbCircle
 10
242.3332999949999
 20
-37.33409999499901
 30
0.0
 40
0.500000005000004
100
AcDbArc
 50
359.9999994269269
 51
89.98854027117635
  0
ARC
  5
6F3
330
1F
100
AcDbEntity
  8
0
  6
Continuous
 62
     7
100
AcDbCircle
 10
221.8948830457054
 20
-35.70496354544623
 30
0.0
 40
1.000035612753104
100
AcDbArc
 50
99.58886446053533
 51
127.8111792534868
  0
ARC
  5
6F4
330
1F
100
AcDbEntity
  8
0
  6
Continuous
 62
     7
100
AcDbCircle
 10
239.652365487214
 20
-34.47298390971562
 30
0.0
 40
5.000010166344652
100
AcDbArc
 50
15.8950557127112
 51
114.1139228566977
  0
ARC
  5
6F5
330
1F
100
AcDbEntity
  8
0
  6
Continuous
 62
     7
100
AcDbCircle
 10
264.0808375310121
 20
-23.67569111038482
 30
0.0
 40
10.00005472940115
100
AcDbArc
 50
28.99979282523894
 51
134.8020741538298
  0
ARC
  5
6F6
330
1F
100
AcDbEntity
  8
0
  6
Continuous
 62
     7
100
AcDbCircle
 10
247.3183467204767
 20
-35.8340597772283
 30
0.0
 40
2.000040223481381
100
AcDbArc
 50
195.8973420051849
 51
270.0015263152117
  0
ARC
  5
6F7
330
1F
100
AcDbEntity
  8
0
  6
Continuous
 62
     7
100
AcDbCircle
 10
174.2984895840194
 20
-35.83410786383517
 30
0.0
 40
1.999992136191956
100
AcDbArc
 50
270.0002983970355
 51
344.1036980077067
  0
ARC
  5
6F8
330
1F
100
AcDbEntity
  8
0
  6
Continuous
 62
     7
100
AcDbCircle
 10
181.964434512786
 20
-34.47298390971565
 30
0.0
 40
5.000010166344671
100
AcDbArc
 50
65.8860771433023
 51
164.1049442872885
  0
ARC
  5
6F9
330
1F
100
AcDbEntity
  8
0
  6
Continuous
 62
     7
100
AcDbCircle
 10
157.5359746989754
 20
-23.67570360031106
 30
0.0
 40
9.999984019204582
100
AcDbArc
 50
45.19762225190576
 51
150.9999007826474
  0
ARC
  5
6FA
330
1F
100
AcDbEntity
  8
0
  6
Continuous
 62
     7
100
AcDbCircle
 10
179.283500005
 20
-37.33409999499901
 30
0.0
 40
0.5000000049999942
100
AcDbArc
 50
90.01145972882367
 51
180.000000573073
  0
ARC
  5
6FB
330
1F
100
AcDbEntity
  8
0
  6
Continuous
 62
     7
100
AcDbCircle
 10
199.7219169542946
 20
-35.70496354544623
 30
0.0
 40
1.000035612753094
100
AcDbArc
 50
52.18882074651316
 51
80.4111355394663
  0
ARC
  5
6FC
330
1F
100
AcDbEntity
  8
0
  6
Continuous
 62
     7
100
AcDbCircle
 10
137.6306039726254
 20
-34.83409766020925
 30
0.0
 40
2.00000234249332
100
AcDbArc
 50
269.9970214071775
 51
330.9973152755427
  0
ARC
  5
6FD
330
1F
100
AcDbEntity
  8
0
  6
Continuous
 62
     7
100
AcDbCircle
 10
203.150890782111
 20
-35.83406260832667
 30
0.0
 40
1.000037397637369
100
AcDbArc
 50
232.1955907783269
 51
270.0062574900866
  0
ARC
  5
6FE
330
1F
100
AcDbEntity
  8
0
  6
Continuous
 62
     7
100
AcDbCircle
 10
178.2834999949999
 20
-37.334100004999
 30
0.0
 40
0.5000000050000051
100
AcDbArc
 50
269.9885414170928
 51
0.0000005728426301
  0
ARC
  5
6FF
330
1F
100
AcDbEntity
  8
0
  6
Continuous
 62
     7
100
AcDbCircle
 10
243.333300005
 20
-37.334100004999
 30
0.0
 40
0.500000005000004
100
AcDbArc
 50
179.9999994271573
 51
270.0114585829071
  0
ARC
  5
700
330
1F
100
AcDbEntity
  8
0
  6
Continuous
 62
     7
100
AcDbCircle
 10
218.4659197189909
 20
-35.83409324793443
 30
0.0
 40
1.00000675225999
100
AcDbArc
 50
269.9988701926728
 51
307.8050099118285
  0
ARC
  5
701
330
1F
100
AcDbEntity
  8
0
  6
Continuous
 62
     7
100
AcDbCircle
 10
283.9862217868615
 20
-34.83405393678022
 30
0.0
 40
2.000046071159598
100
AcDbArc
 50
209.0034224157407
 51
270.0051053127486
  0
ARC
  5
702
330
1F
100
AcDbEntity
  8
0
  6
Continuous
 62
     7
100
AcDbCircle
 10
210.808410622494
 20
29.96601062258724
 30
0.0
 40
49.99993793640925
100
AcDbArc
 50
106.0574195696444
 51
163.9430827392429
  0
ARC
  5
703
330
1F
100
AcDbEntity
  8
0
  6
Continuous
 62
     7
100
AcDbCircle
 10
210.80841578588
 20
29.96598421404087
 30
0.0
 40
26.99999818693516
100
AcDbArc
 50
193.4933652950029
 51
256.5063475750321
  0
ARC
  5
704
330
1F
100
AcDbEntity
  8
0
  6
Continuous
 62
     7
100
AcDbCircle
 10
217.8081988166657
 20
80.48329896934294
 30
0.0
 40
2.999998816666031
100
AcDbArc
 50
82.11026331299542
 51
179.999980315892
  0
ARC
  5
705
330
1F
100
AcDbEntity
  8
0
  6
Continuous
 62
     7
100
AcDbCircle
 10
210.8084638621239
 20
29.96593613764421
 30
0.0
 40
36.00001809453493
100
AcDbArc
 50
192.2468015526801
 51
257.7529904337434
  0
ARC
  5
706
330
1F
100
AcDbEntity
  8
0
  6
Continuous
 62
     7
100
AcDbCircle
 10
165.64197346503
 20
16.96596474981555
 30
0.0
 40
3.000035250301803
100
AcDbArc
 50
89.99949322535721
 51
196.0584794829833
  0
ARC
  5
707
330
1F
100
AcDbEntity
  8
0
  6
Continuous
 62
     7
100
AcDbCircle
 10
160.2909950522851
 20
22.96599431918559
 30
0.0
 40
3.000005680818486
100
AcDbArc
 50
89.99990550578678
 51
187.8915142826699
  0
ARC
  5
708
330
1F
100
AcDbEntity
  8
0
  6
Continuous
 62
     7
100
AcDbCircle
 10
167.3685979533011
 20
22.96600174333574
 30
0.0
 40
2.999998256664962
100
AcDbArc
 50
9.152698020173831
 51
89.99996091090848
  0
ARC
  5
709
330
1F
100
AcDbEntity
  8
0
  6
Continuous
 62
     7
100
AcDbCircle
 10
210.8081570869836
 20
29.96602364606402
 30
0.0
 40
61.25000637629503
100
AcDbArc
 50
284.522867750232
 51
300.4768942906665
  0
ARC
  5
70A
330
1F
100
AcDbEntity
  8
0
  6
Continuous
 62
     7
100
AcDbCircle
 10
210.8077177502439
 20
29.96584166445487
 30
0.0
 40
64.25001924683613
100
AcDbArc
 50
284.8980578486573
 51
300.1025849046336
  0
ARC
  5
70B
330
1F
100
AcDbEntity
  8
0
  6
Continuous
 62
     7
100
AcDbCircle
 10
210.8080263542297
 20
29.96582220233824
 30
0.0
 40
61.24995278008765
100
AcDbArc
 50
329.5230986836681
 51
345.4771392754328
  0
ARC
  5
70C
330
1F
100
AcDbEntity
  8
0
  6
Continuous
 62
     7
100
AcDbCircle
 10
210.8082083347519
 20
29.96626153907792
 30
0.0
 40
64.24996560364727
100
AcDbArc
 50
329.897408710619
 51
345.1019485360893
  0
ARC
  5
70D
330
1F
100
AcDbEntity
  8
0
  6
Continuous
 62
     7
100
AcDbCircle
 10
210.8081951823848
 20
29.96577021157787
 30
0.0
 40
61.2499632841779
100
AcDbArc
 50
14.52315540537473
 51
30.47722939091574
  0
ARC
  5
70E
330
1F
100
AcDbEntity
  8
0
  6
Continuous
 62
     7
100
AcDbCircle
 10
210.8080813792085
 20
29.96604495483135
 30
0.0
 40
64.24995807413131
100
AcDbArc
 50
14.89758586669791
 51
30.1021761742015
  0
ARC
  5
70F
330
1F
100
AcDbEntity
  8
0
  6
Continuous
 62
     7
100
AcDbCircle
 10
210.8082777976619
 20
29.96592635422965
 30
0.0
 40
61.24995278008761
100
AcDbArc
 50
59.52309868366818
 51
75.47713927543291
  0
ARC
  5
710
330
1F
100
AcDbEntity
  8
0
  6
Continuous
 62
     7
100
AcDbCircle
 10
210.807838460922
 20
29.96610833475189
 30
0.0
 40
64.24996560364728
100
AcDbArc
 50
59.89740871061929
 51
75.10194853608929
  0
ARC
  5
711
330
1F
100
AcDbEntity
  8
0
  6
Continuous
 62
     7
100
AcDbCircle
 10
168.7726416582019
 20
16.96604302758505
 30
0.0
 40
2.99995697298226
100
AcDbArc
 50
17.18291769536837
 51
89.99888573775198
  0
ARC
  5
712
330
1F
100
AcDbEntity
  8
0
  6
Continuous
 62
     7
100
AcDbCircle
 10
183.7713274972221
 20
16.96604558911167
 30
0.0
 40
2.999954411764446
100
AcDbArc
 50
25.67874114391207
 51
89.99861527789937
  0
ARC
  5
713
330
1F
100
AcDbEntity
  8
0
  6
Continuous
 62
     7
100
AcDbCircle
 10
203.8082011833342
 20
80.48329896934294
 30
0.0
 40
2.999998816665998
100
AcDbArc
 50
0.000019684107897
 51
97.88973668700458
  0
ARC
  5
714
330
1F
100
AcDbEntity
  8
0
  6
Continuous
 62
     7
100
AcDbCircle
 10
223.8082047416454
 20
72.00159357050201
 30
0.0
 40
3.000004741652287
100
AcDbArc
 50
179.9998772058279
 51
252.8164094671422
  0
ARC
  5
715
330
1F
100
AcDbEntity
  8
0
  6
Continuous
 62
     7
100
AcDbCircle
 10
180.4768921772239
 20
16.96598813590066
 30
0.0
 40
3.000011864109538
100
AcDbArc
 50
89.99985059657188
 51
203.2011996345407
  0
ARC
  5
716
330
1F
100
AcDbEntity
  8
0
  6
Continuous
 62
     7
100
AcDbCircle
 10
178.5593087440654
 20
22.96601084589803
 30
0.0
 40
2.999989154114708
100
AcDbArc
 50
90.00016699995104
 51
192.2476573264887
  0
ARC
  5
717
330
1F
100
AcDbEntity
  8
0
  6
Continuous
 62
     7
100
AcDbCircle
 10
181.6363059020213
 20
22.96599534668549
 30
0.0
 40
3.000004653320308
100
AcDbArc
 50
13.49346889057517
 51
90.00011272012972
  0
ARC
  5
718
330
1F
100
AcDbEntity
  8
0
  6
Continuous
 62
     7
100
AcDbCircle
 10
189.372288131186
 20
22.96600861007167
 30
0.0
 40
2.999991389951791
100
AcDbArc
 50
18.08321870344779
 51
89.99977332169972
  0
ARC
  5
719
330
1F
100
AcDbEntity
  8
0
  6
Continuous
 62
     7
100
AcDbCircle
 10
210.8080999999999
 20
29.96599999999999
 30
0.0
 40
50.00001364499814
100
AcDbArc
 50
286.0572626883143
 51
343.9427373116856
  0
ARC
  5
71A
330
1F
100
AcDbEntity
  8
0
  6
Continuous
 62
     7
100
AcDbCircle
 10
189.3722095268443
 20
36.96600691078715
 30
0.0
 40
3.000006910802276
100
AcDbArc
 50
269.9998180510959
 51
341.9145571545611
  0
ARC
  5
71B
330
1F
100
AcDbEntity
  8
0
  6
Continuous
 62
     7
100
AcDbCircle
 10
223.8083214197604
 20
75.13221612438491
 30
0.0
 40
3.000021419803714
100
AcDbArc
 50
73.94315700621845
 51
180.0003079508685
  0
ARC
  5
71C
330
1F
100
AcDbEntity
  8
0
  6
Continuous
 62
     7
100
AcDbCircle
 10
181.6363059020213
 20
36.96600465331449
 30
0.0
 40
3.000004653320301
100
AcDbArc
 50
269.9998872798702
 51
346.5065311094248
  0
ARC
  5
71D
330
1F
100
AcDbEntity
  8
0
  6
Continuous
 62
     7
100
AcDbCircle
 10
183.7711708305471
 20
42.96604453433324
 30
0.0
 40
3.000044535169387
100
AcDbArc
 50
269.9986472562762
 51
334.3201766009125
  0
ARC
  5
71E
330
1F
100
AcDbEntity
  8
0
  6
Continuous
 62
     7
100
AcDbCircle
 10
180.4766878480806
 20
42.96601842817091
 30
0.0
 40
3.000018428195524
100
AcDbArc
 50
156.8031462090388
 51
270.0002320831385
  0
ARC
  5
71F
330
1F
100
AcDbEntity
  8
0
  6
Continuous
 62
     7
100
AcDbCircle
 10
223.8082118630052
 20
60.29730782233843
 30
0.0
 40
3.000011864942879
100
AcDbArc
 50
66.7988003495467
 51
180.0020592468325
  0
ARC
  5
720
330
1F
100
AcDbEntity
  8
0
  6
Continuous
 62
     7
100
AcDbCircle
 10
223.8081994741663
 20
57.00280083629203
 30
0.0
 40
2.999999474166461
100
AcDbArc
 50
180.000015972004
 51
244.3207176950606
  0
ARC
  5
721
330
1F
100
AcDbEntity
  8
0
  6
Continuous
 62
     7
100
AcDbCircle
 10
178.5592172952157
 20
36.96597854808024
 30
0.0
 40
2.999978548130093
100
AcDbArc
 50
167.7540457716672
 51
269.9996696833484
  0
ARC
  5
722
330
1F
100
AcDbEntity
  8
0
  6
Continuous
 62
     7
100
AcDbCircle
 10
217.8081982566641
 20
73.40540204669885
 30
0.0
 40
2.99999825666494
100
AcDbArc
 50
180.0000390890911
 51
260.8473019798264
  0
ARC
  5
723
330
1F
100
AcDbEntity
  8
0
  6
Continuous
 62
     7
100
AcDbCircle
 10
217.8081891541019
 20
62.21499125593464
 30
0.0
 40
2.999989154114713
100
AcDbArc
 50
77.75234267351007
 51
179.9998330000494
  0
ARC
  5
724
330
1F
100
AcDbEntity
  8
0
  6
Continuous
 62
     7
100
AcDbCircle
 10
160.2909070079758
 20
36.96599195412872
 30
0.0
 40
2.999991954136902
100
AcDbArc
 50
172.1120409445188
 51
269.999866157162
  0
ARC
  5
725
330
1F
100
AcDbEntity
  8
0
  6
Continuous
 62
     7
100
AcDbCircle
 10
217.8081438595326
 20
51.40177738852696
 30
0.0
 40
2.999943859617906
100
AcDbArc
 50
179.9995681445943
 51
251.9174398302594
  0
ARC
  5
726
330
1F
100
AcDbEntity
  8
0
  6
Continuous
 62
     7
100
AcDbCircle
 10
217.8082046533145
 20
59.13779409797864
 30
0.0
 40
3.000004653320311
100
AcDbArc
 50
179.9998872798704
 51
256.5065311094255
  0
ARC
  5
727
330
1F
100
AcDbEntity
  8
0
  6
Continuous
 62
     7
100
AcDbCircle
 10
167.3686072918521
 20
36.96600621080275
 30
0.0
 40
3.000006210811613
100
AcDbArc
 50
269.9998607361696
 51
350.8452380926093
  0
ARC
  5
728
330
1F
100
AcDbEntity
  8
0
  6
Continuous
 62
     7
100
AcDbCircle
 10
168.7725264612605
 20
42.96571951380633
 30
0.0
 40
3.000019513923035
100
AcDbArc
 50
269.9994946304373
 51
342.8142023115116
  0
ARC
  5
729
330
1F
100
AcDbEntity
  8
0
  6
Continuous
 62
     7
100
AcDbCircle
 10
165.6418304566398
 20
42.96595954081179
 30
0.0
 40
2.999959540966406
100
AcDbArc
 50
163.9435744815467
 51
269.9994183131814
  0
ARC
  5
72A
330
1F
100
AcDbEntity
  8
0
  6
Continuous
 62
     7
100
AcDbCircle
 10
203.8083086100717
 20
8.529888131186009
 30
0.0
 40
2.999991389951818
100
AcDbArc
 50
0.0002266783004889
 51
71.91678129655304
  0
ARC
  5
72B
330
1F
100
AcDbEntity
  8
0
  6
Continuous
 62
     7
100
AcDbCircle
 10
203.8082953466854
 20
0.7941059020213288
 30
0.0
 40
3.000004653320311
100
AcDbArc
 50
359.9998872798704
 51
76.50653110942553
  0
ARC
  5
72C
330
1F
100
AcDbEntity
  8
0
  6
Continuous
 62
     7
100
AcDbCircle
 10
197.8082554656668
 20
2.928870830547189
 30
0.0
 40
3.000044535169403
100
AcDbArc
 50
359.9986472562764
 51
64.32017660091168
  0
ARC
  5
72D
330
1F
100
AcDbEntity
  8
0
  6
Continuous
 62
     7
100
AcDbCircle
 10
197.8083078333627
 20
-0.3655948348284816
 30
0.0
 40
2.999992166641765
100
AcDbArc
 50
246.800307725574
 51
359.9999013522329
  0
ARC
  5
72E
330
1F
100
AcDbEntity
  8
0
  6
Continuous
 62
     7
100
AcDbCircle
 10
203.8083108458979
 20
-2.283091255934646
 30
0.0
 40
2.999989154114708
100
AcDbArc
 50
257.75234267351
 51
359.9998330000496
  0
ARC
  5
72F
330
1F
100
AcDbEntity
  8
0
  6
Continuous
 62
     7
100
AcDbCircle
 10
203.8083080458713
 20
-20.55139299202418
 30
0.0
 40
2.999991954136903
100
AcDbArc
 50
262.1120409445193
 51
359.9998661571617
  0
ARC
  5
730
330
1F
100
AcDbEntity
  8
0
  6
Continuous
 62
     7
100
AcDbCircle
 10
203.8082937891973
 20
-13.47369270814777
 30
0.0
 40
3.000006210811613
100
AcDbArc
 50
359.9998607361691
 51
80.84523809260966
  0
ARC
  5
731
330
1F
100
AcDbEntity
  8
0
  6
Continuous
 62
     7
100
AcDbCircle
 10
197.8083282540886
 20
-12.06993831198819
 30
0.0
 40
2.999971746155931
100
AcDbArc
 50
0.0007317119670987
 51
72.81487509719561
  0
ARC
  5
732
330
1F
100
AcDbEntity
  8
0
  6
Continuous
 62
     7
100
AcDbCircle
 10
197.8082785802396
 20
-15.20051612438488
 30
0.0
 40
3.000021419803726
100
AcDbArc
 50
253.9431570062184
 51
0.0003079508685195
  0
ARC
  5
733
330
1F
100
AcDbEntity
  8
0
  6
Continuous
 62
     7
100
AcDbCircle
 10
203.8081953466854
 20
59.13779409797864
 30
0.0
 40
3.000004653320308
100
AcDbArc
 50
283.4934688905745
 51
0.0001127201295223
  0
ARC
  5
734
330
1F
100
AcDbEntity
  8
0
  6
Continuous
 62
     7
100
AcDbCircle
 10
203.8082406188952
 20
51.40175599505271
 30
0.0
 40
2.999959381427462
100
AcDbArc
 50
288.084784350379
 51
0.0008404439650206
  0
ARC
  5
735
330
1F
100
AcDbEntity
  8
0
  6
Continuous
 62
     7
100
AcDbCircle
 10
203.808210845898
 20
62.21499125593464
 30
0.0
 40
2.999989154114711
100
AcDbArc
 50
0.0001669999508149
 51
102.2476573264899
  0
ARC
  5
736
330
1F
100
AcDbEntity
  8
0
  6
Continuous
 62
     7
100
AcDbCircle
 10
203.8081937891973
 20
73.40539270814776
 30
0.0
 40
3.000006210811603
100
AcDbArc
 50
279.1547619073919
 51
0.000139263830792
  0
ARC
  5
737
330
1F
100
AcDbEntity
  8
0
  6
Continuous
 62
     7
100
AcDbCircle
 10
197.8081788588591
 20
57.00276637490301
 30
0.0
 40
3.000021141329241
100
AcDbArc
 50
295.681661660644
 51
0.0006421875223055
  0
ARC
  5
738
330
1F
100
AcDbEntity
  8
0
  6
Continuous
 62
     7
100
AcDbCircle
 10
197.8082078340238
 20
60.29729483420521
 30
0.0
 40
2.999992167475106
100
AcDbArc
 50
359.998188795367
 51
113.1996922813427
  0
ARC
  5
739
330
1F
100
AcDbEntity
  8
0
  6
Continuous
 62
     7
100
AcDbCircle
 10
197.8081785802396
 20
75.13221612438487
 30
0.0
 40
3.000021419803732
100
AcDbArc
 50
359.9996920491316
 51
106.0568429937815
  0
ARC
  5
73A
330
1F
100
AcDbEntity
  8
0
  6
Continuous
 62
     7
100
AcDbCircle
 10
210.8084
 20
29.96599999999999
 30
0.0
 40
50.00001364499815
100
AcDbArc
 50
196.0572626883144
 51
253.9427373116856
  0
ARC
  5
73B
330
1F
100
AcDbEntity
  8
0
  6
Continuous
 62
     7
100
AcDbCircle
 10
197.8081804861935
 20
72.0015735387394
 30
0.0
 40
3.000019513923025
100
AcDbArc
 50
287.1857976884886
 51
0.0005053695635012
  0
ARC
  5
73C
330
1F
100
AcDbEntity
  8
0
  6
Continuous
 62
     7
100
AcDbCircle
 10
223.8082075908033
 20
-15.20050571436033
 30
0.0
 40
3.000007590808691
100
AcDbArc
 50
179.9998908640329
 51
286.0552064655305
  0
ARC
  5
73D
330
1F
100
AcDbEntity
  8
0
  6
Continuous
 62
     7
100
AcDbCircle
 10
223.8081717459113
 20
-12.06993831198817
 30
0.0
 40
2.999971746155928
100
AcDbArc
 50
107.1851249028043
 51
179.9992682880331
  0
ARC
  5
73E
330
1F
100
AcDbEntity
  8
0
  6
Continuous
 62
     7
100
AcDbCircle
 10
217.8082062108028
 20
-13.47369270814779
 30
0.0
 40
3.000006210811616
100
AcDbArc
 50
99.15476190739035
 51
180.0001392638304
  0
ARC
  5
73F
330
1F
100
AcDbEntity
  8
0
  6
Continuous
 62
     7
100
AcDbCircle
 10
217.8081919541286
 20
-20.55139299202418
 30
0.0
 40
2.999991954136902
100
AcDbArc
 50
180.000133842838
 51
277.8879590554806
  0
ARC
  5
740
330
1F
100
AcDbEntity
  8
0
  6
Continuous
 62
     7
100
AcDbCircle
 10
217.8081785480801
 20
-2.283082704784209
 30
0.0
 40
2.999978548130087
100
AcDbArc
 50
180.0003303166521
 51
282.2459542283327
  0
ARC
  5
741
330
1F
100
AcDbEntity
  8
0
  6
Continuous
 62
     7
100
AcDbCircle
 10
223.8081921666373
 20
-0.3655948348284816
 30
0.0
 40
2.999992166641773
100
AcDbArc
 50
180.000098647767
 51
293.1996922744259
  0
ARC
  5
742
330
1F
100
AcDbEntity
  8
0
  6
Continuous
 62
     7
100
AcDbCircle
 10
223.8082445343333
 20
2.928870830547189
 30
0.0
 40
3.000044535169398
100
AcDbArc
 50
115.6798233990883
 51
180.0013527437233
  0
ARC
  5
743
330
1F
100
AcDbEntity
  8
0
  6
Continuous
 62
     7
100
AcDbCircle
 10
217.8082046533145
 20
0.7941059020213288
 30
0.0
 40
3.000004653320308
100
AcDbArc
 50
103.4934688905744
 51
180.0001127201295
  0
ARC
  5
744
330
1F
100
AcDbEntity
  8
0
  6
Continuous
 62
     7
100
AcDbCircle
 10
217.8081913899283
 20
8.529888131186009
 30
0.0
 40
2.999991389951812
100
AcDbArc
 50
108.0832187034469
 51
179.9997733216995
  0
ARC
  5
745
330
1F
100
AcDbEntity
  8
0
  6
DASH_CENTER
 62
    30
100
AcDbCircle
 10
210.8087048756565
 20
29.96630459582044
 30
0.0
 40
60.99992291871583
100
AcDbArc
 50
129.6863495392587
 51
140.2610362673513
  0
ARC
  5
746
330
1F
100
AcDbEntity
  8
0
  6
Continuous
 62
     7
100
AcDbCircle
 10
210.8085717680391
 20
29.96607114932714
 30
0.0
 40
64.24995274924668
100
AcDbArc
 50
104.8978793961116
 51
120.1025054001798
  0
ARC
  5
747
330
1F
100
AcDbEntity
  8
0
  6
Continuous
 62
     7
100
AcDbCircle
 10
210.8082222023381
 20
29.96592635422965
 30
0.0
 40
61.24995278008763
100
AcDbArc
 50
104.522860724567
 51
120.4769013163317
  0
ARC
  5
748
330
1F
100
AcDbEntity
  8
0
  6
Continuous
 62
     7
100
AcDbCircle
 10
210.8083814369717
 20
29.96595518490734
 30
0.0
 40
64.24997092880779
100
AcDbArc
 50
149.897737938117
 51
165.1022420667868
  0
ARC
  5
749
330
1F
100
AcDbEntity
  8
0
  6
Continuous
 62
     7
100
AcDbCircle
 10
210.808304817615
 20
29.96577021157788
 30
0.0
 40
61.2499632841779
100
AcDbArc
 50
149.5227706090844
 51
165.4768445946254
  0
ARC
  5
74A
330
1F
100
AcDbEntity
  8
0
  6
Continuous
 62
     7
100
AcDbCircle
 10
210.8084167923229
 20
29.96595945976593
 30
0.0
 40
64.25000886080153
100
AcDbArc
 50
194.897762447964
 51
210.1022575471318
  0
ARC
  5
74B
330
1F
100
AcDbEntity
  8
0
  6
Continuous
 62
     7
100
AcDbCircle
 10
210.8083401731915
 20
29.96614443332051
 30
0.0
 40
61.2500011825352
100
AcDbArc
 50
194.523160373296
 51
210.477224422994
  0
ARC
  5
74C
330
1F
100
AcDbEntity
  8
0
  6
Continuous
 62
     7
100
AcDbCircle
 10
255.9746695424406
 20
42.96595954099372
 30
0.0
 40
2.999959541799757
100
AcDbArc
 50
269.9986718193069
 51
16.05642551025695
  0
ARC
  5
74D
330
1F
100
AcDbEntity
  8
0
  6
Continuous
 62
     7
100
AcDbCircle
 10
252.8439735387395
 20
42.96571951380633
 30
0.0
 40
3.000019513923044
100
AcDbArc
 50
197.1857976884879
 51
270.0005053695627
  0
ARC
  5
74E
330
1F
100
AcDbEntity
  8
0
  6
Continuous
 62
     7
100
AcDbCircle
 10
254.2478506626485
 20
36.96595684685703
 30
0.0
 40
2.999956847284833
100
AcDbArc
 50
189.1539588831686
 51
269.9990324007678
  0
ARC
  5
74F
330
1F
100
AcDbEntity
  8
0
  6
Continuous
 62
     7
100
AcDbCircle
 10
261.3255929920242
 20
36.96599195412871
 30
0.0
 40
2.999991954136888
100
AcDbArc
 50
270.000133842838
 51
7.887959055481775
  0
ARC
  5
750
330
1F
100
AcDbEntity
  8
0
  6
Continuous
 62
     7
100
AcDbCircle
 10
243.0572827047841
 20
36.96597854808022
 30
0.0
 40
2.999978548130076
100
AcDbArc
 50
270.0003303166532
 51
12.24595422833296
  0
ARC
  5
751
330
1F
100
AcDbEntity
  8
0
  6
Continuous
 62
     7
100
AcDbCircle
 10
241.1397818471139
 20
42.96597247047087
 30
0.0
 40
2.999972470525786
100
AcDbArc
 50
270.0003466977674
 51
23.19818487352768
  0
ARC
  5
752
330
1F
100
AcDbEntity
  8
0
  6
Continuous
 62
     7
100
AcDbCircle
 10
237.845300836292
 20
42.96599947416635
 30
0.0
 40
2.999999474166457
100
AcDbArc
 50
205.6792823049398
 51
269.9999840279965
  0
ARC
  5
753
330
1F
100
AcDbEntity
  8
0
  6
Continuous
 62
     7
100
AcDbCircle
 10
239.9801940979787
 20
36.9660046533145
 30
0.0
 40
3.000004653320313
100
AcDbArc
 50
193.4934688905753
 51
270.0001127201297
  0
ARC
  5
754
330
1F
100
AcDbEntity
  8
0
  6
Continuous
 62
     7
100
AcDbCircle
 10
232.2442904731556
 20
36.96600691078717
 30
0.0
 40
3.000006910802286
100
AcDbArc
 50
198.0854428454391
 51
270.000181948904
  0
ARC
  5
755
330
1F
100
AcDbEntity
  8
0
  6
Continuous
 62
     7
100
AcDbCircle
 10
232.244177388527
 20
22.9660561404673
 30
0.0
 40
2.99994385961791
100
AcDbArc
 50
89.99956814459393
 51
161.9174398302594
  0
ARC
  5
756
330
1F
100
AcDbEntity
  8
0
  6
Continuous
 62
     7
100
AcDbCircle
 10
239.9801940979787
 20
22.96599534668549
 30
0.0
 40
3.000004653320318
100
AcDbArc
 50
89.99988727987028
 51
166.5065311094246
  0
ARC
  5
757
330
1F
100
AcDbEntity
  8
0
  6
Continuous
 62
     7
100
AcDbCircle
 10
243.0571912559346
 20
22.96601084589802
 30
0.0
 40
2.999989154114715
100
AcDbArc
 50
347.7523426735114
 51
89.99983300004897
  0
ARC
  5
758
330
1F
100
AcDbEntity
  8
0
  6
Continuous
 62
     7
100
AcDbCircle
 10
241.1396078227761
 20
16.96598813590064
 30
0.0
 40
3.000011864109526
100
AcDbArc
 50
336.7988003654592
 51
90.00014940342813
  0
ARC
  5
759
330
1F
100
AcDbEntity
  8
0
  6
Continuous
 62
     7
100
AcDbCircle
 10
237.845100836292
 20
16.96600052583366
 30
0.0
 40
2.999999474166461
100
AcDbArc
 50
90.00001597200343
 51
154.3207176950603
  0
ARC
  5
75A
330
1F
100
AcDbEntity
  8
0
  6
Continuous
 62
     7
100
AcDbCircle
 10
252.8438583417981
 20
16.96604302758506
 30
0.0
 40
2.999956972982248
100
AcDbArc
 50
90.00111426224965
 51
162.8170823046318
  0
ARC
  5
75B
330
1F
100
AcDbEntity
  8
0
  6
Continuous
 62
     7
100
AcDbCircle
 10
254.2478599999741
 20
22.9660511067373
 30
0.0
 40
2.999948893529376
100
AcDbArc
 50
89.99923604276387
 51
170.8481050261536
  0
ARC
  5
75C
330
1F
100
AcDbEntity
  8
0
  6
Continuous
 62
     7
100
AcDbCircle
 10
261.3255049477148
 20
22.96599431918559
 30
0.0
 40
3.000005680818533
100
AcDbArc
 50
352.1084857173302
 51
90.00009449421325
  0
ARC
  5
75D
330
1F
100
AcDbEntity
  8
0
  6
Continuous
 62
     7
100
AcDbCircle
 10
255.97452653497
 20
16.96596474981555
 30
0.0
 40
3.000035250301801
100
AcDbArc
 50
343.9415205170163
 51
90.00050677464278
  0
ARC
  5
75E
330
1F
100
AcDbEntity
  8
0
  6
Continuous
 62
     7
100
AcDbCircle
 10
210.808036137876
 20
29.96593613764421
 30
0.0
 40
36.00001809453493
100
AcDbArc
 50
282.2470095662566
 51
347.7531984473198
  0
ARC
  5
75F
330
1F
100
AcDbEntity
  8
0
  6
Continuous
 62
     7
100
AcDbCircle
 10
210.80808421412
 20
29.96598421404089
 30
0.0
 40
26.99999818693517
100
AcDbArc
 50
283.4936524249678
 51
346.506634704997
  0
ARC
  5
760
330
1F
100
AcDbEntity
  8
0
  6
Continuous
 62
     7
100
AcDbCircle
 10
210.8080893775059
 20
29.96601062258727
 30
0.0
 40
49.9999379364092
100
AcDbArc
 50
16.05691726075687
 51
73.94258043035558
  0
ARC
  5
761
330
1F
100
AcDbEntity
  8
0
  6
Continuous
 62
     7
100
AcDbCircle
 10
210.8080999999999
 20
29.96599999999999
 30
0.0
 40
40.99999039853547
100
AcDbArc
 50
279.1542383912591
 51
350.8457616087401
  0
ARC
  5
762
330
1F
100
AcDbEntity
  8
0
  6
Continuous
 62
     7
100
AcDbCircle
 10
210.8086071236156
 20
29.96591420577446
 30
0.0
 40
64.25004432500212
100
AcDbArc
 50
239.8975054994568
 51
255.1021097042537
  0
ARC
  5
763
330
1F
100
AcDbEntity
  8
0
  6
Continuous
 62
     7
100
AcDbCircle
 10
210.8081195620773
 20
29.96598058449943
 30
0.0
 40
26.99994869512238
100
AcDbArc
 50
13.49324908606869
 51
76.93767510660229
  0
ARC
  5
764
330
1F
100
AcDbEntity
  8
0
  6
Continuous
 62
     7
100
AcDbCircle
 10
210.8080584144748
 20
29.96604158597818
 30
0.0
 40
35.99993741427254
100
AcDbArc
 50
12.24637712061163
 51
77.75299884092409
  0
ARC
  5
765
330
1F
100
AcDbEntity
  8
0
  6
Continuous
 62
     7
100
AcDbCircle
 10
210.808071185194
 20
29.96602881506055
 30
0.0
 40
40.99998244418329
100
AcDbArc
 50
9.153916297982684
 51
80.84557748176823
  0
ARC
  5
766
330
1F
100
AcDbEntity
  8
0
  6
Continuous
 62
     7
100
AcDbCircle
 10
210.8084
 20
29.96599999999999
 30
0.0
 40
40.99999039853547
100
AcDbArc
 50
189.1542383912594
 51
260.8457616087407
  0
ARC
  5
767
330
1F
100
AcDbEntity
  8
0
  6
Continuous
 62
     7
100
AcDbCircle
 10
210.8083804379226
 20
29.96598058449943
 30
0.0
 40
26.99994869512238
100
AcDbArc
 50
103.0623248933977
 51
166.5067509139311
  0
ARC
  5
768
330
1F
100
AcDbEntity
  8
0
  6
Continuous
 62
     7
100
AcDbCircle
 10
210.8084263858112
 20
29.96598907063371
 30
0.0
 40
61.25001891472511
100
AcDbArc
 50
239.5230220097995
 51
255.4769579951054
  0
ARC
  5
769
330
1F
100
AcDbEntity
  8
0
  6
Continuous
 62
     7
100
AcDbCircle
 10
210.8083915860698
 20
29.96599158597817
 30
0.0
 40
35.99999688284512
100
AcDbArc
 50
102.2470620458987
 51
167.7535619925639
  0
ARC
  5
76A
330
1F
100
AcDbEntity
  8
0
  6
Continuous
 62
     7
100
AcDbCircle
 10
210.8083692100744
 20
29.96596920989313
 30
0.0
 40
40.99993308101981
100
AcDbArc
 50
99.1543492648949
 51
170.8459882157671
  0
ARC
  5
76B
330
1F
100
AcDbEntity
  8
0
  6
Continuous
 62
     7
100
AcDbCircle
 10
210.8080999999999
 20
29.96545
 30
0.0
 40
68.10000960846115
100
AcDbArc
 50
170.0831090430757
 51
189.9168909569242
  0
ARC
  5
76C
330
1F
100
AcDbEntity
  8
0
  6
Continuous
 62
     7
100
AcDbCircle
 10
145.6957084093995
 20
41.34920571832085
 30
0.0
 40
2.000000863723962
100
AcDbArc
 50
78.34923814445267
 51
170.0815059783189
  0
ARC
  5
76D
330
1F
100
AcDbEntity
  8
0
  6
Continuous
 62
     7
100
AcDbCircle
 10
145.6957084093995
 20
18.58169428167913
 30
0.0
 40
2.000000863723959
100
AcDbArc
 50
189.918494021681
 51
281.6507618555473
  0
ARC
  5
76E
330
1F
100
AcDbEntity
  8
0
  6
Continuous
 62
     7
100
AcDbCircle
 10
210.8077
 20
29.9657
 30
0.0
 40
66.39995858989673
100
AcDbArc
 50
27.47005256915317
 51
62.52994743084811
  0
ARC
  5
76F
330
1F
100
AcDbEntity
  8
0
  6
Continuous
 62
     7
100
AcDbCircle
 10
139.7251
 20
17.96549999999999
 30
0.0
 40
9.0
100
AcDbArc
 50
90.0
 51
180.0
  0
ARC
  5
770
330
1F
100
AcDbEntity
  8
0
  6
Continuous
 62
     7
100
AcDbCircle
 10
136.7250999999999
 20
17.96549999999999
 30
0.0
 40
9.0
100
AcDbArc
 50
90.0
 51
180.0
  0
ARC
  5
771
330
1F
100
AcDbEntity
  8
0
  6
Continuous
 62
     7
100
AcDbCircle
 10
133.7250999999999
 20
17.96549999999999
 30
0.0
 40
9.0
100
AcDbArc
 50
90.0
 51
180.0
  0
ARC
  5
772
330
1F
100
AcDbEntity
  8
0
  6
Continuous
 62
     7
100
AcDbCircle
 10
133.7250999999999
 20
17.96549999999999
 30
0.0
 40
12.0
100
AcDbArc
 50
90.0
 51
180.0
  0
ARC
  5
773
330
1F
100
AcDbEntity
  8
0
  6
Continuous
 62
     7
100
AcDbCircle
 10
133.7250999999999
 20
17.96549999999999
 30
0.0
 40
15.0
100
AcDbArc
 50
90.0
 51
180.0
  0
ARC
  5
774
330
1F
100
AcDbEntity
  8
0
  6
DASH_CENTER
 62
    30
100
AcDbCircle
 10
210.8083403417708
 20
29.96605971378881
 30
0.0
 40
61.00003181083498
100
AcDbArc
 50
219.6859654355678
 51
230.2606999642281
  0
ARC
  5
775
330
1F
100
AcDbEntity
  8
0
  6
DASH_CENTER
 62
    30
100
AcDbCircle
 10
210.8082402396896
 20
29.96584038833569
 30
0.0
 40
61.00003187637693
100
AcDbArc
 50
309.6859654412653
 51
320.2606999585315
  0
ARC
  5
776
330
1F
100
AcDbEntity
  8
0
  6
DASH_CENTER
 62
    30
100
AcDbCircle
 10
210.8085596116644
 20
29.96584023968958
 30
0.0
 40
61.00003187637693
100
AcDbArc
 50
39.68596544126496
 51
50.2606999585314
  0
ARC
  5
777
330
1F
100
AcDbEntity
  8
0
  6
Continuous
 62
     7
100
AcDbCircle
 10
147.1164257129465
 20
53.0088324783204
 30
0.0
 40
1.29995780884599
100
AcDbArc
 50
158.3468439773113
 51
243.3478469708957
  0
ARC
  5
778
330
1F
100
AcDbEntity
  8
0
  6
Continuous
 62
     7
100
AcDbCircle
 10
148.6523054947033
 20
56.87780266219212
 30
0.0
 40
1.300006067279195
100
AcDbArc
 50
73.34950095237513
 51
158.3510164016189
  0
ARC
  5
779
330
1F
100
AcDbEntity
  8
0
  6
Continuous
 62
     7
100
AcDbCircle
 10
187.7654032373554
 20
93.65779876698471
 30
0.0
 40
1.300004282680645
100
AcDbArc
 50
26.64991783787831
 51
111.6492945645077
  0
ARC
  5
77A
330
1F
100
AcDbEntity
  8
0
  6
Continuous
 62
     7
100
AcDbCircle
 10
183.896509243078
 20
92.12191907999173
 30
0.0
 40
1.300024514980584
100
AcDbArc
 50
111.6539672548897
 51
196.6513863678309
  0
ARC
  5
77B
330
1F
100
AcDbEntity
  8
0
  6
Continuous
 62
     7
100
AcDbCircle
 10
150.2802
 20
90.494
 30
0.0
 40
18.99998524683642
100
AcDbArc
 50
180.0
 51
222.47749199546
  0
ARC
  5
77C
330
1F
100
AcDbEntity
  8
0
  6
Continuous
 62
     7
100
AcDbCircle
 10
180.6824238917208
 20
92.48609648250008
 30
0.0
 40
2.999991801558261
100
AcDbArc
 50
227.5217866945482
 51
295.7276082384147
  0
ARC
  5
77D
330
1F
100
AcDbEntity
  8
0
  6
Continuous
 62
     7
100
AcDbCircle
 10
210.8083499999999
 20
29.96585000000001
 30
0.0
 40
66.39997856569682
100
AcDbArc
 50
107.1687867437855
 51
162.8312132562147
  0
ARC
  5
77E
330
1F
100
AcDbEntity
  8
0
  6
Continuous
 62
     7
100
AcDbCircle
 10
148.2881035174998
 20
60.09177610827922
 30
0.0
 40
2.999991801558286
100
AcDbArc
 50
334.272391761585
 51
42.47821330545249
  0
ARC
  5
77F
330
1F
100
AcDbEntity
  8
0
  6
Continuous
 62
     7
100
AcDbCircle
 10
120.32525
 20
-24.83203258002923
 30
0.0
 40
3.299966800211787
100
AcDbArc
 50
168.1508663061888
 51
11.84913369381114
  0
ARC
  5
780
330
1F
100
AcDbEntity
  8
0
  6
Continuous
 62
    30
100
AcDbCircle
 10
119.5251
 20
-4.260773492016429
 30
0.0
 40
1.600000000000024
100
AcDbArc
 50
59.99999999999997
 51
119.9999999999999
  0
ARC
  5
781
330
1F
100
AcDbEntity
  8
0
  6
Continuous
 62
    30
100
AcDbCircle
 10
121.1251
 20
-1.489492199906177
 30
0.0
 40
1.600000000000014
100
AcDbArc
 50
239.9999999999999
 51
299.9999999999999
  0
ARC
  5
782
330
1F
100
AcDbEntity
  8
0
  6
Continuous
 62
    30
100
AcDbCircle
 10
121.1251
 20
-4.260773492016429
 30
0.0
 40
1.600000000000014
100
AcDbArc
 50
59.99999999999997
 51
119.9999999999999
  0
CIRCLE
  5
783
330
1F
100
AcDbEntity
  8
0
  6
Continuous
 62
     7
100
AcDbCircle
 10
210.8080999999999
 20
29.96599999999999
 30
0.0
 40
54.00000000000003
  0
CIRCLE
  5
784
330
1F
100
AcDbEntity
  8
0
  6
Continuous
 62
     7
100
AcDbCircle
 10
210.8080999999999
 20
29.96599999999999
 30
0.0
 40
7.75
  0
CIRCLE
  5
785
330
1F
100
AcDbEntity
  8
0
  6
Continuous
 62
     7
100
AcDbCircle
 10
210.8080999999999
 20
29.96599999999999
 30
0.0
 40
19.54990000000001
  0
CIRCLE
  5
786
330
1F
100
AcDbEntity
  8
0
  6
Continuous
 62
     7
100
AcDbCircle
 10
210.8080999999999
 20
29.96599999999999
 30
0.0
 40
17.25
  0
CIRCLE
  5
787
330
1F
100
AcDbEntity
  8
0
  6
Continuous
 62
     7
100
AcDbCircle
 10
210.8080999999999
 20
29.9657
 30
0.0
 40
7.0
  0
CIRCLE
  5
788
330
1F
100
AcDbEntity
  8
0
  6
Continuous
 62
     7
100
AcDbCircle
 10
167.6748
 20
73.09950000000002
 30
0.0
 40
3.5
  0
CIRCLE
  5
789
330
1F
100
AcDbEntity
  8
0
  6
Continuous
 62
     7
100
AcDbCircle
 10
167.6748
 20
73.09950000000002
 30
0.0
 40
2.0
  0
CIRCLE
  5
78A
330
1F
100
AcDbEntity
  8
0
  6
Continuous
 62
    30
100
AcDbCircle
 10
167.6748
 20
73.09950000000002
 30
0.0
 40
1.599999999999994
  0
CIRCLE
  5
78B
330
1F
100
AcDbEntity
  8
0
  6
Continuous
 62
     7
100
AcDbCircle
 10
210.8080999999999
 20
29.9657
 30
0.0
 40
7.400000000000003
  0
CIRCLE
  5
78C
330
1F
100
AcDbEntity
  8
0
  6
Continuous
 62
     7
100
AcDbCircle
 10
167.6749
 20
-13.1676
 30
0.0
 40
3.5
  0
CIRCLE
  5
78D
330
1F
100
AcDbEntity
  8
0
  6
Continuous
 62
     7
100
AcDbCircle
 10
167.6749
 20
-13.1676
 30
0.0
 40
2.0
  0
CIRCLE
  5
78E
330
1F
100
AcDbEntity
  8
0
  6
Continuous
 62
    30
100
AcDbCircle
 10
167.6749
 20
-13.1676
 30
0.0
 40
1.6
  0
CIRCLE
  5
78F
330
1F
100
AcDbEntity
  8
0
  6
Continuous
 62
     7
100
AcDbCircle
 10
253.942
 20
-13.1676
 30
0.0
 40
3.5
  0
CIRCLE
  5
790
330
1F
100
AcDbEntity
  8
0
  6
Continuous
 62
     7
100
AcDbCircle
 10
253.942
 20
-13.1676
 30
0.0
 40
2.0
  0
CIRCLE
  5
791
330
1F
100
AcDbEntity
  8
0
  6
Continuous
 62
    30
100
AcDbCircle
 10
253.942
 20
-13.1676
 30
0.0
 40
1.599999999999994
  0
CIRCLE
  5
792
330
1F
100
AcDbEntity
  8
0
  6
Continuous
 62
     7
100
AcDbCircle
 10
253.942
 20
73.09950000000002
 30
0.0
 40
3.5
  0
CIRCLE
  5
793
330
1F
100
AcDbEntity
  8
0
  6
Continuous
 62
     7
100
AcDbCircle
 10
253.942
 20
73.09950000000002
 30
0.0
 40
2.0
  0
CIRCLE
  5
794
330
1F
100
AcDbEntity
  8
0
  6
Continuous
 62
    30
100
AcDbCircle
 10
253.942
 20
73.09950000000002
 30
0.0
 40
1.600000000000008
  0
CIRCLE
  5
795
330
1F
100
AcDbEntity
  8
0
  6
Continuous
 62
     7
100
AcDbCircle
 10
120.3251999999999
 20
-24.83203258002923
 30
0.0
 40
2.150000000000102
  0
LINE
  5
7A0
330
1F
100
AcDbEntity
  8
0
  6
Continuous
 62
     7
100
AcDbLine
 10
-14.3872
 20
35.96569999999999
 30
0.0
 11
-7.176099999999991
 21
35.96569999999999
 31
0.0
  0
LINE
  5
7A1
330
1F
100
AcDbEntity
  8
0
  6
DASH_CENTER
 62
    30
100
AcDbLine
 10
-22.90039999999998
 20
29.9657
 30
0.0
 11
1.633399999999994
 21
29.9657
 31
0.0
  0
LINE
  5
7A2
330
1F
100
AcDbEntity
  8
0
  6
DASH_CENTER
 62
    30
100
AcDbLine
 10
-10.7817
 20
41.34559999999999
 30
0.0
 11
-10.7817
 21
17.79309999999999
 31
0.0
  0
LINE
  5
7AB
330
1F
100
AcDbEntity
  8
0
  6
Continuous
 62
     7
100
AcDbLine
 10
256.8081999999999
 20
-157.2809699375739
 30
0.0
 11
276.8081999999999
 21
-157.2809699375739
 31
0.0
  0
LINE
  5
7AC
330
1F
100
AcDbEntity
  8
0
  6
Continuous
 62
     7
100
AcDbLine
 10
256.8081999999999
 20
-150.2809699375738
 30
0.0
 11
276.8081999999999
 21
-150.2809699375738
 31
0.0
  0
LINE
  5
7AD
330
1F
100
AcDbEntity
  8
0
  6
Continuous
 62
     7
100
AcDbLine
 10
285.8081999999999
 20
-153.7812699375741
 30
0.0
 11
285.8081999999999
 21
-165.335869937574
 31
0.0
  0
LINE
  5
7AE
330
1F
100
AcDbEntity
  8
0
  6
Continuous
 62
     7
100
AcDbLine
 10
247.6049999999998
 20
-143.7809699375739
 30
0.0
 11
275.8084
 21
-143.7809699375739
 31
0.0
  0
LINE
  5
7AF
330
1F
100
AcDbEntity
  8
0
  6
DASH_CENTER
 62
    30
100
AcDbLine
 10
283.3755999999997
 20
-153.7809699375739
 30
0.0
 11
247.5125999999998
 21
-153.7809699375739
 31
0.0
  0
LINE
  5
7B0
330
1F
100
AcDbEntity
  8
0
  6
DASH_CENTER
 62
    30
100
AcDbLine
 10
266.8082
 20
-146.1840699375739
 30
0.0
 11
266.8082
 21
-161.8065699375738
 31
0.0
  0
ARC
  5
7B1
330
1F
100
AcDbEntity
  8
0
  6
Continuous
 62
     7
100
AcDbCircle
 10
276.8081999999999
 20
-153.7809699375739
 30
0.0
 40
3.5
100
AcDbArc
 50
270.0
 51
0.0
  0
ARC
  5
7B2
330
1F
100
AcDbEntity
  8
0
  6
Continuous
 62
     7
100
AcDbCircle
 10
256.8081999999999
 20
-153.7809699375739
 30
0.0
 40
3.5
100
AcDbArc
 50
90.0
 51
180.0
  0
ARC
  5
7B3
330
1F
100
AcDbEntity
  8
0
  6
Continuous
 62
     7
100
AcDbCircle
 10
275.8081999989999
 20
-153.7812699365741
 30
0.0
 40
10.00000000099999
100
AcDbArc
 50
359.9999999942703
 51
89.99885407868044
  0
ARC
  5
7B4
330
1F
100
AcDbEntity
  8
0
  6
Continuous
 62
     7
100
AcDbCircle
 10
276.8081999999999
 20
-153.7809699375739
 30
0.0
 40
3.5
100
AcDbArc
 50
0.0
 51
90.0
  0
ARC
  5
7B5
330
1F
100
AcDbEntity
  8
0
  6
Continuous
 62
     7
100
AcDbCircle
 10
256.8081999999999
 20
-153.7809699375739
 30
0.0
 40
3.499999999999971
100
AcDbArc
 50
180.0
 51
270.0
  0
ARC
  5
7B6
330
1F
100
AcDbEntity
  8
0
  6
Continuous
 62
     7
100
AcDbCircle
 10
-10.7817
 20
29.9657
 30
0.0
 40
7.0
100
AcDbArc
 50
90.0
 51
180.0
  0
ARC
  5
7B7
330
1F
100
AcDbEntity
  8
0
  6
Continuous
 62
     7
100
AcDbCircle
 10
-10.7817
 20
29.9657
 30
0.0
 40
7.0
100
AcDbArc
 50
180.0
 51
0.0
  0
ARC
  5
7B8
330
1F
100
AcDbEntity
  8
0
  6
Continuous
 62
     7
100
AcDbCircle
 10
-10.7817
 20
29.9657
 30
0.0
 40
7.0
100
AcDbArc
 50
0.0
 51
90.0
  0
SPLINE
  5
7B9
330
1F
100
AcDbEntity
  8
0
  6
Continuous
 62
    30
100
AcDbSpline
210
0.0
220
0.0
230
1.0
 70
     8
 71
     3
 72
   141
 73
   137
 74
   135
 42
0.0000000001
 43
0.0000000001
 44
0.00000001
 40
0.0
 40
0.0
 40
0.0
 40
0.0
 40
0.2626125722557759
 40
0.5252229897649223
 40
0.7878464660580561
 40
1.075428894539693
 40
1.363038469519159
 40
1.650586370738579
 40
1.93116599705965
 40
2.211798652447674
 40
2.49241766081763
 40
2.793855024799199
 40
3.095312440916019
 40
3.396867360777657
 40
3.698451587455529
 40
4.131419367174505
 40
4.564261333664831
 40
4.997082101088678
 40
5.504456529645337
 40
6.011845427822784
 40
6.017628938581405
 40
6.023412446106926
 40
6.02918432375414
 40
6.034956207771118
 40
6.392597960615615
 40
6.750241790400502
 40
7.107879068242029
 40
7.458869678834451
 40
7.809872634916553
 40
8.160857351962892
 40
8.662250235285977
 40
9.163667674269134
 40
9.665963731559305
 40
10.16826034608107
 40
10.67057205969226
 40
11.53513511739721
 40
12.39966727442298
 40
13.15108807270402
 40
13.90254681865638
 40
14.34352127109351
 40
14.78447779931067
 40
15.22546558312146
 40
15.66670408180285
 40
15.94520950942096
 40
16.22377830584838
 40
16.502280010267
 40
16.78067696223675
 40
17.05903809259534
 40
17.33755265406592
 40
17.60555161429091
 40
17.87365499845062
 40
18.14164887677248
 40
18.4094550499953
 40
18.67714768750862
 40
18.95195816673735
 40
19.22705363335585
 40
19.50247915331859
 40
19.77817141596927
 40
20.05397194558621
 40
20.32963988899203
 40
20.62920858574832
 40
20.92853756368703
 40
21.22780795499014
 40
21.52710147147678
 40
21.82640832152214
 40
22.12563524598862
 40
22.45504233936379
 40
22.78431214062672
 40
23.11352656921042
 40
23.44269033167671
 40
23.77173681646108
 40
24.13304127693848
 40
24.49434029182096
 40
24.85579325322767
 40
25.21743423172804
 40
25.57918777449609
 40
25.94088462366881
 40
26.51623964040038
 40
27.09123668120959
 40
27.66612082861385
 40
28.24100476126356
 40
29.19453933397165
 40
30.14813028236523
 40
30.86917923654623
 40
31.59022136773149
 40
32.31126706812965
 40
32.81978126287677
 40
33.3283029784538
 40
33.83682121827328
 40
34.34537023208827
 40
34.88768945933689
 40
35.42995946351301
 40
35.97207848225656
 40
36.45475494073526
 40
36.93751076578517
 40
37.42039946420076
 40
37.90335952236922
 40
38.41333129220715
 40
38.92320624963307
 40
39.43298700024188
 40
39.94276972224223
 40
40.4162151037454
 40
40.88973934494261
 40
41.36324863011979
 40
41.83667380712345
 40
42.35248327591892
 40
42.86833599801384
 40
43.38431243746338
 40
43.90038956572008
 40
44.41646096010112
 40
45.30530436082369
 40
46.19393822957797
 40
47.08256538739948
 40
47.76074793111895
 40
48.43893529127659
 40
49.11712161447571
 40
49.61240291207278
 40
50.10770005288122
 40
50.60300444592256
 40
51.09835660715187
 40
51.47019034914785
 40
51.84200607556491
 40
52.21375512448406
 40
52.58544661174369
 40
52.8872097588067
 40
53.18899926557977
 40
53.4909129616827
 40
53.67862654352773
 40
53.86630490942647
 40
54.05389867814499
 40
54.24150005309917
 40
54.41175084459253
 40
54.58197677432783
 40
54.75206400148936
 40
54.9231038290976
 40
55.09419135664089
 40
55.09419135664089
 40
55.09419135664089
 40
55.09419135664089
 10
247.6048999999998
 20
-143.7809699375739
 30
0.0
 10
247.5876612042702
 20
-143.8667934981533
 30
0.0
 10
247.5531837620062
 20
-144.0384399166637
 30
0.0
 10
247.5044848331264
 20
-144.2965122527726
 30
0.0
 10
247.4601779694793
 20
-144.5638393706218
 30
0.0
 10
247.4240785409675
 20
-144.8408397248257
 30
0.0
 10
247.3983280730064
 20
-145.1273467940139
 30
0.0
 10
247.3852747819773
 20
-145.412398163773
 30
0.0
 10
247.3857097183977
 20
-145.6954155201085
 30
0.0
 10
247.398163202668
 20
-145.9758268948812
 30
0.0
 10
247.4221314410274
 20
-146.2624561315504
 30
0.0
 10
247.4574336283876
 20
-146.5548989119898
 30
0.0
 10
247.5030314171303
 20
-146.85295425816
 30
0.0
 10
247.5561534888214
 20
-147.1497951784961
 30
0.0
 10
247.6234139640264
 20
-147.4885643141464
 30
0.0
 10
247.7050396783308
 20
-147.8690561212397
 30
0.0
 10
247.8018749691794
 20
-148.2909737561744
 30
0.0
 10
247.9089205928557
 20
-148.735964258515
 30
0.0
 10
248.0251618324137
 20
-149.2042830493728
 30
0.0
 10
248.1074069603244
 20
-149.5343738617024
 30
0.0
 10
248.1487193727238
 20
-149.7023536271511
 30
0.0
 10
248.1500991696158
 20
-149.7079661404871
 30
0.0
 10
248.1514774327429
 20
-149.7135750399914
 30
0.0
 10
248.1808326831969
 20
-149.8330843870898
 30
0.0
 10
248.237626069349
 20
-150.0666327629423
 30
0.0
 10
248.3188044634875
 20
-150.4149470935174
 30
0.0
 10
248.3944226960093
 20
-150.7622524824567
 30
0.0
 10
248.4628533099126
 20
-151.1087944202459
 30
0.0
 10
248.5240027209557
 20
-151.4544433311465
 30
0.0
 10
248.5857776409902
 20
-151.8508144580746
 30
0.0
 10
248.6438079019431
 20
-152.298393474199
 30
0.0
 10
248.6966995437598
 20
-152.7973297815303
 30
0.0
 10
248.7413941185768
 20
-153.2973557133391
 30
0.0
 10
248.7803032969901
 20
-153.7981546773606
 30
0.0
 10
248.8243843130226
 20
-154.4196519617677
 30
0.0
 10
248.875136147862
 20
-155.1617203366611
 30
0.0
 10
248.932936691569
 20
-155.9865384749899
 30
0.0
 10
248.9929153742803
 20
-156.7734000566469
 30
0.0
 10
249.0482311550759
 20
-157.4190001326191
 30
0.0
 10
249.1003462351924
 20
-157.9609723043429
 30
0.0
 10
249.1487027747107
 20
-158.3993078668061
 30
0.0
 10
249.2059793318002
 20
-158.8366727095119
 30
0.0
 10
249.2664434111986
 20
-159.2188928929026
 30
0.0
 10
249.3272467881346
 20
-159.546088635851
 30
0.0
 10
249.3848547714768
 20
-159.8186248907978
 30
0.0
 10
249.4501882269844
 20
-160.0893859192191
 30
0.0
 10
249.5242414519531
 20
-160.357833855578
 30
0.0
 10
249.6080100185331
 20
-160.6234288075074
 30
0.0
 10
249.7012522660389
 20
-160.8821824953337
 30
0.0
 10
249.8043285909946
 20
-161.1334913930595
 30
0.0
 10
249.9172810381842
 20
-161.3766711053361
 30
0.0
 10
250.0419786547138
 20
-161.6139871701753
 30
0.0
 10
250.1789037785922
 20
-161.844324225478
 30
0.0
 10
250.3298477377301
 20
-162.0685014885774
 30
0.0
 10
250.4956317773653
 20
-162.2850248195317
 30
0.0
 10
250.6755673476428
 20
-162.493333145685
 30
0.0
 10
250.8671769421416
 20
-162.6913507004684
 30
0.0
 10
251.0693989168417
 20
-162.8788469087722
 30
0.0
 10
251.2811758713147
 20
-163.0555920613596
 30
0.0
 10
251.50793432894
 20
-163.2262366262017
 30
0.0
 10
251.7496143605251
 20
-163.3894969273183
 30
0.0
 10
252.0060135668869
 20
-163.5443095974883
 30
0.0
 10
252.2695407832693
 20
-163.6864357952902
 30
0.0
 10
252.5393543336597
 20
-163.816190823469
 30
0.0
 10
252.814615265861
 20
-163.9338904755896
 30
0.0
 10
253.1039706690345
 20
-164.0434417759715
 30
0.0
 10
253.4071942560613
 20
-164.1438097545412
 30
0.0
 10
253.7240017841166
 20
-164.2339824155247
 30
0.0
 10
254.0441059458498
 20
-164.311265964332
 30
0.0
 10
254.3668664289613
 20
-164.3761567754249
 30
0.0
 10
254.7023399043407
 20
-164.4308977681161
 30
0.0
 10
255.0502292190862
 20
-164.4746520051425
 30
0.0
 10
255.410166750334
 20
-164.5073087454711
 30
0.0
 10
255.7710393957395
 20
-164.5288495368698
 30
0.0
 10
256.1325021951304
 20
-164.5406060806091
 30
0.0
 10
256.4942124612283
 20
-164.5439084075023
 30
0.0
 10
256.9271446049903
 20
-164.5393315043163
 30
0.0
 10
257.4309616812459
 20
-164.5235096753762
 30
0.0
 10
258.0052864072074
 20
-164.4934672343914
 30
0.0
 10
258.5788828461243
 20
-164.4541917690279
 30
0.0
 10
259.2777680046876
 20
-164.3983739718523
 30
0.0
 10
260.1018739184662
 20
-164.3253198276178
 30
0.0
 10
260.9746804248505
 20
-164.2497741669461
 30
0.0
 10
261.7711298562072
 20
-164.1914120546773
 30
0.0
 10
262.4909539679729
 20
-164.1489789497158
 30
0.0
 10
263.1406297899425
 20
-164.1218705295573
 30
0.0
 10
263.7198360197707
 20
-164.1076347759842
 30
0.0
 10
264.2283584998336
 20
-164.1031978581704
 30
0.0
 10
264.7368971212425
 20
-164.1076795965806
 30
0.0
 10
265.256522434634
 20
-164.122256154028
 30
0.0
 10
265.7869625136664
 20
-164.1486196017277
 30
0.0
 10
266.3277731036557
 20
-164.1886776226268
 30
0.0
 10
266.8475773493681
 20
-164.2409452344281
 30
0.0
 10
267.3460908577796
 20
-164.304590862487
 30
0.0
 10
267.8237634062549
 20
-164.3747111641177
 30
0.0
 10
268.3006180444206
 20
-164.4507204094798
 30
0.0
 10
268.7859627129822
 20
-164.5310054983183
 30
0.0
 10
269.2802306319149
 20
-164.6124680475164
 30
0.0
 10
269.783812473893
 20
-164.6923740091016
 30
0.0
 10
270.288217129556
 20
-164.7665434280971
 30
0.0
 10
270.7817690661159
 20
-164.8306891089235
 30
0.0
 10
271.2645650092574
 20
-164.8829907559085
 30
0.0
 10
271.7363194490156
 20
-164.9239569979992
 30
0.0
 10
272.2088589759754
 20
-164.9545039064419
 30
0.0
 10
272.6960616623714
 20
-164.9748272993628
 30
0.0
 10
273.1977363171503
 20
-164.9833268460168
 30
0.0
 10
273.7136435804602
 20
-164.9806010655102
 30
0.0
 10
274.2294892223541
 20
-164.9682662526378
 30
0.0
 10
274.7451546531495
 20
-164.9481760767685
 30
0.0
 10
275.3846815287037
 20
-164.915921222837
 30
0.0
 10
276.1477875821979
 20
-164.8692150397117
 30
0.0
 10
277.0343136916011
 20
-164.8069959477035
 30
0.0
 10
277.8505340358394
 20
-164.7462023025954
 30
0.0
 10
278.596819019476
 20
-164.690873582078
 30
0.0
 10
279.2734502725826
 20
-164.6448728866692
 30
0.0
 10
279.8897286954326
 20
-164.610370532049
 30
0.0
 10
280.4455444621063
 20
-164.5878232623905
 30
0.0
 10
280.9406972354797
 20
-164.5751387630814
 30
0.0
 10
281.4360221939347
 20
-164.5708173148906
 30
0.0
 10
281.8901933993044
 20
-164.5754148869064
 30
0.0
 10
282.3030465386185
 20
-164.5871135161535
 30
0.0
 10
282.6744688371482
 20
-164.6043709100156
 30
0.0
 10
283.0454149980452
 20
-164.6292768544364
 30
0.0
 10
283.3924358847259
 20
-164.6606552146719
 30
0.0
 10
283.7154548431524
 20
-164.6974522125247
 30
0.0
 10
284.0144412372453
 20
-164.738981961702
 30
0.0
 10
284.2746457342721
 20
-164.7826776614809
 30
0.0
 10
284.4962671408576
 20
-164.8258470398412
 30
0.0
 10
284.679454673585
 20
-164.8667197113129
 30
0.0
 10
284.8611040818806
 20
-164.9138701817697
 30
0.0
 10
285.0350864725301
 20
-164.9668818523528
 30
0.0
 10
285.2009479380192
 20
-165.0260254541291
 30
0.0
 10
285.3582951518262
 20
-165.0910723811402
 30
0.0
 10
285.5120991943083
 20
-165.1647857387235
 30
0.0
 10
285.661398215896
 20
-165.2477672329645
 30
0.0
 10
285.7591948578292
 20
-165.3064329804699
 30
0.0
 10
285.8080999999996
 20
-165.335769937574
 30
0.0
 11
247.6048999999998
 21
-143.7809699375739
 31
0.0
 11
247.5536866139393
 21
-144.0385404264507
 31
0.0
 11
247.5054444563409
 21
-144.2966817173604
 31
0.0
 11
247.4629703846937
 21
-144.5558477718909
 31
0.0
 11
247.4259834523965
 21
-144.8410417761116
 31
0.0
 11
247.4004250679856
 21
-145.1275134787335
 31
0.0
 11
247.3874630775488
 21
-145.4147690826989
 31
0.0
 11
247.3877129696266
 21
-145.6953485972332
 31
0.0
 11
247.3999861419651
 21
-145.9757127466211
 31
0.0
 11
247.4232
 21
-146.255369937574
 31
0.0
 11
247.4590090536719
 21
-146.5546727873741
 31
0.0
 11
247.5042788081994
 21
-146.8527117494657
 31
0.0
 11
247.55708533408
 21
-147.1496070852776
 31
0.0
 11
247.6155047018119
 21
-147.445479056239
 31
0.0
 11
247.7060543975341
 21
-147.8688723141466
 31
0.0
 11
247.8026114146357
 21
-148.2908070370901
 31
0.0
 11
247.9035739466719
 21
-148.7116875235699
 31
0.0
 11
248.0252340196881
 21
-149.2042599928704
 31
0.0
 11
248.1473380954048
 21
-149.6967374937248
 31
0.0
 11
248.1487192966756
 21
-149.702353656095
 31
0.0
 11
248.1500999999997
 21
-149.7079699375739
 31
0.0
 11
248.1514773537734
 21
-149.7135750663129
 31
0.0
 11
248.1528541990256
 21
-149.7191803265459
 31
0.0
 11
248.2370710248585
 21
-150.0667650640087
 31
0.0
 11
248.3179568717644
 21
-150.415142142554
 31
0.0
 11
248.3937499671028
 21
-150.7646558465949
 31
0.0
 11
248.4617106146912
 21
-151.1090041574927
 31
0.0
 11
248.5228211677415
 21
-151.4546464228519
 31
0.0
 11
248.5768324463538
 21
-151.801450479202
 31
0.0
 11
248.6418706679744
 21
-152.2986072486459
 31
0.0
 11
248.6952999999999
 21
-152.7971699375739
 31
0.0
 11
248.7404254594107
 21
-153.2974348896051
 31
0.0
 11
248.7797409939996
 21
-153.7981904964602
 31
0.0
 11
248.8156864237736
 21
-154.2992144317729
 31
0.0
 11
248.8753778526989
 21
-155.1617144109229
 31
0.0
 11
248.9365128434766
 21
-156.0240822925509
 31
0.0
 11
248.9940872095636
 21
-156.7732941506211
 31
0.0
 11
249.0586999999998
 21
-157.5219699375739
 31
0.0
 11
249.1013713914973
 21
-157.96087496144
 31
0.0
 11
249.1501862865206
 21
-158.3991212001311
 31
0.0
 11
249.2079092391791
 21
-158.8363148484553
 31
0.0
 11
249.277304803582
 21
-159.2720621012209
 31
0.0
 11
249.3283620978289
 21
-159.5458474658631
 31
0.0
 11
249.3861487430129
 21
-159.8183566913195
 31
0.0
 11
249.451653118565
 21
-160.0890453983753
 31
0.0
 11
249.5258636039161
 21
-160.3573692078163
 31
0.0
 11
249.6097685784968
 21
-160.6227837404279
 31
0.0
 11
249.7043564217379
 21
-160.8847446169959
 31
0.0
 11
249.8061826702185
 21
-161.1326455201744
 31
0.0
 11
249.919259852701
 21
-161.3757359876931
 31
0.0
 11
250.0440582687696
 21
-161.6128985356805
 31
0.0
 11
250.1810482180079
 21
-161.8430156802645
 31
0.0
 11
250.3306999999998
 21
-162.0649699375739
 31
0.0
 11
250.4976678710055
 21
-162.283241625073
 31
0.0
 11
250.6774057250483
 21
-162.4915006455275
 31
0.0
 11
250.8688543620325
 21
-162.6895073031683
 31
0.0
 11
251.0709545818619
 21
-162.8770219022269
 31
0.0
 11
251.2826471844404
 21
-163.0538047469345
 31
0.0
 11
251.5028729696719
 21
-163.2196161415228
 31
0.0
 11
251.7510481019549
 21
-163.3873972722718
 31
0.0
 11
252.0072316264204
 21
-163.542212771724
 31
0.0
 11
252.2705826880782
 21
-163.6843710830525
 31
0.0
 11
252.5402604319384
 21
-163.8141806494308
 31
0.0
 11
252.815424003011
 21
-163.9319499140318
 31
0.0
 11
253.0952325463059
 21
-164.0379873200288
 31
0.0
 11
253.407919987271
 21
-164.1416000484134
 31
0.0
 11
253.7245821231486
 21
-164.2318424651518
 31
0.0
 11
254.0445772839131
 21
-164.3092067794524
 31
0.0
 11
254.3672637995388
 21
-164.3741852005235
 31
0.0
 11
254.6919999999998
 21
-164.427269937574
 31
0.0
 11
255.0504523319575
 21
-164.4725782031656
 31
0.0
 11
255.4102527719171
 21
-164.505451012797
 31
0.0
 11
255.7710499209304
 21
-164.5272147584272
 31
0.0
 11
256.132492380049
 21
-164.5391958320146
 31
0.0
 11
256.4942287503252
 21
-164.5427206255186
 31
0.0
 11
256.8559076328108
 21
-164.5391155308979
 31
0.0
 11
257.4309931060129
 21
-164.5215060480103
 31
0.0
 11
258.0052287215094
 21
-164.4919247207501
 31
0.0
 11
258.5788009736048
 21
-164.4531090713096
 31
0.0
 11
259.1518963566048
 21
-164.4077966218808
 31
0.0
 11
260.1018858855958
 21
-164.3256499462095
 31
0.0
 11
261.0520999999999
 21
-164.2454699375739
 31
0.0
 11
261.7712462623547
 21
-164.1931225619441
 31
0.0
 11
262.4910593521398
 21
-164.1510408464547
 31
0.0
 11
263.2114926725019
 21
-164.1213300230609
 31
0.0
 11
263.7198568235589
 21
-164.1089778490905
 31
0.0
 11
264.2283604131869
 21
-164.1046842994569
 31
0.0
 11
264.7368576207687
 21
-164.1093092456574
 31
0.0
 11
265.2452026256868
 21
-164.1237125591898
 31
0.0
 11
265.7868444213691
 21
-164.1508107035098
 31
0.0
 11
266.3276195061085
 21
-164.1910483123109
 31
0.0
 11
266.8669999999996
 21
-164.2454699375739
 31
0.0
 11
267.3458555351053
 21
-164.3060829730259
 31
0.0
 11
267.8235677309223
 21
-164.3756835806527
 31
0.0
 11
268.3005178351434
 21
-164.4511825417859
 31
0.0
 11
268.777087095461
 21
-164.5294906377569
 31
0.0
 11
269.2803446105024
 21
-164.6119714207916
 31
0.0
 11
269.7839910277093
 21
-164.6914242912665
 31
0.0
 11
270.2884147989631
 21
-164.765133671034
 31
0.0
 11
270.7940043761448
 21
-164.8303839819459
 31
0.0
 11
271.2647022118464
 21
-164.8813160613535
 31
0.0
 11
271.736456393804
 21
-164.9222208139583
 31
0.0
 11
272.2089834728957
 21
-164.9527036394639
 31
0.0
 11
272.6819999999997
 21
-164.9723699375738
 31
0.0
 11
273.1977301392803
 21
-164.9814160141704
 31
0.0
 11
273.7135772055229
 21
-164.9790004186318
 31
0.0
 11
274.2294134948183
 21
-164.9669750842047
 31
0.0
 11
274.7451113032568
 21
-164.9471919441355
 31
0.0
 11
275.2605429269288
 21
-164.9215029316708
 31
0.0
 11
276.1477679150324
 21
-164.8678893950818
 31
0.0
 11
277.0342693506345
 21
-164.8063641388376
 31
0.0
 11
277.9204928963967
 21
-164.7410491152658
 31
0.0
 11
278.5968676325194
 21
-164.6915639783549
 31
0.0
 11
279.2735375174966
 21
-164.6462212605396
 31
0.0
 11
279.9506999999999
 21
-164.6089699375739
 31
0.0
 11
280.4455807682479
 21
-164.589055398868
 31
0.0
 11
280.9407195768678
 21
-164.5765327087434
 31
0.0
 11
281.4360065046457
 21
-164.572373284978
 31
0.0
 11
281.9313316303678
 21
-164.5775485453489
 31
0.0
 11
282.303011782692
 21
-164.5882347966917
 31
0.0
 11
282.6744195575786
 21
-164.6056474090986
 31
0.0
 11
283.0453229780603
 21
-164.6307074957982
 31
0.0
 11
283.4154900671688
 21
-164.6643361700189
 31
0.0
 11
283.7152926681486
 21
-164.6986785241658
 31
0.0
 11
284.0141862395871
 21
-164.740386308306
 31
0.0
 11
284.3118999999998
 21
-164.7905699375739
 31
0.0
 11
284.4961073948276
 21
-164.8266812162823
 31
0.0
 11
284.6792317990741
 21
-164.8677740567654
 31
0.0
 11
284.8607503383852
 21
-164.9151284851187
 31
0.0
 11
285.0401401384079
 21
-164.970024527438
 31
0.0
 11
285.2004533004551
 21
-165.0273396390254
 31
0.0
 11
285.3577074128941
 21
-165.0925164079781
 31
0.0
 11
285.5110238754318
 21
-165.1661623658259
 31
0.0
 11
285.6609029968609
 21
-165.2485691112693
 31
0.0
 11
285.8080999999996
 21
-165.335769937574
 31
0.0
  0
MTEXT
  5
90A
330
1F
100
AcDbEntity
  8
0
100
AcDbMText
 10
-45.4345716512559
 20
-133.6269004187456
 30
0.0
 40
8.0
 41
121.1016119577365
 71
     1
 72
     1
  1
AEC-DBF 4P 0.1kW
 73
     1
 44
1.0
  0
VIEWPORT
  5
71
330
55
100
AcDbEntity
 67
     1
  8
0
100
AcDbViewport
 10
133.3499908447265
 20
101.5999970436096
 30
0.0
 40
381.3957395593834
 41
218.2856291881582
 68
     1
 69
     1
 12
133.3499908447265
 22
101.5999970436096
 13
0.0
 23
0.0
 14
10.0
 24
10.0
 15
10.0
 25
10.0
 16
0.0
 26
0.0
 36
1.0
 17
0.0
 27
0.0
 37
0.0
 42
50.0
 43
0.0
 44
0.0
 45
218.2856291881582
 50
0.0
 51
0.0
 72
   100
 90
    32800
  1

281
     0
 71
     1
 74
     0
110
0.0
120
0.0
130
0.0
111
1.0
121
0.0
131
0.0
112
0.0
122
1.0
132
0.0
 79
     0
146
0.0
  0
VIEWPORT
  5
73
330
55
100
AcDbEntity
 67
     1
  8
0
100
AcDbViewport
 10
133.349993944168
 20
101.599993944168
 30
0.0
 40
213.3599903106689
 41
162.5599903106689
 68
     2
 69
     2
 12
210.0
 22
148.5
 13
0.0
 23
0.0
 14
10.0
 24
10.0
 15
10.0
 25
10.0
 16
0.0
 26
0.0
 36
1.0
 17
0.0
 27
0.0
 37
0.0
 42
50.0
 43
0.0
 44
0.0
 45
324.0677920111345
 50
0.0
 51
0.0
 72
   100
 90
    32864
  1

281
     0
 71
     1
 74
     0
110
0.0
120
0.0
130
0.0
111
1.0
121
0.0
131
0.0
112
0.0
122
1.0
132
0.0
 79
     0
146
0.0
  0
ENDSEC
  0
SECTION
  2
OBJECTS
  0
DICTIONARY
  5
C
330
0
100
AcDbDictionary
281
     1
  3
ACAD_GROUP
350
D
  3
ACAD_LAYOUT
350
1A
  3
ACAD_MLINESTYLE
350
17
  3
ACAD_PLOTSETTINGS
350
19
  3
ACAD_PLOTSTYLENAME
350
E
  3
AcDbVariableDictionary
350
5E
  0
DICTIONARY
  5
D
102
{ACAD_REACTORS
330
C
102
}
330
C
100
AcDbDictionary
281
     1
  0
DICTIONARY
  5
1A
102
{ACAD_REACTORS
330
C
102
}
330
C
100
AcDbDictionary
281
     1
  3
Model
350
22
  3
ﾚｲｱｳﾄ1
350
51
  3
ﾚｲｱｳﾄ2
350
56
  0
DICTIONARY
  5
17
102
{ACAD_REACTORS
330
C
102
}
330
C
100
AcDbDictionary
281
     1
  3
Standard
350
18
  0
DICTIONARY
  5
19
102
{ACAD_REACTORS
330
C
102
}
330
C
100
AcDbDictionary
281
     1
  0
ACDBDICTIONARYWDFLT
  5
E
102
{ACAD_REACTORS
330
C
102
}
330
C
100
AcDbDictionary
281
     1
  3
Normal
350
F
100
AcDbDictionaryWithDefault
340
F
  0
DICTIONARY
  5
5E
102
{ACAD_REACTORS
330
C
102
}
330
C
100
AcDbDictionary
281
     1
  3
DIMASSOC
350
5F
  3
HIDETEXT
350
63
  0
LAYOUT
  5
22
102
{ACAD_REACTORS
330
1A
102
}
330
1A
100
AcDbPlotSettings
  1

  2
none_device
  4
ANSI_A_(8.50_x_11.00_Inches)
  6

 40
6.349999904632568
 41
19.04999923706054
 42
6.350006103515625
 43
19.04998779296875
 44
215.8999938964843
 45
279.3999938964843
 46
0.0
 47
0.0
 48
0.0
 49
0.0
140
0.0
141
0.0
142
1.0
143
78.436453180766
 70
 11952
 72
     0
 73
     1
 74
     0
  7

 75
     0
147
0.0127491741332998
148
0.0
149
0.0
100
AcDbLayout
  1
Model
 70
     1
 71
     0
 10
0.0
 20
0.0
 11
12.0
 21
9.0
 12
0.0
 22
0.0
 32
0.0
 14
0.0
 24
0.0
 34
0.0
 15
0.0
 25
0.0
 35
0.0
146
0.0
 13
0.0
 23
0.0
 33
0.0
 16
1.0
 26
0.0
 36
0.0
 17
0.0
 27
1.0
 37
0.0
 76
     0
330
1F
  0
LAYOUT
  5
51
102
{ACAD_REACTORS
330
1A
102
}
330
1A
100
AcDbPlotSettings
  1

  2
none_device
  4
Letter_(8.50_x_11.00_Inches)
  6

 40
6.349999904632568
 41
6.349999904632568
 42
6.350006103515625
 43
6.350006103515625
 44
215.8999938964843
 45
279.3999938964843
 46
0.0
 47
0.0
 48
0.0
 49
0.0
140
0.0
141
0.0
142
1.0
143
1.0
 70
   688
 72
     1
 73
     1
 74
     5
  7

 75
    16
147
1.0
148
0.0
149
0.0
100
AcDbLayout
  1
ﾚｲｱｳﾄ1
 70
     1
 71
     1
 10
-6.350006103515625
 20
-6.349999904632568
 11
273.0499877929687
 21
209.5499939918517
 12
0.0
 22
0.0
 32
0.0
 14
26.66076962115562
 24
20.31135699206657
 34
-0.0015258207003583
 15
240.039213369355
 25
182.8886381005154
 35
0.0000000349246037
146
0.0
 13
0.0
 23
0.0
 33
0.0
 16
1.0
 26
0.0
 36
0.0
 17
0.0
 27
1.0
 37
0.0
 76
     0
330
50
331
6B
  0
LAYOUT
  5
56
102
{ACAD_REACTORS
330
1A
102
}
330
1A
100
AcDbPlotSettings
  1

  2
none_device
  4
Letter_(8.50_x_11.00_Inches)
  6

 40
6.349999904632568
 41
6.349999904632568
 42
6.350006103515625
 43
6.350006103515625
 44
215.8999938964843
 45
279.3999938964843
 46
0.0
 47
0.0
 48
0.0
 49
0.0
140
0.0
141
0.0
142
1.0
143
1.0
 70
   688
 72
     1
 73
     1
 74
     5
  7

 75
    16
147
1.0
148
0.0
149
0.0
100
AcDbLayout
  1
ﾚｲｱｳﾄ2
 70
     1
 71
     2
 10
-6.350006103515625
 20
-6.349999904632568
 11
273.0499877929687
 21
209.5499939918517
 12
0.0
 22
0.0
 32
0.0
 14
26.66076962115562
 24
20.31135699206657
 34
-0.0015258207003583
 15
240.039213369355
 25
182.8886381005154
 35
0.0000000349246037
146
0.0
 13
0.0
 23
0.0
 33
0.0
 16
1.0
 26
0.0
 36
0.0
 17
0.0
 27
1.0
 37
0.0
 76
     0
330
55
331
71
  0
MLINESTYLE
  5
18
102
{ACAD_REACTORS
330
17
102
}
330
17
100
AcDbMlineStyle
  2
STANDARD
 70
     0
  3

 62
   256
 51
90.0
 52
90.0
 71
     2
 49
0.5
 62
   256
  6
BYLAYER
 49
-0.5
 62
   256
  6
BYLAYER
  0
ACDBPLACEHOLDER
  5
F
102
{ACAD_REACTORS
330
E
102
}
330
E
  0
DICTIONARYVAR
  5
5F
102
{ACAD_REACTORS
330
5E
102
}
330
5E
100
DictionaryVariables
280
     0
  1
2
  0
DICTIONARYVAR
  5
63
102
{ACAD_REACTORS
330
5E
102
}
330
5E
100
DictionaryVariables
280
     0
  1
1
  0
ENDSEC
  0
EOF
