  0
SECTION
  2
HEADER
  9
$ACADVER
  1
AC1015
  9
$ACADMAINTVER
 70
    14
  9
$DWGCODEPAGE
  3
ANSI_932
  9
$INSBASE
 10
0.0
 20
0.0
 30
0.0
  9
$EXTMIN
 10
-325.5422967643736
 20
-178.111175052951
 30
-0.0015258207003583
  9
$EXTMAX
 10
280.3994759130286
 20
117.0138500835607
 30
0.0000000349246037
  9
$LIMMIN
 10
0.0
 20
0.0
  9
$LIMMAX
 10
420.0
 20
297.0
  9
$ORTHOMODE
 70
     0
  9
$REGENMODE
 70
     1
  9
$FILLMODE
 70
     1
  9
$QTEXTMODE
 70
     0
  9
$MIRRTEXT
 70
     1
  9
$LTSCALE
 40
1.0
  9
$ATTMODE
 70
     1
  9
$TEXTSIZE
 40
2.5
  9
$TRACEWID
 40
1.0
  9
$TEXTSTYLE
  7
Standard
  9
$CLAYER
  8
0
  9
$CELTYPE
  6
ByLayer
  9
$CECOLOR
 62
   256
  9
$CELTSCALE
 40
1.0
  9
$DISPSILH
 70
     0
  9
$DIMSCALE
 40
1.0
  9
$DIMASZ
 40
2.5
  9
$DIMEXO
 40
0.625
  9
$DIMDLI
 40
3.75
  9
$DIMRND
 40
0.0
  9
$DIMDLE
 40
0.0
  9
$DIMEXE
 40
1.25
  9
$DIMTP
 40
0.0
  9
$DIMTM
 40
0.0
  9
$DIMTXT
 40
2.5
  9
$DIMCEN
 40
2.5
  9
$DIMTSZ
 40
0.0
  9
$DIMTOL
 70
     0
  9
$DIMLIM
 70
     0
  9
$DIMTIH
 70
     0
  9
$DIMTOH
 70
     0
  9
$DIMSE1
 70
     0
  9
$DIMSE2
 70
     0
  9
$DIMTAD
 70
     1
  9
$DIMZIN
 70
     8
  9
$DIMBLK
  1

  9
$DIMASO
 70
     1
  9
$DIMSHO
 70
     1
  9
$DIMPOST
  1

  9
$DIMAPOST
  1

  9
$DIMALT
 70
     0
  9
$DIMALTD
 70
     3
  9
$DIMALTF
 40
0.03937007874016
  9
$DIMLFAC
 40
1.0
  9
$DIMTOFL
 70
     1
  9
$DIMTVP
 40
0.0
  9
$DIMTIX
 70
     0
  9
$DIMSOXD
 70
     0
  9
$DIMSAH
 70
     0
  9
$DIMBLK1
  1

  9
$DIMBLK2
  1

  9
$DIMSTYLE
  2
ISO-25
  9
$DIMCLRD
 70
     0
  9
$DIMCLRE
 70
     0
  9
$DIMCLRT
 70
     0
  9
$DIMTFAC
 40
1.0
  9
$DIMGAP
 40
0.625
  9
$DIMJUST
 70
     0
  9
$DIMSD1
 70
     0
  9
$DIMSD2
 70
     0
  9
$DIMTOLJ
 70
     0
  9
$DIMTZIN
 70
     8
  9
$DIMALTZ
 70
     0
  9
$DIMALTTZ
 70
     0
  9
$DIMUPT
 70
     0
  9
$DIMDEC
 70
     2
  9
$DIMTDEC
 70
     2
  9
$DIMALTU
 70
     2
  9
$DIMALTTD
 70
     3
  9
$DIMTXSTY
  7
Standard
  9
$DIMAUNIT
 70
     0
  9
$DIMADEC
 70
     0
  9
$DIMALTRND
 40
0.0
  9
$DIMAZIN
 70
     0
  9
$DIMDSEP
 70
    44
  9
$DIMATFIT
 70
     3
  9
$DIMFRAC
 70
     0
  9
$DIMLDRBLK
  1

  9
$DIMLUNIT
 70
     2
  9
$DIMLWD
 70
    -2
  9
$DIMLWE
 70
    -2
  9
$DIMTMOVE
 70
     0
  9
$LUNITS
 70
     2
  9
$LUPREC
 70
     4
  9
$SKETCHINC
 40
1.0
  9
$FILLETRAD
 40
10.0
  9
$AUNITS
 70
     0
  9
$AUPREC
 70
     0
  9
$MENU
  1
.
  9
$ELEVATION
 40
0.0
  9
$PELEVATION
 40
0.0
  9
$THICKNESS
 40
0.0
  9
$LIMCHECK
 70
     0
  9
$CHAMFERA
 40
10.0
  9
$CHAMFERB
 40
10.0
  9
$CHAMFERC
 40
20.0
  9
$CHAMFERD
 40
0.0
  9
$SKPOLY
 70
     0
  9
$TDCREATE
 40
2456037.683185219
  9
$TDUCREATE
 40
2456037.308185219
  9
$TDUPDATE
 40
2456037.688170382
  9
$TDUUPDATE
 40
2456037.313170381
  9
$TDINDWG
 40
0.0049851620
  9
$TDUSRTIMER
 40
0.0049851620
  9
$USRTIMER
 70
     1
  9
$ANGBASE
 50
0.0
  9
$ANGDIR
 70
     0
  9
$PDMODE
 70
     0
  9
$PDSIZE
 40
0.0
  9
$PLINEWID
 40
0.0
  9
$SPLFRAME
 70
     0
  9
$SPLINETYPE
 70
     6
  9
$SPLINESEGS
 70
     8
  9
$HANDSEED
  5
F9D
  9
$SURFTAB1
 70
     6
  9
$SURFTAB2
 70
     6
  9
$SURFTYPE
 70
     6
  9
$SURFU
 70
     6
  9
$SURFV
 70
     6
  9
$UCSBASE
  2

  9
$UCSNAME
  2

  9
$UCSORG
 10
0.0
 20
0.0
 30
0.0
  9
$UCSXDIR
 10
1.0
 20
0.0
 30
0.0
  9
$UCSYDIR
 10
0.0
 20
1.0
 30
0.0
  9
$UCSORTHOREF
  2

  9
$UCSORTHOVIEW
 70
     0
  9
$UCSORGTOP
 10
0.0
 20
0.0
 30
0.0
  9
$UCSORGBOTTOM
 10
0.0
 20
0.0
 30
0.0
  9
$UCSORGLEFT
 10
0.0
 20
0.0
 30
0.0
  9
$UCSORGRIGHT
 10
0.0
 20
0.0
 30
0.0
  9
$UCSORGFRONT
 10
0.0
 20
0.0
 30
0.0
  9
$UCSORGBACK
 10
0.0
 20
0.0
 30
0.0
  9
$PUCSBASE
  2

  9
$PUCSNAME
  2

  9
$PUCSORG
 10
0.0
 20
0.0
 30
0.0
  9
$PUCSXDIR
 10
1.0
 20
0.0
 30
0.0
  9
$PUCSYDIR
 10
0.0
 20
1.0
 30
0.0
  9
$PUCSORTHOREF
  2

  9
$PUCSORTHOVIEW
 70
     0
  9
$PUCSORGTOP
 10
0.0
 20
0.0
 30
0.0
  9
$PUCSORGBOTTOM
 10
0.0
 20
0.0
 30
0.0
  9
$PUCSORGLEFT
 10
0.0
 20
0.0
 30
0.0
  9
$PUCSORGRIGHT
 10
0.0
 20
0.0
 30
0.0
  9
$PUCSORGFRONT
 10
0.0
 20
0.0
 30
0.0
  9
$PUCSORGBACK
 10
0.0
 20
0.0
 30
0.0
  9
$USERI1
 70
     0
  9
$USERI2
 70
     0
  9
$USERI3
 70
     0
  9
$USERI4
 70
     0
  9
$USERI5
 70
     0
  9
$USERR1
 40
0.0
  9
$USERR2
 40
0.0
  9
$USERR3
 40
0.0
  9
$USERR4
 40
0.0
  9
$USERR5
 40
0.0
  9
$WORLDVIEW
 70
     1
  9
$SHADEDGE
 70
     3
  9
$SHADEDIF
 70
    70
  9
$TILEMODE
 70
     1
  9
$MAXACTVP
 70
    64
  9
$PINSBASE
 10
0.0
 20
0.0
 30
0.0
  9
$PLIMCHECK
 70
     0
  9
$PEXTMIN
 10
26.66076962115562
 20
20.31135699206657
 30
-0.0015258207003583
  9
$PEXTMAX
 10
240.039213369355
 20
182.8886381005154
 30
0.0000000349246037
  9
$PLIMMIN
 10
-6.350006103515625
 20
-6.349999904632568
  9
$PLIMMAX
 10
273.0499877929687
 20
209.5499939918517
  9
$UNITMODE
 70
     0
  9
$VISRETAIN
 70
     1
  9
$PLINEGEN
 70
     0
  9
$PSLTSCALE
 70
     1
  9
$TREEDEPTH
 70
  3020
  9
$CMLSTYLE
  2
Standard
  9
$CMLJUST
 70
     0
  9
$CMLSCALE
 40
20.0
  9
$PROXYGRAPHICS
 70
     1
  9
$MEASUREMENT
 70
     1
  9
$CELWEIGHT
370
    -1
  9
$ENDCAPS
280
     0
  9
$JOINSTYLE
280
     0
  9
$LWDISPLAY
290
     0
  9
$INSUNITS
 70
     4
  9
$HYPERLINKBASE
  1

  9
$STYLESHEET
  1

  9
$XEDIT
290
     1
  9
$CEPSNTYPE
380
     0
  9
$PSTYLEMODE
290
     1
  9
$FINGERPRINTGUID
  2
{FDEAD578-A652-11D2-9A35-0060089B3A3F}
  9
$VERSIONGUID
  2
{8A938726-FD82-4C01-90F1-604D3159C2CD}
  9
$EXTNAMES
290
     1
  9
$PSVPSCALE
 40
0.0
  9
$OLESTARTUP
290
     0
  0
ENDSEC
  0
SECTION
  2
CLASSES
  0
CLASS
  1
ACDBDICTIONARYWDFLT
  2
AcDbDictionaryWithDefault
  3
AutoCAD 2000
 90
        0
280
     0
281
     0
  0
CLASS
  1
ACDBPLACEHOLDER
  2
AcDbPlaceHolder
  3
AutoCAD 2000
 90
        0
280
     0
281
     0
  0
CLASS
  1
LAYOUT
  2
AcDbLayout
  3
AutoCAD 2000
 90
        0
280
     0
281
     0
  0
CLASS
  1
DICTIONARYVAR
  2
AcDbDictionaryVar
  3
AutoCAD 2000
 90
        0
280
     0
281
     0
  0
ENDSEC
  0
SECTION
  2
TABLES
  0
TABLE
  2
VPORT
  5
8
330
0
100
AcDbSymbolTable
 70
     5
  0
VPORT
  5
F9C
330
8
100
AcDbSymbolTableRecord
100
AcDbViewportTableRecord
  2
*Active
 70
     0
 10
0.0
 20
0.0
 11
1.0
 21
1.0
 12
-22.57141042567246
 22
-35.04034376044333
 13
0.0
 23
0.0
 14
10.0
 24
10.0
 15
10.0
 25
10.0
 16
0.0
 26
0.0
 36
1.0
 17
0.0
 27
0.0
 37
0.0
 40
308.652969965566
 41
1.97051597051597
 42
50.0
 43
0.0
 44
0.0
 50
0.0
 51
0.0
 71
     0
 72
   100
 73
     1
 74
     3
 75
     0
 76
     0
 77
     0
 78
     0
281
     0
 65
     1
110
0.0
120
0.0
130
0.0
111
1.0
121
0.0
131
0.0
112
0.0
122
1.0
132
0.0
 79
     0
146
0.0
  0
ENDTAB
  0
TABLE
  2
LTYPE
  5
5
330
0
100
AcDbSymbolTable
 70
     4
  0
LTYPE
  5
14
330
5
100
AcDbSymbolTableRecord
100
AcDbLinetypeTableRecord
  2
ByBlock
 70
     0
  3

 72
    65
 73
     0
 40
0.0
  0
LTYPE
  5
15
330
5
100
AcDbSymbolTableRecord
100
AcDbLinetypeTableRecord
  2
ByLayer
 70
     0
  3

 72
    65
 73
     0
 40
0.0
  0
LTYPE
  5
16
330
5
100
AcDbSymbolTableRecord
100
AcDbLinetypeTableRecord
  2
Continuous
 70
     0
  3
Solid line
 72
    65
 73
     0
 40
0.0
  0
LTYPE
  5
8C
330
5
100
AcDbSymbolTableRecord
100
AcDbLinetypeTableRecord
  2
DASHED
 70
     0
  3
Dashed
 72
    65
 73
     2
 40
15.0
 49
7.0
 74
     0
 49
-8.0
 74
     0
  0
LTYPE
  5
8D
330
5
100
AcDbSymbolTableRecord
100
AcDbLinetypeTableRecord
  2
DASH_CENTER
 70
     0
  3
Dash_Center
 72
    65
 73
     4
 40
14.0
 49
11.0
 74
     0
 49
-1.0
 74
     0
 49
1.0
 74
     0
 49
-1.0
 74
     0
  0
LTYPE
  5
8E
330
5
100
AcDbSymbolTableRecord
100
AcDbLinetypeTableRecord
  2
PHANTOM
 70
     0
  3
Phantom
 72
    65
 73
     6
 40
13.0
 49
10.0
 74
     0
 49
-1.0
 74
     0
 49
0.0
 74
     0
 49
-1.0
 74
     0
 49
0.0
 74
     0
 49
-1.0
 74
     0
  0
ENDTAB
  0
TABLE
  2
LAYER
  5
2
330
0
100
AcDbSymbolTable
 70
     1
  0
LAYER
  5
10
330
2
100
AcDbSymbolTableRecord
100
AcDbLayerTableRecord
  2
0
 70
     0
 62
     7
  6
Continuous
370
    -3
390
F
  0
ENDTAB
  0
TABLE
  2
STYLE
  5
3
330
0
100
AcDbSymbolTable
 70
    27
  0
STYLE
  5
11
330
3
100
AcDbSymbolTableRecord
100
AcDbTextStyleTableRecord
  2
Standard
 70
     0
 40
0.0
 41
1.0
 50
0.0
 71
     0
 42
2.5
  3
txt
  4

  0
STYLE
  5
8F
330
3
100
AcDbSymbolTableRecord
100
AcDbTextStyleTableRecord
  2
CONVERTER_1
 70
     0
 40
0.0
 41
0.7565
 50
0.0
 71
     0
 42
0.2
  3
txt.shx
  4
bigfont.shx
  0
STYLE
  5
90
330
3
100
AcDbSymbolTableRecord
100
AcDbTextStyleTableRecord
  2
CONVERTER_2
 70
     0
 40
0.0
 41
0.89
 50
0.0
 71
     0
 42
0.2
  3
txt.shx
  4
bigfont.shx
  0
STYLE
  5
91
330
3
100
AcDbSymbolTableRecord
100
AcDbTextStyleTableRecord
  2
CONVERTER_3
 70
     0
 40
0.0
 41
0.7565
 50
0.0
 71
     0
 42
0.2
  3
txt.shx
  4

  0
STYLE
  5
92
330
3
100
AcDbSymbolTableRecord
100
AcDbTextStyleTableRecord
  2
CONVERTER_4
 70
     0
 40
0.0
 41
0.7120000000000001
 50
0.0
 71
     0
 42
0.2
  3
txt.shx
  4

  0
STYLE
  5
93
330
3
100
AcDbSymbolTableRecord
100
AcDbTextStyleTableRecord
  2
CONVERTER_5
 70
     0
 40
0.0
 41
0.8523943661971799
 50
0.0
 71
     0
 42
0.2
  3
txt.shx
  4
bigfont.shx
  0
STYLE
  5
94
330
3
100
AcDbSymbolTableRecord
100
AcDbTextStyleTableRecord
  2
CONVERTER_6
 70
     0
 40
0.0
 41
0.834375
 50
0.0
 71
     0
 42
0.2
  3
txt.shx
  4
bigfont.shx
  0
STYLE
  5
95
330
3
100
AcDbSymbolTableRecord
100
AcDbTextStyleTableRecord
  2
CONVERTER_7
 70
     0
 40
0.0
 41
1.008666666666669
 50
0.0
 71
     0
 42
0.2
  3
txt.shx
  4
bigfont.shx
  0
STYLE
  5
96
330
3
100
AcDbSymbolTableRecord
100
AcDbTextStyleTableRecord
  2
CONVERTER_8
 70
     0
 40
0.0
 41
0.97612903225807
 50
0.0
 71
     0
 42
0.2
  3
txt.shx
  4
bigfont.shx
  0
STYLE
  5
97
330
3
100
AcDbSymbolTableRecord
100
AcDbTextStyleTableRecord
  2
CONVERTER_9
 70
     0
 40
0.0
 41
0.8455
 50
0.0
 71
     0
 42
0.2
  3
txt.shx
  4

  0
STYLE
  5
98
330
3
100
AcDbSymbolTableRecord
100
AcDbTextStyleTableRecord
  2
CONVERTER_10
 70
     0
 40
0.0
 41
0.8009999999999999
 50
0.0
 71
     0
 42
0.2
  3
txt.shx
  4
bigfont.shx
  0
STYLE
  5
99
330
3
100
AcDbSymbolTableRecord
100
AcDbTextStyleTableRecord
  2
CONVERTER_11
 70
     0
 40
0.0
 41
0.8009999999999999
 50
0.0
 71
     0
 42
0.2
  3
txt.shx
  4

  0
STYLE
  5
9A
330
3
100
AcDbSymbolTableRecord
100
AcDbTextStyleTableRecord
  2
CONVERTER_12
 70
     0
 40
0.0
 41
0.89
 50
0.0
 71
     0
 42
0.2
  3
txt.shx
  4

  0
STYLE
  5
9B
330
3
100
AcDbSymbolTableRecord
100
AcDbTextStyleTableRecord
  2
CONVERTER_13
 70
     0
 40
0.0
 41
0.741666637
 50
0.0
 71
     0
 42
0.2
  3
txt.shx
  4

  0
STYLE
  5
9C
330
3
100
AcDbSymbolTableRecord
100
AcDbTextStyleTableRecord
  2
CONVERTER_14
 70
     0
 40
0.0
 41
0.6230000000000001
 50
0.0
 71
     0
 42
0.2
  3
txt.shx
  4

  0
STYLE
  5
9D
330
3
100
AcDbSymbolTableRecord
100
AcDbTextStyleTableRecord
  2
CONVERTER_15
 70
     0
 40
0.0
 41
0.94933333333333
 50
0.0
 71
     0
 42
0.2
  3
txt.shx
  4

  0
STYLE
  5
9E
330
3
100
AcDbSymbolTableRecord
100
AcDbTextStyleTableRecord
  2
CONVERTER_16
 70
     0
 40
0.0
 41
1.01714285714286
 50
0.0
 71
     0
 42
0.2
  3
txt.shx
  4

  0
STYLE
  5
9F
330
3
100
AcDbSymbolTableRecord
100
AcDbTextStyleTableRecord
  2
CONVERTER_17
 70
     0
 40
0.0
 41
1.1125
 50
0.0
 71
     0
 42
0.2
  3
txt.shx
  4

  0
STYLE
  5
A0
330
3
100
AcDbSymbolTableRecord
100
AcDbTextStyleTableRecord
  2
CONVERTER_18
 70
     0
 40
0.0
 41
1.148387096774189
 50
0.0
 71
     0
 42
0.2
  3
txt.shx
  4

  0
STYLE
  5
A1
330
3
100
AcDbSymbolTableRecord
100
AcDbTextStyleTableRecord
  2
CONVERTER_19
 70
     0
 40
0.0
 41
1.078787878787879
 50
0.0
 71
     0
 42
0.2
  3
txt.shx
  4

  0
STYLE
  5
A2
330
3
100
AcDbSymbolTableRecord
100
AcDbTextStyleTableRecord
  2
CONVERTER_20
 70
     0
 40
0.0
 41
1.424
 50
0.0
 71
     0
 42
0.2
  3
txt.shx
  4

  0
STYLE
  5
A3
330
3
100
AcDbSymbolTableRecord
100
AcDbTextStyleTableRecord
  2
CONVERTER_21
 70
     0
 40
0.0
 41
0.7719387755102
 50
0.0
 71
     0
 42
0.2
  3
txt.shx
  4
bigfont.shx
  0
STYLE
  5
A4
330
3
100
AcDbSymbolTableRecord
100
AcDbTextStyleTableRecord
  2
CONVERTER_22
 70
     0
 40
0.0
 41
0.85884578997162
 50
0.0
 71
     0
 42
0.2
  3
txt.shx
  4
bigfont.shx
  0
STYLE
  5
A5
330
3
100
AcDbSymbolTableRecord
100
AcDbTextStyleTableRecord
  2
CONVERTER_23
 70
     0
 40
0.0
 41
0.8362966374942399
 50
0.0
 71
     0
 42
0.2
  3
txt.shx
  4
bigfont.shx
  0
STYLE
  5
A6
330
3
100
AcDbSymbolTableRecord
100
AcDbTextStyleTableRecord
  2
CONVERTER_24
 70
     0
 40
0.0
 41
1.68111111111111
 50
0.0
 71
     0
 42
0.2
  3
txt.shx
  4
bigfont.shx
  0
STYLE
  5
A7
330
3
100
AcDbSymbolTableRecord
100
AcDbTextStyleTableRecord
  2
CONVERTER_25
 70
     0
 40
0.0
 41
1.62688172043011
 50
0.0
 71
     0
 42
0.2
  3
txt.shx
  4
bigfont.shx
  0
STYLE
  5
A8
330
3
100
AcDbSymbolTableRecord
100
AcDbTextStyleTableRecord
  2
CONVERTER_26
 70
     0
 40
0.0
 41
0.945625
 50
0.0
 71
     0
 42
0.2
  3
txt.shx
  4
bigfont.shx
  0
ENDTAB
  0
TABLE
  2
VIEW
  5
6
330
0
100
AcDbSymbolTable
 70
     0
  0
ENDTAB
  0
TABLE
  2
UCS
  5
7
330
0
100
AcDbSymbolTable
 70
     0
  0
ENDTAB
  0
TABLE
  2
APPID
  5
9
330
0
100
AcDbSymbolTable
 70
     1
  0
APPID
  5
12
330
9
100
AcDbSymbolTableRecord
100
AcDbRegAppTableRecord
  2
ACAD
 70
     0
  0
ENDTAB
  0
TABLE
  2
DIMSTYLE
  5
A
330
0
100
AcDbSymbolTable
 70
     2
100
AcDbDimStyleTable
 71
     0
  0
DIMSTYLE
105
27
330
A
100
AcDbSymbolTableRecord
100
AcDbDimStyleTableRecord
  2
ISO-25
 70
     0
 41
2.5
 42
0.625
 43
3.75
 44
1.25
 73
     0
 74
     0
 77
     1
 78
     8
140
2.5
141
2.5
143
0.03937007874016
147
0.625
171
     3
172
     1
271
     2
272
     2
274
     3
278
    44
283
     0
284
     8
340
11
  0
DIMSTYLE
105
A9
330
A
100
AcDbSymbolTableRecord
100
AcDbDimStyleTableRecord
  2
Standard
 70
     0
340
11
  0
ENDTAB
  0
TABLE
  2
BLOCK_RECORD
  5
1
330
0
100
AcDbSymbolTable
 70
     3
  0
BLOCK_RECORD
  5
1F
330
1
100
AcDbSymbolTableRecord
100
AcDbBlockTableRecord
  2
*Model_Space
340
22
  0
BLOCK_RECORD
  5
55
330
1
100
AcDbSymbolTableRecord
100
AcDbBlockTableRecord
  2
*Paper_Space
340
56
  0
BLOCK_RECORD
  5
50
330
1
100
AcDbSymbolTableRecord
100
AcDbBlockTableRecord
  2
*Paper_Space0
340
51
  0
BLOCK_RECORD
  5
86
330
1
100
AcDbSymbolTableRecord
100
AcDbBlockTableRecord
  2
_Open30
340
0
102
{BLKREFS
331
757
331
75A
331
753
331
5FE
331
159
331
138
331
132
331
FA
331
137
331
FC
331
101
331
FD
331
13D
331
13B
331
139
331
133
331
60E
331
1B0
331
593
331
1AE
331
602
331
591
331
60D
331
595
331
586
331
568
331
60B
331
608
331
605
331
604
331
683
331
75E
331
731
331
7FE
331
730
331
80B
331
718
331
6D0
331
71A
331
6CB
331
717
331
6A2
331
693
331
691
331
6CC
331
6A6
331
6AA
331
6A3
331
70E
331
70D
331
714
331
729
331
816
331
7F2
331
7F4
331
7F1
331
CE1
331
CFF
331
D0A
331
D0C
331
D0E
331
D77
331
D7B
331
D7D
331
D7E
331
D81
331
D84
331
D86
331
D87
331
DFC
331
E0A
331
E0C
331
E1B
331
E1C
331
E1F
331
E23
331
E44
331
E45
331
E49
331
E86
331
E87
331
E8D
331
E90
331
E91
331
E93
331
EA2
331
EA9
331
EAA
331
ECC
331
ED0
331
ED3
331
ED7
331
F6A
331
F6B
331
F6D
331
F77
331
F84
331
F8F
331
873
331
875
331
876
331
87A
331
8AB
331
8AC
331
8B0
331
8B1
331
8B2
331
8B4
331
8B6
331
8D2
331
927
331
929
102
}
  0
ENDTAB
  0
ENDSEC
  0
SECTION
  2
BLOCKS
  0
BLOCK
  5
20
330
1F
100
AcDbEntity
  8
0
100
AcDbBlockBegin
  2
*Model_Space
 70
     0
 10
0.0
 20
0.0
 30
0.0
  3
*Model_Space
  1

  0
ENDBLK
  5
21
330
1F
100
AcDbEntity
  8
0
100
AcDbBlockEnd
  0
BLOCK
  5
57
330
55
100
AcDbEntity
 67
     1
  8
0
100
AcDbBlockBegin
  2
*Paper_Space
 70
     0
 10
0.0
 20
0.0
 30
0.0
  3
*Paper_Space
  1

  0
ENDBLK
  5
58
330
55
100
AcDbEntity
 67
     1
  8
0
100
AcDbBlockEnd
  0
BLOCK
  5
52
330
50
100
AcDbEntity
  8
0
100
AcDbBlockBegin
  2
*Paper_Space0
 70
     0
 10
0.0
 20
0.0
 30
0.0
  3
*Paper_Space0
  1

  0
VIEWPORT
  5
6B
330
50
100
AcDbEntity
  8
0
100
AcDbViewport
 10
133.3499908447265
 20
101.5999970436096
 30
0.0
 40
381.3957395593834
 41
218.2856291881582
 69
     0
 12
133.3499908447265
 22
101.5999970436096
 13
0.0
 23
0.0
 14
10.0
 24
10.0
 15
10.0
 25
10.0
 16
0.0
 26
0.0
 36
1.0
 17
0.0
 27
0.0
 37
0.0
 42
50.0
 43
0.0
 44
0.0
 45
218.2856291881582
 50
0.0
 51
0.0
 72
   100
 90
    32800
  1

281
     0
 71
     1
 74
     0
110
0.0
120
0.0
130
0.0
111
1.0
121
0.0
131
0.0
112
0.0
122
1.0
132
0.0
 79
     0
146
0.0
  0
VIEWPORT
  5
6D
330
50
100
AcDbEntity
  8
0
100
AcDbViewport
 10
133.349993944168
 20
101.599993944168
 30
0.0
 40
213.3599903106689
 41
162.5599903106689
 69
     0
 12
210.0
 22
148.5
 13
0.0
 23
0.0
 14
10.0
 24
10.0
 15
10.0
 25
10.0
 16
0.0
 26
0.0
 36
1.0
 17
0.0
 27
0.0
 37
0.0
 42
50.0
 43
0.0
 44
0.0
 45
324.0677920111345
 50
0.0
 51
0.0
 72
   100
 90
    32864
  1

281
     0
 71
     1
 74
     0
110
0.0
120
0.0
130
0.0
111
1.0
121
0.0
131
0.0
112
0.0
122
1.0
132
0.0
 79
     0
146
0.0
  0
ENDBLK
  5
53
330
50
100
AcDbEntity
  8
0
100
AcDbBlockEnd
  0
BLOCK
  5
8A
330
86
100
AcDbEntity
  8
0
100
AcDbBlockBegin
  2
_Open30
 70
     0
 10
0.0
 20
0.0
 30
0.0
  3
_Open30
  1

  0
LINE
  5
87
330
86
100
AcDbEntity
  8
0
  6
ByBlock
 62
     0
370
    -2
100
AcDbLine
 10
-1.0
 20
0.267949
 30
0.0
 11
0.0
 21
0.0
 31
0.0
  0
LINE
  5
88
330
86
100
AcDbEntity
  8
0
  6
ByBlock
 62
     0
370
    -2
100
AcDbLine
 10
0.0
 20
0.0
 30
0.0
 11
-1.0
 21
-0.267949
 31
0.0
  0
LINE
  5
89
330
86
100
AcDbEntity
  8
0
  6
ByBlock
 62
     0
370
    -2
100
AcDbLine
 10
0.0
 20
0.0
 30
0.0
 11
-1.0
 21
0.0
 31
0.0
  0
ENDBLK
  5
8B
330
86
100
AcDbEntity
  8
0
100
AcDbBlockEnd
  0
ENDSEC
  0
SECTION
  2
ENTITIES
  0
ARC
  5
826
330
1F
100
AcDbEntity
  8
0
  6
Continuous
 62
     7
100
AcDbCircle
 10
-22.11379999999999
 20
28.44730000000003
 30
0.0
 40
7.000000000000002
100
AcDbArc
 50
0.0
 51
90.0
  0
ARC
  5
827
330
1F
100
AcDbEntity
  8
0
  6
Continuous
 62
     7
100
AcDbCircle
 10
-22.11379999999999
 20
28.44730000000003
 30
0.0
 40
7.0
100
AcDbArc
 50
180.0
 51
0.0
  0
LINE
  5
828
330
1F
100
AcDbEntity
  8
0
  6
DASH_CENTER
 62
    30
100
AcDbLine
 10
-34.23249999999999
 20
28.44730000000003
 30
0.0
 11
-9.698700000000059
 21
28.44730000000003
 31
0.0
  0
LINE
  5
829
330
1F
100
AcDbEntity
  8
0
  6
Continuous
 62
     7
100
AcDbLine
 10
-25.71929999999989
 20
34.44730000000004
 30
0.0
 11
-18.5081999999999
 21
34.44730000000004
 31
0.0
  0
LINE
  5
831
330
1F
100
AcDbEntity
  8
0
  6
Continuous
 62
     7
100
AcDbLine
 10
-296.6682
 20
94.04709999999999
 30
0.0
 11
-296.6682
 21
-37.15280000000007
 31
0.0
  0
LINE
  5
832
330
1F
100
AcDbEntity
  8
0
  6
Continuous
 62
     7
100
AcDbLine
 10
-132.8682
 20
-37.15280000000007
 30
0.0
 11
-132.8682
 21
94.04709999999999
 31
0.0
  0
LINE
  5
833
330
1F
100
AcDbEntity
  8
0
  6
Continuous
 62
     7
100
AcDbLine
 10
-298.968
 20
-37.15280000000007
 30
0.0
 11
-298.968
 21
94.04709999999999
 31
0.0
  0
LINE
  5
834
330
1F
100
AcDbEntity
  8
0
  6
Continuous
 62
     7
100
AcDbLine
 10
-135.1682
 20
-37.15280000000007
 30
0.0
 11
-135.1682
 21
94.04709999999999
 31
0.0
  0
LINE
  5
835
330
1F
100
AcDbEntity
  8
0
  6
DASH_CENTER
 62
    30
100
AcDbLine
 10
-208.1682
 20
105.3146999999998
 30
0.0
 11
-208.1682
 21
-49.26510000000006
 31
0.0
  0
LINE
  5
838
330
1F
100
AcDbEntity
  8
0
  6
Continuous
 62
     7
100
AcDbLine
 10
-289.363
 20
-37.15280000000007
 30
0.0
 11
-258.1378999999998
 21
-37.15280000000007
 31
0.0
  0
LINE
  5
856
330
1F
100
AcDbEntity
  8
0
  6
Continuous
 62
     7
100
AcDbLine
 10
-298.968
 20
-37.15280000000007
 30
0.0
 11
-289.363
 21
-37.15280000000007
 31
0.0
  0
LINE
  5
857
330
1F
100
AcDbEntity
  8
0
  6
DASH_CENTER
 62
    30
100
AcDbLine
 10
-291.6626000000001
 20
-14.68650000000002
 30
0.0
 11
-306.5172999999998
 21
-14.68650000000002
 31
0.0
  0
ARC
  5
858
330
1F
100
AcDbEntity
  8
0
  6
Continuous
 62
     7
100
AcDbCircle
 10
-300.2678265608044
 20
-12.60522898478268
 30
0.0
 40
1.299973439518725
100
AcDbArc
 50
94.99881820689338
 51
179.9987225079612
  0
ARC
  5
859
330
1F
100
AcDbEntity
  8
0
  6
Continuous
 62
     7
100
AcDbCircle
 10
-300.267776750911
 20
-16.76782537279457
 30
0.0
 40
1.30002324933661
100
AcDbArc
 50
179.9988817476613
 51
264.9991701575221
  0
LINE
  5
85A
330
1F
100
AcDbEntity
  8
0
  6
Continuous
 62
     7
100
AcDbLine
 10
-301.5678999999999
 20
-12.60519999999997
 30
0.0
 11
-301.5678999999999
 21
-16.76780000000008
 31
0.0
  0
LINE
  5
85B
330
1F
100
AcDbEntity
  8
0
  6
Continuous
 62
     7
100
AcDbLine
 10
-298.9678000000001
 20
-18.18650000000002
 30
0.0
 11
-300.3811
 21
-18.06269999999995
 31
0.0
  0
LINE
  5
85C
330
1F
100
AcDbEntity
  8
0
  6
Continuous
 62
     7
100
AcDbLine
 10
-298.9678000000001
 20
-11.18650000000002
 30
0.0
 11
-300.3811
 21
-11.31010000000015
 31
0.0
  0
LINE
  5
863
330
1F
100
AcDbEntity
  8
0
  6
Continuous
 62
     7
100
AcDbLine
 10
-158.1981
 20
-37.15280000000007
 30
0.0
 11
-132.8682
 21
-37.15280000000007
 31
0.0
  0
LINE
  5
864
330
1F
100
AcDbEntity
  8
0
  6
Continuous
 62
     7
100
AcDbLine
 10
-151.1689
 20
-14.80220000000008
 30
0.0
 11
-172.1689
 21
-14.80220000000008
 31
0.0
  0
LINE
  5
865
330
1F
100
AcDbEntity
  8
0
  6
Continuous
 62
     7
100
AcDbLine
 10
-151.1689
 20
-1.80220000000008
 30
0.0
 11
-172.1689
 21
-1.80220000000008
 31
0.0
  0
LINE
  5
866
330
1F
100
AcDbEntity
  8
0
  6
Continuous
 62
     7
100
AcDbLine
 10
-151.1689
 20
-20.30220000000007
 30
0.0
 11
-172.1689
 21
-20.30220000000007
 31
0.0
  0
LINE
  5
867
330
1F
100
AcDbEntity
  8
0
  6
Continuous
 62
     7
100
AcDbLine
 10
-151.1689
 20
-18.80220000000007
 30
0.0
 11
-172.1689
 21
-18.80220000000007
 31
0.0
  0
LINE
  5
868
330
1F
100
AcDbEntity
  8
0
  6
Continuous
 62
     7
100
AcDbLine
 10
-151.1689
 20
-7.60230000000001
 30
0.0
 11
-172.1689
 21
-7.60230000000001
 31
0.0
  0
LINE
  5
869
330
1F
100
AcDbEntity
  8
0
  6
Continuous
 62
     7
100
AcDbLine
 10
-151.1689
 20
-8.80220000000008
 30
0.0
 11
-172.1689
 21
-8.80220000000008
 31
0.0
  0
LINE
  5
86C
330
1F
100
AcDbEntity
  8
0
  6
Continuous
 62
     7
100
AcDbLine
 10
-208.1682
 20
-41.55220000000007
 30
0.0
 11
-233.168
 21
-41.55250000000001
 31
0.0
  0
LINE
  5
86D
330
1F
100
AcDbEntity
  8
0
  6
Continuous
 62
     7
100
AcDbLine
 10
-208.168
 20
-38.3523
 30
0.0
 11
-234.6679999999999
 21
-38.3523
 31
0.0
  0
LINE
  5
86E
330
1F
100
AcDbEntity
  8
0
  6
Continuous
 62
     7
100
AcDbLine
 10
-188.9868
 20
-15.55250000000001
 30
0.0
 11
-227.3493999999999
 21
-15.55220000000008
 31
0.0
  0
LINE
  5
87C
330
1F
100
AcDbEntity
  8
0
  6
Continuous
 62
     7
100
AcDbLine
 10
-256.1685
 20
-20.3022
 30
0.0
 11
-235.8604
 21
-20.3022
 31
0.0
  0
LINE
  5
87D
330
1F
100
AcDbEntity
  8
0
  6
Continuous
 62
     7
100
AcDbLine
 10
-235.1687
 20
-14.8022
 30
0.0
 11
-256.1687
 21
-14.8022
 31
0.0
  0
LINE
  5
87E
330
1F
100
AcDbEntity
  8
0
  6
Continuous
 62
     7
100
AcDbLine
 10
-256.1685
 20
-18.8022
 30
0.0
 11
-235.1687
 21
-18.8022
 31
0.0
  0
LINE
  5
87F
330
1F
100
AcDbEntity
  8
0
  6
Continuous
 62
     7
100
AcDbLine
 10
-245.5985999999998
 20
-31.05220000000007
 30
0.0
 11
-252.7295
 21
-31.05220000000007
 31
0.0
  0
LINE
  5
880
330
1F
100
AcDbEntity
  8
0
  6
Continuous
 62
     7
100
AcDbLine
 10
-263.168
 20
-42.55220000000007
 30
0.0
 11
-233.1679999999999
 21
-42.55220000000007
 31
0.0
  0
LINE
  5
881
330
1F
100
AcDbEntity
  8
0
  6
Continuous
 62
     7
100
AcDbLine
 10
-235.6679999999999
 20
-39.3523
 30
0.0
 11
-260.2434
 21
-39.3523
 31
0.0
  0
LINE
  5
882
330
1F
100
AcDbEntity
  8
0
  6
Continuous
 62
     7
100
AcDbLine
 10
-235.1687
 20
-1.80220000000008
 30
0.0
 11
-256.1687
 21
-1.80220000000008
 31
0.0
  0
LINE
  5
883
330
1F
100
AcDbEntity
  8
0
  6
Continuous
 62
     7
100
AcDbLine
 10
-235.1687
 20
-8.80220000000008
 30
0.0
 11
-256.1687
 21
-8.80220000000008
 31
0.0
  0
LINE
  5
884
330
1F
100
AcDbEntity
  8
0
  6
Continuous
 62
     7
100
AcDbLine
 10
-235.1687
 20
-7.60230000000001
 30
0.0
 11
-256.1687
 21
-7.60230000000001
 31
0.0
  0
ARC
  5
885
330
1F
100
AcDbEntity
  8
0
  6
Continuous
 62
     7
100
AcDbCircle
 10
-252.7295036975944
 20
-36.05220291249553
 30
0.0
 40
5.000002912496824
100
AcDbArc
 50
89.99995762871446
 51
166.4531460911323
  0
LINE
  5
886
330
1F
100
AcDbEntity
  8
0
  6
Continuous
 62
     7
100
AcDbLine
 10
-257.5905999999999
 20
-34.88110000000006
 30
0.0
 11
-258.2990999999998
 21
-37.82079999999996
 31
0.0
  0
ARC
  5
887
330
1F
100
AcDbEntity
  8
0
  6
Continuous
 62
     7
100
AcDbCircle
 10
-260.2434325743053
 20
-37.35232565835963
 30
0.0
 40
1.999974341905657
100
AcDbArc
 50
270.0009331970793
 51
346.4531620128791
  0
LINE
  5
888
330
1F
100
AcDbEntity
  8
0
  6
Continuous
 62
     7
100
AcDbLine
 10
-260.2434
 20
-39.3523
 30
0.0
 11
-263.1680000000001
 21
-39.3523
 31
0.0
  0
LINE
  5
889
330
1F
100
AcDbEntity
  8
0
  6
Continuous
 62
     7
100
AcDbLine
 10
-263.1680000000001
 20
-39.3523
 30
0.0
 11
-263.168
 21
-42.55220000000007
 31
0.0
  0
LINE
  5
88A
330
1F
100
AcDbEntity
  8
0
  6
DASH_CENTER
 62
    30
100
AcDbLine
 10
-253.1679999999999
 20
-45.87159999999992
 30
0.0
 11
-253.1679999999999
 21
-37.10720000000014
 31
0.0
  0
ARC
  5
88B
330
1F
100
AcDbEntity
  8
0
  6
Continuous
 62
     7
100
AcDbCircle
 10
-256.1687
 20
-16.8022
 30
0.0
 40
2.0
100
AcDbArc
 50
90.0
 51
180.0
  0
ARC
  5
88C
330
1F
100
AcDbEntity
  8
0
  6
Continuous
 62
     7
100
AcDbCircle
 10
-256.1687
 20
-18.3022
 30
0.0
 40
2.0
100
AcDbArc
 50
180.0
 51
270.0
  0
ARC
  5
88D
330
1F
100
AcDbEntity
  8
0
  6
Continuous
 62
     7
100
AcDbCircle
 10
-256.1687
 20
-16.8022
 30
0.0
 40
2.0
100
AcDbArc
 50
180.0
 51
270.0
  0
LINE
  5
88E
330
1F
100
AcDbEntity
  8
0
  6
Continuous
 62
     7
100
AcDbLine
 10
-258.1687
 20
-18.3022
 30
0.0
 11
-258.1687
 21
-16.8022
 31
0.0
  0
ARC
  5
88F
330
1F
100
AcDbEntity
  8
0
  6
Continuous
 62
     7
100
AcDbCircle
 10
-256.1687
 20
-6.80220000000008
 30
0.0
 40
2.0
100
AcDbArc
 50
180.0
 51
270.0
  0
ARC
  5
890
330
1F
100
AcDbEntity
  8
0
  6
Continuous
 62
     7
100
AcDbCircle
 10
-256.1687
 20
-3.80220000000008
 30
0.0
 40
2.0
100
AcDbArc
 50
90.0
 51
180.0
  0
ARC
  5
891
330
1F
100
AcDbEntity
  8
0
  6
Continuous
 62
     7
100
AcDbCircle
 10
-256.1687
 20
-5.60230000000001
 30
0.0
 40
2.0
100
AcDbArc
 50
180.0
 51
270.0
  0
LINE
  5
892
330
1F
100
AcDbEntity
  8
0
  6
Continuous
 62
     7
100
AcDbLine
 10
-258.1687
 20
-3.80220000000008
 30
0.0
 11
-258.1687
 21
-6.80220000000008
 31
0.0
  0
ARC
  5
893
330
1F
100
AcDbEntity
  8
0
  6
Continuous
 62
     7
100
AcDbCircle
 10
-227.3494046095513
 20
-25.55220406495021
 30
0.0
 40
10.00000406549728
100
AcDbArc
 50
89.99940063166514
 51
172.8157587436919
  0
LINE
  5
894
330
1F
100
AcDbEntity
  8
0
  6
Continuous
 62
     7
100
AcDbLine
 10
-237.2709999999998
 20
-24.30179999999996
 30
0.0
 11
-238.8371999999998
 21
-36.72749999999996
 31
0.0
  0
ARC
  5
895
330
1F
100
AcDbEntity
  8
0
  6
Continuous
 62
     7
100
AcDbCircle
 10
-241.8134690719786
 20
-36.35227272640014
 30
0.0
 40
3.000027273759283
100
AcDbArc
 50
269.9994093236755
 51
352.8149349436767
  0
ARC
  5
896
330
1F
100
AcDbEntity
  8
0
  6
Continuous
 62
     7
100
AcDbCircle
 10
-234.6679999999999
 20
-38.85229999999999
 30
0.0
 40
0.5
100
AcDbArc
 50
90.0
 51
180.0
  0
ARC
  5
897
330
1F
100
AcDbEntity
  8
0
  6
Continuous
 62
     7
100
AcDbCircle
 10
-235.6679999999999
 20
-38.85229999999999
 30
0.0
 40
0.5
100
AcDbArc
 50
270.0
 51
0.0
  0
ARC
  5
898
330
1F
100
AcDbEntity
  8
0
  6
Continuous
 62
     7
100
AcDbCircle
 10
-247.2853000897683
 20
-16.14745739447888
 30
0.0
 40
14.99998758793492
100
AcDbArc
 50
276.4567646095786
 51
309.7337212786833
  0
LINE
  5
899
330
1F
100
AcDbEntity
  8
0
  6
Continuous
 62
     7
100
AcDbLine
 10
-233.168
 20
-41.55250000000001
 30
0.0
 11
-233.1679999999999
 21
-42.55250000000001
 31
0.0
  0
ARC
  5
89A
330
1F
100
AcDbEntity
  8
0
  6
Continuous
 62
     7
100
AcDbCircle
 10
-235.1686822602185
 20
-16.80210383313042
 30
0.0
 40
1.999982262530653
100
AcDbArc
 50
339.0991874806057
 51
359.9972449976877
  0
ARC
  5
89B
330
1F
100
AcDbEntity
  8
0
  6
Continuous
 62
     7
100
AcDbCircle
 10
-235.1687
 20
-16.8022
 30
0.0
 40
2.0
100
AcDbArc
 50
0.0
 51
90.0
  0
ARC
  5
89C
330
1F
100
AcDbEntity
  8
0
  6
Continuous
 62
     7
100
AcDbCircle
 10
-235.1687
 20
-5.60230000000001
 30
0.0
 40
2.0
100
AcDbArc
 50
270.0
 51
0.0
  0
ARC
  5
89D
330
1F
100
AcDbEntity
  8
0
  6
Continuous
 62
     7
100
AcDbCircle
 10
-235.1687
 20
-6.80220000000008
 30
0.0
 40
2.0
100
AcDbArc
 50
270.0
 51
0.0
  0
ARC
  5
89E
330
1F
100
AcDbEntity
  8
0
  6
Continuous
 62
     7
100
AcDbCircle
 10
-235.1687
 20
-3.80220000000008
 30
0.0
 40
2.0
100
AcDbArc
 50
0.0
 51
90.0
  0
ARC
  5
89F
330
1F
100
AcDbEntity
  8
0
  6
Continuous
 62
     7
100
AcDbCircle
 10
-235.168582174863
 20
-16.80218505080312
 30
0.0
 40
2.000014952667541
100
AcDbArc
 50
269.9966245837017
 51
284.4650396618932
  0
LINE
  5
8A0
330
1F
100
AcDbEntity
  8
0
  6
Continuous
 62
     7
100
AcDbLine
 10
-233.1687
 20
-17.4199
 30
0.0
 11
-233.1687
 21
-16.8022
 31
0.0
  0
LINE
  5
8A1
330
1F
100
AcDbEntity
  8
0
  6
Continuous
 62
     7
100
AcDbLine
 10
-233.1687
 20
-3.80220000000008
 30
0.0
 11
-233.1687
 21
-6.80220000000008
 31
0.0
  0
ARC
  5
8B8
330
1F
100
AcDbEntity
  8
0
  6
Continuous
 62
     7
100
AcDbCircle
 10
-188.9868953904368
 20
-25.55250406504237
 30
0.0
 40
10.0000040654973
100
AcDbArc
 50
7.184241256839425
 51
89.99945345327835
  0
LINE
  5
8B9
330
1F
100
AcDbEntity
  8
0
  6
Continuous
 62
     7
100
AcDbLine
 10
-208.1682
 20
-41.55220000000007
 30
0.0
 11
-183.1683
 21
-41.55250000000001
 31
0.0
  0
LINE
  5
8BA
330
1F
100
AcDbEntity
  8
0
  6
Continuous
 62
     7
100
AcDbLine
 10
-181.6683
 20
-38.3523
 30
0.0
 11
-208.1682
 21
-38.3523
 31
0.0
  0
LINE
  5
8BB
330
1F
100
AcDbEntity
  8
0
  6
Continuous
 62
     7
100
AcDbLine
 10
-180.6683
 20
-39.3523
 30
0.0
 11
-153.1683
 21
-39.3523
 31
0.0
  0
LINE
  5
8BC
330
1F
100
AcDbEntity
  8
0
  6
Continuous
 62
     7
100
AcDbLine
 10
-170.7376000000001
 20
-31.05220000000007
 30
0.0
 11
-163.6065999999999
 21
-31.05220000000007
 31
0.0
  0
LINE
  5
8BD
330
1F
100
AcDbEntity
  8
0
  6
Continuous
 62
     7
100
AcDbLine
 10
-183.1683
 20
-42.55250000000001
 30
0.0
 11
-153.1683
 21
-42.55250000000001
 31
0.0
  0
LINE
  5
8BE
330
1F
100
AcDbEntity
  8
0
  6
Continuous
 62
     7
100
AcDbLine
 10
-179.0655
 20
-24.30200000000012
 30
0.0
 11
-177.4990999999999
 21
-36.72749999999996
 31
0.0
  0
ARC
  5
8BF
330
1F
100
AcDbEntity
  8
0
  6
Continuous
 62
     7
100
AcDbCircle
 10
-174.5227746746171
 20
-36.35232233371338
 30
0.0
 40
2.999977666393497
100
AcDbArc
 50
187.1842295597067
 51
269.9995163172174
  0
ARC
  5
8C0
330
1F
100
AcDbEntity
  8
0
  6
Continuous
 62
     7
100
AcDbCircle
 10
-180.6681999949999
 20
-38.85230000500099
 30
0.0
 40
0.500000005000004
100
AcDbArc
 50
179.9999994269277
 51
269.9885402711795
  0
ARC
  5
8C1
330
1F
100
AcDbEntity
  8
0
  6
Continuous
 62
     7
100
AcDbCircle
 10
-181.6682000049999
 20
-38.852299995001
 30
0.0
 40
0.500000005000004
100
AcDbArc
 50
359.9999994271565
 51
90.01145858290389
  0
LINE
  5
8C2
330
1F
100
AcDbEntity
  8
0
  6
Continuous
 62
     7
100
AcDbLine
 10
-183.1683
 20
-41.55250000000001
 30
0.0
 11
-183.1683
 21
-42.55250000000001
 31
0.0
  0
ARC
  5
8C3
330
1F
100
AcDbEntity
  8
0
  6
Continuous
 62
     7
100
AcDbCircle
 10
-169.0507999102316
 20
-16.14745739447879
 30
0.0
 40
14.999987587935
100
AcDbArc
 50
230.2662787213166
 51
263.5432353904213
  0
ARC
  5
8C4
330
1F
100
AcDbEntity
  8
0
  6
Continuous
 62
     7
100
AcDbCircle
 10
-163.6065963024054
 20
-36.05220291249567
 30
0.0
 40
5.000002912496974
100
AcDbArc
 50
13.54685390886885
 51
90.00004237128718
  0
LINE
  5
8C5
330
1F
100
AcDbEntity
  8
0
  6
DASH_CENTER
 62
    30
100
AcDbLine
 10
-163.1683999999999
 20
-45.87159999999999
 30
0.0
 11
-163.1683999999999
 21
-37.10719999999999
 31
0.0
  0
LINE
  5
8C6
330
1F
100
AcDbEntity
  8
0
  6
DASH_CENTER
 62
    40
100
AcDbLine
 10
-163.1683999999999
 20
-45.87159999999999
 30
0.0
 11
-163.1683999999999
 21
-37.10719999999999
 31
0.0
  0
ARC
  5
8C7
330
1F
100
AcDbEntity
  8
0
  6
Continuous
 62
     7
100
AcDbCircle
 10
-156.0928291381475
 20
-37.35227704943798
 30
0.0
 40
2.000022950774278
100
AcDbArc
 50
193.5479348472124
 51
270.0008347368558
  0
LINE
  5
8C8
330
1F
100
AcDbEntity
  8
0
  6
Continuous
 62
     7
100
AcDbLine
 10
-158.7454999999999
 20
-34.88110000000006
 30
0.0
 11
-158.0370999999999
 21
-37.82079999999996
 31
0.0
  0
LINE
  5
8C9
330
1F
100
AcDbEntity
  8
0
  6
Continuous
 62
     7
100
AcDbLine
 10
-153.1683
 20
-39.3523
 30
0.0
 11
-153.1683
 21
-42.55250000000001
 31
0.0
  0
ARC
  5
8CA
330
1F
100
AcDbEntity
  8
0
  6
Continuous
 62
     7
100
AcDbCircle
 10
-172.1689
 20
-16.80220000000008
 30
0.0
 40
2.0
100
AcDbArc
 50
90.0
 51
180.0
  0
ARC
  5
8CB
330
1F
100
AcDbEntity
  8
0
  6
Continuous
 62
     7
100
AcDbCircle
 10
-172.1689
 20
-16.80220000000008
 30
0.0
 40
2.0
100
AcDbArc
 50
180.0
 51
270.0
  0
ARC
  5
8CC
330
1F
100
AcDbEntity
  8
0
  6
Continuous
 62
     7
100
AcDbCircle
 10
-172.1689000012502
 20
-18.30219999875008
 30
0.0
 40
2.000000001249989
100
AcDbArc
 50
180.0028648247841
 51
270.0000000358111
  0
LINE
  5
8CD
330
1F
100
AcDbEntity
  8
0
  6
Continuous
 62
     7
100
AcDbLine
 10
-174.1689
 20
-16.80220000000008
 30
0.0
 11
-174.1689
 21
-18.30220000000007
 31
0.0
  0
ARC
  5
8CE
330
1F
100
AcDbEntity
  8
0
  6
Continuous
 62
     7
100
AcDbCircle
 10
-172.1689
 20
-6.80220000000008
 30
0.0
 40
2.0
100
AcDbArc
 50
180.0
 51
270.0
  0
ARC
  5
8CF
330
1F
100
AcDbEntity
  8
0
  6
Continuous
 62
     7
100
AcDbCircle
 10
-172.1689
 20
-5.60230000000001
 30
0.0
 40
2.0
100
AcDbArc
 50
180.0
 51
270.0
  0
ARC
  5
8D0
330
1F
100
AcDbEntity
  8
0
  6
Continuous
 62
     7
100
AcDbCircle
 10
-172.1689
 20
-3.80220000000008
 30
0.0
 40
2.0
100
AcDbArc
 50
90.0
 51
180.0
  0
LINE
  5
8D1
330
1F
100
AcDbEntity
  8
0
  6
Continuous
 62
     7
100
AcDbLine
 10
-174.1689
 20
-3.80220000000008
 30
0.0
 11
-174.1689
 21
-6.80220000000008
 31
0.0
  0
LINE
  5
8D5
330
1F
100
AcDbEntity
  8
0
  6
DASH_CENTER
 62
    30
100
AcDbLine
 10
-118.6457
 20
-14.68650000000002
 30
0.0
 11
-142.5942999999999
 21
-14.68650000000002
 31
0.0
  0
ARC
  5
8D6
330
1F
100
AcDbEntity
  8
0
  6
Continuous
 62
     7
100
AcDbCircle
 10
-151.1689
 20
-16.80220000000008
 30
0.0
 40
2.0
100
AcDbArc
 50
270.0
 51
0.0
  0
ARC
  5
8D7
330
1F
100
AcDbEntity
  8
0
  6
Continuous
 62
     7
100
AcDbCircle
 10
-151.1689
 20
-18.30220000000007
 30
0.0
 40
2.0
100
AcDbArc
 50
270.0
 51
0.0
  0
ARC
  5
8D8
330
1F
100
AcDbEntity
  8
0
  6
Continuous
 62
     7
100
AcDbCircle
 10
-151.1689
 20
-16.80220000000008
 30
0.0
 40
2.0
100
AcDbArc
 50
0.0
 51
90.0
  0
LINE
  5
8D9
330
1F
100
AcDbEntity
  8
0
  6
Continuous
 62
     7
100
AcDbLine
 10
-149.1689
 20
-18.30220000000007
 30
0.0
 11
-149.1689
 21
-16.80220000000008
 31
0.0
  0
ARC
  5
8DA
330
1F
100
AcDbEntity
  8
0
  6
Continuous
 62
     7
100
AcDbCircle
 10
-151.1689
 20
-5.60230000000001
 30
0.0
 40
2.0
100
AcDbArc
 50
270.0
 51
0.0
  0
ARC
  5
8DB
330
1F
100
AcDbEntity
  8
0
  6
Continuous
 62
     7
100
AcDbCircle
 10
-151.1689
 20
-3.80220000000008
 30
0.0
 40
2.0
100
AcDbArc
 50
0.0
 51
90.0
  0
ARC
  5
8DC
330
1F
100
AcDbEntity
  8
0
  6
Continuous
 62
     7
100
AcDbCircle
 10
-151.1689
 20
-6.80220000000008
 30
0.0
 40
2.0
100
AcDbArc
 50
270.0
 51
0.0
  0
LINE
  5
8DD
330
1F
100
AcDbEntity
  8
0
  6
Continuous
 62
     7
100
AcDbLine
 10
-149.1689
 20
-3.80220000000008
 30
0.0
 11
-149.1689
 21
-6.80220000000008
 31
0.0
  0
ARC
  5
8DE
330
1F
100
AcDbEntity
  8
0
  6
Continuous
 62
     7
100
AcDbCircle
 10
-136.2564895813054
 20
-10.64494709540769
 30
0.0
 40
6.588277034786107
100
AcDbArc
 50
342.1374444196875
 51
355.5807522366339
  0
LINE
  5
8DF
330
1F
100
AcDbEntity
  8
0
  6
Continuous
 62
     7
100
AcDbLine
 10
-129.6682
 20
-11.18650000000002
 30
0.0
 11
-129.6682
 21
-18.18630000000007
 31
0.0
  0
ARC
  5
8E0
330
1F
100
AcDbEntity
  8
0
  6
Continuous
 62
     7
100
AcDbCircle
 10
-136.2564895813054
 20
-18.72785290459241
 30
0.0
 40
6.588277034786107
100
AcDbArc
 50
4.419247763366093
 51
17.86255558031249
  0
ARC
  5
8E1
330
1F
100
AcDbEntity
  8
0
  6
Continuous
 62
     7
100
AcDbCircle
 10
-136.2564999961606
 20
-14.68614483718498
 30
0.0
 40
6.588287640269155
100
AcDbArc
 50
342.1374535096611
 51
17.8597110481841
  0
LINE
  5
8E2
330
1F
100
AcDbEntity
  8
0
  6
Continuous
 62
     7
100
AcDbLine
 10
-127.3179999999999
 20
-16.68650000000002
 30
0.0
 11
-127.3179999999999
 21
-12.68650000000002
 31
0.0
  0
LINE
  5
8E3
330
1F
100
AcDbEntity
  8
0
  6
Continuous
 62
     7
100
AcDbLine
 10
-126.9679999999999
 20
-13.03639999999996
 30
0.0
 11
-126.9679999999999
 21
-16.33640000000014
 31
0.0
  0
LINE
  5
8E4
330
1F
100
AcDbEntity
  8
0
  6
Continuous
 62
     7
100
AcDbLine
 10
-126.9679999999999
 20
-16.33640000000014
 30
0.0
 11
-127.3179999999999
 21
-16.68650000000002
 31
0.0
  0
LINE
  5
8E5
330
1F
100
AcDbEntity
  8
0
  6
Continuous
 62
     7
100
AcDbLine
 10
-126.9679999999999
 20
-13.03639999999996
 30
0.0
 11
-127.3179999999999
 21
-12.68650000000002
 31
0.0
  0
LINE
  5
8E6
330
1F
100
AcDbEntity
  8
0
  6
Continuous
 62
    30
100
AcDbLine
 10
-126.9679999999999
 20
-13.03639999999996
 30
0.0
 11
-129.6682
 21
-13.03639999999996
 31
0.0
  0
LINE
  5
8E7
330
1F
100
AcDbEntity
  8
0
  6
Continuous
 62
    30
100
AcDbLine
 10
-126.9679999999999
 20
-16.33640000000014
 30
0.0
 11
-129.6682
 21
-16.33640000000014
 31
0.0
  0
LINE
  5
8E8
330
1F
100
AcDbEntity
  8
0
  6
Continuous
 62
     7
100
AcDbLine
 10
-129.9858000000001
 20
-16.70700000000011
 30
0.0
 11
-132.8682
 21
-16.70700000000011
 31
0.0
  0
LINE
  5
8E9
330
1F
100
AcDbEntity
  8
0
  6
Continuous
 62
     7
100
AcDbLine
 10
-129.6682
 20
-18.18630000000007
 30
0.0
 11
-129.9858000000001
 21
-18.73630000000003
 31
0.0
  0
LINE
  5
8EA
330
1F
100
AcDbEntity
  8
0
  6
Continuous
 62
     7
100
AcDbLine
 10
-129.9858000000001
 20
-18.73630000000003
 30
0.0
 11
-132.5506999999998
 21
-18.73630000000003
 31
0.0
  0
LINE
  5
8EB
330
1F
100
AcDbEntity
  8
0
  6
Continuous
 62
     7
100
AcDbLine
 10
-129.9856999999999
 20
-12.66579999999999
 30
0.0
 11
-132.8682
 21
-12.66579999999999
 31
0.0
  0
LINE
  5
8EC
330
1F
100
AcDbEntity
  8
0
  6
Continuous
 62
     7
100
AcDbLine
 10
-132.8682
 20
-18.18630000000007
 30
0.0
 11
-132.5506999999998
 21
-18.73630000000003
 31
0.0
  0
LINE
  5
8ED
330
1F
100
AcDbEntity
  8
0
  6
Continuous
 62
     7
100
AcDbLine
 10
-129.6682
 20
-12.68650000000002
 30
0.0
 11
-127.3179999999999
 21
-12.68650000000002
 31
0.0
  0
LINE
  5
8EE
330
1F
100
AcDbEntity
  8
0
  6
Continuous
 62
     7
100
AcDbLine
 10
-127.3179999999999
 20
-16.68650000000002
 30
0.0
 11
-129.6682
 21
-16.68650000000002
 31
0.0
  0
LINE
  5
8EF
330
1F
100
AcDbEntity
  8
0
  6
Continuous
 62
     7
100
AcDbLine
 10
-132.5506999999998
 20
-10.63650000000007
 30
0.0
 11
-129.9858000000001
 21
-10.63650000000007
 31
0.0
  0
LINE
  5
8F0
330
1F
100
AcDbEntity
  8
0
  6
Continuous
 62
     7
100
AcDbLine
 10
-129.6682
 20
-11.18650000000002
 30
0.0
 11
-129.9858000000001
 21
-10.63650000000007
 31
0.0
  0
LINE
  5
8F1
330
1F
100
AcDbEntity
  8
0
  6
Continuous
 62
     7
100
AcDbLine
 10
-132.8682
 20
-11.18650000000002
 30
0.0
 11
-132.5506999999998
 21
-10.63650000000007
 31
0.0
  0
ARC
  5
8F4
330
1F
100
AcDbEntity
  8
0
  6
Continuous
 62
     7
100
AcDbCircle
 10
-282.41775
 20
70.10600000000001
 30
0.0
 40
0.4000620233164969
100
AcDbArc
 50
247.646740417938
 51
292.3532595820619
  0
ARC
  5
8F5
330
1F
100
AcDbEntity
  8
0
  6
Continuous
 62
     7
100
AcDbCircle
 10
-282.4177
 20
68.78880000000004
 30
0.0
 40
0.3999879623188
100
AcDbArc
 50
63.47979121724126
 51
116.520208782795
  0
ARC
  5
8F6
330
1F
100
AcDbEntity
  8
0
  6
Continuous
 62
     7
100
AcDbCircle
 10
-282.4174440405906
 20
70.31270000089773
 30
0.0
 40
4.153055713793028
100
AcDbArc
 50
221.3748993791357
 51
318.6269390864381
  0
ARC
  5
8F7
330
1F
100
AcDbEntity
  8
0
  6
Continuous
 62
     7
100
AcDbCircle
 10
-282.4174958263914
 20
67.16040000012757
 30
0.0
 40
3.720317290901749
100
AcDbArc
 50
28.44775528372265
 51
151.5557478133224
  0
LINE
  5
8F8
330
1F
100
AcDbEntity
  8
0
  6
Continuous
 62
     7
100
AcDbLine
 10
-284.8630000000001
 20
94.04709999999999
 30
0.0
 11
-275.9177
 21
94.04690000000003
 31
0.0
  0
LINE
  5
8F9
330
1F
100
AcDbEntity
  8
0
  6
Continuous
 62
     7
100
AcDbLine
 10
-287.0127
 20
66.08539999999994
 30
0.0
 11
-277.4153000000002
 21
52.94749999999998
 31
0.0
  0
LINE
  5
8FA
330
1F
100
AcDbEntity
  8
0
  6
Continuous
 62
     7
100
AcDbLine
 10
-287.0127
 20
71.98440000000005
 30
0.0
 11
-277.4153000000002
 21
85.1217999999999
 31
0.0
  0
LINE
  5
8FB
330
1F
100
AcDbEntity
  8
0
  6
DASH_CENTER
 62
    30
100
AcDbLine
 10
-76.93549999999996
 20
28.44730000000003
 30
0.0
 11
-325.5226999999998
 21
28.44730000000003
 31
0.0
  0
LINE
  5
8FC
330
1F
100
AcDbEntity
  8
0
  6
DASH_CENTER
 62
    30
100
AcDbLine
 10
-281.5420000000001
 20
69.03469999999993
 30
0.0
 11
-292.1919
 21
69.03469999999993
 31
0.0
  0
LINE
  5
901
330
1F
100
AcDbEntity
  8
0
  6
Continuous
 62
     7
100
AcDbLine
 10
-309.0676000000001
 20
47.4973
 30
0.0
 11
-309.0676000000001
 21
28.44730000000003
 31
0.0
  0
ARC
  5
902
330
1F
100
AcDbEntity
  8
0
  6
Continuous
 62
     7
100
AcDbCircle
 10
-189.0680999999999
 20
28.44730000000003
 30
0.0
 40
122.300008982829
100
AcDbArc
 50
180.0
 51
187.4028805356486
  0
LINE
  5
903
330
1F
100
AcDbEntity
  8
0
  6
Continuous
 62
     7
100
AcDbLine
 10
-309.0676000000001
 20
9.39719999999988
 30
0.0
 11
-309.0676000000001
 21
28.44730000000003
 31
0.0
  0
ARC
  5
904
330
1F
100
AcDbEntity
  8
0
  6
Continuous
 62
     7
100
AcDbCircle
 10
-308.3649451710741
 20
12.94721968698036
 30
0.0
 40
2.000016070071373
100
AcDbArc
 50
187.4007633462287
 51
241.2411915160016
  0
LINE
  5
905
330
1F
100
AcDbEntity
  8
0
  6
Continuous
 62
     7
100
AcDbLine
 10
-308.5676
 20
8.89719999999988
 30
0.0
 11
-298.968
 21
8.89719999999988
 31
0.0
  0
ARC
  5
906
330
1F
100
AcDbEntity
  8
0
  6
Continuous
 62
     7
100
AcDbCircle
 10
-308.5676
 20
9.39719999999988
 30
0.0
 40
0.5
100
AcDbArc
 50
180.0
 51
270.0
  0
ARC
  5
907
330
1F
100
AcDbEntity
  8
0
  6
Continuous
 62
     7
100
AcDbCircle
 10
-309.5675735646151
 20
10.75535535017661
 30
0.0
 40
0.4999735666088871
100
AcDbArc
 50
0.0051167633871245
 51
61.25105949420983
  0
LINE
  5
908
330
1F
100
AcDbEntity
  8
0
  6
Continuous
 62
     7
100
AcDbLine
 10
-309.0676000000001
 20
10.94730000000003
 30
0.0
 11
-309.0676000000001
 21
10.84719999999993
 31
0.0
  0
LINE
  5
909
330
1F
100
AcDbEntity
  8
0
  6
Continuous
 62
     7
100
AcDbLine
 10
-309.0676000000001
 20
10.82369999999992
 30
0.0
 11
-309.0676000000001
 21
10.84719999999993
 31
0.0
  0
ARC
  5
90A
330
1F
100
AcDbEntity
  8
0
  6
Continuous
 62
     7
100
AcDbCircle
 10
-189.0681128847892
 20
28.4471008322875
 30
0.0
 40
122.2999960982019
100
AcDbArc
 50
172.5971190732614
 51
179.999906692807
  0
ARC
  5
90B
330
1F
100
AcDbEntity
  8
0
  6
Continuous
 62
     7
100
AcDbCircle
 10
-308.3649997586948
 20
43.94730035343857
 30
0.0
 40
1.999972238557225
100
AcDbArc
 50
118.757713762091
 51
172.5967635949511
  0
ARC
  5
90C
330
1F
100
AcDbEntity
  8
0
  6
Continuous
 62
     7
100
AcDbCircle
 10
-309.5676174026656
 20
46.13917059988965
 30
0.0
 40
0.5000174035299359
100
AcDbArc
 50
298.7519144098271
 51
0.0033688872043717
  0
LINE
  5
90D
330
1F
100
AcDbEntity
  8
0
  6
Continuous
 62
     7
100
AcDbLine
 10
-309.0676000000001
 20
45.94730000000004
 30
0.0
 11
-309.0676000000001
 21
46.04739999999993
 31
0.0
  0
LINE
  5
90E
330
1F
100
AcDbEntity
  8
0
  6
Continuous
 62
     7
100
AcDbLine
 10
-309.0676000000001
 20
45.94730000000004
 30
0.0
 11
-309.0676000000001
 21
46.04739999999993
 31
0.0
  0
LINE
  5
90F
330
1F
100
AcDbEntity
  8
0
  6
Continuous
 62
     7
100
AcDbLine
 10
-309.0676000000001
 20
46.07079999999996
 30
0.0
 11
-309.0676000000001
 21
46.04739999999993
 31
0.0
  0
ARC
  5
910
330
1F
100
AcDbEntity
  8
0
  6
Continuous
 62
     7
100
AcDbCircle
 10
-282.9751000000002
 20
69.03489999999988
 30
0.0
 40
5.000036660865452
100
AcDbArc
 50
143.8518137862687
 51
216.1481862137312
  0
ARC
  5
911
330
1F
100
AcDbEntity
  8
0
  6
Continuous
 62
     7
100
AcDbCircle
 10
-285.4957871389643
 20
62.6199465378908
 30
0.0
 40
7.294319862977183
100
AcDbArc
 50
70.95273316606323
 51
75.73001183356591
  0
LINE
  5
912
330
1F
100
AcDbEntity
  8
0
  6
Continuous
 62
     7
100
AcDbLine
 10
-301.5678999999999
 20
69.4994999999999
 30
0.0
 11
-301.5678999999999
 21
73.66210000000002
 31
0.0
  0
LINE
  5
913
330
1F
100
AcDbEntity
  8
0
  6
Continuous
 62
     7
100
AcDbLine
 10
-308.5676
 20
47.99710000000004
 30
0.0
 11
-298.968
 21
47.99710000000004
 31
0.0
  0
ARC
  5
914
330
1F
100
AcDbEntity
  8
0
  6
Continuous
 62
     7
100
AcDbCircle
 10
-308.5676
 20
47.4973
 30
0.0
 40
0.5
100
AcDbArc
 50
90.0
 51
180.0
  0
ARC
  5
915
330
1F
100
AcDbEntity
  8
0
  6
Continuous
 62
     7
100
AcDbCircle
 10
-300.2678265608044
 20
69.49952898478262
 30
0.0
 40
1.299973439518711
100
AcDbArc
 50
180.0012774920389
 51
265.0011817931065
  0
LINE
  5
916
330
1F
100
AcDbEntity
  8
0
  6
Continuous
 62
     7
100
AcDbLine
 10
-298.9678000000001
 20
68.08079999999995
 30
0.0
 11
-300.3811
 21
68.20429999999989
 31
0.0
  0
ARC
  5
917
330
1F
100
AcDbEntity
  8
0
  6
Continuous
 62
     7
100
AcDbCircle
 10
-284.259797271892
 20
68.3385848464911
 30
0.0
 40
0.1499883654252373
100
AcDbArc
 50
130.6977600418593
 51
249.7136778010879
  0
ARC
  5
918
330
1F
100
AcDbEntity
  8
0
  6
Continuous
 62
     7
100
AcDbCircle
 10
-284.152335935867
 20
68.29909368107569
 30
0.0
 40
0.15001792782421
100
AcDbArc
 50
249.6928748894917
 51
310.2528800604867
  0
ARC
  5
919
330
1F
100
AcDbEntity
  8
0
  6
Continuous
 62
     7
100
AcDbCircle
 10
-283.1478976366468
 20
69.4201734779225
 30
0.0
 40
0.0999893458874626
100
AcDbArc
 50
299.2110736787815
 51
70.97315657022917
  0
ARC
  5
91A
330
1F
100
AcDbEntity
  8
0
  6
Continuous
 62
     7
100
AcDbCircle
 10
-279.338612078266
 20
62.62030148801828
 30
0.0
 40
7.694333738960481
100
AcDbArc
 50
119.2557441642602
 51
130.7130172769234
  0
ARC
  5
91B
330
1F
100
AcDbEntity
  8
0
  6
Continuous
 62
     7
100
AcDbCircle
 10
-279.3389360341284
 20
62.6200762382213
 30
0.0
 40
7.294329315512063
100
AcDbArc
 50
116.521507217471
 51
130.2821468822231
  0
ARC
  5
91C
330
1F
100
AcDbEntity
  8
0
  6
Continuous
 62
     7
100
AcDbCircle
 10
-284.6335108967679
 20
68.36089612681909
 30
0.0
 40
1.200016966813739
100
AcDbArc
 50
151.5594598052838
 51
221.3752231025707
  0
LINE
  5
91D
330
1F
100
AcDbEntity
  8
0
  6
Continuous
 62
     7
100
AcDbLine
 10
-284.3118
 20
68.19799999999986
 30
0.0
 11
-284.2043000000002
 21
68.15819999999985
 31
0.0
  0
LINE
  5
91E
330
1F
100
AcDbEntity
  8
0
  6
DASH_CENTER
 62
    30
100
AcDbLine
 10
-291.9538999999998
 20
71.58079999999995
 30
0.0
 11
-305.6438
 21
71.58079999999995
 31
0.0
  0
ARC
  5
91F
330
1F
100
AcDbEntity
  8
0
  6
Continuous
 62
     7
100
AcDbCircle
 10
-300.267776750911
 20
73.66212537279452
 30
0.0
 40
1.3000232493366
100
AcDbArc
 50
95.0008298424778
 51
180.0011182523388
  0
LINE
  5
920
330
1F
100
AcDbEntity
  8
0
  6
Continuous
 62
     7
100
AcDbLine
 10
-298.9678000000001
 20
75.08079999999996
 30
0.0
 11
-300.3811
 21
74.95699999999988
 31
0.0
  0
ARC
  5
921
330
1F
100
AcDbEntity
  8
0
  6
Continuous
 62
     7
100
AcDbCircle
 10
-283.5705991750613
 20
69.91430019590038
 30
0.0
 40
0.1499725641551724
100
AcDbArc
 50
75.20422027955648
 51
131.5132625340351
  0
ARC
  5
922
330
1F
100
AcDbEntity
  8
0
  6
Continuous
 62
     7
100
AcDbCircle
 10
-283.6606006133071
 20
69.83450252878661
 30
0.0
 40
0.1500361622849117
100
AcDbArc
 50
131.5420369840955
 51
255.7234066736575
  0
ARC
  5
923
330
1F
100
AcDbEntity
  8
0
  6
Continuous
 62
     7
100
AcDbCircle
 10
-285.4963815889353
 20
62.62012741388213
 30
0.0
 40
7.694372544112652
100
AcDbArc
 50
67.6444185286237
 51
75.21088445056438
  0
LINE
  5
924
330
1F
100
AcDbEntity
  8
0
  6
Continuous
 62
     7
100
AcDbLine
 10
-283.6699000000002
 20
70.02659999999991
 30
0.0
 11
-283.7603000000002
 21
69.94679999999994
 31
0.0
  0
LINE
  5
928
330
1F
100
AcDbEntity
  8
0
  6
Continuous
 62
     7
100
AcDbLine
 10
-298.968
 20
94.04709999999999
 30
0.0
 11
-284.8630000000001
 21
94.04709999999999
 31
0.0
  0
ARC
  5
CB4
330
1F
100
AcDbEntity
  8
0
  6
Continuous
 62
     7
100
AcDbCircle
 10
-146.3389792048866
 20
62.6202545127185
 30
0.0
 40
7.694390787929603
100
AcDbArc
 50
119.255786780532
 51
130.7129746606648
  0
ARC
  5
CB5
330
1F
100
AcDbEntity
  8
0
  6
Continuous
 62
     7
100
AcDbCircle
 10
-149.4178440405904
 20
70.31269999929337
 30
0.0
 40
4.153055712732486
100
AcDbArc
 50
221.3748993625279
 51
318.6269391030462
  0
ARC
  5
CB6
330
1F
100
AcDbEntity
  8
0
  6
Continuous
 62
     7
100
AcDbCircle
 10
-149.4177958263913
 20
67.16040000012757
 30
0.0
 40
3.720317290901749
100
AcDbArc
 50
28.44775528372265
 51
151.5557478133222
  0
LINE
  5
CB7
330
1F
100
AcDbEntity
  8
0
  6
Continuous
 62
     7
100
AcDbLine
 10
-155.9181
 20
94.04709999999999
 30
0.0
 11
-132.8682
 21
94.04709999999999
 31
0.0
  0
LINE
  5
CB8
330
1F
100
AcDbEntity
  8
0
  6
Continuous
 62
     7
100
AcDbLine
 10
-154.4201
 20
85.1217999999999
 30
0.0
 11
-144.8226999999999
 21
71.9840999999999
 31
0.0
  0
LINE
  5
CB9
330
1F
100
AcDbEntity
  8
0
  6
Continuous
 62
     7
100
AcDbLine
 10
-154.4201
 20
52.94749999999999
 30
0.0
 11
-144.8226999999999
 21
66.08519999999998
 31
0.0
  0
LINE
  5
CBA
330
1F
100
AcDbEntity
  8
0
  6
Continuous
 62
     7
100
AcDbLine
 10
-172.1689
 20
13.19779999999991
 30
0.0
 11
-151.1689
 21
13.19779999999991
 31
0.0
  0
LINE
  5
CBB
330
1F
100
AcDbEntity
  8
0
  6
Continuous
 62
     7
100
AcDbLine
 10
-172.1689
 20
21.19779999999992
 30
0.0
 11
-151.1689
 21
21.19779999999992
 31
0.0
  0
LINE
  5
CBC
330
1F
100
AcDbEntity
  8
0
  6
Continuous
 62
     7
100
AcDbLine
 10
-172.1689
 20
29.19779999999992
 30
0.0
 11
-151.1689
 21
29.19779999999992
 31
0.0
  0
LINE
  5
CBD
330
1F
100
AcDbEntity
  8
0
  6
Continuous
 62
     7
100
AcDbLine
 10
-151.1689
 20
5.197799999999919
 30
0.0
 11
-172.1689
 21
5.197799999999919
 31
0.0
  0
LINE
  5
CBE
330
1F
100
AcDbEntity
  8
0
  6
Continuous
 62
     7
100
AcDbLine
 10
-151.1689
 20
6.197799999999919
 30
0.0
 11
-172.1689
 21
6.197799999999919
 31
0.0
  0
LINE
  5
CBF
330
1F
100
AcDbEntity
  8
0
  6
Continuous
 62
     7
100
AcDbLine
 10
-172.1689
 20
29.19779999999992
 30
0.0
 11
-151.1689
 21
29.19779999999992
 31
0.0
  0
LINE
  5
CC0
330
1F
100
AcDbEntity
  8
0
  6
Continuous
 62
     7
100
AcDbLine
 10
-151.3120999999999
 20
68.19799999999986
 30
0.0
 11
-151.2046999999999
 21
68.15819999999985
 31
0.0
  0
LINE
  5
CC1
330
1F
100
AcDbEntity
  8
0
  6
DASH_CENTER
 62
    30
100
AcDbLine
 10
-144.0424
 20
69.03469999999993
 30
0.0
 11
-154.6923000000001
 21
69.03469999999993
 31
0.0
  0
LINE
  5
CC2
330
1F
100
AcDbEntity
  8
0
  6
Continuous
 62
     7
100
AcDbLine
 10
-155.9181
 20
51.79420000000004
 30
0.0
 11
-155.9181
 21
95.4088999999999
 31
0.0
  0
LINE
  5
CC3
330
1F
100
AcDbEntity
  8
0
  6
Continuous
 62
     7
100
AcDbLine
 10
-275.9177
 20
51.79420000000004
 30
0.0
 11
-275.9180000000002
 21
95.4088999999999
 31
0.0
  0
LINE
  5
CC5
330
1F
100
AcDbEntity
  8
0
  6
Continuous
 62
     7
100
AcDbLine
 10
-158.4574999999999
 20
50.89699999999993
 30
0.0
 11
-273.3777000000001
 21
50.89699999999993
 31
0.0
  0
LINE
  5
CC6
330
1F
100
AcDbEntity
  8
0
  6
Continuous
 62
     7
100
AcDbLine
 10
-275.9177
 20
51.79420000000004
 30
0.0
 11
-155.9181
 21
51.79420000000004
 31
0.0
  0
LINE
  5
CC7
330
1F
100
AcDbEntity
  8
0
  6
DASHED
 62
    30
100
AcDbLine
 10
-181.1679999999999
 20
86.76729999999997
 30
0.0
 11
-244.1679999999999
 21
86.76729999999997
 31
0.0
  0
LINE
  5
CC8
330
1F
100
AcDbEntity
  8
0
  6
DASHED
 62
    30
100
AcDbLine
 10
-244.1679999999999
 20
58.48299999999995
 30
0.0
 11
-181.1682
 21
58.48299999999995
 31
0.0
  0
ARC
  5
CC9
330
1F
100
AcDbEntity
  8
0
  6
Continuous
 62
     7
100
AcDbCircle
 10
-259.1679602585808
 20
28.44730000055612
 30
0.0
 40
13.50004115469368
100
AcDbArc
 50
301.964616397977
 51
238.0369870212093
  0
LINE
  5
CCA
330
1F
100
AcDbEntity
  8
0
  6
Continuous
 62
     7
100
AcDbLine
 10
-259.168
 20
28.44779999999992
 30
0.0
 11
-259.168
 21
11.04369999999994
 31
0.0
  0
LINE
  5
CCB
330
1F
100
AcDbEntity
  8
0
  6
Continuous
 62
     7
100
AcDbLine
 10
-262.2680999999999
 20
11.04369999999994
 30
0.0
 11
-262.2680999999999
 21
28.44779999999992
 31
0.0
  0
LINE
  5
CCC
330
1F
100
AcDbEntity
  8
0
  6
Continuous
 62
     7
100
AcDbLine
 10
-267.6342999999998
 20
13.25929999999994
 30
0.0
 11
-262.2680999999999
 21
28.44779999999992
 31
0.0
  0
LINE
  5
CCD
330
1F
100
AcDbEntity
  8
0
  6
Continuous
 62
     7
100
AcDbLine
 10
-250.7016999999999
 20
13.25929999999994
 30
0.0
 11
-256.0678999999997
 21
28.44779999999992
 31
0.0
  0
LINE
  5
CCE
330
1F
100
AcDbEntity
  8
0
  6
Continuous
 62
     7
100
AcDbLine
 10
-256.0680999999998
 20
11.04369999999994
 30
0.0
 11
-256.0680999999998
 21
28.44779999999992
 31
0.0
  0
ARC
  5
CCF
330
1F
100
AcDbEntity
  8
0
  6
Continuous
 62
    30
100
AcDbCircle
 10
-264.9949018249375
 20
13.75050064469043
 30
0.0
 40
1.550065537322813
100
AcDbArc
 50
220.5444252823302
 51
280.5422880968939
  0
ARC
  5
CD0
330
1F
100
AcDbEntity
  8
0
  6
Continuous
 62
    30
100
AcDbCircle
 10
-267.3508594630346
 20
11.7354210104079
 30
0.0
 40
1.550033035461686
100
AcDbArc
 50
40.53953545232065
 51
100.5402073286647
  0
ARC
  5
CD1
330
1F
100
AcDbEntity
  8
0
  6
Continuous
 62
    30
100
AcDbCircle
 10
-257.6178999999998
 20
13.72849999999994
 30
0.0
 40
3.100018401558396
100
AcDbArc
 50
240.0001963594911
 51
299.9998036405051
  0
ARC
  5
CD2
330
1F
100
AcDbEntity
  8
0
  6
Continuous
 62
    30
100
AcDbCircle
 10
-260.7179999999999
 20
8.358899999999952
 30
0.0
 40
3.10001840155831
100
AcDbArc
 50
60.00019635949485
 51
119.9998036405051
  0
ARC
  5
CD3
330
1F
100
AcDbEntity
  8
0
  6
Continuous
 62
     7
100
AcDbCircle
 10
-259.1674074693855
 20
28.4471301685332
 30
0.0
 40
13.50003836124424
100
AcDbArc
 50
251.2914647760495
 51
256.7217510310004
  0
LINE
  5
CD4
330
1F
100
AcDbEntity
  8
0
  6
Continuous
 62
     7
100
AcDbLine
 10
-264.7108999999999
 20
12.22659999999996
 30
0.0
 11
-262.2680999999999
 21
19.14179999999987
 31
0.0
  0
ARC
  5
CD5
330
1F
100
AcDbEntity
  8
0
  6
Continuous
 62
     7
100
AcDbCircle
 10
-259.1674607329113
 20
28.44745452093057
 30
0.0
 40
13.50004822437004
100
AcDbArc
 50
283.2724315966917
 51
288.7056900655661
  0
ARC
  5
CD6
330
1F
100
AcDbEntity
  8
0
  6
Continuous
 62
    30
100
AcDbCircle
 10
-253.3410265228004
 20
13.75052595530778
 30
0.0
 40
1.550103531680158
100
AcDbArc
 50
259.4552793266782
 51
319.4555449073088
  0
ARC
  5
CD7
330
1F
100
AcDbEntity
  8
0
  6
Continuous
 62
    30
100
AcDbCircle
 10
-250.98511218941
 20
11.73539569334202
 30
0.0
 40
1.550071033802151
100
AcDbArc
 50
79.45736002986478
 51
139.4604344312905
  0
LINE
  5
CD8
330
1F
100
AcDbEntity
  8
0
  6
Continuous
 62
     7
100
AcDbLine
 10
-253.6249999999998
 20
12.22659999999996
 30
0.0
 11
-256.0678999999997
 21
19.14179999999987
 31
0.0
  0
ARC
  5
CD9
330
1F
100
AcDbEntity
  8
0
  6
Continuous
 62
     7
100
AcDbCircle
 10
-257.6178999999998
 20
28.44779999999992
 30
0.0
 40
1.549800000000004
100
AcDbArc
 50
0.0
 51
180.0
  0
ARC
  5
CDA
330
1F
100
AcDbEntity
  8
0
  6
Continuous
 62
     7
100
AcDbCircle
 10
-259.1679900490313
 20
28.44729999985082
 30
0.0
 40
3.399998306602779
100
AcDbArc
 50
348.7432434086716
 51
191.2550383708677
  0
ARC
  5
CDB
330
1F
100
AcDbEntity
  8
0
  6
Continuous
 62
     7
100
AcDbCircle
 10
-260.7180499999998
 20
28.44779999999992
 30
0.0
 40
1.550049999999941
100
AcDbArc
 50
0.0
 51
180.0
  0
ARC
  5
CDD
330
1F
100
AcDbEntity
  8
0
  6
Continuous
 62
     7
100
AcDbCircle
 10
-279.3379238001885
 20
62.6203923235698
 30
0.0
 40
7.294351947334481
100
AcDbArc
 50
104.2819930643137
 51
109.0587230067623
  0
LINE
  5
CDE
330
1F
100
AcDbEntity
  8
0
  6
DASH_CENTER
 62
    30
100
AcDbLine
 10
-282.4177
 20
63.76219999999989
 30
0.0
 11
-282.4177
 21
74.39059999999995
 31
0.0
  0
LINE
  5
CDF
330
1F
100
AcDbEntity
  8
0
 62
    54
100
AcDbLine
 10
-275.9177
 20
54.14420000000005
 30
0.0
 11
-275.9177
 21
65.79419999999996
 31
0.0
  0
ARC
  5
CE0
330
1F
100
AcDbEntity
  8
0
  6
Continuous
 62
     7
100
AcDbCircle
 10
-273.3777360909348
 20
55.89701833017225
 30
0.0
 40
5.000018330302561
100
AcDbArc
 50
216.148599780829
 51
270.0004135701311
  0
ARC
  5
CE2
330
1F
100
AcDbEntity
  8
0
  6
Continuous
 62
     7
100
AcDbCircle
 10
-280.575402728108
 20
68.3385848464911
 30
0.0
 40
0.1499883654252275
100
AcDbArc
 50
290.286322198912
 51
49.30223995814067
  0
ARC
  5
CE3
330
1F
100
AcDbEntity
  8
0
  6
Continuous
 62
     7
100
AcDbCircle
 10
-280.6831610649335
 20
68.29911073759227
 30
0.0
 40
0.1500328835813974
100
AcDbArc
 50
229.7504546974184
 51
290.3037903525636
  0
ARC
  5
CE4
330
1F
100
AcDbEntity
  8
0
  6
Continuous
 62
     7
100
AcDbCircle
 10
-281.6873023633535
 20
69.4201734779225
 30
0.0
 40
0.0999893458874514
100
AcDbArc
 50
109.0268434297742
 51
240.7889263212502
  0
ARC
  5
CE5
330
1F
100
AcDbEntity
  8
0
  6
Continuous
 62
     7
100
AcDbCircle
 10
-285.4965879217349
 20
62.62030148801881
 30
0.0
 40
7.694333738960401
100
AcDbArc
 50
49.28698272307209
 51
60.74425583573239
  0
ARC
  5
CE6
330
1F
100
AcDbEntity
  8
0
  6
Continuous
 62
     7
100
AcDbCircle
 10
-285.4962639658717
 20
62.6200762382213
 30
0.0
 40
7.294329315512071
100
AcDbArc
 50
49.71785311777685
 51
63.47849278252897
  0
ARC
  5
CE7
330
1F
100
AcDbEntity
  8
0
  6
Continuous
 62
     7
100
AcDbCircle
 10
-280.2013930738213
 20
68.36086114391304
 30
0.0
 40
1.199996823418066
100
AcDbArc
 50
318.6261556082904
 51
28.44839096608112
  0
LINE
  5
CE8
330
1F
100
AcDbEntity
  8
0
  6
Continuous
 62
     7
100
AcDbLine
 10
-280.5234000000001
 20
68.19799999999986
 30
0.0
 11
-280.6311
 21
68.15819999999985
 31
0.0
  0
POINT
  5
CE9
330
1F
100
AcDbEntity
  8
0
 62
     7
100
AcDbPoint
 10
-282.4180000000002
 20
69.0346999999999
 30
0.0
  0
ARC
  5
CEA
330
1F
100
AcDbEntity
  8
0
  6
Continuous
 62
     7
100
AcDbCircle
 10
-281.2646008249388
 20
69.91430019590042
 30
0.0
 40
0.1499725641551376
100
AcDbArc
 50
48.48673746595576
 51
104.7957797204486
  0
ARC
  5
CEB
330
1F
100
AcDbEntity
  8
0
  6
Continuous
 62
     7
100
AcDbCircle
 10
-281.1745993866933
 20
69.83450252878667
 30
0.0
 40
0.1500361622850177
100
AcDbArc
 50
284.2765933264213
 51
48.45796301582416
  0
ARC
  5
CEC
330
1F
100
AcDbEntity
  8
0
  6
Continuous
 62
     7
100
AcDbCircle
 10
-279.3388184110645
 20
62.62012741388223
 30
0.0
 40
7.694372544112672
100
AcDbArc
 50
104.789115549439
 51
112.355581471378
  0
LINE
  5
CED
330
1F
100
AcDbEntity
  8
0
  6
Continuous
 62
     7
100
AcDbLine
 10
-281.1653000000002
 20
70.02659999999991
 30
0.0
 11
-281.0750000000001
 21
69.94679999999994
 31
0.0
  0
ARC
  5
CEE
330
1F
100
AcDbEntity
  8
0
  6
Continuous
 62
     7
100
AcDbCircle
 10
-273.3777938173417
 20
82.17231495982669
 30
0.0
 40
4.999952079667056
100
AcDbArc
 50
120.5297780819331
 51
143.8513180516025
  0
LINE
  5
CEF
330
1F
100
AcDbEntity
  8
0
  6
DASHED
 62
    30
100
AcDbLine
 10
-244.1679999999999
 20
86.76729999999997
 30
0.0
 11
-244.1679999999999
 21
58.48299999999995
 31
0.0
  0
POINT
  5
CF0
330
1F
100
AcDbEntity
  8
0
 62
     7
100
AcDbPoint
 10
-208.1682
 20
28.44730000000004
 30
0.0
  0
LINE
  5
CF1
330
1F
100
AcDbEntity
  8
0
  6
Continuous
 62
     7
100
AcDbLine
 10
-174.1689
 20
27.19779999999992
 30
0.0
 11
-174.1689
 21
23.19779999999992
 31
0.0
  0
ARC
  5
CF2
330
1F
100
AcDbEntity
  8
0
  6
Continuous
 62
     7
100
AcDbCircle
 10
-172.1689
 20
11.19779999999992
 30
0.0
 40
2.0
100
AcDbArc
 50
90.0
 51
180.0
  0
ARC
  5
CF3
330
1F
100
AcDbEntity
  8
0
  6
Continuous
 62
     7
100
AcDbCircle
 10
-172.1689
 20
8.197799999999919
 30
0.0
 40
2.0
100
AcDbArc
 50
180.0
 51
270.0
  0
ARC
  5
CF4
330
1F
100
AcDbEntity
  8
0
  6
Continuous
 62
     7
100
AcDbCircle
 10
-172.1689
 20
7.197799999999919
 30
0.0
 40
2.0
100
AcDbArc
 50
180.0
 51
270.0
  0
LINE
  5
CF5
330
1F
100
AcDbEntity
  8
0
  6
Continuous
 62
     7
100
AcDbLine
 10
-174.1689
 20
11.19779999999992
 30
0.0
 11
-174.1689
 21
7.197799999999919
 31
0.0
  0
ARC
  5
CF6
330
1F
100
AcDbEntity
  8
0
  6
Continuous
 62
     7
100
AcDbCircle
 10
-172.1689
 20
23.19779999999992
 30
0.0
 40
2.0
100
AcDbArc
 50
180.0
 51
270.0
  0
ARC
  5
CF7
330
1F
100
AcDbEntity
  8
0
  6
Continuous
 62
     7
100
AcDbCircle
 10
-172.1688802905212
 20
27.19785615876102
 30
0.0
 40
2.000019710267244
100
AcDbArc
 50
141.320325517306
 51
180.001608814142
  0
ARC
  5
CF8
330
1F
100
AcDbEntity
  8
0
  6
Continuous
 62
     7
100
AcDbCircle
 10
-172.1689410314093
 20
27.19778028978603
 30
0.0
 40
2.000019710634778
100
AcDbArc
 50
89.9988245482946
 51
141.317541306339
  0
ARC
  5
CF9
330
1F
100
AcDbEntity
  8
0
  6
Continuous
 62
     7
100
AcDbCircle
 10
-172.1689410314093
 20
27.19778028978603
 30
0.0
 40
2.000019710634778
100
AcDbArc
 50
89.9988245482946
 51
141.317541306339
  0
POINT
  5
CFB
330
1F
100
AcDbEntity
  8
0
 62
     2
100
AcDbPoint
 10
-208.4182
 20
50.8969999999999
 30
0.0
  0
LINE
  5
CFC
330
1F
100
AcDbEntity
  8
0
  6
DASHED
 62
    30
100
AcDbLine
 10
-181.1682
 20
58.48299999999995
 30
0.0
 11
-181.1679999999999
 21
86.76729999999997
 31
0.0
  0
LINE
  5
CFD
330
1F
100
AcDbEntity
  8
0
 62
    54
100
AcDbLine
 10
-155.9181
 20
54.14420000000005
 30
0.0
 11
-155.9181
 21
65.79419999999996
 31
0.0
  0
ARC
  5
CFE
330
1F
100
AcDbEntity
  8
0
  6
Continuous
 62
     7
100
AcDbCircle
 10
-158.4574853301974
 20
55.89700745044573
 30
0.0
 40
5.00000745046732
100
AcDbArc
 50
269.9998318966967
 51
323.8500444204525
  0
ARC
  5
D00
330
1F
100
AcDbEntity
  8
0
  6
Continuous
 62
     7
100
AcDbCircle
 10
-151.2601039872028
 20
68.33862209900691
 30
0.0
 40
0.1500209801852578
100
AcDbArc
 50
130.7340483713045
 51
249.7210162328677
  0
ARC
  5
D01
330
1F
100
AcDbEntity
  8
0
  6
Continuous
 62
     7
100
AcDbCircle
 10
-151.6339022419906
 20
68.3608197907147
 30
0.0
 40
1.199973005780981
100
AcDbArc
 50
151.554177680165
 51
221.3722148593816
  0
ARC
  5
D02
330
1F
100
AcDbEntity
  8
0
  6
Continuous
 62
     7
100
AcDbCircle
 10
-158.4575189936725
 20
82.17241721475916
 30
0.0
 40
4.999961094282851
100
AcDbArc
 50
36.14857448556647
 51
59.47676397847302
  0
LINE
  5
D04
330
1F
100
AcDbEntity
  8
0
  6
Continuous
 62
     7
100
AcDbLine
 10
-160.9181
 20
100.4088999999999
 30
0.0
 11
-270.9180000000002
 21
100.4088999999999
 31
0.0
  0
ARC
  5
D06
330
1F
100
AcDbEntity
  8
0
  6
Continuous
 62
     7
100
AcDbCircle
 10
-270.9180000000002
 20
95.4088999999999
 30
0.0
 40
5.0
100
AcDbArc
 50
90.0
 51
180.0
  0
ARC
  5
D10
330
1F
100
AcDbEntity
  8
0
  6
Continuous
 62
     7
100
AcDbCircle
 10
-160.9181
 20
95.4088999999999
 30
0.0
 40
5.0
100
AcDbArc
 50
0.0
 51
90.0
  0
LINE
  5
D19
330
1F
100
AcDbEntity
  8
0
  6
Continuous
 62
     7
100
AcDbLine
 10
-122.7681999999999
 20
47.4973
 30
0.0
 11
-122.7681999999999
 21
28.44730000000003
 31
0.0
  0
LINE
  5
D1A
330
1F
100
AcDbEntity
  8
0
  6
Continuous
 62
     7
100
AcDbLine
 10
-120.6976999999999
 20
35.94730000000004
 30
0.0
 11
-118.1681999999999
 21
35.94730000000004
 31
0.0
  0
LINE
  5
D1B
330
1F
100
AcDbEntity
  8
0
  6
Continuous
 62
     7
100
AcDbLine
 10
-120.6976999999999
 20
20.94730000000003
 30
0.0
 11
-118.1681999999999
 21
20.94730000000003
 31
0.0
  0
ARC
  5
D1C
330
1F
100
AcDbEntity
  8
0
  6
Continuous
 62
     7
100
AcDbCircle
 10
-242.7676257676324
 20
28.44690167197169
 30
0.0
 40
122.2999960978359
100
AcDbArc
 50
352.5972596171469
 51
0.0001866109208139
  0
LINE
  5
D1D
330
1F
100
AcDbEntity
  8
0
  6
Continuous
 62
     7
100
AcDbLine
 10
-122.7681999999999
 20
9.39719999999988
 30
0.0
 11
-122.7681999999999
 21
28.44730000000003
 31
0.0
  0
LINE
  5
D1E
330
1F
100
AcDbEntity
  8
0
  6
Continuous
 62
     7
100
AcDbLine
 10
-149.1689
 20
27.19749999999999
 30
0.0
 11
-149.1689
 21
23.19779999999992
 31
0.0
  0
ARC
  5
D1F
330
1F
100
AcDbEntity
  8
0
  6
Continuous
 62
     7
100
AcDbCircle
 10
-151.1689
 20
11.19779999999992
 30
0.0
 40
2.0
100
AcDbArc
 50
0.0
 51
90.0
  0
ARC
  5
D20
330
1F
100
AcDbEntity
  8
0
  6
Continuous
 62
     7
100
AcDbCircle
 10
-151.1689
 20
8.197799999999919
 30
0.0
 40
2.0
100
AcDbArc
 50
270.0
 51
0.0
  0
ARC
  5
D21
330
1F
100
AcDbEntity
  8
0
  6
Continuous
 62
     7
100
AcDbCircle
 10
-151.1689
 20
7.197799999999919
 30
0.0
 40
2.0
100
AcDbArc
 50
270.0
 51
0.0
  0
LINE
  5
D22
330
1F
100
AcDbEntity
  8
0
  6
Continuous
 62
     7
100
AcDbLine
 10
-149.1689
 20
11.19779999999992
 30
0.0
 11
-149.1689
 21
7.197799999999919
 31
0.0
  0
ARC
  5
D23
330
1F
100
AcDbEntity
  8
0
  6
Continuous
 62
     7
100
AcDbCircle
 10
-151.1689
 20
23.19779999999992
 30
0.0
 40
2.0
100
AcDbArc
 50
270.0
 51
0.0
  0
ARC
  5
D24
330
1F
100
AcDbEntity
  8
0
  6
Continuous
 62
     7
100
AcDbCircle
 10
-123.4708930803683
 20
12.94731013483472
 30
0.0
 40
2.000065655134779
100
AcDbArc
 50
298.7560111483984
 51
352.5968083306265
  0
LINE
  5
D25
330
1F
100
AcDbEntity
  8
0
  6
Continuous
 62
     7
100
AcDbLine
 10
-132.8682
 20
8.89719999999988
 30
0.0
 11
-123.2681999999998
 21
8.89719999999988
 31
0.0
  0
ARC
  5
D26
330
1F
100
AcDbEntity
  8
0
  6
Continuous
 62
     7
100
AcDbCircle
 10
-123.2681999999998
 20
9.39719999999988
 30
0.0
 40
0.5
100
AcDbArc
 50
270.0
 51
0.0
  0
ARC
  5
D27
330
1F
100
AcDbEntity
  8
0
  6
Continuous
 62
     7
100
AcDbCircle
 10
-122.2682023750432
 20
10.75539598696398
 30
0.0
 40
0.4999976249726496
100
AcDbArc
 50
118.7636441972896
 51
179.9995401377611
  0
LINE
  5
D28
330
1F
100
AcDbEntity
  8
0
  6
Continuous
 62
     7
100
AcDbLine
 10
-122.7681999999999
 20
10.94730000000003
 30
0.0
 11
-122.7681999999999
 21
10.84719999999993
 31
0.0
  0
LINE
  5
D29
330
1F
100
AcDbEntity
  8
0
  6
Continuous
 62
     7
100
AcDbLine
 10
-122.7681999999999
 20
10.82369999999992
 30
0.0
 11
-122.7681999999999
 21
10.84719999999993
 31
0.0
  0
ARC
  5
D2A
330
1F
100
AcDbEntity
  8
0
  6
Continuous
 62
     7
100
AcDbCircle
 10
-151.1688913466925
 20
27.197495843796
 30
0.0
 40
2.000004156222698
100
AcDbArc
 50
38.68958475163013
 51
90.00024789848724
  0
ARC
  5
D2B
330
1F
100
AcDbEntity
  8
0
  6
Continuous
 62
     7
100
AcDbCircle
 10
-151.1688729017633
 20
27.1974228110833
 30
0.0
 40
1.999972901893388
100
AcDbArc
 50
359.9993465017468
 51
38.68931204248203
  0
ARC
  5
D2C
330
1F
100
AcDbEntity
  8
0
  6
Continuous
 62
     7
100
AcDbCircle
 10
-151.1688913466925
 20
27.197495843796
 30
0.0
 40
2.000004156222698
100
AcDbArc
 50
38.68958475163013
 51
90.00024789848724
  0
ARC
  5
D2D
330
1F
100
AcDbEntity
  8
0
  6
Continuous
 62
     7
100
AcDbCircle
 10
-242.7676000000001
 20
28.44730000000003
 30
0.0
 40
122.2999703295549
100
AcDbArc
 50
0.0
 51
7.402741161449829
  0
ARC
  5
D2E
330
1F
100
AcDbEntity
  8
0
  6
Continuous
 62
     7
100
AcDbCircle
 10
-123.4708384851689
 20
43.94720990836132
 30
0.0
 40
2.000021819405813
100
AcDbArc
 50
7.405664669184894
 51
61.24508375973992
  0
ARC
  5
D2F
330
1F
100
AcDbEntity
  8
0
  6
Continuous
 62
     7
100
AcDbCircle
 10
-122.2681585532488
 20
46.13912995275353
 30
0.0
 40
0.5000414516573363
100
AcDbArc
 50
179.9919738422069
 51
241.2333843930043
  0
LINE
  5
D30
330
1F
100
AcDbEntity
  8
0
  6
Continuous
 62
     7
100
AcDbLine
 10
-122.7681999999999
 20
45.94730000000004
 30
0.0
 11
-122.7681999999999
 21
46.04739999999993
 31
0.0
  0
LINE
  5
D31
330
1F
100
AcDbEntity
  8
0
  6
Continuous
 62
     7
100
AcDbLine
 10
-122.7681999999999
 20
46.07079999999996
 30
0.0
 11
-122.7681999999999
 21
46.04739999999993
 31
0.0
  0
LINE
  5
D32
330
1F
100
AcDbEntity
  8
0
  6
Continuous
 62
     7
100
AcDbLine
 10
-122.7681999999999
 20
45.94730000000004
 30
0.0
 11
-122.7681999999999
 21
46.04739999999993
 31
0.0
  0
LINE
  5
D33
330
1F
100
AcDbEntity
  8
0
  6
Continuous
 62
     7
100
AcDbLine
 10
-89.16820000000004
 20
21.44730000000004
 30
0.0
 11
-89.16820000000004
 21
34.44730000000004
 31
0.0
  0
LINE
  5
D34
330
1F
100
AcDbEntity
  8
0
  6
Continuous
 62
     7
100
AcDbLine
 10
-118.1681999999999
 20
35.94730000000004
 30
0.0
 11
-118.1681999999999
 21
20.94730000000003
 31
0.0
  0
LINE
  5
D35
330
1F
100
AcDbEntity
  8
0
  6
Continuous
 62
     7
100
AcDbLine
 10
-88.16820000000005
 20
22.44699999999988
 30
0.0
 11
-88.16820000000005
 21
34.44730000000004
 31
0.0
  0
LINE
  5
D36
330
1F
100
AcDbEntity
  8
0
  6
Continuous
 62
     7
100
AcDbLine
 10
-89.16820000000004
 20
21.44730000000004
 30
0.0
 11
-117.5682
 21
21.44730000000004
 31
0.0
  0
ARC
  5
D3B
330
1F
100
AcDbEntity
  8
0
  6
Continuous
 62
     7
100
AcDbCircle
 10
-117.5680999958333
 20
20.84720000416719
 30
0.0
 40
0.6000000041666641
100
AcDbArc
 50
90.00954969446217
 51
180.000000397945
  0
LINE
  5
D3C
330
1F
100
AcDbEntity
  8
0
  6
Continuous
 62
     7
100
AcDbLine
 10
-118.1681999999999
 20
20.84719999999993
 30
0.0
 11
-118.1681999999999
 21
20.94730000000003
 31
0.0
  0
LINE
  5
D3D
330
1F
100
AcDbEntity
  8
0
  6
Continuous
 62
     7
100
AcDbLine
 10
-89.16820000000004
 20
21.44730000000004
 30
0.0
 11
-88.16820000000005
 21
22.44699999999988
 31
0.0
  0
LINE
  5
D3E
330
1F
100
AcDbEntity
  8
0
  6
Continuous
 62
     7
100
AcDbLine
 10
-115.1681999999999
 20
34.44730000000004
 30
0.0
 11
-88.16820000000005
 21
34.44730000000004
 31
0.0
  0
LINE
  5
D3F
330
1F
100
AcDbEntity
  8
0
  6
Continuous
 62
     7
100
AcDbLine
 10
-115.1681999999999
 20
34.44730000000004
 30
0.0
 11
-115.1681999999999
 21
35.44730000000004
 31
0.0
  0
ARC
  5
D40
330
1F
100
AcDbEntity
  8
0
  6
Continuous
 62
     7
100
AcDbCircle
 10
-117.5680999958331
 20
36.04709999583261
 30
0.0
 40
0.6000000041667875
100
AcDbArc
 50
179.9999996020434
 51
269.990450305528
  0
LINE
  5
D41
330
1F
100
AcDbEntity
  8
0
  6
Continuous
 62
     7
100
AcDbLine
 10
-117.5682
 20
35.44730000000004
 30
0.0
 11
-115.1681999999999
 21
35.44730000000004
 31
0.0
  0
LINE
  5
D42
330
1F
100
AcDbEntity
  8
0
  6
Continuous
 62
     7
100
AcDbLine
 10
-118.1681999999999
 20
35.94730000000004
 30
0.0
 11
-118.1681999999999
 21
36.0471
 31
0.0
  0
ARC
  5
D43
330
1F
100
AcDbEntity
  8
0
  6
Continuous
 62
     7
100
AcDbCircle
 10
-148.8600999999999
 20
69.03464999999993
 30
0.0
 40
4.999985406228737
100
AcDbArc
 50
323.8506751751868
 51
36.1493248248131
  0
ARC
  5
D44
330
1F
100
AcDbEntity
  8
0
  6
Continuous
 62
     7
100
AcDbCircle
 10
-136.2564999961606
 20
71.5804448371849
 30
0.0
 40
6.588287640269151
100
AcDbArc
 50
342.1402889518159
 51
17.86254649033882
  0
ARC
  5
D45
330
1F
100
AcDbEntity
  8
0
  6
Continuous
 62
     7
100
AcDbCircle
 10
-152.4964704960735
 20
62.62003131432956
 30
0.0
 40
7.294332207105175
100
AcDbArc
 50
70.95041198487269
 51
75.72692939754087
  0
ARC
  5
D46
330
1F
100
AcDbEntity
  8
0
  6
Continuous
 62
     7
100
AcDbCircle
 10
-146.3383155710384
 20
62.62036484273838
 30
0.0
 40
7.294380608910146
100
AcDbArc
 50
104.2820024542765
 51
109.0587136167965
  0
LINE
  5
D47
330
1F
100
AcDbEntity
  8
0
  6
Continuous
 62
     7
100
AcDbLine
 10
-127.3179999999999
 20
73.58079999999995
 30
0.0
 11
-127.3179999999999
 21
69.58079999999995
 31
0.0
  0
LINE
  5
D48
330
1F
100
AcDbEntity
  8
0
  6
Continuous
 62
     7
100
AcDbLine
 10
-126.9679999999999
 20
69.9306999999999
 30
0.0
 11
-127.3179999999999
 21
69.58079999999995
 31
0.0
  0
LINE
  5
D49
330
1F
100
AcDbEntity
  8
0
  6
Continuous
 62
     7
100
AcDbLine
 10
-129.6682
 20
68.08079999999995
 30
0.0
 11
-129.6682
 21
75.0806
 31
0.0
  0
LINE
  5
D4A
330
1F
100
AcDbEntity
  8
0
  6
DASH_CENTER
 62
    30
100
AcDbLine
 10
-149.4181
 20
63.76219999999989
 30
0.0
 11
-149.4181
 21
74.39059999999995
 31
0.0
  0
ARC
  5
D4B
330
1F
100
AcDbEntity
  8
0
  6
Continuous
 62
     7
100
AcDbCircle
 10
-151.1526389350665
 20
68.29911073759229
 30
0.0
 40
0.1500328835814077
100
AcDbArc
 50
249.696209647438
 51
310.2495453025774
  0
ARC
  5
D4C
330
1F
100
AcDbEntity
  8
0
  6
Continuous
 62
     7
100
AcDbCircle
 10
-147.575802728108
 20
68.33858484649105
 30
0.0
 40
0.1499883654252466
100
AcDbArc
 50
290.286322198978
 51
49.30223995815987
  0
ARC
  5
D4D
330
1F
100
AcDbEntity
  8
0
  6
Continuous
 62
     7
100
AcDbCircle
 10
-147.6835610649334
 20
68.29911073759227
 30
0.0
 40
0.1500328835814341
100
AcDbArc
 50
229.7504546974032
 51
290.3037903526158
  0
ARC
  5
D4E
330
1F
100
AcDbEntity
  8
0
  6
Continuous
 62
     7
100
AcDbCircle
 10
-150.1482952323487
 20
69.4201468246023
 30
0.0
 40
0.1000137598015924
100
AcDbArc
 50
299.2673257137228
 51
70.97943659520781
  0
ARC
  5
D4F
330
1F
100
AcDbEntity
  8
0
  6
Continuous
 62
     7
100
AcDbCircle
 10
-148.6876031511378
 20
69.42016463723003
 30
0.0
 40
0.1000300891709597
100
AcDbArc
 50
109.0789151820035
 51
240.7368545690038
  0
ARC
  5
D50
330
1F
100
AcDbEntity
  8
0
  6
Continuous
 62
     7
100
AcDbCircle
 10
-152.4971884908119
 20
62.620441873695
 30
0.0
 40
7.694358157734912
100
AcDbArc
 50
49.28516877845839
 51
60.7417922594646
  0
ARC
  5
D51
330
1F
100
AcDbEntity
  8
0
  6
Continuous
 62
     7
100
AcDbCircle
 10
-149.4181
 20
68.78880000000004
 30
0.0
 40
0.3999879623188507
100
AcDbArc
 50
63.47979121722669
 51
116.5202087827696
  0
ARC
  5
D52
330
1F
100
AcDbEntity
  8
0
  6
Continuous
 62
     7
100
AcDbCircle
 10
-152.496594271707
 20
62.62003028019819
 30
0.0
 40
7.294383969805986
100
AcDbArc
 50
49.717904918863
 51
63.47844098144292
  0
ARC
  5
D53
330
1F
100
AcDbEntity
  8
0
  6
Continuous
 62
     7
100
AcDbCircle
 10
-146.3393057282924
 20
62.62003028019847
 30
0.0
 40
7.294383969805937
100
AcDbArc
 50
116.5215590185607
 51
130.2820950811392
  0
ARC
  5
D54
330
1F
100
AcDbEntity
  8
0
  6
Continuous
 62
     7
100
AcDbCircle
 10
-147.2017930738211
 20
68.36086114391327
 30
0.0
 40
1.199996823418046
100
AcDbArc
 50
318.6261556082756
 51
28.44839096607019
  0
LINE
  5
D55
330
1F
100
AcDbEntity
  8
0
  6
Continuous
 62
     7
100
AcDbLine
 10
-147.5237999999999
 20
68.19799999999986
 30
0.0
 11
-147.6314999999999
 21
68.15819999999985
 31
0.0
  0
POINT
  5
D56
330
1F
100
AcDbEntity
  8
0
 62
     7
100
AcDbPoint
 10
-149.4181
 20
69.0346999999999
 30
0.0
  0
LINE
  5
D57
330
1F
100
AcDbEntity
  8
0
  6
Continuous
 62
     7
100
AcDbLine
 10
-132.8682
 20
47.99710000000004
 30
0.0
 11
-123.2681999999998
 21
47.99710000000004
 31
0.0
  0
ARC
  5
D58
330
1F
100
AcDbEntity
  8
0
  6
Continuous
 62
     7
100
AcDbCircle
 10
-123.2681999999998
 20
47.4973
 30
0.0
 40
0.5
100
AcDbArc
 50
0.0
 51
90.0
  0
ARC
  5
D59
330
1F
100
AcDbEntity
  8
0
  6
Continuous
 62
     7
100
AcDbCircle
 10
-136.2564895813054
 20
67.53924709540761
 30
0.0
 40
6.588277034786107
100
AcDbArc
 50
4.419247763366093
 51
17.86255558031268
  0
LINE
  5
D5A
330
1F
100
AcDbEntity
  8
0
  6
Continuous
 62
     7
100
AcDbLine
 10
-132.5506999999998
 20
67.5308
 30
0.0
 11
-129.9858000000001
 21
67.5308
 31
0.0
  0
LINE
  5
D5B
330
1F
100
AcDbEntity
  8
0
  6
Continuous
 62
     7
100
AcDbLine
 10
-129.9856999999999
 20
69.56009999999992
 30
0.0
 11
-132.8682
 21
69.56009999999992
 31
0.0
  0
LINE
  5
D5C
330
1F
100
AcDbEntity
  8
0
  6
Continuous
 62
     7
100
AcDbLine
 10
-129.6682
 20
68.08079999999995
 30
0.0
 11
-129.9858000000001
 21
67.5308
 31
0.0
  0
LINE
  5
D5D
330
1F
100
AcDbEntity
  8
0
  6
Continuous
 62
     7
100
AcDbLine
 10
-132.8682
 20
68.08079999999995
 30
0.0
 11
-132.5506999999998
 21
67.5308
 31
0.0
  0
LINE
  5
D5E
330
1F
100
AcDbEntity
  8
0
  6
Continuous
 62
     7
100
AcDbLine
 10
-129.6682
 20
69.58079999999995
 30
0.0
 11
-127.3179999999999
 21
69.58079999999995
 31
0.0
  0
LINE
  5
D5F
330
1F
100
AcDbEntity
  8
0
  6
DASH_CENTER
 62
    30
100
AcDbLine
 10
-118.6457
 20
71.58079999999995
 30
0.0
 11
-142.5943
 21
71.58079999999995
 31
0.0
  0
LINE
  5
D60
330
1F
100
AcDbEntity
  8
0
  6
DASH_CENTER
 62
    30
100
AcDbLine
 10
-118.6457
 20
71.58079999999995
 30
0.0
 11
-142.5943
 21
71.58079999999995
 31
0.0
  0
ARC
  5
D61
330
1F
100
AcDbEntity
  8
0
  6
Continuous
 62
     7
100
AcDbCircle
 10
-148.2650008249387
 20
69.91430019590038
 30
0.0
 40
0.1499725641551695
100
AcDbArc
 50
48.48673746596482
 51
104.7957797204435
  0
ARC
  5
D62
330
1F
100
AcDbEntity
  8
0
  6
Continuous
 62
     7
100
AcDbCircle
 10
-148.1749082146079
 20
69.83446607524844
 30
0.0
 40
0.1500030125750682
100
AcDbArc
 50
284.2832948251368
 51
48.49326200310225
  0
ARC
  5
D63
330
1F
100
AcDbEntity
  8
0
  6
Continuous
 62
     7
100
AcDbCircle
 10
-150.5709674980667
 20
69.91428398267925
 30
0.0
 40
0.1500057005165262
100
AcDbArc
 50
75.18057057951139
 51
131.5182179688776
  0
ARC
  5
D64
330
1F
100
AcDbEntity
  8
0
  6
Continuous
 62
     7
100
AcDbCircle
 10
-150.6610006133068
 20
69.83450252878667
 30
0.0
 40
0.1500361622850011
100
AcDbArc
 50
131.5420369841671
 51
255.7234066735887
  0
ARC
  5
D65
330
1F
100
AcDbEntity
  8
0
  6
Continuous
 62
     7
100
AcDbCircle
 10
-149.4181
 20
70.10600000000001
 30
0.0
 40
0.4000430101877603
100
AcDbArc
 50
247.6533635032356
 51
292.3466364967678
  0
ARC
  5
D66
330
1F
100
AcDbEntity
  8
0
  6
Continuous
 62
     7
100
AcDbCircle
 10
-152.4969649677634
 20
62.62018903841909
 30
0.0
 40
7.694385302405092
100
AcDbArc
 50
67.64298110207146
 51
75.20872705725605
  0
ARC
  5
D67
330
1F
100
AcDbEntity
  8
0
  6
Continuous
 62
     7
100
AcDbCircle
 10
-146.3389350322371
 20
62.62018903841897
 30
0.0
 40
7.694385302405065
100
AcDbArc
 50
104.7912729427405
 51
112.3570188979267
  0
LINE
  5
D68
330
1F
100
AcDbEntity
  8
0
  6
Continuous
 62
     7
100
AcDbLine
 10
-148.1656
 20
70.02659999999991
 30
0.0
 11
-148.0752999999999
 21
69.94679999999994
 31
0.0
  0
LINE
  5
D69
330
1F
100
AcDbEntity
  8
0
  6
Continuous
 62
     7
100
AcDbLine
 10
-150.6702999999999
 20
70.02659999999991
 30
0.0
 11
-150.7606
 21
69.94679999999994
 31
0.0
  0
ARC
  5
D6A
330
1F
100
AcDbEntity
  8
0
  6
Continuous
 62
     7
100
AcDbCircle
 10
-136.2564895813054
 20
75.62215290459234
 30
0.0
 40
6.588277034786108
100
AcDbArc
 50
342.1374444196873
 51
355.5807522366339
  0
LINE
  5
D6B
330
1F
100
AcDbEntity
  8
0
  6
Continuous
 62
     7
100
AcDbLine
 10
-126.9679999999999
 20
69.9306999999999
 30
0.0
 11
-126.9679999999999
 21
73.23069999999984
 31
0.0
  0
LINE
  5
D6C
330
1F
100
AcDbEntity
  8
0
  6
Continuous
 62
     7
100
AcDbLine
 10
-126.9679999999999
 20
73.23069999999984
 30
0.0
 11
-127.3179999999999
 21
73.58079999999995
 31
0.0
  0
LINE
  5
D6D
330
1F
100
AcDbEntity
  8
0
  6
Continuous
 62
    30
100
AcDbLine
 10
-126.9679999999999
 20
69.9306999999999
 30
0.0
 11
-129.6682
 21
69.9306999999999
 31
0.0
  0
LINE
  5
D6E
330
1F
100
AcDbEntity
  8
0
  6
Continuous
 62
    30
100
AcDbLine
 10
-126.9679999999999
 20
73.23069999999984
 30
0.0
 11
-129.6682
 21
73.23069999999984
 31
0.0
  0
LINE
  5
D6F
330
1F
100
AcDbEntity
  8
0
  6
Continuous
 62
     7
100
AcDbLine
 10
-129.9858000000001
 20
73.60130000000005
 30
0.0
 11
-132.8682
 21
73.60130000000005
 31
0.0
  0
LINE
  5
D70
330
1F
100
AcDbEntity
  8
0
  6
Continuous
 62
     7
100
AcDbLine
 10
-129.6682
 20
75.0806
 30
0.0
 11
-129.9858000000001
 21
75.63059999999996
 31
0.0
  0
LINE
  5
D71
330
1F
100
AcDbEntity
  8
0
  6
Continuous
 62
     7
100
AcDbLine
 10
-129.9858000000001
 20
75.63059999999996
 30
0.0
 11
-132.5506999999998
 21
75.63059999999996
 31
0.0
  0
LINE
  5
D72
330
1F
100
AcDbEntity
  8
0
  6
Continuous
 62
     7
100
AcDbLine
 10
-132.8682
 20
75.0806
 30
0.0
 11
-132.5506999999998
 21
75.63059999999996
 31
0.0
  0
LINE
  5
D73
330
1F
100
AcDbEntity
  8
0
  6
Continuous
 62
     7
100
AcDbLine
 10
-127.3179999999999
 20
73.58079999999995
 30
0.0
 11
-129.6682
 21
73.58079999999995
 31
0.0
  0
LINE
  5
D75
330
1F
100
AcDbEntity
  8
0
  6
DASH_CENTER
 62
    30
100
AcDbLine
 10
-22.11379999999999
 20
39.82719999999995
 30
0.0
 11
-22.11379999999999
 21
16.27469999999993
 31
0.0
  0
ARC
  5
D79
330
1F
100
AcDbEntity
  8
0
  6
Continuous
 62
     7
100
AcDbCircle
 10
-22.11379999999999
 20
28.44730000000003
 30
0.0
 40
7.0
100
AcDbArc
 50
90.0
 51
180.0
  0
ARC
  5
D9B
330
1F
100
AcDbEntity
  8
0
  6
Continuous
 62
     7
100
AcDbCircle
 10
201.1845201919628
 20
28.44734851065346
 30
0.0
 40
65.59997980805523
100
AcDbArc
 50
314.8022031859717
 51
359.9999576302354
  0
ARC
  5
D9C
330
1F
100
AcDbEntity
  8
0
  6
Continuous
 62
     7
100
AcDbCircle
 10
201.1843999999999
 20
28.44730000000003
 30
0.0
 40
65.59995961614601
100
AcDbArc
 50
180.0
 51
225.1977544442376
  0
ARC
  5
D9D
330
1F
100
AcDbEntity
  8
0
  6
Continuous
 62
     7
100
AcDbCircle
 10
201.1845999999999
 20
28.44730000000003
 30
0.0
 40
40.9999903985354
100
AcDbArc
 50
189.1542383912596
 51
260.8457616087407
  0
ARC
  5
D9E
330
1F
100
AcDbEntity
  8
0
  6
Continuous
 62
     7
100
AcDbCircle
 10
201.18461578588
 20
28.44728421404078
 30
0.0
 40
26.9999981869352
100
AcDbArc
 50
193.4933652950031
 51
256.5063475750321
  0
ARC
  5
D9F
330
1F
100
AcDbEntity
  8
0
  6
Continuous
 62
     7
100
AcDbCircle
 10
201.1846777239656
 20
28.44722227546995
 30
0.0
 40
36.00000748830364
100
AcDbArc
 50
192.2466197795912
 51
257.7529641940111
  0
ARC
  5
DA0
330
1F
100
AcDbEntity
  8
0
  6
Continuous
 62
     7
100
AcDbCircle
 10
201.1845401731917
 20
28.44744443332006
 30
0.0
 40
61.25000118253519
100
AcDbArc
 50
194.5231603732956
 51
210.4772244229936
  0
ARC
  5
DA1
330
1F
100
AcDbEntity
  8
0
  6
Continuous
 62
     7
100
AcDbCircle
 10
201.1846167923231
 20
28.44725945976554
 30
0.0
 40
64.25000886080145
100
AcDbArc
 50
194.8977624479638
 51
210.1022575471318
  0
ARC
  5
DA2
330
1F
100
AcDbEntity
  8
0
  6
Continuous
 62
     7
100
AcDbCircle
 10
201.1842263542296
 20
28.44712220233803
 30
0.0
 40
61.24995278008767
100
AcDbArc
 50
329.5230986836681
 51
345.477139275433
  0
ARC
  5
DA3
330
1F
100
AcDbEntity
  8
0
  6
Continuous
 62
     7
100
AcDbCircle
 10
201.1842832076768
 20
28.44725945976581
 30
0.0
 40
64.25000886080164
100
AcDbArc
 50
329.8977424528679
 51
345.1022375520359
  0
ARC
  5
DA4
330
1F
100
AcDbEntity
  8
0
  6
Continuous
 62
     7
100
AcDbCircle
 10
201.1845999466339
 20
28.4473007739353
 30
0.0
 40
54.00000077430545
100
AcDbArc
 50
97.88928209932668
 51
269.9997878500354
  0
ARC
  5
DA5
330
1F
100
AcDbEntity
  8
0
  6
Continuous
 62
     7
100
AcDbCircle
 10
201.1843
 20
28.44730000000003
 30
0.0
 40
50.00001364499826
100
AcDbArc
 50
286.0572626883143
 51
343.9427373116854
  0
ARC
  5
DA6
330
1F
100
AcDbEntity
  8
0
  6
Continuous
 62
     7
100
AcDbCircle
 10
201.184300053366
 20
28.44730077393533
 30
0.0
 40
54.00000077430545
100
AcDbArc
 50
270.0002121499645
 51
82.11071790067169
  0
ARC
  5
DA7
330
1F
100
AcDbEntity
  8
0
  6
Continuous
 62
     7
100
AcDbCircle
 10
208.1844046533145
 20
-0.7245940979787413
 30
0.0
 40
3.000004653320257
100
AcDbArc
 50
103.4934688905761
 51
180.000112720128
  0
ARC
  5
DA8
330
1F
100
AcDbEntity
  8
0
  6
Continuous
 62
     7
100
AcDbCircle
 10
201.1842222760344
 20
28.44722227547002
 30
0.0
 40
36.00000748830374
100
AcDbArc
 50
282.2470358059888
 51
347.7533802204085
  0
ARC
  5
DA9
330
1F
100
AcDbEntity
  8
0
  6
Continuous
 62
     7
100
AcDbCircle
 10
201.1842842141199
 20
28.44728421404083
 30
0.0
 40
26.99999818693524
100
AcDbArc
 50
283.4936524249678
 51
346.5066347049968
  0
ARC
  5
DAA
330
1F
100
AcDbEntity
  8
0
  6
Continuous
 62
     7
100
AcDbCircle
 10
201.1843
 20
28.44730000000003
 30
0.0
 40
40.99999039853557
100
AcDbArc
 50
279.1542383912591
 51
350.8457616087401
  0
ARC
  5
DAB
330
1F
100
AcDbEntity
  8
0
  6
Continuous
 62
     7
100
AcDbCircle
 10
201.1845999999999
 20
28.44730000000003
 30
0.0
 40
50.00001364499809
100
AcDbArc
 50
196.0572626883146
 51
253.9427373116856
  0
ARC
  5
DAC
330
1F
100
AcDbEntity
  8
0
  6
Continuous
 62
     7
100
AcDbCircle
 10
194.1844953466856
 20
-0.7245940979787591
 30
0.0
 40
3.000004653320254
100
AcDbArc
 50
359.9998872798721
 51
76.50653110942553
  0
LINE
  5
DAD
330
1F
100
AcDbEntity
  8
0
  6
Continuous
 62
     7
100
AcDbLine
 10
102.4918
 20
-20.3306
 30
0.0
 11
102.4918
 21
19.24710000000004
 31
0.0
  0
LINE
  5
DAE
330
1F
100
AcDbEntity
  8
0
  6
Continuous
 62
     7
100
AcDbLine
 10
105.6917999999999
 20
-0.9061205954740216
 30
0.0
 11
105.6917999999999
 21
19.24710000000004
 31
0.0
  0
LINE
  5
DAF
330
1F
100
AcDbEntity
  8
0
  6
Continuous
 62
     7
100
AcDbLine
 10
191.1845
 20
1.410200000000031
 30
0.0
 11
191.1845
 21
-1.884299999999939
 31
0.0
  0
LINE
  5
DB0
330
1F
100
AcDbEntity
  8
0
  6
Continuous
 62
     7
100
AcDbLine
 10
211.1844
 20
1.410200000000031
 30
0.0
 11
211.1844
 21
-1.884299999999939
 31
0.0
  0
LINE
  5
DB1
330
1F
100
AcDbEntity
  8
0
  6
Continuous
 62
     7
100
AcDbLine
 10
205.1844
 20
7.01099999999997
 30
0.0
 11
205.1844
 21
-3.80179999999996
 31
0.0
  0
LINE
  5
DB2
330
1F
100
AcDbEntity
  8
0
  6
Continuous
 62
     7
100
AcDbLine
 10
99.29180000000009
 20
-20.3306
 30
0.0
 11
99.29180000000009
 21
19.24710000000004
 31
0.0
  0
LINE
  5
DB3
330
1F
100
AcDbEntity
  8
0
  6
Continuous
 62
     7
100
AcDbLine
 10
197.1845
 20
7.01099999999997
 30
0.0
 11
197.1845
 21
-3.80179999999996
 31
0.0
  0
LINE
  5
DB4
330
1F
100
AcDbEntity
  8
0
  6
DASH_CENTER
 62
    30
100
AcDbLine
 10
201.1843999999999
 20
-70.63310000000001
 30
0.0
 11
201.1843999999999
 21
108.0215
 31
0.0
  0
CIRCLE
  5
DBC
330
1F
100
AcDbEntity
  8
0
  6
Continuous
 62
     7
100
AcDbCircle
 10
244.3176999999999
 20
-14.68630000000007
 30
0.0
 40
3.500066206516768
  0
CIRCLE
  5
DBD
330
1F
100
AcDbEntity
  8
0
  6
Continuous
 62
     7
100
AcDbCircle
 10
244.318
 20
-14.68600000000015
 30
0.0
 40
2.000036842160683
  0
ARC
  5
DBE
330
1F
100
AcDbEntity
  8
0
  6
Continuous
 62
     7
100
AcDbCircle
 10
201.184355338194
 20
28.44722545134512
 30
0.0
 40
65.60000865852479
100
AcDbArc
 50
279.724492033951
 51
314.8023810876829
  0
ARC
  5
DBF
330
1F
100
AcDbEntity
  8
0
  6
DASH_CENTER
 62
    30
100
AcDbCircle
 10
201.1845966541875
 20
28.44699661769128
 30
0.0
 40
60.99997407290414
100
AcDbArc
 50
307.1098125085658
 51
323.5117747998263
  0
LINE
  5
DC0
330
1F
100
AcDbEntity
  8
0
  6
Continuous
 62
     7
100
AcDbLine
 10
276.1843999999999
 20
-42.55269999999995
 30
0.0
 11
237.6766
 21
-42.55269999999995
 31
0.0
  0
LINE
  5
DC1
330
1F
100
AcDbEntity
  8
0
  6
Continuous
 62
     7
100
AcDbLine
 10
243.2717
 20
-18.59010000000012
 30
0.0
 11
240.4057
 21
-15.7346
 31
0.0
  0
LINE
  5
DC2
330
1F
100
AcDbEntity
  8
0
  6
Continuous
 62
     7
100
AcDbLine
 10
241.4598999999999
 20
-11.82860000000004
 30
0.0
 11
245.3637
 21
-10.78269999999998
 31
0.0
  0
LINE
  5
DC3
330
1F
100
AcDbEntity
  8
0
  6
DASH_CENTER
 62
    30
100
AcDbLine
 10
238.8193999999999
 20
-9.187500000000003
 30
0.0
 11
250.9149
 21
-21.28320000000008
 31
0.0
  0
LINE
  5
DC4
330
1F
100
AcDbEntity
  8
0
  6
Continuous
 62
     7
100
AcDbLine
 10
233.6845
 20
-39.35280000000011
 30
0.0
 11
276.1843999999999
 21
-39.35280000000011
 31
0.0
  0
SPLINE
  5
DC5
330
1F
100
AcDbEntity
  8
0
  6
Continuous
 62
    30
100
AcDbSpline
210
0.0
220
0.0
230
1.0
 70
     8
 71
     3
 72
   141
 73
   137
 74
   135
 42
0.0000000001
 43
0.0000000001
 44
0.00000001
 40
0.0
 40
0.0
 40
0.0
 40
0.0
 40
0.2626125722557814
 40
0.5252229897648965
 40
0.7878464660580486
 40
1.075428894539724
 40
1.363038469519127
 40
1.65058637073858
 40
1.931165997059651
 40
2.211798652447705
 40
2.492417660817593
 40
2.793855024799221
 40
3.095312440916013
 40
3.396867360777658
 40
3.698451587455503
 40
4.131419367174465
 40
4.56426133366477
 40
4.997082101088657
 40
5.5044565296453
 40
6.011845427822837
 40
6.017628938581528
 40
6.023412446106952
 40
6.029184323754221
 40
6.034956207771192
 40
6.392597960615683
 40
6.750241790400578
 40
7.107879068242131
 40
7.45886967883454
 40
7.809872634916622
 40
8.160857351962963
 40
8.662250235286101
 40
9.163667674269222
 40
9.665963731559479
 40
10.16826034608119
 40
10.67057205969236
 40
11.53513511739728
 40
12.39966727442308
 40
13.15108807270409
 40
13.90254681865644
 40
14.34352127109359
 40
14.78447779931079
 40
15.22546558312154
 40
15.66670408180288
 40
15.94520950942101
 40
16.22377830584842
 40
16.50228001026702
 40
16.78067696223675
 40
17.05903809259544
 40
17.33755265406604
 40
17.60555161429106
 40
17.8736549984508
 40
18.14164887677255
 40
18.4094550499954
 40
18.67714768750869
 40
18.95195816673737
 40
19.22705363335587
 40
19.50247915331855
 40
19.77817141596922
 40
20.05397194558614
 40
20.32963988899199
 40
20.62920858574826
 40
20.92853756368699
 40
21.22780795499025
 40
21.52710147147685
 40
21.82640832152221
 40
22.1256352459887
 40
22.455042339364
 40
22.78431214062697
 40
23.11352656921062
 40
23.44269033167687
 40
23.77173681646129
 40
24.13304127693884
 40
24.49434029182121
 40
24.85579325322788
 40
25.21743423172828
 40
25.57918777449633
 40
25.940884623669
 40
26.51623964040066
 40
27.09123668120982
 40
27.66612082861413
 40
28.24100476126366
 40
29.19453933397194
 40
30.14813028236541
 40
30.86917923654643
 40
31.59022136773169
 40
32.31126706812961
 40
32.81978126287679
 40
33.32830297845382
 40
33.83682121827332
 40
34.34537023208831
 40
34.88768945933711
 40
35.42995946351322
 40
35.97207848225683
 40
36.45475494073525
 40
36.93751076578514
 40
37.42039946420079
 40
37.90335952236913
 40
38.41333129220718
 40
38.92320624963317
 40
39.43298700024193
 40
39.94276972224246
 40
40.41621510374567
 40
40.8897393449429
 40
41.36324863012005
 40
41.83667380712367
 40
42.35248327591913
 40
42.8683359980141
 40
43.38431243746371
 40
43.9003895657203
 40
44.41646096010128
 40
45.30530436082402
 40
46.19393822957831
 40
47.0825653873997
 40
47.76074793111912
 40
48.43893529127687
 40
49.11712161447582
 40
49.61240291207295
 40
50.10770005288126
 40
50.60300444592272
 40
51.09835660715209
 40
51.47019034914795
 40
51.84200607556518
 40
52.21375512448418
 40
52.5854466117438
 40
52.8872097588068
 40
53.18899926557993
 40
53.49091296168281
 40
53.67862654352784
 40
53.86630490942659
 40
54.05389867814533
 40
54.24150005309945
 40
54.41175084459277
 40
54.58197677432801
 40
54.75206400148953
 40
54.92310382909781
 40
55.09419135664114
 40
55.09419135664114
 40
55.09419135664114
 40
55.09419135664114
 10
237.9813
 20
-156.5371
 30
0.0
 10
237.9640612042704
 20
-156.6229235605795
 30
0.0
 10
237.9295837620064
 20
-156.7945699790898
 30
0.0
 10
237.8808848331269
 20
-157.0526423151986
 30
0.0
 10
237.8365779694796
 20
-157.319969433048
 30
0.0
 10
237.8004785409676
 20
-157.5969697872517
 30
0.0
 10
237.7747280730068
 20
-157.88347685644
 30
0.0
 10
237.7616747819775
 20
-158.1685282261991
 30
0.0
 10
237.7621097183978
 20
-158.4515455825346
 30
0.0
 10
237.7745632026682
 20
-158.7319569573073
 30
0.0
 10
237.7985314410273
 20
-159.0185861939764
 30
0.0
 10
237.8338336283877
 20
-159.3110289744159
 30
0.0
 10
237.8794314171303
 20
-159.6090843205862
 30
0.0
 10
237.9325534888217
 20
-159.905925240922
 30
0.0
 10
237.9998139640265
 20
-160.2446943765726
 30
0.0
 10
238.0814396783307
 20
-160.6251861836658
 30
0.0
 10
238.1782749691792
 20
-161.0471038186004
 30
0.0
 10
238.2853205928559
 20
-161.4920943209409
 30
0.0
 10
238.4015618324135
 20
-161.960413111799
 30
0.0
 10
238.483806960328
 20
-162.2905039241275
 30
0.0
 10
238.5251193727239
 20
-162.4584836895772
 30
0.0
 10
238.5264991696161
 20
-162.4640962029132
 30
0.0
 10
238.5278774327434
 20
-162.4697051024175
 30
0.0
 10
238.5572326831991
 20
-162.5892144495158
 30
0.0
 10
238.6140260693542
 20
-162.8227628253671
 30
0.0
 10
238.6952044634904
 20
-163.171077155943
 30
0.0
 10
238.7708226960092
 20
-163.5183825448828
 30
0.0
 10
238.8392533099116
 20
-163.8649244826722
 30
0.0
 10
238.9004027209552
 20
-164.2105733935727
 30
0.0
 10
238.9621776409907
 20
-164.6069445205008
 30
0.0
 10
239.0202079019437
 20
-165.054523536625
 30
0.0
 10
239.0730995437598
 20
-165.5534598439565
 30
0.0
 10
239.117794118577
 20
-166.0534857757652
 30
0.0
 10
239.1567032969902
 20
-166.5542847397867
 30
0.0
 10
239.200784313023
 20
-167.1757820241937
 30
0.0
 10
239.2515361478624
 20
-167.9178503990873
 30
0.0
 10
239.3093366915693
 20
-168.7426685374159
 30
0.0
 10
239.3693153742806
 20
-169.529530119073
 30
0.0
 10
239.4246311550762
 20
-170.1751301950451
 30
0.0
 10
239.4767462351926
 20
-170.717102366769
 30
0.0
 10
239.5251027747109
 20
-171.1554379292322
 30
0.0
 10
239.5823793318002
 20
-171.592802771938
 30
0.0
 10
239.6428434111986
 20
-171.9750229553287
 30
0.0
 10
239.7036467881346
 20
-172.3022186982771
 30
0.0
 10
239.7612547714768
 20
-172.5747549532238
 30
0.0
 10
239.8265882269845
 20
-172.8455159816451
 30
0.0
 10
239.9006414519533
 20
-173.113963918004
 30
0.0
 10
239.9844100185332
 20
-173.3795588699335
 30
0.0
 10
240.0776522660392
 20
-173.6383125577597
 30
0.0
 10
240.1807285909949
 20
-173.8896214554857
 30
0.0
 10
240.2936810381845
 20
-174.1328011677621
 30
0.0
 10
240.418378654714
 20
-174.3701172326014
 30
0.0
 10
240.5553037785924
 20
-174.6004542879041
 30
0.0
 10
240.7062477377303
 20
-174.8246315510035
 30
0.0
 10
240.8720317773653
 20
-175.0411548819577
 30
0.0
 10
241.0519673476428
 20
-175.2494632081112
 30
0.0
 10
241.2435769421416
 20
-175.4474807628945
 30
0.0
 10
241.4457989168417
 20
-175.6349769711982
 30
0.0
 10
241.6575758713146
 20
-175.8117221237859
 30
0.0
 10
241.88433432894
 20
-175.9823666886276
 30
0.0
 10
242.1260143605251
 20
-176.1456269897444
 30
0.0
 10
242.3824135668869
 20
-176.3004396599144
 30
0.0
 10
242.6459407832694
 20
-176.4425658577166
 30
0.0
 10
242.9157543336598
 20
-176.572320885895
 30
0.0
 10
243.1910152658611
 20
-176.6900205380158
 30
0.0
 10
243.4803706690347
 20
-176.7995718383975
 30
0.0
 10
243.7835942560615
 20
-176.8999398169674
 30
0.0
 10
244.1004017841169
 20
-176.9901124779508
 30
0.0
 10
244.4205059458501
 20
-177.0673960267581
 30
0.0
 10
244.7432664289615
 20
-177.132286837851
 30
0.0
 10
245.078739904341
 20
-177.1870278305421
 30
0.0
 10
245.4266292190866
 20
-177.2307820675687
 30
0.0
 10
245.7865667503344
 20
-177.2634388078972
 30
0.0
 10
246.1474393957398
 20
-177.2849795992957
 30
0.0
 10
246.5089021951307
 20
-177.2967361430354
 30
0.0
 10
246.8706124612286
 20
-177.3000384699284
 30
0.0
 10
247.3035446049906
 20
-177.2954615667425
 30
0.0
 10
247.8073616812462
 20
-177.279639737802
 30
0.0
 10
248.3816864072077
 20
-177.2495972968177
 30
0.0
 10
248.9552828461246
 20
-177.2103218314538
 30
0.0
 10
249.6541680046878
 20
-177.1545040342784
 30
0.0
 10
250.4782739184664
 20
-177.081449890044
 30
0.0
 10
251.3510804248507
 20
-177.0059042293722
 30
0.0
 10
252.1475298562075
 20
-176.9475421171036
 30
0.0
 10
252.8673539679731
 20
-176.905109012142
 30
0.0
 10
253.5170297899427
 20
-176.8780005919834
 30
0.0
 10
254.0962360197708
 20
-176.8637648384103
 30
0.0
 10
254.6047584998337
 20
-176.8593279205965
 30
0.0
 10
255.1132971212425
 20
-176.8638096590067
 30
0.0
 10
255.6329224346341
 20
-176.878386216454
 30
0.0
 10
256.1633625136666
 20
-176.9047496641538
 30
0.0
 10
256.7041731036559
 20
-176.944807685053
 30
0.0
 10
257.2239773493683
 20
-176.9970752968542
 30
0.0
 10
257.7224908577798
 20
-177.0607209249133
 30
0.0
 10
258.200163406255
 20
-177.1308412265438
 30
0.0
 10
258.6770180444207
 20
-177.206850471906
 30
0.0
 10
259.1623627129823
 20
-177.2871355607445
 30
0.0
 10
259.6566306319151
 20
-177.3685981099425
 30
0.0
 10
260.1602124738931
 20
-177.4485040715278
 30
0.0
 10
260.6646171295563
 20
-177.5226734905233
 30
0.0
 10
261.1581690661161
 20
-177.5868191713496
 30
0.0
 10
261.6409650092577
 20
-177.6391208183347
 30
0.0
 10
262.112719449016
 20
-177.6800870604255
 30
0.0
 10
262.5852589759757
 20
-177.710633968868
 30
0.0
 10
263.0724616623717
 20
-177.7309573617889
 30
0.0
 10
263.5741363171506
 20
-177.7394569084429
 30
0.0
 10
264.0900435804605
 20
-177.7367311279363
 30
0.0
 10
264.6058892223545
 20
-177.724396315064
 30
0.0
 10
265.1215546531497
 20
-177.7043061391945
 30
0.0
 10
265.761081528704
 20
-177.6720512852631
 30
0.0
 10
266.5241875821982
 20
-177.6253451021377
 30
0.0
 10
267.4107136916015
 20
-177.5631260101296
 30
0.0
 10
268.2269340358398
 20
-177.5023323650216
 30
0.0
 10
268.9732190194762
 20
-177.4470036445039
 30
0.0
 10
269.6498502725828
 20
-177.4010029490954
 30
0.0
 10
270.2661286954328
 20
-177.3665005944751
 30
0.0
 10
270.8219444621065
 20
-177.3439533248167
 30
0.0
 10
271.3170972354798
 20
-177.3312688255077
 30
0.0
 10
271.8124221939348
 20
-177.3269473773166
 30
0.0
 10
272.2665933993046
 20
-177.3315449493326
 30
0.0
 10
272.6794465386187
 20
-177.3432435785796
 30
0.0
 10
273.0508688371484
 20
-177.3605009724416
 30
0.0
 10
273.4218149980454
 20
-177.3854069168626
 30
0.0
 10
273.768835884726
 20
-177.4167852770981
 30
0.0
 10
274.0918548431526
 20
-177.4535822749508
 30
0.0
 10
274.3908412372455
 20
-177.4951120241281
 30
0.0
 10
274.6510457342723
 20
-177.5388077239069
 30
0.0
 10
274.8726671408577
 20
-177.5819771022673
 30
0.0
 10
275.0558546735853
 20
-177.622849773739
 30
0.0
 10
275.2375040818809
 20
-177.6700002441956
 30
0.0
 10
275.4114864725305
 20
-177.7230119147789
 30
0.0
 10
275.5773479380194
 20
-177.7821555165551
 30
0.0
 10
275.7346951518264
 20
-177.8472024435663
 30
0.0
 10
275.8884991943085
 20
-177.9209158011496
 30
0.0
 10
276.0377982158962
 20
-178.0038972953906
 30
0.0
 10
276.1355948578296
 20
-178.0625630428959
 30
0.0
 10
276.1845
 20
-178.0919
 30
0.0
 11
237.9813
 21
-156.5371
 31
0.0
 11
237.9300866139395
 21
-156.7946704888768
 31
0.0
 11
237.8818444563413
 21
-157.0528117797866
 31
0.0
 11
237.8393703846941
 21
-157.3119778343171
 31
0.0
 11
237.8023834523968
 21
-157.5971718385378
 31
0.0
 11
237.776825067986
 21
-157.8836435411595
 31
0.0
 11
237.763863077549
 21
-158.170899145125
 31
0.0
 11
237.7641129696268
 21
-158.4514786596594
 31
0.0
 11
237.7763861419653
 21
-158.7318428090473
 31
0.0
 11
237.7995999999999
 21
-159.0115000000001
 31
0.0
 11
237.8354090536719
 21
-159.3108028498003
 31
0.0
 11
237.8806788081994
 21
-159.6088418118918
 31
0.0
 11
237.9334853340802
 21
-159.9057371477036
 31
0.0
 11
237.9919047018119
 21
-160.2016091186651
 31
0.0
 11
238.0824543975339
 21
-160.6250023765728
 31
0.0
 11
238.1790114146355
 21
-161.0469370995161
 31
0.0
 11
238.2799739466719
 21
-161.4678175859959
 31
0.0
 11
238.401634019689
 21
-161.9603900552962
 31
0.0
 11
238.5237380954051
 21
-162.452867556151
 31
0.0
 11
238.5251192966759
 21
-162.4584837185212
 31
0.0
 11
238.5265
 21
-162.4641
 31
0.0
 11
238.5278773537738
 21
-162.469705128739
 31
0.0
 11
238.529254199026
 21
-162.475310388972
 31
0.0
 11
238.6134710248626
 21
-162.8228951264339
 31
0.0
 11
238.6943568717672
 21
-163.1712722049796
 31
0.0
 11
238.7701499671031
 21
-163.5207859090209
 31
0.0
 11
238.8381106146904
 21
-163.8651342199189
 31
0.0
 11
238.899221167741
 21
-164.2107764852781
 31
0.0
 11
238.953232446354
 21
-164.557580541628
 31
0.0
 11
239.018270667975
 21
-165.054737311072
 31
0.0
 11
239.0717
 21
-165.5533
 31
0.0
 11
239.1168254594109
 21
-166.0535649520313
 31
0.0
 11
239.1561409939998
 21
-166.5543205588863
 31
0.0
 11
239.1920864237739
 21
-167.055344494199
 31
0.0
 11
239.2517778526993
 21
-167.9178444733489
 31
0.0
 11
239.3129128434769
 21
-168.780212354977
 31
0.0
 11
239.370487209564
 21
-169.5294242130471
 31
0.0
 11
239.4351
 21
-170.2780999999999
 31
0.0
 11
239.4777713914975
 21
-170.7170050238661
 31
0.0
 11
239.5265862865209
 21
-171.1552512625573
 31
0.0
 11
239.5843092391793
 21
-171.5924449108815
 31
0.0
 11
239.653704803582
 21
-172.028192163647
 31
0.0
 11
239.7047620978288
 21
-172.3019775282892
 31
0.0
 11
239.762548743013
 21
-172.5744867537455
 31
0.0
 11
239.8280531185651
 21
-172.8451754608013
 31
0.0
 11
239.9022636039163
 21
-173.1134992702423
 31
0.0
 11
239.986168578497
 21
-173.378913802854
 31
0.0
 11
240.0807564217382
 21
-173.640874679422
 31
0.0
 11
240.1825826702188
 21
-173.8887755826006
 31
0.0
 11
240.2956598527012
 21
-174.1318660501193
 31
0.0
 11
240.4204582687698
 21
-174.3690285981065
 31
0.0
 11
240.557448218008
 21
-174.5991457426907
 31
0.0
 11
240.7071
 21
-174.8211
 31
0.0
 11
240.8740678710056
 21
-175.0393716874992
 31
0.0
 11
241.0538057250484
 21
-175.2476307079536
 31
0.0
 11
241.2452543620326
 21
-175.4456373655943
 31
0.0
 11
241.4473545818619
 21
-175.633151964653
 31
0.0
 11
241.6590471844403
 21
-175.8099348093608
 31
0.0
 11
241.8792729696718
 21
-175.9757462039489
 31
0.0
 11
242.1274481019549
 21
-176.1435273346979
 31
0.0
 11
242.3836316264203
 21
-176.2983428341502
 31
0.0
 11
242.6469826880782
 21
-176.4405011454788
 31
0.0
 11
242.9166604319385
 21
-176.5703107118569
 31
0.0
 11
243.191824003011
 21
-176.6880799764579
 31
0.0
 11
243.471632546306
 21
-176.7941173824549
 31
0.0
 11
243.7843199872713
 21
-176.8977301108395
 31
0.0
 11
244.1009821231489
 21
-176.9879725275779
 31
0.0
 11
244.4209772839134
 21
-177.0653368418785
 31
0.0
 11
244.743663799539
 21
-177.1303152629496
 31
0.0
 11
245.0684
 21
-177.1834
 31
0.0
 11
245.426852331958
 21
-177.2287082655917
 31
0.0
 11
245.7866527719175
 21
-177.2615810752232
 31
0.0
 11
246.1474499209306
 21
-177.2833448208531
 31
0.0
 11
246.5088923800494
 21
-177.2953258944407
 31
0.0
 11
246.8706287503255
 21
-177.2988506879447
 31
0.0
 11
247.232307632811
 21
-177.2952455933241
 31
0.0
 11
247.8073931060133
 21
-177.2776361104363
 31
0.0
 11
248.3816287215097
 21
-177.2480547831763
 31
0.0
 11
248.9552009736052
 21
-177.2092391337357
 31
0.0
 11
249.528296356605
 21
-177.1639266843069
 31
0.0
 11
250.4782858855961
 21
-177.0817800086356
 31
0.0
 11
251.4285000000001
 21
-177.0016
 31
0.0
 11
252.147646262355
 21
-176.9492526243704
 31
0.0
 11
252.8674593521401
 21
-176.9071709088809
 31
0.0
 11
253.5878926725019
 21
-176.8774600854869
 31
0.0
 11
254.096256823559
 21
-176.8651079115166
 31
0.0
 11
254.604760413187
 21
-176.860814361883
 31
0.0
 11
255.1132576207688
 21
-176.8654393080836
 31
0.0
 11
255.621602625687
 21
-176.8798426216159
 31
0.0
 11
256.1632444213694
 21
-176.906940765936
 31
0.0
 11
256.7040195061088
 21
-176.947178374737
 31
0.0
 11
257.2434
 21
-177.0016
 31
0.0
 11
257.7222555351053
 21
-177.0622130354522
 31
0.0
 11
258.1999677309223
 21
-177.1318136430789
 31
0.0
 11
258.6769178351435
 21
-177.207312604212
 31
0.0
 11
259.1534870954609
 21
-177.2856207001829
 31
0.0
 11
259.6567446105026
 21
-177.3681014832177
 31
0.0
 11
260.1603910277095
 21
-177.4475543536928
 31
0.0
 11
260.6648147989632
 21
-177.5212637334601
 31
0.0
 11
261.170404376145
 21
-177.5865140443721
 31
0.0
 11
261.6411022118468
 21
-177.6374461237796
 31
0.0
 11
262.1128563938043
 21
-177.6783508763845
 31
0.0
 11
262.585383472896
 21
-177.70883370189
 31
0.0
 11
263.0584
 21
-177.7284999999999
 31
0.0
 11
263.5741301392806
 21
-177.7375460765965
 31
0.0
 11
264.0899772055233
 21
-177.7351304810579
 31
0.0
 11
264.6058134948186
 21
-177.7231051466308
 31
0.0
 11
265.121511303257
 21
-177.7033220065615
 31
0.0
 11
265.636942926929
 21
-177.6776329940969
 31
0.0
 11
266.5241679150328
 21
-177.6240194575079
 31
0.0
 11
267.4106693506349
 21
-177.5624942012638
 31
0.0
 11
268.296892896397
 21
-177.497179177692
 31
0.0
 11
268.9732676325196
 21
-177.447694040781
 31
0.0
 11
269.6499375174969
 21
-177.4023513229657
 31
0.0
 11
270.3271
 21
-177.3651
 31
0.0
 11
270.8219807682481
 21
-177.3451854612941
 31
0.0
 11
271.3171195768679
 21
-177.3326627711696
 31
0.0
 11
271.8124065046459
 21
-177.3285033474041
 31
0.0
 11
272.307731630368
 21
-177.333678607775
 31
0.0
 11
272.6794117826921
 21
-177.3443648591178
 31
0.0
 11
273.050819557579
 21
-177.3617774715248
 31
0.0
 11
273.4217229780604
 21
-177.3868375582244
 31
0.0
 11
273.791890067169
 21
-177.4204662324451
 31
0.0
 11
274.0916926681488
 21
-177.4548085865919
 31
0.0
 11
274.3905862395873
 21
-177.496516370732
 31
0.0
 11
274.6883
 21
-177.5467
 31
0.0
 11
274.8725073948278
 21
-177.5828112787084
 31
0.0
 11
275.0556317990743
 21
-177.6239041191915
 31
0.0
 11
275.2371503383856
 21
-177.6712585475449
 31
0.0
 11
275.4165401384081
 21
-177.726154589864
 31
0.0
 11
275.5768533004554
 21
-177.7834697014515
 31
0.0
 11
275.7341074128944
 21
-177.8486464704042
 31
0.0
 11
275.887423875432
 21
-177.9222924282521
 31
0.0
 11
276.0373029968612
 21
-178.0046991736954
 31
0.0
 11
276.1845
 21
-178.0919
 31
0.0
  0
LINE
  5
DC6
330
1F
100
AcDbEntity
  8
0
  6
DASH_CENTER
 62
    30
100
AcDbLine
 10
273.752
 20
-166.5371
 30
0.0
 11
237.889
 21
-166.5371
 31
0.0
  0
LINE
  5
DC7
330
1F
100
AcDbEntity
  8
0
  6
Continuous
 62
     7
100
AcDbLine
 10
237.9814
 20
-156.5371
 30
0.0
 11
266.1847999999999
 21
-156.5371
 31
0.0
  0
LINE
  5
DFA
330
1F
100
AcDbEntity
  8
0
  6
Continuous
 62
     7
100
AcDbLine
 10
102.9417
 20
-20.3306
 30
0.0
 11
102.9417
 21
-25.13059999999996
 31
0.0
  0
LINE
  5
DFB
330
1F
100
AcDbEntity
  8
0
  6
Continuous
 62
     7
100
AcDbLine
 10
98.8419
 20
-20.3306
 30
0.0
 11
98.8419
 21
-25.13059999999996
 31
0.0
  0
LINE
  5
DFE
330
1F
100
AcDbEntity
  8
0
  6
DASH_CENTER
 62
    30
100
AcDbLine
 10
100.8919
 20
-26.85337125157207
 30
0.0
 11
100.8919
 21
-37.29797075593001
 31
0.0
  0
ARC
  5
DFF
330
1F
100
AcDbEntity
  8
0
  6
Continuous
 62
     7
100
AcDbCircle
 10
100.89195
 20
-31.43039999999996
 30
0.0
 40
3.299966800211799
100
AcDbArc
 50
168.150866306189
 51
11.84913369381095
  0
LINE
  5
E00
330
1F
100
AcDbEntity
  8
0
  6
Continuous
 62
     7
100
AcDbLine
 10
102.9417
 20
-25.13059999999996
 30
0.0
 11
104.1214
 21
-30.75289999999994
 31
0.0
  0
LINE
  5
E01
330
1F
100
AcDbEntity
  8
0
  6
DASH_CENTER
 62
    30
100
AcDbLine
 10
106.588315751372
 20
-31.43039999999996
 30
0.0
 11
95.13090659810508
 21
-31.43039999999996
 31
0.0
  0
CIRCLE
  5
E02
330
1F
100
AcDbEntity
  8
0
  6
Continuous
 62
     7
100
AcDbCircle
 10
100.8919
 20
-31.43039999999996
 30
0.0
 40
2.15000000000009
  0
LINE
  5
E03
330
1F
100
AcDbEntity
  8
0
  6
Continuous
 62
     7
100
AcDbLine
 10
98.8419
 20
-25.13059999999996
 30
0.0
 11
102.9417
 21
-25.13059999999996
 31
0.0
  0
LINE
  5
E04
330
1F
100
AcDbEntity
  8
0
  6
Continuous
 62
     7
100
AcDbLine
 10
98.8419
 20
-25.13059999999996
 30
0.0
 11
97.66220000000011
 21
-30.75289999999994
 31
0.0
  0
LINE
  5
E05
330
1F
100
AcDbEntity
  8
0
  6
Continuous
 62
     7
100
AcDbLine
 10
102.4918
 20
-20.3306
 30
0.0
 11
102.9417
 21
-20.3306
 31
0.0
  0
LINE
  5
E06
330
1F
100
AcDbEntity
  8
0
  6
Continuous
 62
     7
100
AcDbLine
 10
98.8419
 20
-20.3306
 30
0.0
 11
102.4918
 21
-20.3306
 31
0.0
  0
ARC
  5
E07
330
1F
100
AcDbEntity
  8
0
  6
Continuous
 62
    30
100
AcDbCircle
 10
103.2918
 20
0.4795200505818685
 30
0.0
 40
1.60000000000068
100
AcDbArc
 50
240.000000000015
 51
299.999999999983
  0
ARC
  5
E08
330
1F
100
AcDbEntity
  8
0
  6
Continuous
 62
    30
100
AcDbCircle
 10
103.2918
 20
-2.291761241528998
 30
0.0
 40
1.59999999999985
100
AcDbArc
 50
60.00000000000007
 51
120.0000000000018
  0
ARC
  5
E09
330
1F
100
AcDbEntity
  8
0
  6
Continuous
 62
    30
100
AcDbCircle
 10
104.8918
 20
0.4795200505818685
 30
0.0
 40
1.60000000000068
100
AcDbArc
 50
240.000000000015
 51
299.999999999983
  0
ARC
  5
E12
330
1F
100
AcDbEntity
  8
0
  6
Continuous
 62
     7
100
AcDbCircle
 10
201.1845446618059
 20
28.44722545134505
 30
0.0
 40
65.60000865852474
100
AcDbArc
 50
225.197618912317
 51
260.2755079660489
  0
ARC
  5
E13
330
1F
100
AcDbEntity
  8
0
  6
Continuous
 62
     7
100
AcDbCircle
 10
201.1846263858114
 20
28.44728907063369
 30
0.0
 40
61.25001891472525
100
AcDbArc
 50
239.5230220097995
 51
255.4769579951054
  0
ARC
  5
E14
330
1F
100
AcDbEntity
  8
0
  6
Continuous
 62
     7
100
AcDbCircle
 10
201.1848071236156
 20
28.4472142057745
 30
0.0
 40
64.25004432500215
100
AcDbArc
 50
239.8975054994568
 51
255.1021097042537
  0
LINE
  5
E15
330
1F
100
AcDbEntity
  8
0
  6
Continuous
 62
     7
100
AcDbLine
 10
201.1843999999999
 20
-41.55269999999996
 30
0.0
 11
171.1844
 21
-41.55269999999996
 31
0.0
  0
LINE
  5
E16
330
1F
100
AcDbEntity
  8
0
  6
Continuous
 62
     7
100
AcDbLine
 10
232.6845
 20
-38.35280000000011
 30
0.0
 11
169.6844
 21
-38.35280000000011
 31
0.0
  0
ARC
  5
E24
330
1F
100
AcDbEntity
  8
0
  6
Continuous
 62
     7
100
AcDbCircle
 10
147.9119184326803
 20
-25.1942973770643
 30
0.0
 40
10.00001925246418
100
AcDbArc
 50
45.19736838300743
 51
151.0000534501435
  0
LINE
  5
E25
330
1F
100
AcDbEntity
  8
0
  6
Continuous
 62
     7
100
AcDbLine
 10
168.6844
 20
-39.35280000000011
 30
0.0
 11
126.1843999999999
 21
-39.35280000000011
 31
0.0
  0
LINE
  5
E26
330
1F
100
AcDbEntity
  8
0
  6
Continuous
 62
     7
100
AcDbLine
 10
126.1843999999999
 20
-42.55269999999995
 30
0.0
 11
164.6922999999999
 21
-42.55269999999995
 31
0.0
  0
LINE
  5
E27
330
1F
100
AcDbEntity
  8
0
  6
Continuous
 62
     7
100
AcDbLine
 10
129.7555
 20
-37.32249999999999
 30
0.0
 11
139.1657000000001
 21
-20.34619999999994
 31
0.0
  0
LINE
  5
E28
330
1F
100
AcDbEntity
  8
0
  6
Continuous
 62
     7
100
AcDbLine
 10
126.1843999999999
 20
-38.35280000000011
 30
0.0
 11
128.0063000000001
 21
-38.35280000000011
 31
0.0
  0
LINE
  5
E29
330
1F
100
AcDbEntity
  8
0
  6
Continuous
 62
     7
100
AcDbLine
 10
126.1843999999999
 20
-38.35280000000011
 30
0.0
 11
126.1843999999999
 21
-42.55269999999995
 31
0.0
  0
ARC
  5
E2A
330
1F
100
AcDbEntity
  8
0
  6
Continuous
 62
     7
100
AcDbCircle
 10
128.0062628211293
 20
-36.35282190093109
 30
0.0
 40
1.999978099414595
100
AcDbArc
 50
270.0010651078548
 51
331.0009998037562
  0
LINE
  5
E2B
330
1F
100
AcDbEntity
  8
0
  6
DASH_CENTER
 62
    30
100
AcDbLine
 10
145.1844
 20
-33.51269999999999
 30
0.0
 11
145.1844
 21
-45.86959999999999
 31
0.0
  0
LINE
  5
E2C
330
1F
100
AcDbEntity
  8
0
  6
Continuous
 62
     7
100
AcDbLine
 10
166.3912
 20
-38.62670000000003
 30
0.0
 11
167.5316
 21
-34.62229999999999
 31
0.0
  0
LINE
  5
E2D
330
1F
100
AcDbEntity
  8
0
  6
Continuous
 62
     7
100
AcDbLine
 10
164.6922999999999
 20
-42.55269999999995
 30
0.0
 11
171.1844
 21
-42.55269999999995
 31
0.0
  0
ARC
  5
E2E
330
1F
100
AcDbEntity
  8
0
  6
Continuous
 62
     7
100
AcDbCircle
 10
165.4295266397616
 20
-38.35277988861427
 30
0.0
 40
1.000020111740667
100
AcDbArc
 50
269.9984736847898
 51
344.1026579948211
  0
ARC
  5
E2F
330
1F
100
AcDbEntity
  8
0
  6
Continuous
 62
     7
100
AcDbCircle
 10
168.6844
 20
-38.85280000000011
 30
0.0
 40
0.5
100
AcDbArc
 50
270.0
 51
0.0
  0
ARC
  5
E30
330
1F
100
AcDbEntity
  8
0
  6
Continuous
 62
     7
100
AcDbCircle
 10
169.6844
 20
-38.85280000000011
 30
0.0
 40
0.5
100
AcDbArc
 50
90.0
 51
180.0
  0
LINE
  5
E31
330
1F
100
AcDbEntity
  8
0
  6
Continuous
 62
     7
100
AcDbLine
 10
171.1844
 20
-41.55269999999996
 30
0.0
 11
171.1844
 21
-42.55269999999995
 31
0.0
  0
ARC
  5
E32
330
1F
100
AcDbEntity
  8
0
  6
Continuous
 62
     7
100
AcDbCircle
 10
172.340434512786
 20
-35.99168390971559
 30
0.0
 40
5.000010166344556
100
AcDbArc
 50
65.88607714330048
 51
164.1049442872889
  0
LINE
  5
E33
330
1F
100
AcDbEntity
  8
0
  6
Continuous
 62
     7
100
AcDbLine
 10
170.1191
 20
-24.34010000000012
 30
0.0
 11
168.9603999999999
 21
-27.13750000000004
 31
0.0
  0
CIRCLE
  5
E34
330
1F
100
AcDbEntity
  8
0
  6
Continuous
 62
     7
100
AcDbCircle
 10
158.0511999999999
 20
-14.68630000000007
 30
0.0
 40
3.500040325482105
  0
ARC
  5
E35
330
1F
100
AcDbEntity
  8
0
  6
DASH_CENTER
 62
    30
100
AcDbCircle
 10
201.1840978895463
 20
28.44719992800112
 30
0.0
 40
61.00001394630304
100
AcDbArc
 50
217.1100157090102
 51
233.5120346712173
  0
LINE
  5
E36
330
1F
100
AcDbEntity
  8
0
  6
Continuous
 62
     7
100
AcDbLine
 10
160.9088999999999
 20
-11.82860000000004
 30
0.0
 11
157.0051999999999
 21
-10.78269999999998
 31
0.0
  0
LINE
  5
E37
330
1F
100
AcDbEntity
  8
0
  6
Continuous
 62
     7
100
AcDbLine
 10
159.0971999999999
 20
-18.59010000000012
 30
0.0
 11
161.9632
 21
-15.7346
 31
0.0
  0
LINE
  5
E38
330
1F
100
AcDbEntity
  8
0
  6
DASH_CENTER
 62
    30
100
AcDbLine
 10
163.5497
 20
-9.187699999999946
 30
0.0
 11
151.4541999999999
 21
-21.28340000000003
 31
0.0
  0
LINE
  5
E39
330
1F
100
AcDbEntity
  8
0
  6
Continuous
 62
     7
100
AcDbLine
 10
157.0051999999999
 20
-10.78269999999998
 30
0.0
 11
154.1391999999999
 21
-13.6382000000001
 31
0.0
  0
CIRCLE
  5
E3A
330
1F
100
AcDbEntity
  8
0
  6
Continuous
 62
    30
100
AcDbCircle
 10
158.0511999999999
 20
-14.68630000000007
 30
0.0
 40
1.650008315130688
  0
CIRCLE
  5
E3B
330
1F
100
AcDbEntity
  8
0
  6
Continuous
 62
     7
100
AcDbCircle
 10
158.0511999999999
 20
-14.68630000000007
 30
0.0
 40
2.000036842160727
  0
LINE
  5
E3C
330
1F
100
AcDbEntity
  8
0
  6
Continuous
 62
     7
100
AcDbLine
 10
155.1935
 20
-17.54420000000004
 30
0.0
 11
159.0971999999999
 21
-18.59010000000012
 31
0.0
  0
LINE
  5
E3D
330
1F
100
AcDbEntity
  8
0
  6
Continuous
 62
     7
100
AcDbLine
 10
154.1391999999999
 20
-13.6382000000001
 30
0.0
 11
155.1935
 21
-17.54420000000004
 31
0.0
  0
LINE
  5
E3E
330
1F
100
AcDbEntity
  8
0
  6
Continuous
 62
     7
100
AcDbLine
 10
148.3973999999999
 20
-2.618200000000111
 30
0.0
 11
145.5999
 21
-3.777100000000022
 31
0.0
  0
LINE
  5
E3F
330
1F
100
AcDbEntity
  8
0
  6
Continuous
 62
     7
100
AcDbLine
 10
161.9632
 20
-15.7346
 30
0.0
 11
160.9088999999999
 21
-11.82860000000004
 31
0.0
  0
ARC
  5
E4A
330
1F
100
AcDbEntity
  8
0
  6
Continuous
 62
     7
100
AcDbCircle
 10
201.1843742494003
 20
28.44728844278288
 30
0.0
 40
65.59998844290352
100
AcDbArc
 50
270.000109832011
 51
280.5020229749946
  0
LINE
  5
E4B
330
1F
100
AcDbEntity
  8
0
  6
Continuous
 62
     7
100
AcDbLine
 10
201.1845
 20
-41.55269999999996
 30
0.0
 11
231.1845
 21
-41.55269999999996
 31
0.0
  0
ARC
  5
E4C
330
1F
100
AcDbEntity
  8
0
  6
Continuous
 62
     7
100
AcDbCircle
 10
194.1845011833343
 20
-22.07009896934301
 30
0.0
 40
2.999998816665943
100
AcDbArc
 50
262.1102633129954
 51
359.9999803158908
  0
ARC
  5
E4D
330
1F
100
AcDbEntity
  8
0
  6
Continuous
 62
     7
100
AcDbCircle
 10
208.1843919541286
 20
-22.07009299202424
 30
0.0
 40
2.999991954136816
100
AcDbArc
 50
180.0001338428392
 51
277.887959055484
  0
ARC
  5
E4E
330
1F
100
AcDbEntity
  8
0
  6
Continuous
 62
     7
100
AcDbCircle
 10
201.1844265875605
 20
28.44729755646783
 30
0.0
 40
65.59999755647332
100
AcDbArc
 50
259.4979777571098
 51
269.9999767781247
  0
LINE
  5
E4F
330
1F
100
AcDbEntity
  8
0
  6
Continuous
 62
     7
100
AcDbLine
 10
185.8249999999999
 20
-30.84550000000013
 30
0.0
 11
184.6663
 21
-33.64309999999999
 31
0.0
  0
ARC
  5
E50
330
1F
100
AcDbEntity
  8
0
  6
Continuous
 62
     7
100
AcDbCircle
 10
188.1845282540886
 20
-13.58863831198821
 30
0.0
 40
2.999971746155932
100
AcDbArc
 50
0.0007317119668952
 51
72.81487509719387
  0
ARC
  5
E51
330
1F
100
AcDbEntity
  8
0
  6
Continuous
 62
     7
100
AcDbCircle
 10
188.1844785802396
 20
-16.71921612438489
 30
0.0
 40
3.000021419803761
100
AcDbArc
 50
253.9431570062184
 51
0.0003079508685195
  0
LINE
  5
E52
330
1F
100
AcDbEntity
  8
0
  6
Continuous
 62
     7
100
AcDbLine
 10
191.1845
 20
-13.58860000000003
 30
0.0
 11
191.1845
 21
-16.7192
 31
0.0
  0
ARC
  5
E53
330
1F
100
AcDbEntity
  8
0
  6
Continuous
 62
     7
100
AcDbCircle
 10
188.1845078333625
 20
-1.88429483482847
 30
0.0
 40
2.999992166641825
100
AcDbArc
 50
246.8003077255775
 51
359.9999013522339
  0
ARC
  5
E54
330
1F
100
AcDbEntity
  8
0
  6
Continuous
 62
     7
100
AcDbCircle
 10
194.1844937891973
 20
-14.99239270814785
 30
0.0
 40
3.000006210811613
100
AcDbArc
 50
359.999860736169
 51
80.84523809260966
  0
ARC
  5
E55
330
1F
100
AcDbEntity
  8
0
  6
Continuous
 62
     7
100
AcDbCircle
 10
208.1844062108027
 20
-14.99239270814785
 30
0.0
 40
3.000006210811634
100
AcDbArc
 50
99.15476190739198
 51
180.0001392638311
  0
LINE
  5
E56
330
1F
100
AcDbEntity
  8
0
  6
Continuous
 62
     7
100
AcDbLine
 10
197.1845
 20
-3.80179999999996
 30
0.0
 11
197.1845
 21
-14.99240000000009
 31
0.0
  0
LINE
  5
E57
330
1F
100
AcDbEntity
  8
0
  6
Continuous
 62
     7
100
AcDbLine
 10
205.1844
 20
-3.80179999999996
 30
0.0
 11
205.1844
 21
-14.99240000000009
 31
0.0
  0
LINE
  5
E58
330
1F
100
AcDbEntity
  8
0
  6
Continuous
 62
     7
100
AcDbLine
 10
197.1845
 20
-14.99240000000009
 30
0.0
 11
197.1845
 21
-22.07010000000014
 31
0.0
  0
LINE
  5
E59
330
1F
100
AcDbEntity
  8
0
  6
Continuous
 62
     7
100
AcDbLine
 10
205.1844
 20
-14.99240000000009
 30
0.0
 11
205.1844
 21
-22.07010000000014
 31
0.0
  0
ARC
  5
E5A
330
1F
100
AcDbEntity
  8
0
  6
Continuous
 62
     7
100
AcDbCircle
 10
194.184510845898
 20
-3.801791255934627
 30
0.0
 40
2.999989154114751
100
AcDbArc
 50
257.7523426735134
 51
359.99983300005
  0
ARC
  5
E5B
330
1F
100
AcDbEntity
  8
0
  6
Continuous
 62
     7
100
AcDbCircle
 10
208.1843891541019
 20
-3.801791255934649
 30
0.0
 40
2.999989154114767
100
AcDbArc
 50
180.0001669999497
 51
282.2476573264899
  0
ARC
  5
E5C
330
1F
100
AcDbEntity
  8
0
  6
Continuous
 62
     7
100
AcDbCircle
 10
201.1842736141885
 20
28.44728907063369
 30
0.0
 40
61.25001891472522
100
AcDbArc
 50
284.5230420048945
 51
300.4769779902004
  0
ARC
  5
E5D
330
1F
100
AcDbEntity
  8
0
  6
Continuous
 62
     7
100
AcDbCircle
 10
201.1840928763847
 20
28.44721420577467
 30
0.0
 40
64.25004432500222
100
AcDbArc
 50
284.8978902957462
 51
300.102494500543
  0
LINE
  5
E5E
330
1F
100
AcDbEntity
  8
0
  6
Continuous
 62
     7
100
AcDbLine
 10
216.5437999999999
 20
-30.84550000000013
 30
0.0
 11
217.7026
 21
-33.64309999999999
 31
0.0
  0
LINE
  5
E5F
330
1F
100
AcDbEntity
  8
0
  6
Continuous
 62
     7
100
AcDbLine
 10
235.9777
 20
-38.62670000000003
 30
0.0
 11
234.8373
 21
-34.62229999999999
 31
0.0
  0
LINE
  5
E60
330
1F
100
AcDbEntity
  8
0
  6
Continuous
 62
     7
100
AcDbLine
 10
237.6766
 20
-42.55269999999995
 30
0.0
 11
231.1845
 21
-42.55269999999995
 31
0.0
  0
ARC
  5
E61
330
1F
100
AcDbEntity
  8
0
  6
Continuous
 62
     7
100
AcDbCircle
 10
233.6844000049999
 20
-38.85280000499912
 30
0.0
 40
0.500000005000004
100
AcDbArc
 50
179.9999994271557
 51
270.0114585829071
  0
ARC
  5
E62
330
1F
100
AcDbEntity
  8
0
  6
Continuous
 62
     7
100
AcDbCircle
 10
232.6843999949999
 20
-38.85279999499913
 30
0.0
 40
0.500000005000004
100
AcDbArc
 50
359.9999994269285
 51
89.98854027117635
  0
LINE
  5
E63
330
1F
100
AcDbEntity
  8
0
  6
Continuous
 62
     7
100
AcDbLine
 10
231.1845
 20
-41.55269999999996
 30
0.0
 11
231.1845
 21
-42.55269999999995
 31
0.0
  0
ARC
  5
E64
330
1F
100
AcDbEntity
  8
0
  6
Continuous
 62
     7
100
AcDbCircle
 10
236.9393370572496
 20
-38.3528279759503
 30
0.0
 40
0.9999720260307711
100
AcDbArc
 50
195.8952618655465
 51
270.0036064548409
  0
ARC
  5
E65
330
1F
100
AcDbEntity
  8
0
  6
Continuous
 62
     7
100
AcDbCircle
 10
230.028465487214
 20
-35.9916839097157
 30
0.0
 40
5.000010166344616
100
AcDbArc
 50
15.89505571271198
 51
114.1139228566977
  0
LINE
  5
E66
330
1F
100
AcDbEntity
  8
0
  6
Continuous
 62
     7
100
AcDbLine
 10
232.2497999999999
 20
-24.34010000000012
 30
0.0
 11
233.4085
 21
-27.13750000000004
 31
0.0
  0
ARC
  5
E67
330
1F
100
AcDbEntity
  8
0
  6
Continuous
 62
     7
100
AcDbCircle
 10
214.1843717459113
 20
-13.58863831198825
 30
0.0
 40
2.999971746155911
100
AcDbArc
 50
107.1851249028009
 51
179.9992682880324
  0
ARC
  5
E68
330
1F
100
AcDbEntity
  8
0
  6
Continuous
 62
     7
100
AcDbCircle
 10
214.1844214197603
 20
-16.7192161243849
 30
0.0
 40
3.000021419803732
100
AcDbArc
 50
179.9996920491314
 51
286.0568429937815
  0
LINE
  5
E69
330
1F
100
AcDbEntity
  8
0
  6
Continuous
 62
     7
100
AcDbLine
 10
211.1844
 20
-13.58860000000003
 30
0.0
 11
211.1844
 21
-16.7192
 31
0.0
  0
ARC
  5
E6A
330
1F
100
AcDbEntity
  8
0
  6
Continuous
 62
     7
100
AcDbCircle
 10
214.1843921666374
 20
-1.88429483482848
 30
0.0
 40
2.999992166641857
100
AcDbArc
 50
180.0000986477658
 51
293.1996922744224
  0
LINE
  5
E6B
330
1F
100
AcDbEntity
  8
0
  6
Continuous
 62
     7
100
AcDbLine
 10
240.4057
 20
-15.7346
 30
0.0
 11
241.4598999999999
 21
-11.82860000000004
 31
0.0
  0
ARC
  5
E7D
330
1F
100
AcDbEntity
  8
0
  6
Continuous
 62
     7
100
AcDbCircle
 10
266.184599999
 20
-166.537399999
 30
0.0
 40
10.00000000099999
100
AcDbArc
 50
359.9999999942701
 51
89.99885407868044
  0
ARC
  5
E7E
330
1F
100
AcDbEntity
  8
0
  6
Continuous
 62
     7
100
AcDbCircle
 10
267.1845999999999
 20
-166.5371
 30
0.0
 40
3.5
100
AcDbArc
 50
0.0
 51
90.0
  0
ARC
  5
E7F
330
1F
100
AcDbEntity
  8
0
  6
Continuous
 62
     7
100
AcDbCircle
 10
247.1845999999999
 20
-166.5371
 30
0.0
 40
3.5
100
AcDbArc
 50
90.0
 51
180.0
  0
LINE
  5
E80
330
1F
100
AcDbEntity
  8
0
  6
DASH_CENTER
 62
    30
100
AcDbLine
 10
257.1845999999999
 20
-158.9401999999999
 30
0.0
 11
257.1845999999999
 21
-174.5626999999999
 31
0.0
  0
LINE
  5
E81
330
1F
100
AcDbEntity
  8
0
  6
Continuous
 62
     7
100
AcDbLine
 10
247.1845999999999
 20
-163.0371
 30
0.0
 11
267.1845999999999
 21
-163.0371
 31
0.0
  0
LINE
  5
E82
330
1F
100
AcDbEntity
  8
0
  6
Continuous
 62
     7
100
AcDbLine
 10
247.1845999999999
 20
-170.0371
 30
0.0
 11
267.1845999999999
 21
-170.0371
 31
0.0
  0
ARC
  5
E83
330
1F
100
AcDbEntity
  8
0
  6
Continuous
 62
     7
100
AcDbCircle
 10
247.1845999999999
 20
-166.5371
 30
0.0
 40
3.5
100
AcDbArc
 50
180.0
 51
270.0
  0
ARC
  5
E84
330
1F
100
AcDbEntity
  8
0
  6
Continuous
 62
     7
100
AcDbCircle
 10
267.1845999999999
 20
-166.5371
 30
0.0
 40
3.5
100
AcDbArc
 50
270.0
 51
0.0
  0
LINE
  5
E89
330
1F
100
AcDbEntity
  8
0
  6
Continuous
 62
     7
100
AcDbLine
 10
276.1845999999999
 20
-166.5374000000001
 30
0.0
 11
276.1845999999999
 21
-178.092
 31
0.0
  0
LINE
  5
E97
330
1F
100
AcDbEntity
  8
0
  6
Continuous
 62
     7
100
AcDbLine
 10
276.1843999999999
 20
-38.35280000000011
 30
0.0
 11
274.3624
 21
-38.35280000000011
 31
0.0
  0
LINE
  5
E98
330
1F
100
AcDbEntity
  8
0
  6
Continuous
 62
     7
100
AcDbLine
 10
272.6131
 20
-37.32249999999999
 30
0.0
 11
263.2031999999999
 21
-20.34619999999994
 31
0.0
  0
LINE
  5
E99
330
1F
100
AcDbEntity
  8
0
  6
DASH_CENTER
 62
    30
100
AcDbLine
 10
257.1845
 20
-33.51269999999999
 30
0.0
 11
257.1845
 21
-45.86959999999999
 31
0.0
  0
ARC
  5
E9A
330
1F
100
AcDbEntity
  8
0
  6
Continuous
 62
     7
100
AcDbCircle
 10
274.3624371788708
 20
-36.35282190093112
 30
0.0
 40
1.999978099414551
100
AcDbArc
 50
208.9990001962437
 51
269.9989348921451
  0
ARC
  5
E9B
330
1F
100
AcDbEntity
  8
0
  6
Continuous
 62
     7
100
AcDbCircle
 10
254.4569815673196
 20
-25.19429737706433
 30
0.0
 40
10.00001925246418
100
AcDbArc
 50
28.99994654985642
 51
134.8026316169925
  0
LINE
  5
E9C
330
1F
100
AcDbEntity
  8
0
  6
Continuous
 62
     7
100
AcDbLine
 10
245.3637
 20
-10.78269999999998
 30
0.0
 11
248.2296999999999
 21
-13.6382000000001
 31
0.0
  0
CIRCLE
  5
E9D
330
1F
100
AcDbEntity
  8
0
  6
Continuous
 62
    30
100
AcDbCircle
 10
244.318
 20
-14.68600000000015
 30
0.0
 40
1.650008315130696
  0
LINE
  5
E9E
330
1F
100
AcDbEntity
  8
0
  6
Continuous
 62
     7
100
AcDbLine
 10
248.2296999999999
 20
-13.6382000000001
 30
0.0
 11
247.1754
 21
-17.54420000000004
 31
0.0
  0
LINE
  5
E9F
330
1F
100
AcDbEntity
  8
0
  6
Continuous
 62
     7
100
AcDbLine
 10
247.1754
 20
-17.54420000000004
 30
0.0
 11
243.2717
 21
-18.59010000000012
 31
0.0
  0
LINE
  5
EA0
330
1F
100
AcDbEntity
  8
0
  6
Continuous
 62
     7
100
AcDbLine
 10
253.9714
 20
-2.618200000000111
 30
0.0
 11
256.7689
 21
-3.777100000000022
 31
0.0
  0
LINE
  5
EA6
330
1F
100
AcDbEntity
  8
0
  6
Continuous
 62
     7
100
AcDbLine
 10
276.1843999999999
 20
-38.35280000000011
 30
0.0
 11
276.1843999999999
 21
-42.55269999999995
 31
0.0
  0
CIRCLE
  5
EB1
330
1F
100
AcDbEntity
  8
0
  6
Continuous
 62
     7
100
AcDbCircle
 10
244.3178
 20
71.5806
 30
0.0
 40
3.499969614153751
  0
CIRCLE
  5
EB2
330
1F
100
AcDbEntity
  8
0
  6
Continuous
 62
     7
100
AcDbCircle
 10
244.3176999999999
 20
71.5806
 30
0.0
 40
2.000062724016411
  0
ARC
  5
EB3
330
1F
100
AcDbEntity
  8
0
  6
Continuous
 62
     7
100
AcDbCircle
 10
201.1845
 20
28.44730000000003
 30
0.0
 40
65.60000000000008
100
AcDbArc
 50
0.0
 51
90.0
  0
ARC
  5
EB4
330
1F
100
AcDbEntity
  8
0
  6
Continuous
 62
     7
100
AcDbCircle
 10
243.2201735387395
 20
41.4470195138062
 30
0.0
 40
3.000019513923029
100
AcDbArc
 50
197.1857976884847
 51
270.0005053695627
  0
ARC
  5
EB5
330
1F
100
AcDbEntity
  8
0
  6
Continuous
 62
     7
100
AcDbCircle
 10
244.6240927081479
 20
35.44730621080281
 30
0.0
 40
3.000006210811618
100
AcDbArc
 50
189.1547619073919
 51
270.0001392638303
  0
ARC
  5
EB6
330
1F
100
AcDbEntity
  8
0
  6
Continuous
 62
     7
100
AcDbCircle
 10
243.220058341798
 20
15.447343027585
 30
0.0
 40
2.999956972982341
100
AcDbArc
 50
90.00111426224639
 51
162.8170823046332
  0
ARC
  5
EB7
330
1F
100
AcDbEntity
  8
0
  6
Continuous
 62
     7
100
AcDbCircle
 10
244.6240927081479
 20
21.44729378919728
 30
0.0
 40
3.000006210811624
100
AcDbArc
 50
89.99986073616961
 51
170.8452380926082
  0
ARC
  5
EB8
330
1F
100
AcDbEntity
  8
0
  6
Continuous
 62
     7
100
AcDbCircle
 10
201.1842893775059
 20
28.44731062258718
 30
0.0
 40
49.99993793640919
100
AcDbArc
 50
16.05691726075687
 51
73.94258043035558
  0
ARC
  5
EB9
330
1F
100
AcDbEntity
  8
0
  6
Continuous
 62
     7
100
AcDbCircle
 10
201.1842888124029
 20
28.44731102736153
 30
0.0
 40
40.99996787126486
100
AcDbArc
 50
9.153944757834915
 51
81.67258500564916
  0
ARC
  5
EBA
330
1F
100
AcDbEntity
  8
0
  6
Continuous
 62
     7
100
AcDbCircle
 10
201.1844544074959
 20
28.44734559234298
 30
0.0
 40
66.59995347799297
100
AcDbArc
 50
27.52446149323505
 51
62.47574107808834
  0
ARC
  5
EBB
330
1F
100
AcDbEntity
  8
0
  6
DASH_CENTER
 62
    30
100
AcDbCircle
 10
201.1846517599943
 20
28.44724879850807
 30
0.0
 40
60.9999837797495
100
AcDbArc
 50
37.10974419495093
 51
53.51183806226345
  0
LINE
  5
EBC
330
1F
100
AcDbEntity
  8
0
  6
Continuous
 62
     7
100
AcDbLine
 10
233.4335
 20
32.44730000000004
 30
0.0
 11
244.624
 21
32.44730000000004
 31
0.0
  0
LINE
  5
EBD
330
1F
100
AcDbEntity
  8
0
  6
Continuous
 62
     7
100
AcDbLine
 10
233.4334
 20
24.44730000000003
 30
0.0
 11
251.7017
 21
24.44730000000003
 31
0.0
  0
LINE
  5
EBE
330
1F
100
AcDbEntity
  8
0
  6
Continuous
 62
     7
100
AcDbLine
 10
243.2718
 20
75.48440000000005
 30
0.0
 11
240.4058
 21
72.62889999999993
 31
0.0
  0
LINE
  5
EBF
330
1F
100
AcDbEntity
  8
0
  6
Continuous
 62
     7
100
AcDbLine
 10
241.4601
 20
68.72289999999998
 30
0.0
 11
245.3638
 21
67.67679999999995
 31
0.0
  0
LINE
  5
EC0
330
1F
100
AcDbEntity
  8
0
  6
DASH_CENTER
 62
    30
100
AcDbLine
 10
238.8190999999999
 20
66.08199999999988
 30
0.0
 11
250.9146999999999
 21
78.17769999999995
 31
0.0
  0
LINE
  5
EC1
330
1F
100
AcDbEntity
  8
0
  6
DASH_CENTER
 62
    30
100
AcDbLine
 10
276.9019999999999
 20
28.44730000000003
 30
0.0
 11
123.7093000000001
 21
28.44730000000003
 31
0.0
  0
ARC
  5
EC3
330
1F
100
AcDbEntity
  8
0
  6
Continuous
 62
     7
100
AcDbCircle
 10
133.9357
 20
81.40889999999989
 30
0.0
 40
18.9999629644381
100
AcDbArc
 50
90.0
 51
180.0
  0
ARC
  5
EC4
330
1F
100
AcDbEntity
  8
0
  6
Continuous
 62
     7
100
AcDbCircle
 10
111.6917999999998
 20
19.24710000000004
 30
0.0
 40
6.0
100
AcDbArc
 50
90.0
 51
180.0
  0
ARC
  5
EC5
330
1F
100
AcDbEntity
  8
0
  6
Continuous
 62
     7
100
AcDbCircle
 10
111.6917999999998
 20
19.24710000000004
 30
0.0
 40
12.39999999999986
100
AcDbArc
 50
90.0
 51
180.0
  0
ARC
  5
EC6
330
1F
100
AcDbEntity
  8
0
  6
Continuous
 62
     7
100
AcDbCircle
 10
111.6917999999998
 20
19.24710000000004
 30
0.0
 40
9.199999999999812
100
AcDbArc
 50
90.0
 51
180.0
  0
ARC
  5
EDA
330
1F
100
AcDbEntity
  8
0
  6
Continuous
 62
     7
100
AcDbCircle
 10
201.1844201919208
 20
28.44732019193319
 30
0.0
 40
65.59997980806986
100
AcDbArc
 50
90.00001763585633
 51
180.0000176358675
  0
LINE
  5
EDB
330
1F
100
AcDbEntity
  8
0
  6
Continuous
 62
     7
100
AcDbLine
 10
145.6912
 20
96.33569999999986
 30
0.0
 11
163.5009
 21
83.51639999999997
 31
0.0
  0
ARC
  5
EDC
330
1F
100
AcDbEntity
  8
0
  6
Continuous
 62
     7
100
AcDbCircle
 10
201.184619907549
 20
28.44731962247794
 30
0.0
 40
40.99997511278764
100
AcDbArc
 50
98.32756706373475
 51
170.8460690391219
  0
ARC
  5
EDD
330
1F
100
AcDbEntity
  8
0
  6
Continuous
 62
     7
100
AcDbCircle
 10
201.1845777243286
 20
28.44727772416706
 30
0.0
 40
36.00000748873525
100
AcDbArc
 50
102.2470358064304
 51
167.7533802199664
  0
ARC
  5
EDE
330
1F
100
AcDbEntity
  8
0
  6
Continuous
 62
     7
100
AcDbCircle
 10
201.184595692298
 20
28.44729572455423
 30
0.0
 40
26.99995999580289
100
AcDbArc
 50
103.062570403971
 51
166.5067897084633
  0
ARC
  5
EDF
330
1F
100
AcDbEntity
  8
0
  6
Continuous
 62
     7
100
AcDbCircle
 10
201.1846106224941
 20
28.44731062258732
 30
0.0
 40
49.99993793640911
100
AcDbArc
 50
106.0574195696444
 51
163.9430827392433
  0
ARC
  5
EE0
330
1F
100
AcDbEntity
  8
0
  6
Continuous
 62
     7
100
AcDbCircle
 10
174.1474991637079
 20
15.44730052583385
 30
0.0
 40
2.999999474166317
100
AcDbArc
 50
25.67928230493761
 51
89.99998402799167
  0
ARC
  5
EE1
330
1F
100
AcDbEntity
  8
0
  6
Continuous
 62
     7
100
AcDbCircle
 10
174.1472991637079
 20
41.44729947416641
 30
0.0
 40
2.99999947416649
100
AcDbArc
 50
270.0000159720034
 51
334.3207176950564
  0
ARC
  5
EE2
330
1F
100
AcDbEntity
  8
0
  6
Continuous
 62
     7
100
AcDbCircle
 10
201.184422202338
 20
28.44722635422971
 30
0.0
 40
61.24995278008757
100
AcDbArc
 50
104.522860724567
 51
120.4769013163317
  0
ARC
  5
EE3
330
1F
100
AcDbEntity
  8
0
  6
Continuous
 62
     7
100
AcDbCircle
 10
201.1848615390778
 20
28.44740833475193
 30
0.0
 40
64.24996560364711
100
AcDbArc
 50
104.8980514639106
 51
120.1025912893807
  0
LINE
  5
EE4
330
1F
100
AcDbEntity
  8
0
  6
Continuous
 62
     7
100
AcDbLine
 10
179.7484999999999
 20
24.44730000000003
 30
0.0
 11
168.9354999999999
 21
24.44730000000003
 31
0.0
  0
LINE
  5
EE5
330
1F
100
AcDbEntity
  8
0
  6
Continuous
 62
     7
100
AcDbLine
 10
179.7483
 20
32.44730000000004
 30
0.0
 11
168.9353999999999
 21
32.44730000000004
 31
0.0
  0
ARC
  5
EE6
330
1F
100
AcDbEntity
  8
0
  6
Continuous
 62
     7
100
AcDbCircle
 10
201.1845814369717
 20
28.44725518490762
 30
0.0
 40
64.24997092880762
100
AcDbArc
 50
149.8977379381172
 51
165.102242066787
  0
ARC
  5
EE7
330
1F
100
AcDbEntity
  8
0
  6
Continuous
 62
     7
100
AcDbCircle
 10
201.1846236460639
 20
28.44735708698378
 30
0.0
 40
61.2500063762949
100
AcDbArc
 50
149.523105709333
 51
165.4771322497685
  0
ARC
  5
EE8
330
1F
100
AcDbEntity
  8
0
  6
Continuous
 62
     7
100
AcDbCircle
 10
201.1843999987808
 20
28.4470140121673
 30
0.0
 40
68.09996896594893
100
AcDbArc
 50
170.082816094195
 51
189.9166953757707
  0
ARC
  5
EE9
330
1F
100
AcDbEntity
  8
0
  6
Continuous
 62
     7
100
AcDbCircle
 10
136.0720200445644
 20
17.0634863704392
 30
0.0
 40
2.000010962323118
100
AcDbArc
 50
189.9182133564103
 51
281.6532869202965
  0
LINE
  5
EEA
330
1F
100
AcDbEntity
  8
0
  6
Continuous
 62
     7
100
AcDbLine
 10
141.8917999999999
 20
13.08759999999984
 30
0.0
 11
139.0944
 21
11.92899999999986
 31
0.0
  0
LINE
  5
EEB
330
1F
100
AcDbEntity
  8
0
  6
Continuous
 62
     7
100
AcDbLine
 10
136.936
 20
15.19949999999994
 30
0.0
 11
136.4759
 21
15.10469999999987
 31
0.0
  0
LINE
  5
EEC
330
1F
100
AcDbEntity
  8
0
  6
Continuous
 62
     7
100
AcDbLine
 10
111.6917999999998
 20
25.24710000000005
 30
0.0
 11
133.0844999999999
 21
25.24710000000005
 31
0.0
  0
LINE
  5
EED
330
1F
100
AcDbEntity
  8
0
  6
Continuous
 62
     7
100
AcDbLine
 10
133.0844999999999
 20
28.44699999999988
 30
0.0
 11
111.6917999999998
 21
28.44699999999988
 31
0.0
  0
LINE
  5
EEE
330
1F
100
AcDbEntity
  8
0
  6
Continuous
 62
     7
100
AcDbLine
 10
133.0844999999999
 20
31.64719999999988
 30
0.0
 11
111.6917999999998
 21
31.64719999999988
 31
0.0
  0
ARC
  5
EEF
330
1F
100
AcDbEntity
  8
0
  6
Continuous
 62
     7
100
AcDbCircle
 10
136.0720084093995
 20
39.83080571832079
 30
0.0
 40
2.00000086372389
100
AcDbArc
 50
78.34923814445099
 51
170.0815059783194
  0
LINE
  5
EF0
330
1F
100
AcDbEntity
  8
0
  6
Continuous
 62
     7
100
AcDbLine
 10
136.4759
 20
41.78959999999984
 30
0.0
 11
136.936
 21
41.69479999999999
 31
0.0
  0
LINE
  5
EF1
330
1F
100
AcDbEntity
  8
0
  6
Continuous
 62
     7
100
AcDbLine
 10
141.8918999999999
 20
43.80690000000003
 30
0.0
 11
139.0943
 21
44.96559999999998
 31
0.0
  0
ARC
  5
EF2
330
1F
100
AcDbEntity
  8
0
  6
Continuous
 62
     7
100
AcDbCircle
 10
150.6672010306571
 20
21.44730118333423
 30
0.0
 40
2.999998816665984
100
AcDbArc
 50
90.00001968410831
 51
187.8897366870069
  0
ARC
  5
EF3
330
1F
100
AcDbEntity
  8
0
  6
Continuous
 62
     7
100
AcDbCircle
 10
157.7448072918523
 20
21.4472937891973
 30
0.0
 40
3.000006210811613
100
AcDbArc
 50
9.154761907390655
 51
90.00013926383038
  0
ARC
  5
EF4
330
1F
100
AcDbEntity
  8
0
  6
Continuous
 62
     7
100
AcDbCircle
 10
168.9354693501998
 20
21.44726198412834
 30
0.0
 40
3.000038016028272
100
AcDbArc
 50
89.99941463935639
 51
192.2464998420406
  0
ARC
  5
EF5
330
1F
100
AcDbEntity
  8
0
  6
Continuous
 62
     7
100
AcDbCircle
 10
172.0125059020213
 20
21.44729534668551
 30
0.0
 40
3.000004653320329
100
AcDbArc
 50
13.49346889057163
 51
90.00011272012972
  0
ARC
  5
EF6
330
1F
100
AcDbEntity
  8
0
  6
Continuous
 62
     7
100
AcDbCircle
 10
159.1488064284343
 20
15.44729525897375
 30
0.0
 40
3.000004742485563
100
AcDbArc
 50
17.18359051555804
 51
89.99821291755806
  0
ARC
  5
EF7
330
1F
100
AcDbEntity
  8
0
  6
Continuous
 62
     7
100
AcDbCircle
 10
156.0181734659119
 20
15.44726474976443
 30
0.0
 40
3.000035251135142
100
AcDbArc
 50
90.00140307907591
 51
196.0584794773891
  0
LINE
  5
EF8
330
1F
100
AcDbEntity
  8
0
  6
Continuous
 62
     7
100
AcDbLine
 10
159.1488999999999
 20
18.44730000000003
 30
0.0
 11
156.0182000000001
 21
18.44730000000003
 31
0.0
  0
ARC
  5
EF9
330
1F
100
AcDbEntity
  8
0
  6
Continuous
 62
     7
100
AcDbCircle
 10
170.8530921772238
 20
15.44728813590073
 30
0.0
 40
3.000011864109513
100
AcDbArc
 50
89.99985059657188
 51
203.201199634542
  0
LINE
  5
EFA
330
1F
100
AcDbEntity
  8
0
  6
Continuous
 62
     7
100
AcDbLine
 10
174.1475000000001
 20
18.44730000000003
 30
0.0
 11
170.8530999999998
 21
18.44730000000003
 31
0.0
  0
ARC
  5
EFB
330
1F
100
AcDbEntity
  8
0
  6
Continuous
 62
     7
100
AcDbCircle
 10
157.7448072918523
 20
35.44730621080278
 30
0.0
 40
3.000006210811606
100
AcDbArc
 50
269.9998607361696
 51
350.8452380926091
  0
ARC
  5
EFC
330
1F
100
AcDbEntity
  8
0
  6
Continuous
 62
     7
100
AcDbCircle
 10
159.1486616880119
 20
41.44697174591115
 30
0.0
 40
2.999971746155912
100
AcDbArc
 50
270.000731711967
 51
342.8148750971992
  0
LINE
  5
EFD
330
1F
100
AcDbEntity
  8
0
  6
Continuous
 62
     7
100
AcDbLine
 10
168.9354999999999
 20
24.44730000000003
 30
0.0
 11
150.6672
 21
24.44730000000003
 31
0.0
  0
LINE
  5
EFE
330
1F
100
AcDbEntity
  8
0
  6
Continuous
 62
     7
100
AcDbLine
 10
168.9353999999999
 20
32.44730000000004
 30
0.0
 11
157.7449
 21
32.44730000000004
 31
0.0
  0
ARC
  5
EFF
330
1F
100
AcDbEntity
  8
0
  6
Continuous
 62
     7
100
AcDbCircle
 10
150.6671070079759
 20
35.44729195412864
 30
0.0
 40
2.999991954136788
100
AcDbArc
 50
172.1120409445186
 51
269.9998661571603
  0
LINE
  5
F00
330
1F
100
AcDbEntity
  8
0
  6
Continuous
 62
     7
100
AcDbLine
 10
157.7448
 20
32.44730000000004
 30
0.0
 11
150.6671
 21
32.44730000000004
 31
0.0
  0
ARC
  5
F01
330
1F
100
AcDbEntity
  8
0
  6
Continuous
 62
     7
100
AcDbCircle
 10
156.0179942856398
 20
41.44730759080327
 30
0.0
 40
3.000007590808666
100
AcDbArc
 50
163.94479353447
 51
270.0001091359668
  0
LINE
  5
F02
330
1F
100
AcDbEntity
  8
0
  6
Continuous
 62
     7
100
AcDbLine
 10
159.1487
 20
38.44730000000004
 30
0.0
 11
156.018
 21
38.44730000000004
 31
0.0
  0
ARC
  5
F03
330
1F
100
AcDbEntity
  8
0
  6
Continuous
 62
     7
100
AcDbCircle
 10
168.9353779000991
 20
35.44732741042007
 30
0.0
 40
3.000027410501434
100
AcDbArc
 50
167.7552032380434
 51
270.0004220731589
  0
ARC
  5
F04
330
1F
100
AcDbEntity
  8
0
  6
Continuous
 62
     7
100
AcDbCircle
 10
172.0125059020213
 20
35.4473046533146
 30
0.0
 40
3.000004653320361
100
AcDbArc
 50
269.9998872798686
 51
346.5065311094232
  0
ARC
  5
F05
330
1F
100
AcDbEntity
  8
0
  6
Continuous
 62
     7
100
AcDbCircle
 10
170.8528878480806
 20
41.44731842817092
 30
0.0
 40
3.000018428195508
100
AcDbArc
 50
156.8031462090415
 51
270.0002320831385
  0
LINE
  5
F06
330
1F
100
AcDbEntity
  8
0
  6
Continuous
 62
     7
100
AcDbLine
 10
174.1473
 20
38.44730000000004
 30
0.0
 11
170.8529
 21
38.44730000000004
 31
0.0
  0
ARC
  5
F07
330
1F
100
AcDbEntity
  8
0
  6
Continuous
 62
     7
100
AcDbCircle
 10
201.1843836306193
 20
28.4472792149158
 30
0.0
 40
66.39992349117794
100
AcDbArc
 50
123.7947015750232
 51
159.7605999045666
  0
ARC
  5
F08
330
1F
100
AcDbEntity
  8
0
  6
Continuous
 62
     7
100
AcDbCircle
 10
133.9357
 20
81.40889999999989
 30
0.0
 40
18.99996296443801
100
AcDbArc
 50
180.0
 51
226.8300654821909
  0
LINE
  5
F09
330
1F
100
AcDbEntity
  8
0
  6
Continuous
 62
     7
100
AcDbLine
 10
120.9359999999999
 20
67.55219999999986
 30
0.0
 11
138.8166
 21
52.17329999999993
 31
0.0
  0
ARC
  5
F0A
330
1F
100
AcDbEntity
  8
0
  6
Continuous
 62
     7
100
AcDbCircle
 10
138.4905094686257
 20
51.79416324101511
 30
0.0
 40
0.5000145083486375
100
AcDbArc
 50
339.5789509711092
 51
49.31029692825682
  0
ARC
  5
F0B
330
1F
100
AcDbEntity
  8
0
  6
Continuous
 62
     7
100
AcDbCircle
 10
201.1832395716066
 20
28.44416885743253
 30
0.0
 40
66.39998538719218
100
AcDbArc
 50
159.5718701206905
 51
159.7578510272517
  0
LINE
  5
F0C
330
1F
100
AcDbEntity
  8
0
  6
Continuous
 62
     7
100
AcDbLine
 10
139.5454
 20
50.89699999999993
 30
0.0
 11
138.8843
 21
51.41769999999997
 31
0.0
  0
CIRCLE
  5
F0D
330
1F
100
AcDbEntity
  8
0
  6
Continuous
 62
     7
100
AcDbCircle
 10
158.0510999999999
 20
71.5806
 30
0.0
 40
3.499969614153751
  0
CIRCLE
  5
F0E
330
1F
100
AcDbEntity
  8
0
  6
Continuous
 62
     7
100
AcDbCircle
 10
158.0509000000001
 20
71.58029999999985
 30
0.0
 40
2.00003684216065
  0
ARC
  5
F0F
330
1F
100
AcDbEntity
  8
0
  6
DASH_CENTER
 62
    30
100
AcDbCircle
 10
201.1840546180708
 20
28.44715303344246
 30
0.0
 40
60.99994390536148
100
AcDbArc
 50
127.1095409942076
 51
143.5115781911296
  0
LINE
  5
F10
330
1F
100
AcDbEntity
  8
0
  6
Continuous
 62
     7
100
AcDbLine
 10
145.6890999999999
 20
69.50219999999989
 30
0.0
 11
148.2632999999999
 21
72.77319999999986
 31
0.0
  0
LINE
  5
F11
330
1F
100
AcDbEntity
  8
0
  6
DASH_CENTER
 62
    30
100
AcDbLine
 10
145.0328
 20
72.66939999999999
 30
0.0
 11
151.3287
 21
67.71119999999996
 31
0.0
  0
LINE
  5
F12
330
1F
100
AcDbEntity
  8
0
  6
Continuous
 62
     7
100
AcDbLine
 10
157.0049999999999
 20
67.67679999999995
 30
0.0
 11
154.1389999999999
 21
70.53250000000002
 31
0.0
  0
LINE
  5
F13
330
1F
100
AcDbEntity
  8
0
  6
Continuous
 62
     7
100
AcDbLine
 10
161.963
 20
72.62889999999993
 30
0.0
 11
160.9088
 21
68.72289999999998
 31
0.0
  0
LINE
  5
F14
330
1F
100
AcDbEntity
  8
0
  6
DASH_CENTER
 62
    30
100
AcDbLine
 10
163.5494999999999
 20
66.08179999999993
 30
0.0
 11
151.454
 21
78.17750000000002
 31
0.0
  0
LINE
  5
F15
330
1F
100
AcDbEntity
  8
0
  6
Continuous
 62
     7
100
AcDbLine
 10
160.9088
 20
68.72289999999998
 30
0.0
 11
157.0049999999999
 21
67.67679999999995
 31
0.0
  0
ARC
  5
F16
330
1F
100
AcDbEntity
  8
0
  6
Continuous
 62
     7
100
AcDbCircle
 10
146.7107988473944
 20
68.69801532869067
 30
0.0
 40
1.299959526201995
100
AcDbArc
 50
141.8011897464288
 51
226.7990739594263
  0
LINE
  5
F17
330
1F
100
AcDbEntity
  8
0
  6
Continuous
 62
     7
100
AcDbLine
 10
146.8551000000001
 20
66.77929999999992
 30
0.0
 11
145.8208000000001
 21
67.75019999999995
 31
0.0
  0
LINE
  5
F18
330
1F
100
AcDbEntity
  8
0
  6
Continuous
 62
     7
100
AcDbLine
 10
148.3973999999999
 20
59.5127
 30
0.0
 11
145.5999999999999
 21
60.67139999999996
 31
0.0
  0
LINE
  5
F19
330
1F
100
AcDbEntity
  8
0
  6
Continuous
 62
     7
100
AcDbLine
 10
159.0971000000001
 20
75.48440000000005
 30
0.0
 11
161.963
 21
72.62889999999993
 31
0.0
  0
ARC
  5
F1A
330
1F
100
AcDbEntity
  8
0
  6
Continuous
 62
     7
100
AcDbCircle
 10
149.2849678402576
 20
71.96919473466315
 30
0.0
 40
1.300009738016609
100
AcDbArc
 50
56.80028247379998
 51
141.7961677753034
  0
LINE
  5
F1B
330
1F
100
AcDbEntity
  8
0
  6
Continuous
 62
     7
100
AcDbLine
 10
151.1840000000001
 20
72.28029999999991
 30
0.0
 11
149.9967
 21
73.05690000000004
 31
0.0
  0
CIRCLE
  5
F1C
330
1F
100
AcDbEntity
  8
0
  6
Continuous
 62
    30
100
AcDbCircle
 10
158.0509000000001
 20
71.58029999999985
 30
0.0
 40
1.650008315130335
  0
LINE
  5
F1D
330
1F
100
AcDbEntity
  8
0
  6
Continuous
 62
     7
100
AcDbLine
 10
154.1389999999999
 20
70.53250000000002
 30
0.0
 11
155.1933
 21
74.43820000000005
 31
0.0
  0
LINE
  5
F1E
330
1F
100
AcDbEntity
  8
0
  6
Continuous
 62
     7
100
AcDbLine
 10
155.1933
 20
74.43820000000005
 30
0.0
 11
159.0971000000001
 21
75.48440000000005
 31
0.0
  0
ARC
  5
F1F
330
1F
100
AcDbEntity
  8
0
  6
Continuous
 62
     7
100
AcDbCircle
 10
201.1785725422036
 20
28.44338681325637
 30
0.0
 40
66.39992634866159
100
AcDbArc
 50
123.7886663122047
 51
123.9747166721667
  0
ARC
  5
F20
330
1F
100
AcDbEntity
  8
0
  6
Continuous
 62
     7
100
AcDbCircle
 10
163.7929662984545
 20
83.92240051893885
 30
0.0
 40
0.4999767833249561
100
AcDbArc
 50
234.2563496608584
 51
303.9793003253774
  0
LINE
  5
F21
330
1F
100
AcDbEntity
  8
0
  6
Continuous
 62
     7
100
AcDbLine
 10
164.9127
 20
83.10719999999992
 30
0.0
 11
164.2514999999999
 21
83.62789999999995
 31
0.0
  0
LINE
  5
F22
330
1F
100
AcDbEntity
  8
0
  6
Continuous
 62
     7
100
AcDbLine
 10
170.1191
 20
81.23440000000005
 30
0.0
 11
168.9603999999999
 21
84.03199999999994
 31
0.0
  0
ARC
  5
F23
330
1F
100
AcDbEntity
  8
0
  6
Continuous
 62
     7
100
AcDbCircle
 10
201.1846044364666
 20
28.44727212242011
 30
0.0
 40
19.54997212348915
100
AcDbArc
 50
108.0851665081529
 51
269.9994008509758
  0
ARC
  5
F24
330
1F
100
AcDbEntity
  8
0
  6
Continuous
 62
     7
100
AcDbCircle
 10
201.1842955635331
 20
28.44727212242011
 30
0.0
 40
19.54997212348915
100
AcDbArc
 50
270.0005991490241
 51
71.91483349184702
  0
ARC
  5
F25
330
1F
100
AcDbEntity
  8
0
  6
Continuous
 62
     7
100
AcDbCircle
 10
201.1843043077019
 20
28.44729572455417
 30
0.0
 40
26.99995999580294
100
AcDbArc
 50
13.49321029153657
 51
76.93742959602904
  0
ARC
  5
F26
330
1F
100
AcDbEntity
  8
0
  6
Continuous
 62
     7
100
AcDbCircle
 10
201.1843084139303
 20
28.44729158597811
 30
0.0
 40
35.99999688284512
100
AcDbArc
 50
12.24643800743606
 51
77.75293795410128
  0
ARC
  5
F27
330
1F
100
AcDbEntity
  8
0
  6
Continuous
 62
     7
100
AcDbCircle
 10
201.1843
 20
28.44730000000003
 30
0.0
 40
17.25000000115942
100
AcDbArc
 50
270.0006642988931
 51
89.99933570110684
  0
CIRCLE
  5
F28
330
1F
100
AcDbEntity
  8
0
  6
Continuous
 62
     7
100
AcDbCircle
 10
201.1843999999999
 20
28.44730000000003
 30
0.0
 40
7.75
  0
CIRCLE
  5
F29
330
1F
100
AcDbEntity
  8
0
  6
Continuous
 62
     7
100
AcDbCircle
 10
201.1843999999999
 20
28.44730000000003
 30
0.0
 40
7.40000000000009
  0
CIRCLE
  5
F2A
330
1F
100
AcDbEntity
  8
0
  6
Continuous
 62
     7
100
AcDbCircle
 10
201.1843999999999
 20
28.44730000000003
 30
0.0
 40
7.0
  0
ARC
  5
F2B
330
1F
100
AcDbEntity
  8
0
  6
Continuous
 62
     7
100
AcDbCircle
 10
179.7484881311859
 20
21.44730861007177
 30
0.0
 40
2.999991389951767
100
AcDbArc
 50
18.08321870344554
 51
89.99977332169809
  0
ARC
  5
F2C
330
1F
100
AcDbEntity
  8
0
  6
Continuous
 62
     7
100
AcDbCircle
 10
201.1845999999999
 20
28.44730000000003
 30
0.0
 40
17.25000000115942
100
AcDbArc
 50
90.00066429889315
 51
269.9993357011068
  0
ARC
  5
F2D
330
1F
100
AcDbEntity
  8
0
  6
Continuous
 62
     7
100
AcDbCircle
 10
188.1845221919029
 20
1.41016470650722
 30
0.0
 40
2.999977808794898
100
AcDbArc
 50
359.9987641876026
 51
64.32309703489131
  0
ARC
  5
F2E
330
1F
100
AcDbEntity
  8
0
  6
Continuous
 62
     7
100
AcDbCircle
 10
194.1845086100716
 20
7.011188131185992
 30
0.0
 40
2.999991389951846
100
AcDbArc
 50
0.000226678299064
 51
71.91678129655477
  0
ARC
  5
F2F
330
1F
100
AcDbEntity
  8
0
  6
Continuous
 62
     7
100
AcDbCircle
 10
208.1843913899283
 20
7.01118813118602
 30
0.0
 40
2.999991389951885
100
AcDbArc
 50
108.0832187034486
 51
179.9997733217013
  0
ARC
  5
F30
330
1F
100
AcDbEntity
  8
0
  6
Continuous
 62
     7
100
AcDbCircle
 10
179.7484095255918
 20
35.44730690963635
 30
0.0
 40
3.00000691163561
100
AcDbArc
 50
269.9979082200985
 51
341.9145571828764
  0
LINE
  5
F31
330
1F
100
AcDbEntity
  8
0
  6
Continuous
 62
     7
100
AcDbLine
 10
197.5789
 20
34.44730000000004
 30
0.0
 11
204.79
 21
34.44730000000004
 31
0.0
  0
ARC
  5
F32
330
1F
100
AcDbEntity
  8
0
  6
Continuous
 62
     7
100
AcDbCircle
 10
222.6203904731556
 20
21.44729308921283
 30
0.0
 40
3.00000691080233
100
AcDbArc
 50
89.99981805109431
 51
161.914557154561
  0
ARC
  5
F33
330
1F
100
AcDbEntity
  8
0
  6
Continuous
 62
     7
100
AcDbCircle
 10
230.3563940979788
 20
21.44729534668562
 30
0.0
 40
3.000004653320228
100
AcDbArc
 50
89.9998872798719
 51
166.5065311094297
  0
ARC
  5
F34
330
1F
100
AcDbEntity
  8
0
  6
Continuous
 62
     7
100
AcDbCircle
 10
233.4333912559346
 20
21.44731084589801
 30
0.0
 40
2.999989154114754
100
AcDbArc
 50
347.7523426735108
 51
89.99983300005061
  0
ARC
  5
F35
330
1F
100
AcDbEntity
  8
0
  6
Continuous
 62
     7
100
AcDbCircle
 10
228.2213725027779
 20
15.44734558911172
 30
0.0
 40
2.999954411764444
100
AcDbArc
 50
90.00138472210062
 51
154.3212588560897
  0
ARC
  5
F36
330
1F
100
AcDbEntity
  8
0
  6
Continuous
 62
     7
100
AcDbCircle
 10
214.1843994733608
 20
1.4101991623961
 30
0.0
 40
2.999999474999799
100
AcDbArc
 50
115.679282280219
 51
180.0018938625916
  0
ARC
  5
F37
330
1F
100
AcDbEntity
  8
0
  6
Continuous
 62
     7
100
AcDbCircle
 10
231.515807822776
 20
15.44728813590069
 30
0.0
 40
3.000011864109569
100
AcDbArc
 50
336.7988003654586
 51
90.00014940342813
  0
LINE
  5
F38
330
1F
100
AcDbEntity
  8
0
  6
Continuous
 62
     7
100
AcDbLine
 10
228.2213
 20
18.44730000000003
 30
0.0
 11
231.5158
 21
18.44730000000003
 31
0.0
  0
ARC
  5
F39
330
1F
100
AcDbEntity
  8
0
  6
Continuous
 62
     7
100
AcDbCircle
 10
228.2215291694527
 20
41.44734453433333
 30
0.0
 40
3.000044535169426
100
AcDbArc
 50
205.6798233990914
 51
270.0013527437253
  0
LINE
  5
F3A
330
1F
100
AcDbEntity
  8
0
  6
Continuous
 62
     7
100
AcDbLine
 10
222.6206
 20
32.44730000000004
 30
0.0
 11
233.4335
 21
32.44730000000004
 31
0.0
  0
LINE
  5
F3B
330
1F
100
AcDbEntity
  8
0
  6
Continuous
 62
     7
100
AcDbLine
 10
222.6204
 20
24.44730000000003
 30
0.0
 11
233.4334
 21
24.44730000000003
 31
0.0
  0
ARC
  5
F3C
330
1F
100
AcDbEntity
  8
0
  6
Continuous
 62
     7
100
AcDbCircle
 10
222.6204904731556
 20
35.44730691078729
 30
0.0
 40
3.000006910802372
100
AcDbArc
 50
198.0854428454442
 51
270.0001819489073
  0
ARC
  5
F3D
330
1F
100
AcDbEntity
  8
0
  6
Continuous
 62
     7
100
AcDbCircle
 10
233.4334827047842
 20
35.44727854808031
 30
0.0
 40
2.999978548130118
100
AcDbArc
 50
270.0003303166515
 51
12.24595422833038
  0
ARC
  5
F3E
330
1F
100
AcDbEntity
  8
0
  6
Continuous
 62
     7
100
AcDbCircle
 10
230.3563940979788
 20
35.44730465331449
 30
0.0
 40
3.000004653320278
100
AcDbArc
 50
193.4934688905749
 51
270.000112720128
  0
ARC
  5
F3F
330
1F
100
AcDbEntity
  8
0
  6
Continuous
 62
     7
100
AcDbCircle
 10
231.5160121519193
 20
41.44731842817097
 30
0.0
 40
3.000018428195542
100
AcDbArc
 50
269.9997679168598
 51
23.19685379095751
  0
LINE
  5
F40
330
1F
100
AcDbEntity
  8
0
  6
Continuous
 62
     7
100
AcDbLine
 10
228.2216
 20
38.44730000000004
 30
0.0
 11
231.516
 21
38.44730000000004
 31
0.0
  0
ARC
  5
F41
330
1F
100
AcDbEntity
  8
0
  6
Continuous
 62
     7
100
AcDbCircle
 10
194.1843937891972
 20
71.88669270814777
 30
0.0
 40
3.000006210811631
100
AcDbArc
 50
279.1547619073919
 51
0.0001392638311991
  0
ARC
  5
F42
330
1F
100
AcDbEntity
  8
0
  6
Continuous
 62
     7
100
AcDbCircle
 10
208.1845062108027
 20
71.88669270814776
 30
0.0
 40
3.000006210811641
100
AcDbArc
 50
179.9998607361685
 51
260.8452380926063
  0
ARC
  5
F43
330
1F
100
AcDbEntity
  8
0
  6
Continuous
 62
     7
100
AcDbCircle
 10
188.1843804861937
 20
70.4828735387394
 30
0.0
 40
3.000019513923037
100
AcDbArc
 50
287.1857976884903
 51
0.0005053695630941
  0
LINE
  5
F44
330
1F
100
AcDbEntity
  8
0
  6
Continuous
 62
     7
100
AcDbLine
 10
197.1844
 20
60.69629999999985
 30
0.0
 11
197.1844
 21
78.96460000000002
 31
0.0
  0
LINE
  5
F45
330
1F
100
AcDbEntity
  8
0
  6
Continuous
 62
     7
100
AcDbLine
 10
205.1845
 20
60.69629999999985
 30
0.0
 11
205.1845
 21
78.96460000000002
 31
0.0
  0
LINE
  5
F46
330
1F
100
AcDbEntity
  8
0
  6
Continuous
 62
     7
100
AcDbLine
 10
191.1844
 20
55.48409999999989
 30
0.0
 11
191.1844
 21
58.77859999999987
 31
0.0
  0
ARC
  5
F47
330
1F
100
AcDbEntity
  8
0
  6
Continuous
 62
     7
100
AcDbCircle
 10
188.1843788588591
 20
55.48406637490285
 30
0.0
 40
3.000021141329265
100
AcDbArc
 50
295.6816616606457
 51
0.0006421875233233
  0
ARC
  5
F48
330
1F
100
AcDbEntity
  8
0
  6
Continuous
 62
     7
100
AcDbCircle
 10
188.1844078340238
 20
58.77859483420511
 30
0.0
 40
2.999992167475163
100
AcDbArc
 50
359.9981887953666
 51
113.1996922813391
  0
LINE
  5
F49
330
1F
100
AcDbEntity
  8
0
  6
Continuous
 62
     7
100
AcDbLine
 10
205.1845
 20
49.88310000000001
 30
0.0
 11
205.1845
 21
60.69629999999985
 31
0.0
  0
LINE
  5
F4A
330
1F
100
AcDbEntity
  8
0
  6
Continuous
 62
     7
100
AcDbLine
 10
197.1844
 20
49.88310000000001
 30
0.0
 11
197.1844
 21
60.69629999999985
 31
0.0
  0
ARC
  5
F4B
330
1F
100
AcDbEntity
  8
0
  6
Continuous
 62
     7
100
AcDbCircle
 10
201.1841248257705
 20
28.44732788089516
 30
0.0
 40
19.54997212270473
100
AcDbArc
 50
71.91430709739464
 51
89.99890046390946
  0
ARC
  5
F4C
330
1F
100
AcDbEntity
  8
0
  6
Continuous
 62
     7
100
AcDbCircle
 10
194.1843953466855
 20
57.61909409797864
 30
0.0
 40
3.000004653320246
100
AcDbArc
 50
283.4934688905745
 51
0.0001127201278939
  0
ARC
  5
F4D
330
1F
100
AcDbEntity
  8
0
  6
Continuous
 62
     7
100
AcDbCircle
 10
194.1843930892128
 20
49.88309047315564
 30
0.0
 40
3.000006910802337
100
AcDbArc
 50
288.0854428454366
 51
0.0001819489056942
  0
ARC
  5
F4E
330
1F
100
AcDbEntity
  8
0
  6
Continuous
 62
     7
100
AcDbCircle
 10
201.1847751742293
 20
28.44732788089516
 30
0.0
 40
19.54997212270473
100
AcDbArc
 50
90.00109953609053
 51
108.0856929026053
  0
ARC
  5
F4F
330
1F
100
AcDbEntity
  8
0
  6
Continuous
 62
     7
100
AcDbCircle
 10
208.1845069107872
 20
49.88309047315561
 30
0.0
 40
3.000006910802348
100
AcDbArc
 50
179.9998180510934
 51
251.9145571545599
  0
ARC
  5
F50
330
1F
100
AcDbEntity
  8
0
  6
Continuous
 62
     7
100
AcDbCircle
 10
208.1845046533143
 20
57.61909409797866
 30
0.0
 40
3.000004653320226
100
AcDbArc
 50
179.9998872798725
 51
256.5065311094271
  0
ARC
  5
F51
330
1F
100
AcDbEntity
  8
0
  6
Continuous
 62
     7
100
AcDbCircle
 10
194.184410845898
 20
60.69629125593451
 30
0.0
 40
2.999989154114738
100
AcDbArc
 50
0.0001669999500007
 51
102.2476573264865
  0
ARC
  5
F52
330
1F
100
AcDbEntity
  8
0
  6
Continuous
 62
     7
100
AcDbCircle
 10
208.1844891541019
 20
60.69629125593454
 30
0.0
 40
2.999989154114767
100
AcDbArc
 50
77.75234267351007
 51
179.9998330000502
  0
ARC
  5
F53
330
1F
100
AcDbEntity
  8
0
  6
Continuous
 62
     7
100
AcDbCircle
 10
188.1843785802396
 20
73.61351612438483
 30
0.0
 40
3.000021419803761
100
AcDbArc
 50
359.9996920491314
 51
106.0568429937815
  0
LINE
  5
F54
330
1F
100
AcDbEntity
  8
0
  6
Continuous
 62
     7
100
AcDbLine
 10
191.1844
 20
70.48289999999997
 30
0.0
 11
191.1844
 21
73.61349999999993
 31
0.0
  0
LINE
  5
F55
330
1F
100
AcDbEntity
  8
0
  6
Continuous
 62
     7
100
AcDbLine
 10
185.8251
 20
87.74000000000002
 30
0.0
 11
184.6663
 21
90.53739999999992
 31
0.0
  0
ARC
  5
F56
330
1F
100
AcDbEntity
  8
0
  6
Continuous
 62
     7
100
AcDbCircle
 10
194.1844011833341
 20
78.96459896934288
 30
0.0
 40
2.999998816665943
100
AcDbArc
 50
0.0000196841089148
 51
97.88973668700458
  0
ARC
  5
F57
330
1F
100
AcDbEntity
  8
0
  6
Continuous
 62
     7
100
AcDbCircle
 10
208.1844988166658
 20
78.96459896934288
 30
0.0
 40
2.999998816665953
100
AcDbArc
 50
82.11026331299379
 51
179.9999803158911
  0
ARC
  5
F58
330
1F
100
AcDbEntity
  8
0
  6
Continuous
 62
     7
100
AcDbCircle
 10
201.1843112239148
 20
28.44729922602571
 30
0.0
 40
54.0000007743043
100
AcDbArc
 50
82.11072986624403
 51
89.99979970235568
  0
ARC
  5
F59
330
1F
100
AcDbEntity
  8
0
  6
Continuous
 62
     7
100
AcDbCircle
 10
201.1846883060148
 20
28.44730608945376
 30
0.0
 40
53.99999391131591
100
AcDbArc
 50
90.00030590221635
 51
97.8892706392807
  0
ARC
  5
F5A
330
1F
100
AcDbEntity
  8
0
  6
Continuous
 62
     7
100
AcDbCircle
 10
214.1845195138063
 20
70.48287353873944
 30
0.0
 40
3.000019513923006
100
AcDbArc
 50
179.9994946304375
 51
252.814202311513
  0
LINE
  5
F5B
330
1F
100
AcDbEntity
  8
0
  6
Continuous
 62
     7
100
AcDbLine
 10
240.4058
 20
72.62889999999993
 30
0.0
 11
241.4601
 21
68.72289999999998
 31
0.0
  0
LINE
  5
F5C
330
1F
100
AcDbEntity
  8
0
  6
Continuous
 62
     7
100
AcDbLine
 10
211.1845
 20
55.48409999999989
 30
0.0
 11
211.1845
 21
58.77859999999987
 31
0.0
  0
ARC
  5
F5D
330
1F
100
AcDbEntity
  8
0
  6
Continuous
 62
     7
100
AcDbCircle
 10
214.1845211411408
 20
55.48406637490288
 30
0.0
 40
3.000021141329259
100
AcDbArc
 50
179.9993578124772
 51
244.3183383393559
  0
ARC
  5
F5E
330
1F
100
AcDbEntity
  8
0
  6
Continuous
 62
     7
100
AcDbCircle
 10
214.1844921659763
 20
58.77859483420511
 30
0.0
 40
2.999992167475196
100
AcDbArc
 50
66.80030771866078
 51
180.0018112046333
  0
ARC
  5
F5F
330
1F
100
AcDbEntity
  8
0
  6
Continuous
 62
     7
100
AcDbCircle
 10
201.1844777976622
 20
28.44722635422959
 30
0.0
 40
61.24995278008761
100
AcDbArc
 50
59.52309868366818
 51
75.47713927543291
  0
ARC
  5
F60
330
1F
100
AcDbEntity
  8
0
  6
Continuous
 62
     7
100
AcDbCircle
 10
201.1840384609225
 20
28.4474083347517
 30
0.0
 40
64.2499656036472
100
AcDbArc
 50
59.89740871061929
 51
75.10194853609099
  0
ARC
  5
F61
330
1F
100
AcDbEntity
  8
0
  6
Continuous
 62
     7
100
AcDbCircle
 10
214.1845214197604
 20
73.61351612438482
 30
0.0
 40
3.000021419803736
100
AcDbArc
 50
73.94315700622013
 51
180.0003079508683
  0
LINE
  5
F62
330
1F
100
AcDbEntity
  8
0
  6
Continuous
 62
     7
100
AcDbLine
 10
211.1845
 20
70.48289999999997
 30
0.0
 11
211.1845
 21
73.61349999999993
 31
0.0
  0
LINE
  5
F63
330
1F
100
AcDbEntity
  8
0
  6
Continuous
 62
     7
100
AcDbLine
 10
216.5437999999999
 20
87.74000000000002
 30
0.0
 11
217.7026
 21
90.53739999999992
 31
0.0
  0
LINE
  5
F64
330
1F
100
AcDbEntity
  8
0
  6
Continuous
 62
     7
100
AcDbLine
 10
231.22
 20
86.76729999999997
 30
0.0
 11
231.9619
 21
87.50919999999997
 31
0.0
  0
LINE
  5
F65
330
1F
100
AcDbEntity
  8
0
  6
Continuous
 62
     7
100
AcDbLine
 10
232.2496999999999
 20
81.23440000000005
 30
0.0
 11
233.4085
 21
84.03199999999994
 31
0.0
  0
ARC
  5
F69
330
1F
100
AcDbEntity
  8
0
  6
Continuous
 62
     7
100
AcDbCircle
 10
133.9357966764141
 20
81.40886650259112
 30
0.0
 40
18.99999646209284
100
AcDbArc
 50
51.77833138602918
 51
90.00029153429048
  0
ARC
  5
F79
330
1F
100
AcDbEntity
  8
0
  6
Continuous
 62
     7
100
AcDbCircle
 10
201.1843951823849
 20
28.44707021157817
 30
0.0
 40
61.24996328417777
100
AcDbArc
 50
14.52315540537434
 51
30.47722939091556
  0
ARC
  5
F7A
330
1F
100
AcDbEntity
  8
0
  6
Continuous
 62
     7
100
AcDbCircle
 10
201.1843185630283
 20
28.44725518490736
 30
0.0
 40
64.24997092880783
100
AcDbArc
 50
14.89775793321317
 51
30.10226206188294
  0
ARC
  5
F7B
330
1F
100
AcDbEntity
  8
0
  6
Continuous
 62
     7
100
AcDbCircle
 10
251.7016989693429
 20
21.44730118333418
 30
0.0
 40
2.999998816666036
100
AcDbArc
 50
352.1102633129945
 51
89.99998031589333
  0
ARC
  5
F7C
330
1F
100
AcDbEntity
  8
0
  6
Continuous
 62
     7
100
AcDbCircle
 10
246.3507265349701
 20
15.44726474981558
 30
0.0
 40
3.000035250301818
100
AcDbArc
 50
343.941520517013
 51
90.00050677464278
  0
LINE
  5
F7D
330
1F
100
AcDbEntity
  8
0
  6
Continuous
 62
     7
100
AcDbLine
 10
243.22
 20
18.44730000000003
 30
0.0
 11
246.3507
 21
18.44730000000003
 31
0.0
  0
LINE
  5
F7E
330
1F
100
AcDbEntity
  8
0
  6
Continuous
 62
     7
100
AcDbLine
 10
260.4770999999999
 20
13.08759999999984
 30
0.0
 11
263.2745000000001
 21
11.92899999999986
 31
0.0
  0
ARC
  5
F7F
330
1F
100
AcDbEntity
  8
0
  6
Continuous
 62
     7
100
AcDbCircle
 10
251.701792992024
 20
35.44729195412879
 30
0.0
 40
2.999991954136937
100
AcDbArc
 50
270.000133842838
 51
7.887959055478346
  0
LINE
  5
F80
330
1F
100
AcDbEntity
  8
0
  6
Continuous
 62
     7
100
AcDbLine
 10
244.6241
 20
32.44730000000004
 30
0.0
 11
251.7017999999999
 21
32.44730000000004
 31
0.0
  0
ARC
  5
F81
330
1F
100
AcDbEntity
  8
0
  6
Continuous
 62
     7
100
AcDbCircle
 10
246.3508695433601
 20
41.44725954081191
 30
0.0
 40
2.999959540966468
100
AcDbArc
 50
270.0005816868169
 51
16.05642551845185
  0
LINE
  5
F82
330
1F
100
AcDbEntity
  8
0
  6
Continuous
 62
     7
100
AcDbLine
 10
243.2202
 20
38.44730000000004
 30
0.0
 11
246.3509
 21
38.44730000000004
 31
0.0
  0
LINE
  5
F83
330
1F
100
AcDbEntity
  8
0
  6
Continuous
 62
     7
100
AcDbLine
 10
260.477
 20
43.80690000000003
 30
0.0
 11
263.2745000000001
 21
44.96559999999998
 31
0.0
  0
LINE
  5
F85
330
1F
100
AcDbEntity
  8
0
  6
Continuous
 62
     7
100
AcDbLine
 10
245.3638
 20
67.67679999999995
 30
0.0
 11
248.2298
 21
70.53250000000002
 31
0.0
  0
LINE
  5
F86
330
1F
100
AcDbEntity
  8
0
  6
Continuous
 62
     7
100
AcDbLine
 10
253.9715
 20
59.5127
 30
0.0
 11
256.7689
 21
60.67139999999996
 31
0.0
  0
LINE
  5
F87
330
1F
100
AcDbEntity
  8
0
  6
Continuous
 62
     7
100
AcDbLine
 10
260.2461999999999
 20
59.22489999999993
 30
0.0
 11
259.5042999999999
 21
58.48299999999995
 31
0.0
  0
CIRCLE
  5
F89
330
1F
100
AcDbEntity
  8
0
  6
Continuous
 62
    30
100
AcDbCircle
 10
244.3176999999999
 20
71.5806
 30
0.0
 40
1.650034196615376
  0
LINE
  5
F8A
330
1F
100
AcDbEntity
  8
0
  6
Continuous
 62
     7
100
AcDbLine
 10
247.1756
 20
74.43820000000005
 30
0.0
 11
243.2718
 21
75.48440000000005
 31
0.0
  0
LINE
  5
F8B
330
1F
100
AcDbEntity
  8
0
  6
Continuous
 62
     7
100
AcDbLine
 10
248.2298
 20
70.53250000000002
 30
0.0
 11
247.1756
 21
74.43820000000005
 31
0.0
  0
MTEXT
  5
F98
330
1F
100
AcDbEntity
  8
0
100
AcDbMText
 10
-63.68686626453308
 20
-119.3044979289375
 30
0.0
 40
8.0
 41
132.4410339260024
 71
     1
 72
     1
  1
AEC-DBF 4P 0.25kW
 73
     1
 44
1.0
  0
VIEWPORT
  5
71
330
55
100
AcDbEntity
 67
     1
  8
0
100
AcDbViewport
 10
133.3499908447265
 20
101.5999970436096
 30
0.0
 40
381.3957395593834
 41
218.2856291881582
 68
     1
 69
     1
 12
133.3499908447265
 22
101.5999970436096
 13
0.0
 23
0.0
 14
10.0
 24
10.0
 15
10.0
 25
10.0
 16
0.0
 26
0.0
 36
1.0
 17
0.0
 27
0.0
 37
0.0
 42
50.0
 43
0.0
 44
0.0
 45
218.2856291881582
 50
0.0
 51
0.0
 72
   100
 90
    32800
  1

281
     0
 71
     1
 74
     0
110
0.0
120
0.0
130
0.0
111
1.0
121
0.0
131
0.0
112
0.0
122
1.0
132
0.0
 79
     0
146
0.0
  0
VIEWPORT
  5
73
330
55
100
AcDbEntity
 67
     1
  8
0
100
AcDbViewport
 10
133.349993944168
 20
101.599993944168
 30
0.0
 40
213.3599903106689
 41
162.5599903106689
 68
     2
 69
     2
 12
210.0
 22
148.5
 13
0.0
 23
0.0
 14
10.0
 24
10.0
 15
10.0
 25
10.0
 16
0.0
 26
0.0
 36
1.0
 17
0.0
 27
0.0
 37
0.0
 42
50.0
 43
0.0
 44
0.0
 45
324.0677920111345
 50
0.0
 51
0.0
 72
   100
 90
    32864
  1

281
     0
 71
     1
 74
     0
110
0.0
120
0.0
130
0.0
111
1.0
121
0.0
131
0.0
112
0.0
122
1.0
132
0.0
 79
     0
146
0.0
  0
ENDSEC
  0
SECTION
  2
OBJECTS
  0
DICTIONARY
  5
C
330
0
100
AcDbDictionary
281
     1
  3
ACAD_GROUP
350
D
  3
ACAD_LAYOUT
350
1A
  3
ACAD_MLINESTYLE
350
17
  3
ACAD_PLOTSETTINGS
350
19
  3
ACAD_PLOTSTYLENAME
350
E
  3
AcDbVariableDictionary
350
5E
  0
DICTIONARY
  5
D
102
{ACAD_REACTORS
330
C
102
}
330
C
100
AcDbDictionary
281
     1
  0
DICTIONARY
  5
1A
102
{ACAD_REACTORS
330
C
102
}
330
C
100
AcDbDictionary
281
     1
  3
Model
350
22
  3
ﾚｲｱｳﾄ1
350
51
  3
ﾚｲｱｳﾄ2
350
56
  0
DICTIONARY
  5
17
102
{ACAD_REACTORS
330
C
102
}
330
C
100
AcDbDictionary
281
     1
  3
Standard
350
18
  0
DICTIONARY
  5
19
102
{ACAD_REACTORS
330
C
102
}
330
C
100
AcDbDictionary
281
     1
  0
ACDBDICTIONARYWDFLT
  5
E
102
{ACAD_REACTORS
330
C
102
}
330
C
100
AcDbDictionary
281
     1
  3
Normal
350
F
100
AcDbDictionaryWithDefault
340
F
  0
DICTIONARY
  5
5E
102
{ACAD_REACTORS
330
C
102
}
330
C
100
AcDbDictionary
281
     1
  3
DIMASSOC
350
5F
  3
HIDETEXT
350
63
  0
LAYOUT
  5
22
102
{ACAD_REACTORS
330
1A
102
}
330
1A
100
AcDbPlotSettings
  1

  2
none_device
  4
ANSI_A_(8.50_x_11.00_Inches)
  6

 40
6.349999904632568
 41
19.04999923706054
 42
6.350006103515625
 43
19.04998779296875
 44
215.8999938964843
 45
279.3999938964843
 46
0.0
 47
0.0
 48
0.0
 49
0.0
140
0.0
141
0.0
142
1.0
143
78.436453180766
 70
 11952
 72
     0
 73
     1
 74
     0
  7

 75
     0
147
0.0127491741332998
148
0.0
149
0.0
100
AcDbLayout
  1
Model
 70
     1
 71
     0
 10
0.0
 20
0.0
 11
12.0
 21
9.0
 12
0.0
 22
0.0
 32
0.0
 14
0.0
 24
0.0
 34
0.0
 15
0.0
 25
0.0
 35
0.0
146
0.0
 13
0.0
 23
0.0
 33
0.0
 16
1.0
 26
0.0
 36
0.0
 17
0.0
 27
1.0
 37
0.0
 76
     0
330
1F
  0
LAYOUT
  5
51
102
{ACAD_REACTORS
330
1A
102
}
330
1A
100
AcDbPlotSettings
  1

  2
none_device
  4
Letter_(8.50_x_11.00_Inches)
  6

 40
6.349999904632568
 41
6.349999904632568
 42
6.350006103515625
 43
6.350006103515625
 44
215.8999938964843
 45
279.3999938964843
 46
0.0
 47
0.0
 48
0.0
 49
0.0
140
0.0
141
0.0
142
1.0
143
1.0
 70
   688
 72
     1
 73
     1
 74
     5
  7

 75
    16
147
1.0
148
0.0
149
0.0
100
AcDbLayout
  1
ﾚｲｱｳﾄ1
 70
     1
 71
     1
 10
-6.350006103515625
 20
-6.349999904632568
 11
273.0499877929687
 21
209.5499939918517
 12
0.0
 22
0.0
 32
0.0
 14
26.66076962115562
 24
20.31135699206657
 34
-0.0015258207003583
 15
240.039213369355
 25
182.8886381005154
 35
0.0000000349246037
146
0.0
 13
0.0
 23
0.0
 33
0.0
 16
1.0
 26
0.0
 36
0.0
 17
0.0
 27
1.0
 37
0.0
 76
     0
330
50
331
6B
  0
LAYOUT
  5
56
102
{ACAD_REACTORS
330
1A
102
}
330
1A
100
AcDbPlotSettings
  1

  2
none_device
  4
Letter_(8.50_x_11.00_Inches)
  6

 40
6.349999904632568
 41
6.349999904632568
 42
6.350006103515625
 43
6.350006103515625
 44
215.8999938964843
 45
279.3999938964843
 46
0.0
 47
0.0
 48
0.0
 49
0.0
140
0.0
141
0.0
142
1.0
143
1.0
 70
   688
 72
     1
 73
     1
 74
     5
  7

 75
    16
147
1.0
148
0.0
149
0.0
100
AcDbLayout
  1
ﾚｲｱｳﾄ2
 70
     1
 71
     2
 10
-6.350006103515625
 20
-6.349999904632568
 11
273.0499877929687
 21
209.5499939918517
 12
0.0
 22
0.0
 32
0.0
 14
26.66076962115562
 24
20.31135699206657
 34
-0.0015258207003583
 15
240.039213369355
 25
182.8886381005154
 35
0.0000000349246037
146
0.0
 13
0.0
 23
0.0
 33
0.0
 16
1.0
 26
0.0
 36
0.0
 17
0.0
 27
1.0
 37
0.0
 76
     0
330
55
331
71
  0
MLINESTYLE
  5
18
102
{ACAD_REACTORS
330
17
102
}
330
17
100
AcDbMlineStyle
  2
STANDARD
 70
     0
  3

 62
   256
 51
90.0
 52
90.0
 71
     2
 49
0.5
 62
   256
  6
BYLAYER
 49
-0.5
 62
   256
  6
BYLAYER
  0
ACDBPLACEHOLDER
  5
F
102
{ACAD_REACTORS
330
E
102
}
330
E
  0
DICTIONARYVAR
  5
5F
102
{ACAD_REACTORS
330
5E
102
}
330
5E
100
DictionaryVariables
280
     0
  1
2
  0
DICTIONARYVAR
  5
63
102
{ACAD_REACTORS
330
5E
102
}
330
5E
100
DictionaryVariables
280
     0
  1
1
  0
ENDSEC
  0
EOF
