  0
SECTION
  2
HEADER
  9
$ACADVER
  1
AC1015
  9
$ACADMAINTVER
 70
    14
  9
$DWGCODEPAGE
  3
ANSI_932
  9
$INSBASE
 10
0.0
 20
0.0
 30
0.0
  9
$EXTMIN
 10
-304.3447164526931
 20
-165.335869937574
 30
0.0
  9
$EXTMAX
 10
302.5485883931441
 20
109.5399
 30
0.0
  9
$LIMMIN
 10
0.0
 20
0.0
  9
$LIMMAX
 10
420.0
 20
297.0
  9
$ORTHOMODE
 70
     0
  9
$REGENMODE
 70
     1
  9
$FILLMODE
 70
     1
  9
$QTEXTMODE
 70
     0
  9
$MIRRTEXT
 70
     1
  9
$LTSCALE
 40
1.0
  9
$ATTMODE
 70
     1
  9
$TEXTSIZE
 40
2.5
  9
$TRACEWID
 40
1.0
  9
$TEXTSTYLE
  7
Standard
  9
$CLAYER
  8
0
  9
$CELTYPE
  6
ByLayer
  9
$CECOLOR
 62
   256
  9
$CELTSCALE
 40
1.0
  9
$DISPSILH
 70
     0
  9
$DIMSCALE
 40
1.0
  9
$DIMASZ
 40
2.5
  9
$DIMEXO
 40
0.625
  9
$DIMDLI
 40
3.75
  9
$DIMRND
 40
0.0
  9
$DIMDLE
 40
0.0
  9
$DIMEXE
 40
1.25
  9
$DIMTP
 40
0.0
  9
$DIMTM
 40
0.0
  9
$DIMTXT
 40
2.5
  9
$DIMCEN
 40
2.5
  9
$DIMTSZ
 40
0.0
  9
$DIMTOL
 70
     0
  9
$DIMLIM
 70
     0
  9
$DIMTIH
 70
     0
  9
$DIMTOH
 70
     0
  9
$DIMSE1
 70
     0
  9
$DIMSE2
 70
     0
  9
$DIMTAD
 70
     1
  9
$DIMZIN
 70
     8
  9
$DIMBLK
  1

  9
$DIMASO
 70
     1
  9
$DIMSHO
 70
     1
  9
$DIMPOST
  1

  9
$DIMAPOST
  1

  9
$DIMALT
 70
     0
  9
$DIMALTD
 70
     3
  9
$DIMALTF
 40
0.03937007874016
  9
$DIMLFAC
 40
1.0
  9
$DIMTOFL
 70
     1
  9
$DIMTVP
 40
0.0
  9
$DIMTIX
 70
     0
  9
$DIMSOXD
 70
     0
  9
$DIMSAH
 70
     0
  9
$DIMBLK1
  1

  9
$DIMBLK2
  1

  9
$DIMSTYLE
  2
ISO-25
  9
$DIMCLRD
 70
     0
  9
$DIMCLRE
 70
     0
  9
$DIMCLRT
 70
     0
  9
$DIMTFAC
 40
1.0
  9
$DIMGAP
 40
0.625
  9
$DIMJUST
 70
     0
  9
$DIMSD1
 70
     0
  9
$DIMSD2
 70
     0
  9
$DIMTOLJ
 70
     0
  9
$DIMTZIN
 70
     8
  9
$DIMALTZ
 70
     0
  9
$DIMALTTZ
 70
     0
  9
$DIMUPT
 70
     0
  9
$DIMDEC
 70
     2
  9
$DIMTDEC
 70
     2
  9
$DIMALTU
 70
     2
  9
$DIMALTTD
 70
     3
  9
$DIMTXSTY
  7
Standard
  9
$DIMAUNIT
 70
     0
  9
$DIMADEC
 70
     0
  9
$DIMALTRND
 40
0.0
  9
$DIMAZIN
 70
     0
  9
$DIMDSEP
 70
    44
  9
$DIMATFIT
 70
     3
  9
$DIMFRAC
 70
     0
  9
$DIMLDRBLK
  1

  9
$DIMLUNIT
 70
     2
  9
$DIMLWD
 70
    -2
  9
$DIMLWE
 70
    -2
  9
$DIMTMOVE
 70
     0
  9
$LUNITS
 70
     2
  9
$LUPREC
 70
     4
  9
$SKETCHINC
 40
1.0
  9
$FILLETRAD
 40
10.0
  9
$AUNITS
 70
     0
  9
$AUPREC
 70
     0
  9
$MENU
  1
.
  9
$ELEVATION
 40
0.0
  9
$PELEVATION
 40
0.0
  9
$THICKNESS
 40
0.0
  9
$LIMCHECK
 70
     0
  9
$CHAMFERA
 40
10.0
  9
$CHAMFERB
 40
10.0
  9
$CHAMFERC
 40
20.0
  9
$CHAMFERD
 40
0.0
  9
$SKPOLY
 70
     0
  9
$TDCREATE
 40
2456037.678890336
  9
$TDUCREATE
 40
2456037.303890335
  9
$TDUPDATE
 40
2456037.684745000
  9
$TDUUPDATE
 40
2456037.309745000
  9
$TDINDWG
 40
0.0023672569
  9
$TDUSRTIMER
 40
0.0023670718
  9
$USRTIMER
 70
     1
  9
$ANGBASE
 50
0.0
  9
$ANGDIR
 70
     0
  9
$PDMODE
 70
     0
  9
$PDSIZE
 40
0.0
  9
$PLINEWID
 40
0.0
  9
$SPLFRAME
 70
     0
  9
$SPLINETYPE
 70
     6
  9
$SPLINESEGS
 70
     8
  9
$HANDSEED
  5
92E
  9
$SURFTAB1
 70
     6
  9
$SURFTAB2
 70
     6
  9
$SURFTYPE
 70
     6
  9
$SURFU
 70
     6
  9
$SURFV
 70
     6
  9
$UCSBASE
  2

  9
$UCSNAME
  2

  9
$UCSORG
 10
0.0
 20
0.0
 30
0.0
  9
$UCSXDIR
 10
1.0
 20
0.0
 30
0.0
  9
$UCSYDIR
 10
0.0
 20
1.0
 30
0.0
  9
$UCSORTHOREF
  2

  9
$UCSORTHOVIEW
 70
     0
  9
$UCSORGTOP
 10
0.0
 20
0.0
 30
0.0
  9
$UCSORGBOTTOM
 10
0.0
 20
0.0
 30
0.0
  9
$UCSORGLEFT
 10
0.0
 20
0.0
 30
0.0
  9
$UCSORGRIGHT
 10
0.0
 20
0.0
 30
0.0
  9
$UCSORGFRONT
 10
0.0
 20
0.0
 30
0.0
  9
$UCSORGBACK
 10
0.0
 20
0.0
 30
0.0
  9
$PUCSBASE
  2

  9
$PUCSNAME
  2

  9
$PUCSORG
 10
0.0
 20
0.0
 30
0.0
  9
$PUCSXDIR
 10
1.0
 20
0.0
 30
0.0
  9
$PUCSYDIR
 10
0.0
 20
1.0
 30
0.0
  9
$PUCSORTHOREF
  2

  9
$PUCSORTHOVIEW
 70
     0
  9
$PUCSORGTOP
 10
0.0
 20
0.0
 30
0.0
  9
$PUCSORGBOTTOM
 10
0.0
 20
0.0
 30
0.0
  9
$PUCSORGLEFT
 10
0.0
 20
0.0
 30
0.0
  9
$PUCSORGRIGHT
 10
0.0
 20
0.0
 30
0.0
  9
$PUCSORGFRONT
 10
0.0
 20
0.0
 30
0.0
  9
$PUCSORGBACK
 10
0.0
 20
0.0
 30
0.0
  9
$USERI1
 70
     0
  9
$USERI2
 70
     0
  9
$USERI3
 70
     0
  9
$USERI4
 70
     0
  9
$USERI5
 70
     0
  9
$USERR1
 40
0.0
  9
$USERR2
 40
0.0
  9
$USERR3
 40
0.0
  9
$USERR4
 40
0.0
  9
$USERR5
 40
0.0
  9
$WORLDVIEW
 70
     1
  9
$SHADEDGE
 70
     3
  9
$SHADEDIF
 70
    70
  9
$TILEMODE
 70
     1
  9
$MAXACTVP
 70
    64
  9
$PINSBASE
 10
0.0
 20
0.0
 30
0.0
  9
$PLIMCHECK
 70
     0
  9
$PEXTMIN
 10
26.66076962115562
 20
20.31135699206657
 30
-0.0015258207003583
  9
$PEXTMAX
 10
240.039213369355
 20
182.8886381005154
 30
0.0000000349246037
  9
$PLIMMIN
 10
-6.350006103515625
 20
-6.349999904632567
  9
$PLIMMAX
 10
273.0499877929687
 20
209.5499939918517
  9
$UNITMODE
 70
     0
  9
$VISRETAIN
 70
     1
  9
$PLINEGEN
 70
     0
  9
$PSLTSCALE
 70
     1
  9
$TREEDEPTH
 70
  3020
  9
$CMLSTYLE
  2
Standard
  9
$CMLJUST
 70
     0
  9
$CMLSCALE
 40
20.0
  9
$PROXYGRAPHICS
 70
     1
  9
$MEASUREMENT
 70
     1
  9
$CELWEIGHT
370
    -1
  9
$ENDCAPS
280
     0
  9
$JOINSTYLE
280
     0
  9
$LWDISPLAY
290
     0
  9
$INSUNITS
 70
     4
  9
$HYPERLINKBASE
  1

  9
$STYLESHEET
  1

  9
$XEDIT
290
     1
  9
$CEPSNTYPE
380
     0
  9
$PSTYLEMODE
290
     1
  9
$FINGERPRINTGUID
  2
{FDEAD578-A652-11D2-9A35-0060089B3A3F}
  9
$VERSIONGUID
  2
{6C2D13EC-E181-4578-8540-D9E72A88AAF3}
  9
$EXTNAMES
290
     1
  9
$PSVPSCALE
 40
0.0
  9
$OLESTARTUP
290
     0
  0
ENDSEC
  0
SECTION
  2
CLASSES
  0
CLASS
  1
ACDBDICTIONARYWDFLT
  2
AcDbDictionaryWithDefault
  3
AutoCAD 2000
 90
        0
280
     0
281
     0
  0
CLASS
  1
ACDBPLACEHOLDER
  2
AcDbPlaceHolder
  3
AutoCAD 2000
 90
        0
280
     0
281
     0
  0
CLASS
  1
LAYOUT
  2
AcDbLayout
  3
AutoCAD 2000
 90
        0
280
     0
281
     0
  0
CLASS
  1
DICTIONARYVAR
  2
AcDbDictionaryVar
  3
AutoCAD 2000
 90
        0
280
     0
281
     0
  0
ENDSEC
  0
SECTION
  2
TABLES
  0
TABLE
  2
VPORT
  5
8
330
0
100
AcDbSymbolTable
 70
     2
  0
VPORT
  5
92D
330
8
100
AcDbSymbolTableRecord
100
AcDbViewportTableRecord
  2
*Active
 70
     0
 10
0.0
 20
0.0
 11
1.0
 21
1.0
 12
12.47384358980571
 22
-27.90266369842305
 13
0.0
 23
0.0
 14
10.0
 24
10.0
 15
10.0
 25
10.0
 16
0.0
 26
0.0
 36
1.0
 17
0.0
 27
0.0
 37
0.0
 40
309.1589584413276
 41
2.056994818652849
 42
50.0
 43
0.0
 44
0.0
 50
0.0
 51
0.0
 71
     0
 72
   100
 73
     1
 74
     3
 75
     0
 76
     0
 77
     0
 78
     0
281
     0
 65
     1
110
0.0
120
0.0
130
0.0
111
1.0
121
0.0
131
0.0
112
0.0
122
1.0
132
0.0
 79
     0
146
0.0
  0
ENDTAB
  0
TABLE
  2
LTYPE
  5
5
330
0
100
AcDbSymbolTable
 70
     4
  0
LTYPE
  5
14
330
5
100
AcDbSymbolTableRecord
100
AcDbLinetypeTableRecord
  2
ByBlock
 70
     0
  3

 72
    65
 73
     0
 40
0.0
  0
LTYPE
  5
15
330
5
100
AcDbSymbolTableRecord
100
AcDbLinetypeTableRecord
  2
ByLayer
 70
     0
  3

 72
    65
 73
     0
 40
0.0
  0
LTYPE
  5
16
330
5
100
AcDbSymbolTableRecord
100
AcDbLinetypeTableRecord
  2
Continuous
 70
     0
  3
Solid line
 72
    65
 73
     0
 40
0.0
  0
LTYPE
  5
86
330
5
100
AcDbSymbolTableRecord
100
AcDbLinetypeTableRecord
  2
DASH_CENTER
 70
     0
  3
Dash_Center
 72
    65
 73
     4
 40
14.0
 49
11.0
 74
     0
 49
-1.0
 74
     0
 49
1.0
 74
     0
 49
-1.0
 74
     0
  0
LTYPE
  5
87
330
5
100
AcDbSymbolTableRecord
100
AcDbLinetypeTableRecord
  2
PHANTOM
 70
     0
  3
Phantom
 72
    65
 73
     6
 40
13.0
 49
10.0
 74
     0
 49
-1.0
 74
     0
 49
0.0
 74
     0
 49
-1.0
 74
     0
 49
0.0
 74
     0
 49
-1.0
 74
     0
  0
LTYPE
  5
88
330
5
100
AcDbSymbolTableRecord
100
AcDbLinetypeTableRecord
  2
DASHED
 70
     0
  3
Dashed
 72
    65
 73
     2
 40
15.0
 49
7.0
 74
     0
 49
-8.0
 74
     0
  0
ENDTAB
  0
TABLE
  2
LAYER
  5
2
330
0
100
AcDbSymbolTable
 70
     1
  0
LAYER
  5
10
330
2
100
AcDbSymbolTableRecord
100
AcDbLayerTableRecord
  2
0
 70
     0
 62
     7
  6
Continuous
370
    -3
390
F
  0
ENDTAB
  0
TABLE
  2
STYLE
  5
3
330
0
100
AcDbSymbolTable
 70
     9
  0
STYLE
  5
11
330
3
100
AcDbSymbolTableRecord
100
AcDbTextStyleTableRecord
  2
Standard
 70
     0
 40
0.0
 41
1.0
 50
0.0
 71
     0
 42
2.5
  3
txt
  4

  0
STYLE
  5
89
330
3
100
AcDbSymbolTableRecord
100
AcDbTextStyleTableRecord
  2
CONVERTER_1
 70
     0
 40
0.0
 41
0.7565
 50
0.0
 71
     0
 42
0.2
  3
txt.shx
  4
bigfont.shx
  0
STYLE
  5
8A
330
3
100
AcDbSymbolTableRecord
100
AcDbTextStyleTableRecord
  2
CONVERTER_2
 70
     0
 40
0.0
 41
0.89
 50
0.0
 71
     0
 42
0.2
  3
txt.shx
  4
bigfont.shx
  0
STYLE
  5
8B
330
3
100
AcDbSymbolTableRecord
100
AcDbTextStyleTableRecord
  2
CONVERTER_3
 70
     0
 40
0.0
 41
0.73425
 50
0.0
 71
     0
 42
0.2
  3
txt.shx
  4

  0
STYLE
  5
8C
330
3
100
AcDbSymbolTableRecord
100
AcDbTextStyleTableRecord
  2
CONVERTER_4
 70
     0
 40
0.0
 41
0.7120000000000001
 50
0.0
 71
     0
 42
0.2
  3
txt.shx
  4

  0
STYLE
  5
8D
330
3
100
AcDbSymbolTableRecord
100
AcDbTextStyleTableRecord
  2
CONVERTER_7
 70
     0
 40
0.0
 41
0.834375
 50
0.0
 71
     0
 42
0.2
  3
txt.shx
  4
bigfont.shx
  0
STYLE
  5
8E
330
3
100
AcDbSymbolTableRecord
100
AcDbTextStyleTableRecord
  2
CONVERTER_12
 70
     0
 40
0.0
 41
0.8009999999999999
 50
0.0
 71
     0
 42
0.2
  3
txt.shx
  4

  0
STYLE
  5
8F
330
3
100
AcDbSymbolTableRecord
100
AcDbTextStyleTableRecord
  2
社名
 70
     0
 40
2.5
 41
0.8
 50
0.0
 71
     0
 42
2.5
  3

  4

1001
ACAD
1000
Swis721 Blk BT
1071
       34
  0
STYLE
  5
90
330
3
100
AcDbSymbolTableRecord
100
AcDbTextStyleTableRecord
  2
CONVERTER_5
 70
     0
 40
0.0
 41
0.8523943661971799
 50
0.0
 71
     0
 42
0.2
  3
txt.shx
  4
bigfont.shx
  0
ENDTAB
  0
TABLE
  2
VIEW
  5
6
330
0
100
AcDbSymbolTable
 70
     0
  0
ENDTAB
  0
TABLE
  2
UCS
  5
7
330
0
100
AcDbSymbolTable
 70
     0
  0
ENDTAB
  0
TABLE
  2
APPID
  5
9
330
0
100
AcDbSymbolTable
 70
     2
  0
APPID
  5
12
330
9
100
AcDbSymbolTableRecord
100
AcDbRegAppTableRecord
  2
ACAD
 70
     0
  0
APPID
  5
92
330
9
100
AcDbSymbolTableRecord
100
AcDbRegAppTableRecord
  2
ACAD_PSEXT
 70
     0
  0
ENDTAB
  0
TABLE
  2
DIMSTYLE
  5
A
330
0
100
AcDbSymbolTable
 70
     2
100
AcDbDimStyleTable
 71
     0
  0
DIMSTYLE
105
27
330
A
100
AcDbSymbolTableRecord
100
AcDbDimStyleTableRecord
  2
ISO-25
 70
     0
 41
2.5
 42
0.625
 43
3.75
 44
1.25
 73
     0
 74
     0
 77
     1
 78
     8
140
2.5
141
2.5
143
0.03937007874016
147
0.625
171
     3
172
     1
271
     2
272
     2
274
     3
278
    44
283
     0
284
     8
340
11
  0
DIMSTYLE
105
91
330
A
100
AcDbSymbolTableRecord
100
AcDbDimStyleTableRecord
  2
Standard
 70
     0
340
11
  0
ENDTAB
  0
TABLE
  2
BLOCK_RECORD
  5
1
330
0
100
AcDbSymbolTable
 70
     1
  0
BLOCK_RECORD
  5
1F
330
1
100
AcDbSymbolTableRecord
100
AcDbBlockTableRecord
  2
*Model_Space
340
22
  0
BLOCK_RECORD
  5
55
330
1
100
AcDbSymbolTableRecord
100
AcDbBlockTableRecord
  2
*Paper_Space
340
56
  0
BLOCK_RECORD
  5
50
330
1
100
AcDbSymbolTableRecord
100
AcDbBlockTableRecord
  2
*Paper_Space0
340
51
  0
ENDTAB
  0
ENDSEC
  0
SECTION
  2
BLOCKS
  0
BLOCK
  5
20
330
1F
100
AcDbEntity
  8
0
100
AcDbBlockBegin
  2
*Model_Space
 70
     0
 10
0.0
 20
0.0
 30
0.0
  3
*Model_Space
  1

  0
ENDBLK
  5
21
330
1F
100
AcDbEntity
  8
0
100
AcDbBlockEnd
  0
BLOCK
  5
57
330
55
100
AcDbEntity
 67
     1
  8
0
100
AcDbBlockBegin
  2
*Paper_Space
 70
     0
 10
0.0
 20
0.0
 30
0.0
  3
*Paper_Space
  1

  0
ENDBLK
  5
58
330
55
100
AcDbEntity
 67
     1
  8
0
100
AcDbBlockEnd
  0
BLOCK
  5
52
330
50
100
AcDbEntity
  8
0
100
AcDbBlockBegin
  2
*Paper_Space0
 70
     0
 10
0.0
 20
0.0
 30
0.0
  3
*Paper_Space0
  1

  0
VIEWPORT
  5
6B
330
50
100
AcDbEntity
  8
0
100
AcDbViewport
 10
133.3499908447265
 20
101.5999970436096
 30
0.0
 40
381.3957395593833
 41
218.2856291881582
 69
     0
 12
133.3499908447265
 22
101.5999970436096
 13
0.0
 23
0.0
 14
10.0
 24
10.0
 15
10.0
 25
10.0
 16
0.0
 26
0.0
 36
1.0
 17
0.0
 27
0.0
 37
0.0
 42
50.0
 43
0.0
 44
0.0
 45
218.2856291881582
 50
0.0
 51
0.0
 72
   100
 90
    32800
  1

281
     0
 71
     1
 74
     0
110
0.0
120
0.0
130
0.0
111
1.0
121
0.0
131
0.0
112
0.0
122
1.0
132
0.0
 79
     0
146
0.0
  0
VIEWPORT
  5
6D
330
50
100
AcDbEntity
  8
0
100
AcDbViewport
 10
133.3499939441679
 20
101.5999939441679
 30
0.0
 40
213.3599903106689
 41
162.5599903106689
 69
     0
 12
210.0
 22
148.5
 13
0.0
 23
0.0
 14
10.0
 24
10.0
 15
10.0
 25
10.0
 16
0.0
 26
0.0
 36
1.0
 17
0.0
 27
0.0
 37
0.0
 42
50.0
 43
0.0
 44
0.0
 45
324.0677920111345
 50
0.0
 51
0.0
 72
   100
 90
    32864
  1

281
     0
 71
     1
 74
     0
110
0.0
120
0.0
130
0.0
111
1.0
121
0.0
131
0.0
112
0.0
122
1.0
132
0.0
 79
     0
146
0.0
  0
ENDBLK
  5
53
330
50
100
AcDbEntity
  8
0
100
AcDbBlockEnd
  0
ENDSEC
  0
SECTION
  2
ENTITIES
  0
POINT
  5
4DC
330
1F
100
AcDbEntity
  8
0
 62
     7
100
AcDbPoint
 10
-195.9902164526933
 20
29.9657
 30
0.0
  0
POINT
  5
4DD
330
1F
100
AcDbEntity
  8
0
 62
     7
100
AcDbPoint
 10
-132.7401164526932
 20
70.5531
 30
0.0
  0
POINT
  5
4DE
330
1F
100
AcDbEntity
  8
0
 62
     7
100
AcDbPoint
 10
-265.7400164526933
 20
70.5531
 30
0.0
  0
POINT
  5
4DF
330
1F
100
AcDbEntity
  8
0
 62
     2
100
AcDbPoint
 10
-196.2402164526933
 20
52.4154
 30
0.0
  0
LINE
  5
4E0
330
1F
100
AcDbEntity
  8
0
  6
DASH_CENTER
 62
    30
100
AcDbLine
 10
-195.9902164526933
 20
106.8330999999999
 30
0.0
 11
-195.9902164526933
 21
-47.74669999999999
 31
0.0
  0
LINE
  5
4E1
330
1F
100
AcDbEntity
  8
0
  6
Continuous
 62
     7
100
AcDbLine
 10
-105.9902164526932
 20
22.36559999999998
 30
0.0
 11
-105.9902164526932
 21
22.46569999999997
 31
0.0
  0
LINE
  5
4E2
330
1F
100
AcDbEntity
  8
0
  6
Continuous
 62
     7
100
AcDbLine
 10
-250.9900164526933
 20
-37.8339
 30
0.0
 11
-250.9900164526933
 21
-41.0338
 31
0.0
  0
LINE
  5
4E3
330
1F
100
AcDbEntity
  8
0
  6
Continuous
 62
     7
100
AcDbLine
 10
-170.9903164526933
 20
-40.03410000000002
 30
0.0
 11
-170.9903164526933
 21
-41.03410000000002
 31
0.0
  0
LINE
  5
4E4
330
1F
100
AcDbEntity
  8
0
  6
Continuous
 62
     7
100
AcDbLine
 10
-140.9903164526933
 20
-37.8339
 30
0.0
 11
-140.9903164526933
 21
-41.03410000000002
 31
0.0
  0
LINE
  5
4E5
330
1F
100
AcDbEntity
  8
0
  6
Continuous
 62
     7
100
AcDbLine
 10
-220.9900164526933
 20
-40.03410000000002
 30
0.0
 11
-220.9900164526933
 21
-41.03410000000002
 31
0.0
  0
LINE
  5
4E6
330
1F
100
AcDbEntity
  8
0
  6
DASH_CENTER
 62
    30
100
AcDbLine
 10
-240.9900164526933
 20
-44.3532
 30
0.0
 11
-240.9900164526933
 21
-35.58880000000002
 31
0.0
  0
LINE
  5
4E7
330
1F
100
AcDbEntity
  8
0
  6
Continuous
 62
     7
100
AcDbLine
 10
-75.99021645269335
 20
23.96539999999998
 30
0.0
 11
-75.99021645269335
 21
35.96569999999998
 31
0.0
  0
LINE
  5
4E8
330
1F
100
AcDbEntity
  8
0
  6
Continuous
 62
     7
100
AcDbLine
 10
-102.9902164526932
 20
35.96569999999998
 30
0.0
 11
-102.9902164526932
 21
36.96569999999997
 31
0.0
  0
LINE
  5
4E9
330
1F
100
AcDbEntity
  8
0
  6
Continuous
 62
     7
100
AcDbLine
 10
-105.9902164526932
 20
37.46569999999997
 30
0.0
 11
-105.9902164526932
 21
37.56549999999998
 31
0.0
  0
LINE
  5
4EA
330
1F
100
AcDbEntity
  8
0
  6
DASH_CENTER
 62
    30
100
AcDbLine
 10
-260.3640164526932
 20
70.55309999999998
 30
0.0
 11
-271.0139164526933
 21
70.55309999999998
 31
0.0
  0
LINE
  5
4EB
330
1F
100
AcDbEntity
  8
0
  6
Continuous
 62
     7
100
AcDbLine
 10
-266.9919164526933
 20
71.54499999999998
 30
0.0
 11
-267.0823164526932
 21
71.46519999999998
 31
0.0
  0
LINE
  5
4EC
330
1F
100
AcDbEntity
  8
0
  6
Continuous
 62
     7
100
AcDbLine
 10
-263.8454164526933
 20
69.71639999999998
 30
0.0
 11
-263.9531164526933
 21
69.67659999999998
 31
0.0
  0
LINE
  5
4ED
330
1F
100
AcDbEntity
  8
0
  6
Continuous
 62
     7
100
AcDbLine
 10
-264.4873164526933
 20
71.54499999999998
 30
0.0
 11
-264.3970164526933
 21
71.46519999999998
 31
0.0
  0
LINE
  5
4EE
330
1F
100
AcDbEntity
  8
0
  6
Continuous
 62
     7
100
AcDbLine
 10
-267.6338164526933
 20
69.71639999999998
 30
0.0
 11
-267.5263164526933
 21
69.67659999999998
 31
0.0
  0
LINE
  5
4EF
330
1F
100
AcDbEntity
  8
0
  6
DASH_CENTER
 62
    30
100
AcDbLine
 10
-265.7397164526932
 20
65.28059999999998
 30
0.0
 11
-265.7397164526932
 21
75.90900000000002
 31
0.0
  0
LINE
  5
4F0
330
1F
100
AcDbEntity
  8
0
  6
DASH_CENTER
 62
    30
100
AcDbLine
 10
-127.3644164526932
 20
70.55309999999998
 30
0.0
 11
-138.0143164526932
 21
70.55309999999998
 31
0.0
  0
LINE
  5
4F1
330
1F
100
AcDbEntity
  8
0
  6
Continuous
 62
     7
100
AcDbLine
 10
-133.9923164526932
 20
71.54499999999998
 30
0.0
 11
-134.0826164526932
 21
71.46519999999998
 31
0.0
  0
LINE
  5
4F2
330
1F
100
AcDbEntity
  8
0
  6
Continuous
 62
     7
100
AcDbLine
 10
-130.8458164526933
 20
69.71639999999998
 30
0.0
 11
-130.9535164526932
 21
69.67659999999998
 31
0.0
  0
LINE
  5
4F3
330
1F
100
AcDbEntity
  8
0
  6
Continuous
 62
     7
100
AcDbLine
 10
-131.4876164526932
 20
71.54499999999998
 30
0.0
 11
-131.3973164526933
 21
71.46519999999998
 31
0.0
  0
LINE
  5
4F4
330
1F
100
AcDbEntity
  8
0
  6
Continuous
 62
     7
100
AcDbLine
 10
-134.6341164526932
 20
69.71639999999998
 30
0.0
 11
-134.5267164526932
 21
69.67659999999998
 31
0.0
  0
LINE
  5
4F5
330
1F
100
AcDbEntity
  8
0
  6
DASH_CENTER
 62
    30
100
AcDbLine
 10
-132.7401164526932
 20
65.28059999999998
 30
0.0
 11
-132.7401164526932
 21
75.90900000000002
 31
0.0
  0
LINE
  5
4F6
330
1F
100
AcDbEntity
  8
0
  6
Continuous
 62
     7
100
AcDbLine
 10
-268.1850164526933
 20
-35.6344
 30
0.0
 11
-245.9599164526933
 21
-35.6344
 31
0.0
  0
LINE
  5
4F7
330
1F
100
AcDbEntity
  8
0
  6
Continuous
 62
     7
100
AcDbLine
 10
-277.7900164526933
 20
95.56549999999999
 30
0.0
 11
-268.1850164526933
 21
95.56549999999999
 31
0.0
  0
LINE
  5
4F8
330
1F
100
AcDbEntity
  8
0
  6
Continuous
 62
     7
100
AcDbLine
 10
-277.7900164526933
 20
-35.6344
 30
0.0
 11
-268.1850164526933
 21
-35.6344
 31
0.0
  0
LINE
  5
4F9
330
1F
100
AcDbEntity
  8
0
  6
Continuous
 62
     7
100
AcDbLine
 10
-105.9902164526932
 20
37.46569999999997
 30
0.0
 11
-105.9902164526932
 21
22.46569999999997
 31
0.0
  0
LINE
  5
4FA
330
1F
100
AcDbEntity
  8
0
  6
Continuous
 62
     7
100
AcDbLine
 10
-122.9902164526933
 20
-35.6344
 30
0.0
 11
-122.9902164526933
 21
95.56549999999999
 31
0.0
  0
LINE
  5
4FB
330
1F
100
AcDbEntity
  8
0
  6
DASHED
 62
    30
100
AcDbLine
 10
-227.4900164526933
 20
88.2857
 30
0.0
 11
-227.4900164526933
 21
60.00139999999999
 31
0.0
  0
LINE
  5
4FC
330
1F
100
AcDbEntity
  8
0
  6
DASHED
 62
    30
100
AcDbLine
 10
-227.4900164526933
 20
60.00139999999999
 30
0.0
 11
-164.4902164526933
 21
60.00139999999999
 31
0.0
  0
LINE
  5
4FD
330
1F
100
AcDbEntity
  8
0
  6
DASHED
 62
    30
100
AcDbLine
 10
-164.4902164526933
 20
60.00139999999999
 30
0.0
 11
-164.4900164526933
 21
88.2857
 31
0.0
  0
LINE
  5
4FE
330
1F
100
AcDbEntity
  8
0
  6
Continuous
 62
     7
100
AcDbLine
 10
-102.9902164526932
 20
35.96569999999998
 30
0.0
 11
-75.99021645269335
 21
35.96569999999998
 31
0.0
  0
LINE
  5
4FF
330
1F
100
AcDbEntity
  8
0
  6
Continuous
 62
     7
100
AcDbLine
 10
-76.99021645269334
 20
22.96569999999998
 30
0.0
 11
-105.3902164526932
 21
22.96569999999998
 31
0.0
  0
LINE
  5
500
330
1F
100
AcDbEntity
  8
0
  6
Continuous
 62
     7
100
AcDbLine
 10
-105.3902164526932
 20
36.96569999999997
 30
0.0
 11
-102.9902164526932
 21
36.96569999999997
 31
0.0
  0
LINE
  5
501
330
1F
100
AcDbEntity
  8
0
  6
Continuous
 62
     7
100
AcDbLine
 10
-113.1400164526932
 20
-15.16810000000001
 30
0.0
 11
-117.4902164526932
 21
-15.16810000000001
 31
0.0
  0
LINE
  5
502
330
1F
100
AcDbEntity
  8
0
  6
Continuous
 62
     7
100
AcDbLine
 10
-117.4902164526932
 20
-11.1681
 30
0.0
 11
-113.1400164526932
 21
-11.1681
 31
0.0
  0
LINE
  5
503
330
1F
100
AcDbEntity
  8
0
  6
Continuous
 62
     7
100
AcDbLine
 10
-120.6902164526932
 20
-9.668100000000015
 30
0.0
 11
-120.3727164526932
 21
-9.118100000000012
 31
0.0
  0
LINE
  5
504
330
1F
100
AcDbEntity
  8
0
  6
Continuous
 62
     7
100
AcDbLine
 10
-117.4902164526932
 20
-9.668100000000015
 30
0.0
 11
-117.8078164526932
 21
-9.118100000000012
 31
0.0
  0
LINE
  5
505
330
1F
100
AcDbEntity
  8
0
  6
Continuous
 62
     7
100
AcDbLine
 10
-120.6902164526932
 20
-16.66790000000001
 30
0.0
 11
-120.3727164526932
 21
-17.21790000000001
 31
0.0
  0
LINE
  5
506
330
1F
100
AcDbEntity
  8
0
  6
Continuous
 62
     7
100
AcDbLine
 10
-117.8077164526932
 20
-11.1474
 30
0.0
 11
-120.6902164526932
 21
-11.1474
 31
0.0
  0
LINE
  5
507
330
1F
100
AcDbEntity
  8
0
  6
Continuous
 62
     7
100
AcDbLine
 10
-117.4902164526932
 20
-9.668100000000015
 30
0.0
 11
-117.4902164526932
 21
-16.66790000000001
 31
0.0
  0
LINE
  5
508
330
1F
100
AcDbEntity
  8
0
  6
Continuous
 62
     7
100
AcDbLine
 10
-117.8078164526932
 20
-17.21790000000001
 30
0.0
 11
-120.3727164526932
 21
-17.21790000000001
 31
0.0
  0
LINE
  5
509
330
1F
100
AcDbEntity
  8
0
  6
Continuous
 62
     7
100
AcDbLine
 10
-120.3727164526932
 20
-9.118100000000012
 30
0.0
 11
-117.8078164526932
 21
-9.118100000000012
 31
0.0
  0
LINE
  5
50A
330
1F
100
AcDbEntity
  8
0
  6
Continuous
 62
     7
100
AcDbLine
 10
-117.4902164526932
 20
-16.66790000000001
 30
0.0
 11
-117.8078164526932
 21
-17.21790000000001
 31
0.0
  0
LINE
  5
50B
330
1F
100
AcDbEntity
  8
0
  6
Continuous
 62
     7
100
AcDbLine
 10
-117.8078164526932
 20
-15.1886
 30
0.0
 11
-120.6902164526932
 21
-15.1886
 31
0.0
  0
LINE
  5
50C
330
1F
100
AcDbEntity
  8
0
  6
Continuous
 62
    30
100
AcDbLine
 10
-112.7900164526932
 20
-14.81800000000001
 30
0.0
 11
-117.4902164526932
 21
-14.81800000000001
 31
0.0
  0
LINE
  5
50D
330
1F
100
AcDbEntity
  8
0
  6
Continuous
 62
    30
100
AcDbLine
 10
-112.7900164526932
 20
-11.51800000000001
 30
0.0
 11
-117.4902164526932
 21
-11.51800000000001
 31
0.0
  0
LINE
  5
50E
330
1F
100
AcDbEntity
  8
0
  6
Continuous
 62
     7
100
AcDbLine
 10
-112.7900164526932
 20
-11.51800000000001
 30
0.0
 11
-113.1400164526932
 21
-11.1681
 31
0.0
  0
LINE
  5
50F
330
1F
100
AcDbEntity
  8
0
  6
Continuous
 62
     7
100
AcDbLine
 10
-112.7900164526932
 20
-14.81800000000001
 30
0.0
 11
-113.1400164526932
 21
-15.16810000000001
 31
0.0
  0
LINE
  5
510
330
1F
100
AcDbEntity
  8
0
  6
Continuous
 62
     7
100
AcDbLine
 10
-112.7900164526932
 20
-11.51800000000001
 30
0.0
 11
-112.7900164526932
 21
-14.81800000000001
 31
0.0
  0
LINE
  5
511
330
1F
100
AcDbEntity
  8
0
  6
Continuous
 62
     7
100
AcDbLine
 10
-113.1400164526932
 20
-15.16810000000001
 30
0.0
 11
-113.1400164526932
 21
-11.1681
 31
0.0
  0
LINE
  5
512
330
1F
100
AcDbEntity
  8
0
  6
Continuous
 62
     7
100
AcDbLine
 10
-277.7898164526933
 20
-9.668100000000015
 30
0.0
 11
-279.2031164526933
 21
-9.791700000000011
 31
0.0
  0
LINE
  5
513
330
1F
100
AcDbEntity
  8
0
  6
DASH_CENTER
 62
    30
100
AcDbLine
 10
-104.4677164526933
 20
-13.16810000000001
 30
0.0
 11
-130.4163164526932
 21
-13.16810000000001
 31
0.0
  0
LINE
  5
514
330
1F
100
AcDbEntity
  8
0
  6
Continuous
 62
     7
100
AcDbLine
 10
-277.7898164526933
 20
-16.66809999999999
 30
0.0
 11
-279.2031164526933
 21
-16.54430000000001
 31
0.0
  0
LINE
  5
515
330
1F
100
AcDbEntity
  8
0
  6
DASH_CENTER
 62
    30
100
AcDbLine
 10
-270.4846164526933
 20
-13.16810000000001
 30
0.0
 11
-285.3393164526933
 21
-13.16810000000001
 31
0.0
  0
LINE
  5
516
330
1F
100
AcDbEntity
  8
0
  6
Continuous
 62
     7
100
AcDbLine
 10
-280.3899164526933
 20
-11.0868
 30
0.0
 11
-280.3899164526933
 21
-15.24940000000001
 31
0.0
  0
LINE
  5
517
330
1F
100
AcDbEntity
  8
0
  6
Continuous
 62
     7
100
AcDbLine
 10
-76.99021645269334
 20
22.96569999999998
 30
0.0
 11
-75.99021645269335
 21
23.96539999999998
 31
0.0
  0
LINE
  5
518
330
1F
100
AcDbEntity
  8
0
  6
Continuous
 62
     7
100
AcDbLine
 10
-287.8896164526933
 20
47.58919999999998
 30
0.0
 11
-287.8896164526933
 21
47.56579999999998
 31
0.0
  0
LINE
  5
519
330
1F
100
AcDbEntity
  8
0
  6
Continuous
 62
     7
100
AcDbLine
 10
-287.8896164526933
 20
47.46569999999998
 30
0.0
 11
-287.8896164526933
 21
47.56579999999998
 31
0.0
  0
LINE
  5
51A
330
1F
100
AcDbEntity
  8
0
  6
Continuous
 62
     7
100
AcDbLine
 10
-287.8896164526933
 20
49.01569999999999
 30
0.0
 11
-287.8896164526933
 21
29.96569999999998
 31
0.0
  0
LINE
  5
51B
330
1F
100
AcDbEntity
  8
0
  6
Continuous
 62
     7
100
AcDbLine
 10
-287.8896164526933
 20
47.46569999999998
 30
0.0
 11
-287.8896164526933
 21
47.56579999999998
 31
0.0
  0
LINE
  5
51C
330
1F
100
AcDbEntity
  8
0
  6
Continuous
 62
     7
100
AcDbLine
 10
-287.8896164526933
 20
12.34209999999998
 30
0.0
 11
-287.8896164526933
 21
12.36559999999998
 31
0.0
  0
LINE
  5
51D
330
1F
100
AcDbEntity
  8
0
  6
Continuous
 62
     7
100
AcDbLine
 10
-287.8896164526933
 20
10.91559999999998
 30
0.0
 11
-287.8896164526933
 21
29.96569999999998
 31
0.0
  0
LINE
  5
51E
330
1F
100
AcDbEntity
  8
0
  6
Continuous
 62
     7
100
AcDbLine
 10
-287.8896164526933
 20
12.46569999999998
 30
0.0
 11
-287.8896164526933
 21
12.36559999999998
 31
0.0
  0
LINE
  5
51F
330
1F
100
AcDbEntity
  8
0
  6
Continuous
 62
     7
100
AcDbLine
 10
-233.8901164526933
 20
12.56209999999998
 30
0.0
 11
-233.8901164526933
 21
29.96619999999998
 31
0.0
  0
LINE
  5
520
330
1F
100
AcDbEntity
  8
0
  6
Continuous
 62
     7
100
AcDbLine
 10
-231.4470164526933
 20
13.74499999999998
 30
0.0
 11
-233.8899164526933
 21
20.66019999999998
 31
0.0
  0
LINE
  5
521
330
1F
100
AcDbEntity
  8
0
  6
Continuous
 62
     7
100
AcDbLine
 10
-242.5329164526933
 20
13.74499999999998
 30
0.0
 11
-240.0901164526933
 21
20.66019999999998
 31
0.0
  0
LINE
  5
522
330
1F
100
AcDbEntity
  8
0
  6
Continuous
 62
     7
100
AcDbLine
 10
-228.5237164526933
 20
14.77769999999998
 30
0.0
 11
-233.8899164526933
 21
29.96619999999998
 31
0.0
  0
LINE
  5
523
330
1F
100
AcDbEntity
  8
0
  6
Continuous
 62
     7
100
AcDbLine
 10
-245.4563164526933
 20
14.77769999999998
 30
0.0
 11
-240.0901164526933
 21
29.96619999999998
 31
0.0
  0
LINE
  5
524
330
1F
100
AcDbEntity
  8
0
  6
Continuous
 62
     7
100
AcDbLine
 10
-233.9905164526933
 20
-18.78380000000001
 30
0.0
 11
-223.6821164526933
 21
-18.78380000000001
 31
0.0
  0
LINE
  5
525
330
1F
100
AcDbEntity
  8
0
  6
Continuous
 62
     7
100
AcDbLine
 10
-159.9909164526933
 20
30.71619999999998
 30
0.0
 11
-138.9909164526932
 21
30.71619999999998
 31
0.0
  0
LINE
  5
526
330
1F
100
AcDbEntity
  8
0
  6
Continuous
 62
     7
100
AcDbLine
 10
-240.0901164526933
 20
12.56209999999998
 30
0.0
 11
-240.0901164526933
 21
29.96619999999998
 31
0.0
  0
LINE
  5
527
330
1F
100
AcDbEntity
  8
0
  6
Continuous
 62
     7
100
AcDbLine
 10
-236.9900164526933
 20
29.96619999999998
 30
0.0
 11
-236.9900164526933
 21
12.56209999999998
 31
0.0
  0
LINE
  5
528
330
1F
100
AcDbEntity
  8
0
  6
Continuous
 62
     7
100
AcDbLine
 10
-212.9907164526933
 20
-6.083900000000013
 30
0.0
 11
-233.9907164526933
 21
-6.083900000000013
 31
0.0
  0
LINE
  5
529
330
1F
100
AcDbEntity
  8
0
  6
Continuous
 62
     7
100
AcDbLine
 10
-136.9909164526932
 20
-2.283800000000013
 30
0.0
 11
-136.9909164526932
 21
-5.283800000000012
 31
0.0
  0
LINE
  5
52A
330
1F
100
AcDbEntity
  8
0
  6
Continuous
 62
     7
100
AcDbLine
 10
-138.9909164526932
 20
-7.283800000000012
 30
0.0
 11
-159.9909164526933
 21
-7.283800000000012
 31
0.0
  0
LINE
  5
52B
330
1F
100
AcDbEntity
  8
0
  6
Continuous
 62
     7
100
AcDbLine
 10
-138.9909164526932
 20
-6.083900000000013
 30
0.0
 11
-159.9909164526933
 21
-6.083900000000013
 31
0.0
  0
LINE
  5
52C
330
1F
100
AcDbEntity
  8
0
  6
Continuous
 62
     7
100
AcDbLine
 10
-138.9909164526932
 20
-17.28380000000001
 30
0.0
 11
-159.9909164526933
 21
-17.28380000000001
 31
0.0
  0
LINE
  5
52D
330
1F
100
AcDbEntity
  8
0
  6
Continuous
 62
     7
100
AcDbLine
 10
-138.9909164526932
 20
-18.78380000000001
 30
0.0
 11
-159.9909164526933
 21
-18.78380000000001
 31
0.0
  0
LINE
  5
52E
330
1F
100
AcDbEntity
  8
0
  6
Continuous
 62
     7
100
AcDbLine
 10
-138.9909164526932
 20
-0.2838000000000136
 30
0.0
 11
-159.9909164526933
 21
-0.2838000000000136
 31
0.0
  0
LINE
  5
52F
330
1F
100
AcDbEntity
  8
0
  6
Continuous
 62
     7
100
AcDbLine
 10
-138.9909164526932
 20
7.716199999999987
 30
0.0
 11
-159.9909164526933
 21
7.716199999999987
 31
0.0
  0
LINE
  5
530
330
1F
100
AcDbEntity
  8
0
  6
Continuous
 62
     7
100
AcDbLine
 10
-212.9907164526933
 20
-7.283800000000012
 30
0.0
 11
-233.9907164526933
 21
-7.283800000000012
 31
0.0
  0
LINE
  5
531
330
1F
100
AcDbEntity
  8
0
  6
Continuous
 62
     7
100
AcDbLine
 10
-210.9907164526933
 20
-2.283800000000013
 30
0.0
 11
-210.9907164526933
 21
-5.283800000000012
 31
0.0
  0
LINE
  5
532
330
1F
100
AcDbEntity
  8
0
  6
Continuous
 62
     7
100
AcDbLine
 10
-235.9907164526933
 20
-2.283800000000013
 30
0.0
 11
-235.9907164526933
 21
-5.283800000000012
 31
0.0
  0
LINE
  5
533
330
1F
100
AcDbEntity
  8
0
  6
Continuous
 62
     7
100
AcDbLine
 10
-233.9905164526933
 20
-17.28380000000001
 30
0.0
 11
-222.5495164526933
 21
-17.28380000000001
 31
0.0
  0
LINE
  5
534
330
1F
100
AcDbEntity
  8
0
  6
Continuous
 62
     7
100
AcDbLine
 10
-235.9907164526933
 20
-16.78380000000001
 30
0.0
 11
-235.9907164526933
 21
-15.28380000000001
 31
0.0
  0
LINE
  5
535
330
1F
100
AcDbEntity
  8
0
  6
Continuous
 62
     7
100
AcDbLine
 10
-212.9907164526933
 20
-0.2838000000000136
 30
0.0
 11
-233.9907164526933
 21
-0.2838000000000136
 31
0.0
  0
LINE
  5
536
330
1F
100
AcDbEntity
  8
0
  6
Continuous
 62
     7
100
AcDbLine
 10
-136.9909164526932
 20
28.71589999999999
 30
0.0
 11
-136.9909164526932
 21
24.71619999999997
 31
0.0
  0
LINE
  5
537
330
1F
100
AcDbEntity
  8
0
  6
Continuous
 62
     7
100
AcDbLine
 10
-161.9909164526933
 20
28.71619999999998
 30
0.0
 11
-161.9909164526933
 21
24.71619999999997
 31
0.0
  0
LINE
  5
538
330
1F
100
AcDbEntity
  8
0
  6
Continuous
 62
     7
100
AcDbLine
 10
-138.9909164526932
 20
-13.28380000000001
 30
0.0
 11
-159.9909164526933
 21
-13.28380000000001
 31
0.0
  0
LINE
  5
539
330
1F
100
AcDbEntity
  8
0
  6
Continuous
 62
     7
100
AcDbLine
 10
-161.9909164526933
 20
12.71619999999998
 30
0.0
 11
-161.9909164526933
 21
8.716199999999986
 31
0.0
  0
LINE
  5
53A
330
1F
100
AcDbEntity
  8
0
  6
Continuous
 62
     7
100
AcDbLine
 10
-136.9909164526932
 20
12.71619999999998
 30
0.0
 11
-136.9909164526932
 21
8.716199999999986
 31
0.0
  0
LINE
  5
53B
330
1F
100
AcDbEntity
  8
0
  6
Continuous
 62
     7
100
AcDbLine
 10
-161.9909164526933
 20
-15.28380000000001
 30
0.0
 11
-161.9909164526933
 21
-16.78380000000001
 31
0.0
  0
LINE
  5
53C
330
1F
100
AcDbEntity
  8
0
  6
Continuous
 62
     7
100
AcDbLine
 10
-161.9909164526933
 20
-2.283800000000013
 30
0.0
 11
-161.9909164526933
 21
-5.283800000000012
 31
0.0
  0
LINE
  5
53D
330
1F
100
AcDbEntity
  8
0
  6
Continuous
 62
     7
100
AcDbLine
 10
-138.9909164526932
 20
6.716199999999987
 30
0.0
 11
-159.9909164526933
 21
6.716199999999987
 31
0.0
  0
LINE
  5
53E
330
1F
100
AcDbEntity
  8
0
  6
Continuous
 62
     7
100
AcDbLine
 10
-159.9909164526933
 20
30.71619999999998
 30
0.0
 11
-138.9909164526932
 21
30.71619999999998
 31
0.0
  0
LINE
  5
53F
330
1F
100
AcDbEntity
  8
0
  6
Continuous
 62
     7
100
AcDbLine
 10
-159.9909164526933
 20
22.71619999999998
 30
0.0
 11
-138.9909164526932
 21
22.71619999999998
 31
0.0
  0
LINE
  5
540
330
1F
100
AcDbEntity
  8
0
  6
Continuous
 62
     7
100
AcDbLine
 10
-159.9909164526933
 20
14.71619999999998
 30
0.0
 11
-138.9909164526932
 21
14.71619999999998
 31
0.0
  0
LINE
  5
541
330
1F
100
AcDbEntity
  8
0
  6
Continuous
 62
     7
100
AcDbLine
 10
-136.9909164526932
 20
-16.78380000000001
 30
0.0
 11
-136.9909164526932
 21
-15.28380000000001
 31
0.0
  0
LINE
  5
542
330
1F
100
AcDbEntity
  8
0
  6
Continuous
 62
     7
100
AcDbLine
 10
-212.9907164526933
 20
-13.28380000000001
 30
0.0
 11
-233.9907164526933
 21
-13.28380000000001
 31
0.0
  0
LINE
  5
543
330
1F
100
AcDbEntity
  8
0
  6
DASHED
 62
    30
100
AcDbLine
 10
-164.4900164526933
 20
88.2857
 30
0.0
 11
-227.4900164526933
 21
88.2857
 31
0.0
  0
LINE
  5
544
330
1F
100
AcDbEntity
  8
0
  6
Continuous
 62
     7
100
AcDbLine
 10
-223.4900164526933
 20
-37.8339
 30
0.0
 11
-248.0654164526933
 21
-37.8339
 31
0.0
  0
LINE
  5
545
330
1F
100
AcDbEntity
  8
0
  6
Continuous
 62
     7
100
AcDbLine
 10
-225.0930164526933
 20
-22.78340000000001
 30
0.0
 11
-226.6592164526933
 21
-35.2091
 31
0.0
  0
LINE
  5
546
330
1F
100
AcDbEntity
  8
0
  6
Continuous
 62
     7
100
AcDbLine
 10
-166.8875164526933
 20
-22.78360000000001
 30
0.0
 11
-165.3211164526933
 21
-35.2091
 31
0.0
  0
LINE
  5
547
330
1F
100
AcDbEntity
  8
0
  6
Continuous
 62
     7
100
AcDbLine
 10
-176.8088164526933
 20
-14.0341
 30
0.0
 11
-215.1714164526933
 21
-14.03380000000001
 31
0.0
  0
LINE
  5
548
330
1F
100
AcDbEntity
  8
0
  6
Continuous
 62
     7
100
AcDbLine
 10
-250.9900164526933
 20
-41.0338
 30
0.0
 11
-220.9900164526933
 21
-41.0338
 31
0.0
  0
LINE
  5
549
330
1F
100
AcDbEntity
  8
0
  6
Continuous
 62
     7
100
AcDbLine
 10
-170.9903164526933
 20
-41.03410000000002
 30
0.0
 11
-140.9903164526933
 21
-41.03410000000002
 31
0.0
  0
LINE
  5
54A
330
1F
100
AcDbEntity
  8
0
  6
Continuous
 62
     7
100
AcDbLine
 10
-248.0654164526933
 20
-37.8339
 30
0.0
 11
-250.9900164526933
 21
-37.8339
 31
0.0
  0
LINE
  5
54B
330
1F
100
AcDbEntity
  8
0
  6
Continuous
 62
     7
100
AcDbLine
 10
-146.5675164526933
 20
-33.36270000000002
 30
0.0
 11
-145.8591164526933
 21
-36.3024
 31
0.0
  0
LINE
  5
54C
330
1F
100
AcDbEntity
  8
0
  6
Continuous
 62
     7
100
AcDbLine
 10
-195.9900164526933
 20
-36.83390000000001
 30
0.0
 11
-222.4900164526933
 21
-36.83390000000001
 31
0.0
  0
LINE
  5
54D
330
1F
100
AcDbEntity
  8
0
  6
Continuous
 62
     7
100
AcDbLine
 10
-158.5596164526933
 20
-29.53380000000001
 30
0.0
 11
-151.4286164526933
 21
-29.53380000000001
 31
0.0
  0
LINE
  5
54E
330
1F
100
AcDbEntity
  8
0
  6
Continuous
 62
     7
100
AcDbLine
 10
-233.4206164526931
 20
-29.53380000000001
 30
0.0
 11
-240.5515164526933
 21
-29.53380000000001
 31
0.0
  0
LINE
  5
54F
330
1F
100
AcDbEntity
  8
0
  6
Continuous
 62
     7
100
AcDbLine
 10
-195.9902164526933
 20
-40.0338
 30
0.0
 11
-220.9900164526933
 21
-40.03410000000002
 31
0.0
  0
LINE
  5
550
330
1F
100
AcDbEntity
  8
0
  6
Continuous
 62
     7
100
AcDbLine
 10
-168.4903164526932
 20
-37.8339
 30
0.0
 11
-140.9903164526933
 21
-37.8339
 31
0.0
  0
LINE
  5
551
330
1F
100
AcDbEntity
  8
0
  6
Continuous
 62
     7
100
AcDbLine
 10
-169.4903164526933
 20
-36.83390000000001
 30
0.0
 11
-195.9902164526933
 21
-36.83390000000001
 31
0.0
  0
LINE
  5
552
330
1F
100
AcDbEntity
  8
0
  6
Continuous
 62
     7
100
AcDbLine
 10
-195.9902164526933
 20
-40.0338
 30
0.0
 11
-170.9903164526933
 21
-40.03410000000002
 31
0.0
  0
LINE
  5
553
330
1F
100
AcDbEntity
  8
0
  6
Continuous
 62
     7
100
AcDbLine
 10
-245.4126164526933
 20
-33.36270000000002
 30
0.0
 11
-246.1211164526933
 21
-36.3024
 31
0.0
  0
LINE
  5
554
330
1F
100
AcDbEntity
  8
0
  6
Continuous
 62
     7
100
AcDbLine
 10
-110.5902164526932
 20
49.01569999999999
 30
0.0
 11
-110.5902164526932
 21
29.96569999999998
 31
0.0
  0
LINE
  5
555
330
1F
100
AcDbEntity
  8
0
  6
Continuous
 62
     7
100
AcDbLine
 10
-110.5902164526932
 20
47.46569999999998
 30
0.0
 11
-110.5902164526932
 21
47.56579999999998
 31
0.0
  0
LINE
  5
556
330
1F
100
AcDbEntity
  8
0
  6
Continuous
 62
     7
100
AcDbLine
 10
-110.5902164526932
 20
47.58919999999998
 30
0.0
 11
-110.5902164526932
 21
47.56579999999998
 31
0.0
  0
LINE
  5
557
330
1F
100
AcDbEntity
  8
0
  6
Continuous
 62
     7
100
AcDbLine
 10
-113.1400164526932
 20
75.09919999999998
 30
0.0
 11
-117.4902164526932
 21
75.09919999999998
 31
0.0
  0
LINE
  5
558
330
1F
100
AcDbEntity
  8
0
  6
Continuous
 62
     7
100
AcDbLine
 10
-117.4902164526932
 20
71.09919999999998
 30
0.0
 11
-113.1400164526932
 21
71.09919999999998
 31
0.0
  0
LINE
  5
559
330
1F
100
AcDbEntity
  8
0
  6
Continuous
 62
     7
100
AcDbLine
 10
-146.0201164526933
 20
-35.6344
 30
0.0
 11
-120.6902164526932
 21
-35.6344
 31
0.0
  0
LINE
  5
55A
330
1F
100
AcDbEntity
  8
0
  6
Continuous
 62
     7
100
AcDbLine
 10
-120.6902164526932
 20
69.59919999999998
 30
0.0
 11
-120.3727164526932
 21
69.04919999999998
 31
0.0
  0
LINE
  5
55B
330
1F
100
AcDbEntity
  8
0
  6
Continuous
 62
     7
100
AcDbLine
 10
-117.4902164526932
 20
69.59919999999998
 30
0.0
 11
-117.8078164526932
 21
69.04919999999998
 31
0.0
  0
LINE
  5
55C
330
1F
100
AcDbEntity
  8
0
  6
Continuous
 62
     7
100
AcDbLine
 10
-120.6902164526932
 20
76.59899999999997
 30
0.0
 11
-120.3727164526932
 21
77.14899999999999
 31
0.0
  0
LINE
  5
55D
330
1F
100
AcDbEntity
  8
0
  6
Continuous
 62
     7
100
AcDbLine
 10
-117.8077164526932
 20
71.07849999999998
 30
0.0
 11
-120.6902164526932
 21
71.07849999999998
 31
0.0
  0
LINE
  5
55E
330
1F
100
AcDbEntity
  8
0
  6
Continuous
 62
     7
100
AcDbLine
 10
-117.4902164526932
 20
69.59919999999998
 30
0.0
 11
-117.4902164526932
 21
76.59899999999997
 31
0.0
  0
LINE
  5
55F
330
1F
100
AcDbEntity
  8
0
  6
Continuous
 62
     7
100
AcDbLine
 10
-117.8078164526932
 20
77.14899999999999
 30
0.0
 11
-120.3727164526932
 21
77.14899999999999
 31
0.0
  0
LINE
  5
560
330
1F
100
AcDbEntity
  8
0
  6
Continuous
 62
     7
100
AcDbLine
 10
-120.3727164526932
 20
69.04919999999998
 30
0.0
 11
-117.8078164526932
 21
69.04919999999998
 31
0.0
  0
LINE
  5
561
330
1F
100
AcDbEntity
  8
0
  6
Continuous
 62
     7
100
AcDbLine
 10
-117.4902164526932
 20
76.59899999999997
 30
0.0
 11
-117.8078164526932
 21
77.14899999999999
 31
0.0
  0
LINE
  5
562
330
1F
100
AcDbEntity
  8
0
  6
Continuous
 62
     7
100
AcDbLine
 10
-117.8078164526932
 20
75.11969999999997
 30
0.0
 11
-120.6902164526932
 21
75.11969999999997
 31
0.0
  0
LINE
  5
563
330
1F
100
AcDbEntity
  8
0
  6
Continuous
 62
    30
100
AcDbLine
 10
-112.7900164526932
 20
74.74909999999998
 30
0.0
 11
-117.4902164526932
 21
74.74909999999998
 31
0.0
  0
LINE
  5
564
330
1F
100
AcDbEntity
  8
0
  6
Continuous
 62
    30
100
AcDbLine
 10
-112.7900164526932
 20
71.44909999999999
 30
0.0
 11
-117.4902164526932
 21
71.44909999999999
 31
0.0
  0
LINE
  5
565
330
1F
100
AcDbEntity
  8
0
  6
Continuous
 62
     7
100
AcDbLine
 10
-112.7900164526932
 20
71.44909999999999
 30
0.0
 11
-113.1400164526932
 21
71.09919999999998
 31
0.0
  0
LINE
  5
566
330
1F
100
AcDbEntity
  8
0
  6
Continuous
 62
     7
100
AcDbLine
 10
-112.7900164526932
 20
74.74909999999998
 30
0.0
 11
-113.1400164526932
 21
75.09919999999998
 31
0.0
  0
LINE
  5
567
330
1F
100
AcDbEntity
  8
0
  6
Continuous
 62
     7
100
AcDbLine
 10
-112.7900164526932
 20
71.44909999999999
 30
0.0
 11
-112.7900164526932
 21
74.74909999999998
 31
0.0
  0
LINE
  5
568
330
1F
100
AcDbEntity
  8
0
  6
Continuous
 62
     7
100
AcDbLine
 10
-113.1400164526932
 20
75.09919999999998
 30
0.0
 11
-113.1400164526932
 21
71.09919999999998
 31
0.0
  0
LINE
  5
569
330
1F
100
AcDbEntity
  8
0
  6
Continuous
 62
     7
100
AcDbLine
 10
-277.7898164526933
 20
69.59919999999998
 30
0.0
 11
-279.2031164526933
 21
69.72269999999999
 31
0.0
  0
LINE
  5
56A
330
1F
100
AcDbEntity
  8
0
  6
DASH_CENTER
 62
    30
100
AcDbLine
 10
-104.4677164526933
 20
73.09919999999997
 30
0.0
 11
-130.4163164526932
 21
73.09919999999997
 31
0.0
  0
LINE
  5
56B
330
1F
100
AcDbEntity
  8
0
  6
Continuous
 62
     7
100
AcDbLine
 10
-277.7898164526933
 20
76.59919999999996
 30
0.0
 11
-279.2031164526933
 21
76.47539999999995
 31
0.0
  0
LINE
  5
56C
330
1F
100
AcDbEntity
  8
0
  6
DASH_CENTER
 62
    30
100
AcDbLine
 10
-270.7759164526933
 20
73.09919999999997
 30
0.0
 11
-284.4658164526933
 21
73.09919999999997
 31
0.0
  0
LINE
  5
56D
330
1F
100
AcDbEntity
  8
0
  6
Continuous
 62
     7
100
AcDbLine
 10
-280.3899164526933
 20
71.01789999999998
 30
0.0
 11
-280.3899164526933
 21
75.18049999999997
 31
0.0
  0
LINE
  5
56E
330
1F
100
AcDbEntity
  8
0
  6
Continuous
 62
     7
100
AcDbLine
 10
-76.99021645269334
 20
22.96569999999998
 30
0.0
 11
-76.99021645269334
 21
35.96569999999998
 31
0.0
  0
LINE
  5
56F
330
1F
100
AcDbEntity
  8
0
  6
Continuous
 62
     7
100
AcDbLine
 10
-110.5902164526932
 20
12.34209999999998
 30
0.0
 11
-110.5902164526932
 21
12.36559999999998
 31
0.0
  0
LINE
  5
570
330
1F
100
AcDbEntity
  8
0
  6
Continuous
 62
     7
100
AcDbLine
 10
-110.5902164526932
 20
10.91559999999998
 30
0.0
 11
-110.5902164526932
 21
29.96569999999998
 31
0.0
  0
LINE
  5
571
330
1F
100
AcDbEntity
  8
0
  6
Continuous
 62
     7
100
AcDbLine
 10
-110.5902164526932
 20
12.46569999999998
 30
0.0
 11
-110.5902164526932
 21
12.36559999999998
 31
0.0
  0
LINE
  5
572
330
1F
100
AcDbEntity
  8
0
  6
Continuous
 62
     7
100
AcDbLine
 10
-110.5902164526932
 20
47.46569999999998
 30
0.0
 11
-110.5902164526932
 21
47.56579999999998
 31
0.0
  0
LINE
  5
573
330
1F
100
AcDbEntity
  8
0
  6
Continuous
 62
     7
100
AcDbLine
 10
-108.5197164526932
 20
22.46569999999997
 30
0.0
 11
-105.9902164526932
 21
22.46569999999997
 31
0.0
  0
LINE
  5
574
330
1F
100
AcDbEntity
  8
0
  6
Continuous
 62
     7
100
AcDbLine
 10
-108.5197164526932
 20
37.46569999999997
 30
0.0
 11
-105.9902164526932
 21
37.46569999999997
 31
0.0
  0
LINE
  5
575
330
1F
100
AcDbEntity
  8
0
  6
Continuous
 62
     7
100
AcDbLine
 10
-120.6902164526932
 20
10.41559999999998
 30
0.0
 11
-111.0902164526933
 21
10.41559999999998
 31
0.0
  0
LINE
  5
576
330
1F
100
AcDbEntity
  8
0
  6
Continuous
 62
     7
100
AcDbLine
 10
-120.6902164526932
 20
49.51549999999999
 30
0.0
 11
-111.0902164526933
 21
49.51549999999999
 31
0.0
  0
LINE
  5
577
330
1F
100
AcDbEntity
  8
0
  6
Continuous
 62
     7
100
AcDbLine
 10
-287.3896164526933
 20
49.51549999999999
 30
0.0
 11
-277.7900164526933
 21
49.51549999999999
 31
0.0
  0
LINE
  5
578
330
1F
100
AcDbEntity
  8
0
  6
Continuous
 62
     7
100
AcDbLine
 10
-287.3896164526933
 20
10.41559999999998
 30
0.0
 11
-277.7900164526933
 21
10.41559999999998
 31
0.0
  0
LINE
  5
579
330
1F
100
AcDbEntity
  8
0
  6
DASH_CENTER
 62
    30
100
AcDbLine
 10
-64.75751645269332
 20
29.96569999999998
 30
0.0
 11
-304.3447164526931
 21
29.96569999999998
 31
0.0
  0
LINE
  5
57A
330
1F
100
AcDbEntity
  8
0
  6
Continuous
 62
     7
100
AcDbLine
 10
-277.7900164526933
 20
-35.6344
 30
0.0
 11
-277.7900164526933
 21
95.56549999999999
 31
0.0
  0
LINE
  5
57B
330
1F
100
AcDbEntity
  8
0
  6
Continuous
 62
     7
100
AcDbLine
 10
-120.6902164526932
 20
-35.6344
 30
0.0
 11
-120.6902164526932
 21
95.56549999999999
 31
0.0
  0
LINE
  5
57C
330
1F
100
AcDbEntity
  8
0
  6
Continuous
 62
     7
100
AcDbLine
 10
-275.4902164526933
 20
95.56549999999999
 30
0.0
 11
-275.4902164526933
 21
-35.6344
 31
0.0
  0
LINE
  5
57D
330
1F
100
AcDbEntity
  8
0
  6
Continuous
 62
     7
100
AcDbLine
 10
-137.7421164526932
 20
54.46589999999998
 30
0.0
 11
-128.1447164526932
 21
67.60359999999998
 31
0.0
  0
LINE
  5
57E
330
1F
100
AcDbEntity
  8
0
  6
Continuous
 62
     7
100
AcDbLine
 10
-259.2397164526933
 20
53.31259999999998
 30
0.0
 11
-139.2401164526932
 21
53.31259999999998
 31
0.0
  0
LINE
  5
57F
330
1F
100
AcDbEntity
  8
0
  6
Continuous
 62
     7
100
AcDbLine
 10
-144.2401164526933
 20
101.9272999999998
 30
0.0
 11
-254.2400164526933
 21
101.9272999999998
 31
0.0
  0
LINE
  5
580
330
1F
100
AcDbEntity
  8
0
  6
Continuous
 62
     7
100
AcDbLine
 10
-259.2397164526933
 20
53.31259999999998
 30
0.0
 11
-259.2400164526933
 21
96.9273
 31
0.0
  0
LINE
  5
581
330
1F
100
AcDbEntity
  8
0
  6
Continuous
 62
     7
100
AcDbLine
 10
-141.7795164526933
 20
52.41539999999998
 30
0.0
 11
-256.6997164526933
 21
52.41539999999998
 31
0.0
  0
LINE
  5
582
330
1F
100
AcDbEntity
  8
0
  6
Continuous
 62
     7
100
AcDbLine
 10
-139.2401164526932
 20
53.31259999999998
 30
0.0
 11
-139.2401164526932
 21
96.9273
 31
0.0
  0
LINE
  5
583
330
1F
100
AcDbEntity
  8
0
  6
Continuous
 62
     7
100
AcDbLine
 10
-137.7421164526932
 20
86.64019999999997
 30
0.0
 11
-128.1447164526932
 21
73.50249999999997
 31
0.0
  0
LINE
  5
584
330
1F
100
AcDbEntity
  8
0
  6
Continuous
 62
     7
100
AcDbLine
 10
-270.3347164526933
 20
73.50279999999995
 30
0.0
 11
-260.7373164526933
 21
86.64019999999997
 31
0.0
  0
LINE
  5
585
330
1F
100
AcDbEntity
  8
0
  6
Continuous
 62
     7
100
AcDbLine
 10
-270.3347164526933
 20
67.60379999999999
 30
0.0
 11
-260.7373164526933
 21
54.46589999999998
 31
0.0
  0
LINE
  5
586
330
1F
100
AcDbEntity
  8
0
  6
Continuous
 62
     7
100
AcDbLine
 10
-139.2401164526932
 20
95.56549999999999
 30
0.0
 11
-120.6902164526932
 21
95.56549999999999
 31
0.0
  0
LINE
  5
587
330
1F
100
AcDbEntity
  8
0
  6
Continuous
 62
     7
100
AcDbLine
 10
-268.1850164526933
 20
95.56549999999999
 30
0.0
 11
-259.2397164526933
 21
95.56529999999998
 31
0.0
  0
LINE
  5
588
330
1F
100
AcDbEntity
  8
0
  6
DASH_CENTER
 62
    30
100
AcDbLine
 10
-150.9904164526933
 20
-44.3532
 30
0.0
 11
-150.9904164526933
 21
-35.58880000000002
 31
0.0
  0
ARC
  5
589
330
1F
100
AcDbEntity
  8
0
  6
Continuous
 62
     7
100
AcDbCircle
 10
-105.3901164485266
 20
22.36560000416734
 30
0.0
 40
0.6000000041666641
100
AcDbArc
 50
90.00954969445073
 51
180.0000003979535
  0
ARC
  5
58A
330
1F
100
AcDbEntity
  8
0
  6
Continuous
 62
     7
100
AcDbCircle
 10
-265.7395122790846
 20
68.67880000012757
 30
0.0
 40
3.720317290901752
100
AcDbArc
 50
28.44775528372522
 51
151.5557478133198
  0
ARC
  5
58B
330
1F
100
AcDbEntity
  8
0
  6
Continuous
 62
     7
100
AcDbCircle
 10
-265.7394604932838
 20
71.83110000089778
 30
0.0
 40
4.153055713792971
100
AcDbArc
 50
221.3748993791355
 51
318.6269390864353
  0
ARC
  5
58C
330
1F
100
AcDbEntity
  8
0
  6
Continuous
 62
     7
100
AcDbCircle
 10
-263.5234095265143
 20
69.8792611439132
 30
0.0
 40
1.199996823418046
100
AcDbArc
 50
318.6261556082756
 51
28.44839096607838
  0
ARC
  5
58D
330
1F
100
AcDbEntity
  8
0
  6
Continuous
 62
     7
100
AcDbCircle
 10
-267.955527349461
 20
69.87929612681909
 30
0.0
 40
1.200016966813729
100
AcDbArc
 50
151.5594598052795
 51
221.3752231025753
  0
ARC
  5
58E
330
1F
100
AcDbEntity
  8
0
  6
Continuous
 62
     7
100
AcDbCircle
 10
-262.6609524868215
 20
64.13847623822156
 30
0.0
 40
7.294329315511918
100
AcDbArc
 50
116.5215072174728
 51
130.2821468822253
  0
ARC
  5
58F
330
1F
100
AcDbEntity
  8
0
  6
Continuous
 62
     7
100
AcDbCircle
 10
-268.8182804185651
 20
64.13847623822153
 30
0.0
 40
7.294329315511932
100
AcDbArc
 50
49.71785311777469
 51
63.47849278252715
  0
ARC
  5
590
330
1F
100
AcDbEntity
  8
0
  6
Continuous
 62
     7
100
AcDbCircle
 10
-265.7397164526932
 20
70.30719999999998
 30
0.0
 40
0.3999879623188761
100
AcDbArc
 50
63.4797912172285
 51
116.5202087827642
  0
ARC
  5
591
330
1F
100
AcDbEntity
  8
0
  6
Continuous
 62
     7
100
AcDbCircle
 10
-262.6608348637577
 20
64.13852741388236
 30
0.0
 40
7.694372544112463
100
AcDbArc
 50
104.7891155494373
 51
112.355581471378
  0
ARC
  5
592
330
1F
100
AcDbEntity
  8
0
  6
Continuous
 62
     7
100
AcDbCircle
 10
-268.8183980416289
 20
64.13852741388232
 30
0.0
 40
7.69437254411248
100
AcDbArc
 50
67.64441852862195
 51
75.21088445056268
  0
ARC
  5
593
330
1F
100
AcDbEntity
  8
0
  6
Continuous
 62
     7
100
AcDbCircle
 10
-265.7397664526933
 20
71.6244
 30
0.0
 40
0.4000620233163786
100
AcDbArc
 50
247.6467404179309
 51
292.353259582069
  0
ARC
  5
594
330
1F
100
AcDbEntity
  8
0
  6
Continuous
 62
     7
100
AcDbCircle
 10
-268.8186043744273
 20
64.13870148801833
 30
0.0
 40
7.694333738960371
100
AcDbArc
 50
49.28698272307857
 51
60.74425583573976
  0
ARC
  5
595
330
1F
100
AcDbEntity
  8
0
  6
Continuous
 62
     7
100
AcDbCircle
 10
-262.659940252883
 20
64.13879232356953
 30
0.0
 40
7.294351947334387
100
AcDbArc
 50
104.2819930643019
 51
109.0587230067519
  0
ARC
  5
596
330
1F
100
AcDbEntity
  8
0
  6
Continuous
 62
     7
100
AcDbCircle
 10
-265.0093188160466
 20
70.93857347792256
 30
0.0
 40
0.099989345887438
100
AcDbArc
 50
109.0268434297759
 51
240.7889263212091
  0
ARC
  5
597
330
1F
100
AcDbEntity
  8
0
  6
Continuous
 62
     7
100
AcDbCircle
 10
-268.8178035916559
 20
64.13834653789042
 30
0.0
 40
7.294319862977141
100
AcDbArc
 50
70.95273316607528
 51
75.73001183357767
  0
ARC
  5
598
330
1F
100
AcDbEntity
  8
0
  6
Continuous
 62
     7
100
AcDbCircle
 10
-262.6606285309593
 20
64.13870148801841
 30
0.0
 40
7.694333738960342
100
AcDbArc
 50
119.255744164262
 51
130.7130172769215
  0
ARC
  5
599
330
1F
100
AcDbEntity
  8
0
  6
Continuous
 62
     7
100
AcDbCircle
 10
-266.4699140893399
 20
70.93857347792256
 30
0.0
 40
0.0999893458874225
100
AcDbArc
 50
299.2110736787571
 51
70.97315657022055
  0
ARC
  5
59A
330
1F
100
AcDbEntity
  8
0
  6
Continuous
 62
     7
100
AcDbCircle
 10
-266.9826170660001
 20
71.35290252878665
 30
0.0
 40
0.1500361622850625
100
AcDbArc
 50
131.5420369841606
 51
255.7234066735836
  0
ARC
  5
59B
330
1F
100
AcDbEntity
  8
0
  6
Continuous
 62
     7
100
AcDbCircle
 10
-264.0051775176266
 20
69.8175107375923
 30
0.0
 40
0.1500328835814992
100
AcDbArc
 50
229.7504546974245
 51
290.3037903525758
  0
ARC
  5
59C
330
1F
100
AcDbEntity
  8
0
  6
Continuous
 62
     7
100
AcDbCircle
 10
-263.8974191808013
 20
69.85698484649113
 30
0.0
 40
0.1499883654252269
100
AcDbArc
 50
290.2863221989588
 51
49.30223995814067
  0
ARC
  5
59D
330
1F
100
AcDbEntity
  8
0
  6
Continuous
 62
     7
100
AcDbCircle
 10
-266.8926156277546
 20
71.43270019590045
 30
0.0
 40
0.1499725641551861
100
AcDbArc
 50
75.20422027955648
 51
131.513262534035
  0
ARC
  5
59E
330
1F
100
AcDbEntity
  8
0
  6
Continuous
 62
     7
100
AcDbCircle
 10
-264.4966158393864
 20
71.35290252878661
 30
0.0
 40
0.150036162285045
100
AcDbArc
 50
284.2765933263961
 51
48.4579630158589
  0
ARC
  5
59F
330
1F
100
AcDbEntity
  8
0
  6
Continuous
 62
     7
100
AcDbCircle
 10
-267.4743523885603
 20
69.8174936810757
 30
0.0
 40
0.1500179278242569
100
AcDbArc
 50
249.6928748895212
 51
310.2528800604673
  0
ARC
  5
5A0
330
1F
100
AcDbEntity
  8
0
  6
Continuous
 62
     7
100
AcDbCircle
 10
-267.581813724585
 20
69.85698484649113
 30
0.0
 40
0.1499883654252373
100
AcDbArc
 50
130.6977600418593
 51
249.713677801041
  0
ARC
  5
5A1
330
1F
100
AcDbEntity
  8
0
  6
Continuous
 62
     7
100
AcDbCircle
 10
-264.586617277632
 20
71.43270019590047
 30
0.0
 40
0.1499725641551589
100
AcDbArc
 50
48.48673746596239
 51
104.7957797204434
  0
ARC
  5
5A2
330
1F
100
AcDbEntity
  8
0
  6
Continuous
 62
     7
100
AcDbCircle
 10
-132.7398122790846
 20
68.67880000012757
 30
0.0
 40
3.720317290901728
100
AcDbArc
 50
28.44775528372522
 51
151.5557478133199
  0
ARC
  5
5A3
330
1F
100
AcDbEntity
  8
0
  6
Continuous
 62
     7
100
AcDbCircle
 10
-132.7398604932837
 20
71.8310999992934
 30
0.0
 40
4.153055712732535
100
AcDbArc
 50
221.3748993625256
 51
318.6269391030457
  0
ARC
  5
5A4
330
1F
100
AcDbEntity
  8
0
  6
Continuous
 62
     7
100
AcDbCircle
 10
-130.5238095265144
 20
69.87926114391318
 30
0.0
 40
1.199996823418057
100
AcDbArc
 50
318.626155608276
 51
28.44839096607873
  0
ARC
  5
5A5
330
1F
100
AcDbEntity
  8
0
  6
Continuous
 62
     7
100
AcDbCircle
 10
-134.9559186946837
 20
69.87921979071462
 30
0.0
 40
1.199973005781081
100
AcDbArc
 50
151.5541776801588
 51
221.3722148593765
  0
ARC
  5
5A6
330
1F
100
AcDbEntity
  8
0
  6
Continuous
 62
     7
100
AcDbCircle
 10
-129.6613221809859
 20
64.13843028019849
 30
0.0
 40
7.294383969805847
100
AcDbArc
 50
116.5215590185588
 51
130.282095081139
  0
ARC
  5
5A7
330
1F
100
AcDbEntity
  8
0
  6
Continuous
 62
     7
100
AcDbCircle
 10
-135.8186107244006
 20
64.13843028019846
 30
0.0
 40
7.29438396980586
100
AcDbArc
 50
49.71790491886085
 51
63.47844098144111
  0
ARC
  5
5A8
330
1F
100
AcDbEntity
  8
0
  6
Continuous
 62
     7
100
AcDbCircle
 10
-132.7401164526932
 20
70.30719999999998
 30
0.0
 40
0.3999879623188761
100
AcDbArc
 50
63.4797912172285
 51
116.5202087827678
  0
ARC
  5
5A9
330
1F
100
AcDbEntity
  8
0
  6
Continuous
 62
     7
100
AcDbCircle
 10
-129.6609514849301
 20
64.13858903841916
 30
0.0
 40
7.694385302404882
100
AcDbArc
 50
104.7912729427421
 51
112.3570188979285
  0
ARC
  5
5AA
330
1F
100
AcDbEntity
  8
0
  6
Continuous
 62
     7
100
AcDbCircle
 10
-135.8189814204565
 20
64.13858903841916
 30
0.0
 40
7.694385302404882
100
AcDbArc
 50
67.64298110207146
 51
75.20872705725775
  0
ARC
  5
5AB
330
1F
100
AcDbEntity
  8
0
  6
Continuous
 62
     7
100
AcDbCircle
 10
-132.7401164526932
 20
71.6244
 30
0.0
 40
0.4000430101876421
100
AcDbArc
 50
247.6533635032284
 51
292.3466364967748
  0
ARC
  5
5AC
330
1F
100
AcDbEntity
  8
0
  6
Continuous
 62
     7
100
AcDbCircle
 10
-135.8192049435045
 20
64.13884187369475
 30
0.0
 40
7.694358157734737
100
AcDbArc
 50
49.28516877846286
 51
60.74179225947026
  0
ARC
  5
5AD
330
1F
100
AcDbEntity
  8
0
  6
Continuous
 62
     7
100
AcDbCircle
 10
-129.660332023733
 20
64.1387648427381
 30
0.0
 40
7.294380608910107
100
AcDbArc
 50
104.2820024542681
 51
109.0587136167861
  0
ARC
  5
5AE
330
1F
100
AcDbEntity
  8
0
  6
Continuous
 62
     7
100
AcDbCircle
 10
-132.0096196038311
 20
70.93856463723009
 30
0.0
 40
0.1000300891709329
100
AcDbArc
 50
109.0789151820085
 51
240.7368545689964
  0
ARC
  5
5AF
330
1F
100
AcDbEntity
  8
0
  6
Continuous
 62
     7
100
AcDbCircle
 10
-135.8184869487654
 20
64.13843131432926
 30
0.0
 40
7.294332207105057
100
AcDbArc
 50
70.95041198488472
 51
75.72692939755261
  0
ARC
  5
5B0
330
1F
100
AcDbEntity
  8
0
  6
Continuous
 62
     7
100
AcDbCircle
 10
-129.6609956575807
 20
64.13865451271806
 30
0.0
 40
7.694390787929567
100
AcDbArc
 50
119.2557867805263
 51
130.7129746606584
  0
ARC
  5
5B1
330
1F
100
AcDbEntity
  8
0
  6
Continuous
 62
     7
100
AcDbCircle
 10
-133.4703116850421
 20
70.93854682460237
 30
0.0
 40
0.1000137598015815
100
AcDbArc
 50
299.2673257137452
 51
70.97943659518715
  0
ARC
  5
5B2
330
1F
100
AcDbEntity
  8
0
  6
Continuous
 62
     7
100
AcDbCircle
 10
-133.983017066
 20
71.35290252878661
 30
0.0
 40
0.1500361622850731
100
AcDbArc
 50
131.5420369841564
 51
255.7234066735819
  0
ARC
  5
5B3
330
1F
100
AcDbEntity
  8
0
  6
Continuous
 62
     7
100
AcDbCircle
 10
-131.0055775176267
 20
69.8175107375923
 30
0.0
 40
0.1500328835814808
100
AcDbArc
 50
229.7504546974312
 51
290.3037903525845
  0
ARC
  5
5B4
330
1F
100
AcDbEntity
  8
0
  6
Continuous
 62
     7
100
AcDbCircle
 10
-130.8978191808014
 20
69.85698484649112
 30
0.0
 40
0.1499883654251938
100
AcDbArc
 50
290.2863221989398
 51
49.30223995816014
  0
ARC
  5
5B5
330
1F
100
AcDbEntity
  8
0
  6
Continuous
 62
     7
100
AcDbCircle
 10
-133.8929839507601
 20
71.43268398267935
 30
0.0
 40
0.1500057005165327
100
AcDbArc
 50
75.1805705795232
 51
131.5182179688862
  0
ARC
  5
5B6
330
1F
100
AcDbEntity
  8
0
  6
Continuous
 62
     7
100
AcDbCircle
 10
-131.4969246673014
 20
71.3528660752485
 30
0.0
 40
0.1500030125751921
100
AcDbArc
 50
284.2832948251249
 51
48.49326200304139
  0
ARC
  5
5B7
330
1F
100
AcDbEntity
  8
0
  6
Continuous
 62
     7
100
AcDbCircle
 10
-134.4746553877599
 20
69.8175107375923
 30
0.0
 40
0.1500328835814906
100
AcDbArc
 50
249.6962096474136
 51
310.2495453025687
  0
ARC
  5
5B8
330
1F
100
AcDbEntity
  8
0
  6
Continuous
 62
     7
100
AcDbCircle
 10
-134.5821204398962
 20
69.85702209900702
 30
0.0
 40
0.1500209801852254
100
AcDbArc
 50
130.7340483713151
 51
249.7210162329076
  0
ARC
  5
5B9
330
1F
100
AcDbEntity
  8
0
  6
Continuous
 62
     7
100
AcDbCircle
 10
-131.587017277632
 20
71.43270019590045
 30
0.0
 40
0.1499725641551884
100
AcDbArc
 50
48.48673746595807
 51
104.7957797204317
  0
ARC
  5
5BA
330
1F
100
AcDbEntity
  8
0
  6
Continuous
 62
     7
100
AcDbCircle
 10
-105.3901164485266
 20
37.56549999583262
 30
0.0
 40
0.6000000041666596
100
AcDbArc
 50
179.9999996020463
 51
269.9904503055492
  0
ARC
  5
5BB
330
1F
100
AcDbEntity
  8
0
  6
Continuous
 62
     7
100
AcDbCircle
 10
-238.5400664526933
 20
29.96619999999998
 30
0.0
 40
1.550049999999996
100
AcDbArc
 50
0.0
 51
180.0
  0
ARC
  5
5BC
330
1F
100
AcDbEntity
  8
0
  6
Continuous
 62
     7
100
AcDbCircle
 10
-236.9900065017247
 20
29.96569999985077
 30
0.0
 40
3.399998306602654
100
AcDbArc
 50
348.7432434086721
 51
191.2550383708663
  0
ARC
  5
5BD
330
1F
100
AcDbEntity
  8
0
  6
Continuous
 62
     7
100
AcDbCircle
 10
-124.0785164488539
 20
-13.16774483718524
 30
0.0
 40
6.588287640269212
100
AcDbArc
 50
342.1374535096648
 51
17.85971104818692
  0
ARC
  5
5BE
330
1F
100
AcDbEntity
  8
0
  6
Continuous
 62
     7
100
AcDbCircle
 10
-124.0785060339987
 20
-9.126547095407735
 30
0.0
 40
6.588277034786266
100
AcDbArc
 50
342.1374444196877
 51
355.5807522366351
  0
ARC
  5
5BF
330
1F
100
AcDbEntity
  8
0
  6
Continuous
 62
     7
100
AcDbCircle
 10
-124.0785060339987
 20
-17.2094529045923
 30
0.0
 40
6.588277034786266
100
AcDbArc
 50
4.419247763364873
 51
17.86255558031228
  0
ARC
  5
5C0
330
1F
100
AcDbEntity
  8
0
  6
Continuous
 62
     7
100
AcDbCircle
 10
-279.0898430134975
 20
-11.08682898478264
 30
0.0
 40
1.299973439518804
100
AcDbArc
 50
94.99881820689831
 51
179.9987225079648
  0
ARC
  5
5C1
330
1F
100
AcDbEntity
  8
0
  6
Continuous
 62
     7
100
AcDbCircle
 10
-279.0897932036043
 20
-15.24942537279448
 30
0.0
 40
1.300023249336552
100
AcDbArc
 50
179.9988817476624
 51
264.9991701575255
  0
ARC
  5
5C2
330
1F
100
AcDbEntity
  8
0
  6
Continuous
 62
     7
100
AcDbCircle
 10
-288.3896338553589
 20
47.65757059988979
 30
0.0
 40
0.5000174035299148
100
AcDbArc
 50
298.7519144098214
 51
0.0033688872019291
  0
ARC
  5
5C3
330
1F
100
AcDbEntity
  8
0
  6
Continuous
 62
     7
100
AcDbCircle
 10
-287.3896164526933
 20
49.01569999999999
 30
0.0
 40
0.5
100
AcDbArc
 50
90.0
 51
180.0
  0
ARC
  5
5C4
330
1F
100
AcDbEntity
  8
0
  6
Continuous
 62
     7
100
AcDbCircle
 10
-287.1870162113878
 20
45.46570035343875
 30
0.0
 40
1.999972238557266
100
AcDbArc
 50
118.7577137621002
 51
172.5967635949555
  0
ARC
  5
5C5
330
1F
100
AcDbEntity
  8
0
  6
Continuous
 62
     7
100
AcDbCircle
 10
-287.1869616237673
 20
14.46561968698016
 30
0.0
 40
2.00001607007134
100
AcDbArc
 50
187.4007633462218
 51
241.2411915159941
  0
ARC
  5
5C6
330
1F
100
AcDbEntity
  8
0
  6
Continuous
 62
     7
100
AcDbCircle
 10
-288.3895900173083
 20
12.27375535017655
 30
0.0
 40
0.4999735666088871
100
AcDbArc
 50
0.0051167633907885
 51
61.2510594942171
  0
ARC
  5
5C7
330
1F
100
AcDbEntity
  8
0
  6
Continuous
 62
     7
100
AcDbCircle
 10
-287.3896164526933
 20
10.91559999999998
 30
0.0
 40
0.5
100
AcDbArc
 50
180.0
 51
270.0
  0
ARC
  5
5C8
330
1F
100
AcDbEntity
  8
0
  6
Continuous
 62
     7
100
AcDbCircle
 10
-167.8901164526933
 20
29.96569999999998
 30
0.0
 40
122.3000089828287
100
AcDbArc
 50
180.0
 51
187.4028805356485
  0
ARC
  5
5C9
330
1F
100
AcDbEntity
  8
0
  6
Continuous
 62
     7
100
AcDbCircle
 10
-212.9910055210008
 20
-15.28375719746057
 30
0.0
 40
1.99995721835114
100
AcDbArc
 50
38.67425846143681
 51
89.99171862581892
  0
ARC
  5
5CA
330
1F
100
AcDbEntity
  8
0
  6
Continuous
 62
    30
100
AcDbCircle
 10
-245.1728759157281
 20
13.25382101040791
 30
0.0
 40
1.550033035461705
100
AcDbArc
 50
40.53953545232096
 51
100.5402073286597
  0
ARC
  5
5CB
330
1F
100
AcDbEntity
  8
0
  6
Continuous
 62
    30
100
AcDbCircle
 10
-242.8169182776309
 20
15.26890064469055
 30
0.0
 40
1.550065537322945
100
AcDbArc
 50
220.5444252823304
 51
280.5422880968889
  0
ARC
  5
5CC
330
1F
100
AcDbEntity
  8
0
  6
Continuous
 62
    30
100
AcDbCircle
 10
-238.5400164526933
 20
9.877299999999983
 30
0.0
 40
3.100018401558279
100
AcDbArc
 50
60.00019635949485
 51
119.999803640505
  0
ARC
  5
5CD
330
1F
100
AcDbEntity
  8
0
  6
Continuous
 62
    30
100
AcDbCircle
 10
-235.4399164526933
 20
15.24689999999998
 30
0.0
 40
3.100018401558295
100
AcDbArc
 50
240.0001963594948
 51
299.9998036405051
  0
ARC
  5
5CE
330
1F
100
AcDbEntity
  8
0
  6
Continuous
 62
    30
100
AcDbCircle
 10
-228.8071286421034
 20
13.25379569334194
 30
0.0
 40
1.550071033802274
100
AcDbArc
 50
79.45736002986149
 51
139.4604344312903
  0
ARC
  5
5CF
330
1F
100
AcDbEntity
  8
0
  6
Continuous
 62
    30
100
AcDbCircle
 10
-231.1630429754938
 20
15.26892595530788
 30
0.0
 40
1.550103531680212
100
AcDbArc
 50
259.455279326683
 51
319.4555449073063
  0
ARC
  5
5D0
330
1F
100
AcDbEntity
  8
0
  6
Continuous
 62
     7
100
AcDbCircle
 10
-235.4399164526933
 20
29.96619999999998
 30
0.0
 40
1.549800000000004
100
AcDbArc
 50
0.0
 51
180.0
  0
ARC
  5
5D1
330
1F
100
AcDbEntity
  8
0
  6
Continuous
 62
     7
100
AcDbCircle
 10
-236.9894239220784
 20
29.96553016853297
 30
0.0
 40
13.50003836124419
100
AcDbArc
 50
251.2914647760478
 51
256.7217510309971
  0
ARC
  5
5D2
330
1F
100
AcDbEntity
  8
0
  6
Continuous
 62
     7
100
AcDbCircle
 10
-159.9909574841027
 20
28.71618028978604
 30
0.0
 40
2.000019710634842
100
AcDbArc
 50
89.99882454829133
 51
141.3175413063368
  0
ARC
  5
5D3
330
1F
100
AcDbEntity
  8
0
  6
Continuous
 62
     7
100
AcDbCircle
 10
-138.9909077993858
 20
28.71589584379606
 30
0.0
 40
2.000004156222654
100
AcDbArc
 50
38.6895847516306
 51
90.00024789848398
  0
ARC
  5
5D4
330
1F
100
AcDbEntity
  8
0
  6
Continuous
 62
     7
100
AcDbCircle
 10
-233.9907164526933
 20
-15.28380000000001
 30
0.0
 40
2.0
100
AcDbArc
 50
180.0
 51
270.0
  0
ARC
  5
5D5
330
1F
100
AcDbEntity
  8
0
  6
Continuous
 62
     7
100
AcDbCircle
 10
-212.9907164526933
 20
-2.283800000000013
 30
0.0
 40
2.0
100
AcDbArc
 50
0.0
 51
90.0
  0
ARC
  5
5D6
330
1F
100
AcDbEntity
  8
0
  6
Continuous
 62
     7
100
AcDbCircle
 10
-233.9907164526933
 20
-4.083900000000014
 30
0.0
 40
2.0
100
AcDbArc
 50
180.0
 51
270.0
  0
ARC
  5
5D7
330
1F
100
AcDbEntity
  8
0
  6
Continuous
 62
     7
100
AcDbCircle
 10
-212.9907164526933
 20
-5.283800000000012
 30
0.0
 40
1.999999999999999
100
AcDbArc
 50
270.0
 51
0.0
  0
ARC
  5
5D8
330
1F
100
AcDbEntity
  8
0
  6
Continuous
 62
     7
100
AcDbCircle
 10
-138.9909164526932
 20
-5.283800000000012
 30
0.0
 40
1.999999999999999
100
AcDbArc
 50
270.0
 51
0.0
  0
ARC
  5
5D9
330
1F
100
AcDbEntity
  8
0
  6
Continuous
 62
     7
100
AcDbCircle
 10
-138.9909164526932
 20
-15.28380000000001
 30
0.0
 40
2.0
100
AcDbArc
 50
0.0
 51
90.0
  0
ARC
  5
5DA
330
1F
100
AcDbEntity
  8
0
  6
Continuous
 62
     7
100
AcDbCircle
 10
-138.9908893544564
 20
28.71582281108312
 30
0.0
 40
1.999972901893301
100
AcDbArc
 50
359.9993465017506
 51
38.68931204249017
  0
ARC
  5
5DB
330
1F
100
AcDbEntity
  8
0
  6
Continuous
 62
     7
100
AcDbCircle
 10
-159.9909574841027
 20
28.71618028978604
 30
0.0
 40
2.000019710634842
100
AcDbArc
 50
89.99882454829133
 51
141.3175413063368
  0
ARC
  5
5DC
330
1F
100
AcDbEntity
  8
0
  6
Continuous
 62
     7
100
AcDbCircle
 10
-159.9908967432144
 20
28.71625615876126
 30
0.0
 40
2.000019710267304
100
AcDbArc
 50
141.3203255173139
 51
180.0016088141472
  0
ARC
  5
5DD
330
1F
100
AcDbEntity
  8
0
  6
Continuous
 62
     7
100
AcDbCircle
 10
-138.9909077993858
 20
28.71589584379606
 30
0.0
 40
2.000004156222654
100
AcDbArc
 50
38.6895847516306
 51
90.00024789848398
  0
ARC
  5
5DE
330
1F
100
AcDbEntity
  8
0
  6
Continuous
 62
     7
100
AcDbCircle
 10
-233.9907164526933
 20
-16.78380000000001
 30
0.0
 40
2.0
100
AcDbArc
 50
180.0
 51
270.0
  0
ARC
  5
5DF
330
1F
100
AcDbEntity
  8
0
  6
Continuous
 62
     7
100
AcDbCircle
 10
-212.9907164526933
 20
-4.083900000000014
 30
0.0
 40
2.0
100
AcDbArc
 50
270.0
 51
0.0
  0
ARC
  5
5E0
330
1F
100
AcDbEntity
  8
0
  6
Continuous
 62
     7
100
AcDbCircle
 10
-233.9907164526933
 20
-2.283800000000013
 30
0.0
 40
2.0
100
AcDbArc
 50
90.0
 51
180.0
  0
ARC
  5
5E1
330
1F
100
AcDbEntity
  8
0
  6
Continuous
 62
     7
100
AcDbCircle
 10
-159.9909164526933
 20
24.71619999999997
 30
0.0
 40
2.0
100
AcDbArc
 50
180.0
 51
270.0
  0
ARC
  5
5E2
330
1F
100
AcDbEntity
  8
0
  6
Continuous
 62
     7
100
AcDbCircle
 10
-138.9909164526932
 20
24.71619999999997
 30
0.0
 40
2.0
100
AcDbArc
 50
270.0
 51
0.0
  0
ARC
  5
5E3
330
1F
100
AcDbEntity
  8
0
  6
Continuous
 62
     7
100
AcDbCircle
 10
-138.9909164526932
 20
12.71619999999998
 30
0.0
 40
2.0
100
AcDbArc
 50
0.0
 51
90.0
  0
ARC
  5
5E4
330
1F
100
AcDbEntity
  8
0
  6
Continuous
 62
     7
100
AcDbCircle
 10
-138.9909164526932
 20
8.716199999999986
 30
0.0
 40
2.0
100
AcDbArc
 50
270.0
 51
0.0
  0
ARC
  5
5E5
330
1F
100
AcDbEntity
  8
0
  6
Continuous
 62
     7
100
AcDbCircle
 10
-159.9909164526933
 20
8.716199999999986
 30
0.0
 40
2.0
100
AcDbArc
 50
180.0
 51
270.0
  0
ARC
  5
5E6
330
1F
100
AcDbEntity
  8
0
  6
Continuous
 62
     7
100
AcDbCircle
 10
-159.9909164526933
 20
12.71619999999998
 30
0.0
 40
2.0
100
AcDbArc
 50
90.0
 51
180.0
  0
ARC
  5
5E7
330
1F
100
AcDbEntity
  8
0
  6
Continuous
 62
     7
100
AcDbCircle
 10
-159.9909164526933
 20
-2.283800000000013
 30
0.0
 40
2.0
100
AcDbArc
 50
90.0
 51
180.0
  0
ARC
  5
5E8
330
1F
100
AcDbEntity
  8
0
  6
Continuous
 62
     7
100
AcDbCircle
 10
-138.9909164526932
 20
-2.283800000000013
 30
0.0
 40
2.0
100
AcDbArc
 50
0.0
 51
90.0
  0
ARC
  5
5E9
330
1F
100
AcDbEntity
  8
0
  6
Continuous
 62
     7
100
AcDbCircle
 10
-138.9909164526932
 20
-16.78380000000001
 30
0.0
 40
2.0
100
AcDbArc
 50
270.0
 51
0.0
  0
ARC
  5
5EA
330
1F
100
AcDbEntity
  8
0
  6
Continuous
 62
     7
100
AcDbCircle
 10
-159.9909164539432
 20
-16.78379999875001
 30
0.0
 40
2.000000001249989
100
AcDbArc
 50
180.0028648247846
 51
270.000000035811
  0
ARC
  5
5EB
330
1F
100
AcDbEntity
  8
0
  6
Continuous
 62
     7
100
AcDbCircle
 10
-159.9909164526933
 20
-4.083900000000014
 30
0.0
 40
2.0
100
AcDbArc
 50
180.0
 51
270.0
  0
ARC
  5
5EC
330
1F
100
AcDbEntity
  8
0
  6
Continuous
 62
     7
100
AcDbCircle
 10
-159.9909164526933
 20
9.716199999999986
 30
0.0
 40
2.0
100
AcDbArc
 50
180.0
 51
270.0
  0
ARC
  5
5ED
330
1F
100
AcDbEntity
  8
0
  6
Continuous
 62
     7
100
AcDbCircle
 10
-138.9909164526932
 20
-15.28380000000001
 30
0.0
 40
2.0
100
AcDbArc
 50
270.0
 51
0.0
  0
ARC
  5
5EE
330
1F
100
AcDbEntity
  8
0
  6
Continuous
 62
     7
100
AcDbCircle
 10
-138.9909164526932
 20
-4.083900000000014
 30
0.0
 40
2.0
100
AcDbArc
 50
270.0
 51
0.0
  0
ARC
  5
5EF
330
1F
100
AcDbEntity
  8
0
  6
Continuous
 62
     7
100
AcDbCircle
 10
-159.9909164526933
 20
-15.28380000000001
 30
0.0
 40
2.0
100
AcDbArc
 50
180.0
 51
270.0
  0
ARC
  5
5F0
330
1F
100
AcDbEntity
  8
0
  6
Continuous
 62
     7
100
AcDbCircle
 10
-138.9909164526932
 20
9.716199999999986
 30
0.0
 40
2.0
100
AcDbArc
 50
270.0
 51
0.0
  0
ARC
  5
5F1
330
1F
100
AcDbEntity
  8
0
  6
Continuous
 62
     7
100
AcDbCircle
 10
-233.9907164526933
 20
-5.283800000000012
 30
0.0
 40
2.0
100
AcDbArc
 50
180.0
 51
270.0
  0
ARC
  5
5F2
330
1F
100
AcDbEntity
  8
0
  6
Continuous
 62
     7
100
AcDbCircle
 10
-233.9907164526933
 20
-15.28380000000001
 30
0.0
 40
2.0
100
AcDbArc
 50
90.0
 51
180.0
  0
ARC
  5
5F3
330
1F
100
AcDbEntity
  8
0
  6
Continuous
 62
     7
100
AcDbCircle
 10
-159.9909164526933
 20
-5.283800000000012
 30
0.0
 40
2.0
100
AcDbArc
 50
180.0
 51
270.0
  0
ARC
  5
5F4
330
1F
100
AcDbEntity
  8
0
  6
Continuous
 62
     7
100
AcDbCircle
 10
-159.9909164526933
 20
-15.28380000000001
 30
0.0
 40
2.0
100
AcDbArc
 50
90.0
 51
180.0
  0
ARC
  5
5F5
330
1F
100
AcDbEntity
  8
0
  6
Continuous
 62
     7
100
AcDbCircle
 10
-236.989477185605
 20
29.96585452093043
 30
0.0
 40
13.50004822436996
100
AcDbArc
 50
283.2724315966933
 51
288.7056900655679
  0
ARC
  5
5F6
330
1F
100
AcDbEntity
  8
0
  6
Continuous
 62
     7
100
AcDbCircle
 10
-223.4900164526933
 20
-37.3339
 30
0.0
 40
0.5
100
AcDbArc
 50
270.0
 51
0.0
  0
ARC
  5
5F7
330
1F
100
AcDbEntity
  8
0
  6
Continuous
 62
     7
100
AcDbCircle
 10
-162.3447911273105
 20
-34.83392233371339
 30
0.0
 40
2.999977666393504
100
AcDbArc
 50
187.1842295597079
 51
269.9995163172173
  0
ARC
  5
5F8
330
1F
100
AcDbEntity
  8
0
  6
Continuous
 62
     7
100
AcDbCircle
 10
-143.9148455908409
 20
-35.8338770494379
 30
0.0
 40
2.000022950774392
100
AcDbArc
 50
193.5479348472154
 51
270.000834736859
  0
ARC
  5
5F9
330
1F
100
AcDbEntity
  8
0
  6
Continuous
 62
     7
100
AcDbCircle
 10
-156.872816362925
 20
-14.62905739447877
 30
0.0
 40
14.99998758793497
100
AcDbArc
 50
230.2662787213165
 51
263.5432353904212
  0
ARC
  5
5FA
330
1F
100
AcDbEntity
  8
0
  6
Continuous
 62
     7
100
AcDbCircle
 10
-151.4286127550988
 20
-34.53380291249557
 30
0.0
 40
5.000002912496941
100
AcDbArc
 50
13.54685390886865
 51
90.00004237128718
  0
ARC
  5
5FB
330
1F
100
AcDbEntity
  8
0
  6
Continuous
 62
     7
100
AcDbCircle
 10
-222.4900164526933
 20
-37.3339
 30
0.0
 40
0.5
100
AcDbArc
 50
90.0
 51
180.0
  0
ARC
  5
5FC
330
1F
100
AcDbEntity
  8
0
  6
Continuous
 62
     7
100
AcDbCircle
 10
-215.1714210622447
 20
-24.03380406495014
 30
0.0
 40
10.00000406549726
100
AcDbArc
 50
89.99940063166514
 51
172.8157587436923
  0
ARC
  5
5FD
330
1F
100
AcDbEntity
  8
0
  6
Continuous
 62
     7
100
AcDbCircle
 10
-235.1073165424615
 20
-14.62905739447879
 30
0.0
 40
14.99998758793495
100
AcDbArc
 50
276.4567646095786
 51
309.7337212786833
  0
ARC
  5
5FE
330
1F
100
AcDbEntity
  8
0
  6
Continuous
 62
     7
100
AcDbCircle
 10
-176.8089118431302
 20
-24.03410406504232
 30
0.0
 40
10.00000406549726
100
AcDbArc
 50
7.184241256840032
 51
89.99945345327835
  0
ARC
  5
5FF
330
1F
100
AcDbEntity
  8
0
  6
Continuous
 62
     7
100
AcDbCircle
 10
-229.6354855246721
 20
-34.83387272640013
 30
0.0
 40
3.000027273759306
100
AcDbArc
 50
269.9994093236754
 51
352.8149349436756
  0
ARC
  5
600
330
1F
100
AcDbEntity
  8
0
  6
Continuous
 62
     7
100
AcDbCircle
 10
-248.0654490269988
 20
-35.83392565835972
 30
0.0
 40
1.999974341905556
100
AcDbArc
 50
270.0009331970842
 51
346.4531620128801
  0
ARC
  5
601
330
1F
100
AcDbEntity
  8
0
  6
Continuous
 62
     7
100
AcDbCircle
 10
-240.5515201502876
 20
-34.53380291249557
 30
0.0
 40
5.000002912496927
100
AcDbArc
 50
89.99995762871281
 51
166.4531460911313
  0
ARC
  5
602
330
1F
100
AcDbEntity
  8
0
  6
Continuous
 62
     7
100
AcDbCircle
 10
-110.0901750059422
 20
47.65752995275371
 30
0.0
 40
0.5000414516573079
100
AcDbArc
 50
179.9919738422135
 51
241.2333843930193
  0
ARC
  5
603
330
1F
100
AcDbEntity
  8
0
  6
Continuous
 62
     7
100
AcDbCircle
 10
-111.0902164526933
 20
49.01569999999999
 30
0.0
 40
0.5
100
AcDbArc
 50
0.0
 51
90.0
  0
ARC
  5
604
330
1F
100
AcDbEntity
  8
0
  6
Continuous
 62
     7
100
AcDbCircle
 10
-124.0785164488539
 20
73.09884483718519
 30
0.0
 40
6.588287640269212
100
AcDbArc
 50
342.140288951813
 51
17.86254649033503
  0
ARC
  5
605
330
1F
100
AcDbEntity
  8
0
  6
Continuous
 62
     7
100
AcDbCircle
 10
-124.0785060339987
 20
69.0576470954077
 30
0.0
 40
6.588277034786265
100
AcDbArc
 50
4.419247763364672
 51
17.86255558031228
  0
ARC
  5
606
330
1F
100
AcDbEntity
  8
0
  6
Continuous
 62
     7
100
AcDbCircle
 10
-124.0785060339987
 20
77.14055290459227
 30
0.0
 40
6.588277034786266
100
AcDbArc
 50
342.1374444196877
 51
355.5807522366353
  0
ARC
  5
607
330
1F
100
AcDbEntity
  8
0
  6
Continuous
 62
     7
100
AcDbCircle
 10
-279.0898430134975
 20
71.01792898478263
 30
0.0
 40
1.299973439518822
100
AcDbArc
 50
180.0012774920351
 51
265.0011817931015
  0
ARC
  5
608
330
1F
100
AcDbEntity
  8
0
  6
Continuous
 62
     7
100
AcDbCircle
 10
-279.0897932036043
 20
75.18052537279444
 30
0.0
 40
1.300023249336583
100
AcDbArc
 50
95.0008298424778
 51
180.0011182523376
  0
ARC
  5
609
330
1F
100
AcDbEntity
  8
0
  6
Continuous
 62
     7
100
AcDbCircle
 10
-111.2929095330616
 20
14.4657101348346
 30
0.0
 40
2.000065655134703
100
AcDbArc
 50
298.7560111484021
 51
352.5968083306314
  0
ARC
  5
60A
330
1F
100
AcDbEntity
  8
0
  6
Continuous
 62
     7
100
AcDbCircle
 10
-110.0902188277367
 20
12.27379598696389
 30
0.0
 40
0.4999976249726123
100
AcDbArc
 50
118.7636441972729
 51
179.9995401377536
  0
ARC
  5
60B
330
1F
100
AcDbEntity
  8
0
  6
Continuous
 62
     7
100
AcDbCircle
 10
-111.0902164526933
 20
10.91559999999998
 30
0.0
 40
0.5
100
AcDbArc
 50
270.0
 51
0.0
  0
ARC
  5
60C
330
1F
100
AcDbEntity
  8
0
  6
Continuous
 62
     7
100
AcDbCircle
 10
-111.2928549378622
 20
45.46560990836145
 30
0.0
 40
2.00002181940583
100
AcDbArc
 50
7.405664669182471
 51
61.2450837597362
  0
ARC
  5
60D
330
1F
100
AcDbEntity
  8
0
  6
Continuous
 62
     7
100
AcDbCircle
 10
-230.5896164526933
 20
29.96569999999998
 30
0.0
 40
122.2999703295549
100
AcDbArc
 50
0.0
 51
7.40274116145003
  0
ARC
  5
60E
330
1F
100
AcDbEntity
  8
0
  6
Continuous
 62
     7
100
AcDbCircle
 10
-169.4902164576932
 20
-37.33389999500102
 30
0.0
 40
0.500000005000004
100
AcDbArc
 50
359.9999994271565
 51
90.0114585829039
  0
ARC
  5
60F
330
1F
100
AcDbEntity
  8
0
  6
Continuous
 62
     7
100
AcDbCircle
 10
-168.4902164476933
 20
-37.333900005001
 30
0.0
 40
0.500000005000004
100
AcDbArc
 50
179.9999994269276
 51
269.9885402711795
  0
ARC
  5
610
330
1F
100
AcDbEntity
  8
0
  6
Continuous
 62
     7
100
AcDbCircle
 10
-236.9899767112741
 20
29.96570000055605
 30
0.0
 40
13.50004115469358
100
AcDbArc
 50
301.964616397977
 51
238.0369870212091
  0
ARC
  5
611
330
1F
100
AcDbEntity
  8
0
  6
Continuous
 62
     7
100
AcDbCircle
 10
-266.2971164526933
 20
70.55329999999996
 30
0.0
 40
5.000036660865622
100
AcDbArc
 50
143.8518137862689
 51
216.1481862137308
  0
ARC
  5
612
330
1F
100
AcDbEntity
  8
0
  6
Continuous
 62
     7
100
AcDbCircle
 10
-141.7795354463659
 20
83.69081721475916
 30
0.0
 40
4.999961094282933
100
AcDbArc
 50
36.1485744855668
 51
59.47676397847302
  0
ARC
  5
613
330
1F
100
AcDbEntity
  8
0
  6
Continuous
 62
     7
100
AcDbCircle
 10
-254.2400164526933
 20
96.9273
 30
0.0
 40
5.0
100
AcDbArc
 50
90.0
 51
180.0
  0
ARC
  5
614
330
1F
100
AcDbEntity
  8
0
  6
Continuous
 62
     7
100
AcDbCircle
 10
-144.2401164526933
 20
96.9273
 30
0.0
 40
5.0
100
AcDbArc
 50
0.0
 51
90.0
  0
ARC
  5
615
330
1F
100
AcDbEntity
  8
0
  6
Continuous
 62
     7
100
AcDbCircle
 10
-132.1821164526932
 20
70.55304999999998
 30
0.0
 40
4.999985406228693
100
AcDbArc
 50
323.8506751751863
 51
36.14932482481359
  0
ARC
  5
616
330
1F
100
AcDbEntity
  8
0
  6
Continuous
 62
     7
100
AcDbCircle
 10
-141.7795017828908
 20
57.41540745044584
 30
0.0
 40
5.000007450467376
100
AcDbArc
 50
269.9998318966967
 51
323.8500444204519
  0
ARC
  5
617
330
1F
100
AcDbEntity
  8
0
  6
Continuous
 62
     7
100
AcDbCircle
 10
-256.699752543628
 20
57.4154183301723
 30
0.0
 40
5.00001833030257
100
AcDbArc
 50
216.148599780829
 51
270.0004135701311
  0
ARC
  5
618
330
1F
100
AcDbEntity
  8
0
  6
Continuous
 62
     7
100
AcDbCircle
 10
-256.6998102700349
 20
83.69071495982677
 30
0.0
 40
4.999952079667016
100
AcDbArc
 50
120.529778081935
 51
143.8513180516023
  0
ARC
  5
619
330
1F
100
AcDbEntity
  8
0
  6
Continuous
 62
     7
100
AcDbCircle
 10
-167.8901293374824
 20
29.96550083228841
 30
0.0
 40
122.2999960982017
100
AcDbArc
 50
172.5971190732619
 51
179.9999066928074
  0
ARC
  5
61A
330
1F
100
AcDbEntity
  8
0
  6
Continuous
 62
     7
100
AcDbCircle
 10
-230.5896422203255
 20
29.96530167197168
 30
0.0
 40
122.2999960978359
100
AcDbArc
 50
352.5972596171468
 51
0.0001866109208139
  0
LINE
  5
61B
330
1F
100
AcDbEntity
  8
0
  6
DASH_CENTER
 62
    30
100
AcDbLine
 10
128.766199298678
 20
-29.912
 30
0.0
 11
117.3087901454116
 21
-29.912
 31
0.0
  0
LINE
  5
61C
330
1F
100
AcDbEntity
  8
0
  6
DASH_CENTER
 62
    30
100
AcDbLine
 10
123.0697835473065
 20
-25.3349712515716
 30
0.0
 11
123.0697835473065
 21
-35.7795707559305
 31
0.0
  0
LINE
  5
61D
330
1F
100
AcDbEntity
  8
0
  6
Continuous
 62
     7
100
AcDbLine
 10
193.3622835473066
 20
-40.0343
 30
0.0
 11
193.3622835473066
 21
-41.0343
 31
0.0
  0
LINE
  5
61E
330
1F
100
AcDbEntity
  8
0
  6
DASH_CENTER
 62
    30
100
AcDbLine
 10
299.0798835473066
 20
29.9657
 30
0.0
 11
145.8871835473065
 21
29.9657
 31
0.0
  0
LINE
  5
61F
330
1F
100
AcDbEntity
  8
0
  6
DASH_CENTER
 62
    30
100
AcDbLine
 10
167.3622835473065
 20
-31.99429999999999
 30
0.0
 11
167.3622835473065
 21
-44.3512
 31
0.0
  0
LINE
  5
620
330
1F
100
AcDbEntity
  8
0
  6
Continuous
 62
     7
100
AcDbLine
 10
298.3622835473066
 20
-36.8344
 30
0.0
 11
298.3622835473066
 21
-41.0343
 31
0.0
  0
LINE
  5
621
330
1F
100
AcDbEntity
  8
0
  6
Continuous
 62
     7
100
AcDbLine
 10
255.8623835473066
 20
-37.8344
 30
0.0
 11
298.3622835473066
 21
-37.8344
 31
0.0
  0
LINE
  5
622
330
1F
100
AcDbEntity
  8
0
  6
Continuous
 62
     7
100
AcDbLine
 10
148.3622835473065
 20
-36.8344
 30
0.0
 11
148.3622835473065
 21
-41.0343
 31
0.0
  0
LINE
  5
623
330
1F
100
AcDbEntity
  8
0
  6
DASH_CENTER
 62
    30
100
AcDbLine
 10
279.3623835473066
 20
-31.99429999999999
 30
0.0
 11
279.3623835473066
 21
-44.3512
 31
0.0
  0
LINE
  5
624
330
1F
100
AcDbEntity
  8
0
  6
DASH_CENTER
 62
    30
100
AcDbLine
 10
223.3622835473065
 20
-69.1147
 30
0.0
 11
223.3622835473065
 21
109.5399
 31
0.0
  0
LINE
  5
625
330
1F
100
AcDbEntity
  8
0
  6
Continuous
 62
     7
100
AcDbLine
 10
253.3623835473065
 20
-40.0343
 30
0.0
 11
253.3623835473065
 21
-41.0343
 31
0.0
  0
LINE
  5
626
330
1F
100
AcDbEntity
  8
0
  6
Continuous
 62
     7
100
AcDbLine
 10
121.0197835473065
 20
-23.6122
 30
0.0
 11
119.8400835473065
 21
-29.23449999999998
 31
0.0
  0
LINE
  5
627
330
1F
100
AcDbEntity
  8
0
  6
Continuous
 62
     7
100
AcDbLine
 10
125.1195835473065
 20
-23.6122
 30
0.0
 11
126.2992835473065
 21
-29.23449999999998
 31
0.0
  0
LINE
  5
628
330
1F
100
AcDbEntity
  8
0
  6
Continuous
 62
     7
100
AcDbLine
 10
121.0197835473065
 20
-18.8122
 30
0.0
 11
121.0197835473065
 21
-23.6122
 31
0.0
  0
LINE
  5
629
330
1F
100
AcDbEntity
  8
0
  6
Continuous
 62
     7
100
AcDbLine
 10
125.1195835473065
 20
-18.8122
 30
0.0
 11
125.1195835473065
 21
-23.6122
 31
0.0
  0
LINE
  5
62A
330
1F
100
AcDbEntity
  8
0
  6
Continuous
 62
     7
100
AcDbLine
 10
121.0197835473065
 20
-23.6122
 30
0.0
 11
125.1195835473065
 21
-23.6122
 31
0.0
  0
LINE
  5
62B
330
1F
100
AcDbEntity
  8
0
  6
Continuous
 62
     7
100
AcDbLine
 10
219.7567835473065
 20
35.96569999999999
 30
0.0
 11
226.9678835473066
 21
35.96569999999999
 31
0.0
  0
LINE
  5
62C
330
1F
100
AcDbEntity
  8
0
  6
DASH_CENTER
 62
    30
100
AcDbLine
 10
185.7273835473066
 20
67.6002
 30
0.0
 11
173.6318835473065
 21
79.6959
 31
0.0
  0
LINE
  5
62D
330
1F
100
AcDbEntity
  8
0
  6
DASH_CENTER
 62
    30
100
AcDbLine
 10
260.9969835473065
 20
67.6004
 30
0.0
 11
273.0925835473066
 21
79.6961
 31
0.0
  0
LINE
  5
62E
330
1F
100
AcDbEntity
  8
0
  6
DASH_CENTER
 62
    30
100
AcDbLine
 10
260.9972835473066
 20
-7.6691
 30
0.0
 11
273.0927835473065
 21
-19.7648
 31
0.0
  0
LINE
  5
62F
330
1F
100
AcDbEntity
  8
0
  6
Continuous
 62
     7
100
AcDbLine
 10
155.2623835473065
 20
33.16559999999999
 30
0.0
 11
133.8696835473066
 21
33.16559999999999
 31
0.0
  0
LINE
  5
630
330
1F
100
AcDbEntity
  8
0
  6
Continuous
 62
     7
100
AcDbLine
 10
155.2623835473065
 20
29.96539999999999
 30
0.0
 11
133.8696835473066
 21
29.96539999999999
 31
0.0
  0
LINE
  5
631
330
1F
100
AcDbEntity
  8
0
  6
DASH_CENTER
 62
    30
100
AcDbLine
 10
185.7275835473066
 20
-7.669299999999998
 30
0.0
 11
173.6320835473065
 21
-19.765
 31
0.0
  0
LINE
  5
632
330
1F
100
AcDbEntity
  8
0
  6
Continuous
 62
     7
100
AcDbLine
 10
219.3622835473065
 20
51.4015
 30
0.0
 11
219.3622835473065
 21
62.2147
 31
0.0
  0
LINE
  5
633
330
1F
100
AcDbEntity
  8
0
  6
Continuous
 62
     7
100
AcDbLine
 10
192.2969835473065
 20
82.75279999999998
 30
0.0
 11
191.1382835473066
 21
85.55040000000003
 31
0.0
  0
LINE
  5
634
330
1F
100
AcDbEntity
  8
0
  6
Continuous
 62
     7
100
AcDbLine
 10
219.3623835473065
 20
8.529399999999997
 30
0.0
 11
219.3623835473065
 21
-2.283399999999999
 31
0.0
  0
LINE
  5
635
330
1F
100
AcDbEntity
  8
0
  6
Continuous
 62
     7
100
AcDbLine
 10
213.3622835473065
 20
57.0025
 30
0.0
 11
213.3622835473065
 21
60.297
 31
0.0
  0
LINE
  5
636
330
1F
100
AcDbEntity
  8
0
  6
Continuous
 62
     7
100
AcDbLine
 10
213.3622835473065
 20
72.0013
 30
0.0
 11
213.3622835473065
 21
75.1319
 31
0.0
  0
LINE
  5
637
330
1F
100
AcDbEntity
  8
0
  6
Continuous
 62
     7
100
AcDbLine
 10
121.4696835473066
 20
-18.8122
 30
0.0
 11
121.4696835473066
 21
20.7655
 31
0.0
  0
LINE
  5
638
330
1F
100
AcDbEntity
  8
0
  6
Continuous
 62
     7
100
AcDbLine
 10
262.5835835473066
 20
-14.2162
 30
0.0
 11
263.6377835473065
 21
-10.3102
 31
0.0
  0
LINE
  5
639
330
1F
100
AcDbEntity
  8
0
  6
Continuous
 62
     7
100
AcDbLine
 10
263.6377835473065
 20
-10.3102
 30
0.0
 11
267.5415835473065
 21
-9.264299999999996
 31
0.0
  0
LINE
  5
63A
330
1F
100
AcDbEntity
  8
0
  6
Continuous
 62
     7
100
AcDbLine
 10
265.4495835473066
 20
-17.0717
 30
0.0
 11
262.5835835473066
 21
-14.2162
 31
0.0
  0
LINE
  5
63B
330
1F
100
AcDbEntity
  8
0
  6
Continuous
 62
     7
100
AcDbLine
 10
269.3532835473066
 20
-16.0258
 30
0.0
 11
265.4495835473066
 21
-17.0717
 31
0.0
  0
LINE
  5
63C
330
1F
100
AcDbEntity
  8
0
  6
Continuous
 62
     7
100
AcDbLine
 10
270.4075835473066
 20
-12.11979999999999
 30
0.0
 11
269.3532835473066
 21
-16.0258
 31
0.0
  0
LINE
  5
63D
330
1F
100
AcDbEntity
  8
0
  6
Continuous
 62
     7
100
AcDbLine
 10
267.5415835473065
 20
-9.264299999999996
 30
0.0
 11
270.4075835473066
 21
-12.11979999999999
 31
0.0
  0
LINE
  5
63E
330
1F
100
AcDbEntity
  8
0
  6
Continuous
 62
     7
100
AcDbLine
 10
270.4076835473065
 20
72.0509
 30
0.0
 11
269.3534835473065
 21
75.95659999999998
 31
0.0
  0
LINE
  5
63F
330
1F
100
AcDbEntity
  8
0
  6
Continuous
 62
     7
100
AcDbLine
 10
269.3534835473065
 20
75.95659999999998
 30
0.0
 11
265.4496835473066
 21
77.00279999999998
 31
0.0
  0
LINE
  5
640
330
1F
100
AcDbEntity
  8
0
  6
Continuous
 62
     7
100
AcDbLine
 10
267.5416835473066
 20
69.1952
 30
0.0
 11
270.4076835473065
 21
72.0509
 31
0.0
  0
LINE
  5
641
330
1F
100
AcDbEntity
  8
0
  6
Continuous
 62
     7
100
AcDbLine
 10
263.6379835473066
 20
70.24129999999999
 30
0.0
 11
267.5416835473066
 21
69.1952
 31
0.0
  0
LINE
  5
642
330
1F
100
AcDbEntity
  8
0
  6
Continuous
 62
     7
100
AcDbLine
 10
262.5836835473065
 20
74.1473
 30
0.0
 11
263.6379835473066
 21
70.24129999999999
 31
0.0
  0
LINE
  5
643
330
1F
100
AcDbEntity
  8
0
  6
Continuous
 62
     7
100
AcDbLine
 10
265.4496835473066
 20
77.00279999999998
 30
0.0
 11
262.5836835473065
 21
74.1473
 31
0.0
  0
LINE
  5
644
330
1F
100
AcDbEntity
  8
0
  6
Continuous
 62
     7
100
AcDbLine
 10
255.6112835473066
 20
25.96569999999999
 30
0.0
 11
273.8795835473065
 21
25.96569999999999
 31
0.0
  0
LINE
  5
645
330
1F
100
AcDbEntity
  8
0
  6
Continuous
 62
     7
100
AcDbLine
 10
265.3978835473066
 20
19.9657
 30
0.0
 11
268.5285835473066
 21
19.9657
 31
0.0
  0
LINE
  5
646
330
1F
100
AcDbEntity
  8
0
  6
Continuous
 62
     7
100
AcDbLine
 10
250.3991835473065
 20
19.9657
 30
0.0
 11
253.6936835473066
 21
19.9657
 31
0.0
  0
LINE
  5
647
330
1F
100
AcDbEntity
  8
0
  6
Continuous
 62
     7
100
AcDbLine
 10
244.7982835473065
 20
25.96569999999999
 30
0.0
 11
255.6112835473066
 21
25.96569999999999
 31
0.0
  0
LINE
  5
648
330
1F
100
AcDbEntity
  8
0
  6
Continuous
 62
     7
100
AcDbLine
 10
244.7984835473066
 20
33.9657
 30
0.0
 11
255.6113835473066
 21
33.9657
 31
0.0
  0
LINE
  5
649
330
1F
100
AcDbEntity
  8
0
  6
Continuous
 62
     7
100
AcDbLine
 10
250.3994835473065
 20
39.9657
 30
0.0
 11
253.6938835473065
 21
39.9657
 31
0.0
  0
LINE
  5
64A
330
1F
100
AcDbEntity
  8
0
  6
Continuous
 62
     7
100
AcDbLine
 10
255.6113835473066
 20
33.9657
 30
0.0
 11
266.8018835473066
 21
33.9657
 31
0.0
  0
LINE
  5
64B
330
1F
100
AcDbEntity
  8
0
  6
Continuous
 62
     7
100
AcDbLine
 10
266.8019835473065
 20
33.9657
 30
0.0
 11
273.8796835473065
 21
33.9657
 31
0.0
  0
LINE
  5
64C
330
1F
100
AcDbEntity
  8
0
  6
Continuous
 62
     7
100
AcDbLine
 10
265.3980835473066
 20
39.9657
 30
0.0
 11
268.5287835473066
 21
39.9657
 31
0.0
  0
LINE
  5
64D
330
1F
100
AcDbEntity
  8
0
  6
Continuous
 62
     7
100
AcDbLine
 10
227.3622835473065
 20
8.529399999999997
 30
0.0
 11
227.3622835473065
 21
-2.283399999999999
 31
0.0
  0
LINE
  5
64E
330
1F
100
AcDbEntity
  8
0
  6
Continuous
 62
     7
100
AcDbLine
 10
233.3622835473065
 20
2.928599999999999
 30
0.0
 11
233.3622835473065
 21
-0.3658999999999999
 31
0.0
  0
LINE
  5
64F
330
1F
100
AcDbEntity
  8
0
  6
Continuous
 62
     7
100
AcDbLine
 10
227.3622835473065
 20
-2.283399999999999
 30
0.0
 11
227.3622835473065
 21
-13.474
 31
0.0
  0
LINE
  5
650
330
1F
100
AcDbEntity
  8
0
  6
Continuous
 62
     7
100
AcDbLine
 10
227.3622835473065
 20
-13.474
 30
0.0
 11
227.3622835473065
 21
-20.55169999999999
 31
0.0
  0
LINE
  5
651
330
1F
100
AcDbEntity
  8
0
  6
Continuous
 62
     7
100
AcDbLine
 10
233.3622835473065
 20
-12.07019999999999
 30
0.0
 11
233.3622835473065
 21
-15.2008
 31
0.0
  0
LINE
  5
652
330
1F
100
AcDbEntity
  8
0
  6
Continuous
 62
     7
100
AcDbLine
 10
227.3623835473066
 20
62.2147
 30
0.0
 11
227.3623835473066
 21
80.48300000000002
 31
0.0
  0
LINE
  5
653
330
1F
100
AcDbEntity
  8
0
  6
Continuous
 62
     7
100
AcDbLine
 10
233.3623835473066
 20
57.0025
 30
0.0
 11
233.3623835473066
 21
60.297
 31
0.0
  0
LINE
  5
654
330
1F
100
AcDbEntity
  8
0
  6
Continuous
 62
     7
100
AcDbLine
 10
233.3623835473066
 20
72.0013
 30
0.0
 11
233.3623835473066
 21
75.1319
 31
0.0
  0
LINE
  5
655
330
1F
100
AcDbEntity
  8
0
  6
Continuous
 62
     7
100
AcDbLine
 10
219.3623835473065
 20
-13.474
 30
0.0
 11
219.3623835473065
 21
-20.55169999999999
 31
0.0
  0
LINE
  5
656
330
1F
100
AcDbEntity
  8
0
  6
Continuous
 62
     7
100
AcDbLine
 10
227.3623835473066
 20
51.4015
 30
0.0
 11
227.3623835473066
 21
62.2147
 31
0.0
  0
LINE
  5
657
330
1F
100
AcDbEntity
  8
0
  6
Continuous
 62
     7
100
AcDbLine
 10
254.4275835473066
 20
82.75279999999998
 30
0.0
 11
255.5863835473065
 21
85.55040000000003
 31
0.0
  0
LINE
  5
658
330
1F
100
AcDbEntity
  8
0
  6
Continuous
 62
     7
100
AcDbLine
 10
238.7216835473065
 20
89.25839999999999
 30
0.0
 11
239.8804835473065
 21
92.05580000000001
 31
0.0
  0
LINE
  5
659
330
1F
100
AcDbEntity
  8
0
  6
Continuous
 62
     7
100
AcDbLine
 10
282.6548835473066
 20
45.3253
 30
0.0
 11
285.4523835473066
 21
46.48399999999999
 31
0.0
  0
LINE
  5
65A
330
1F
100
AcDbEntity
  8
0
  6
Continuous
 62
     7
100
AcDbLine
 10
276.1493835473065
 20
61.0311
 30
0.0
 11
278.9467835473065
 21
62.1898
 31
0.0
  0
LINE
  5
65B
330
1F
100
AcDbEntity
  8
0
  6
Continuous
 62
     7
100
AcDbLine
 10
276.1492835473065
 20
-1.099799999999998
 30
0.0
 11
278.9467835473065
 21
-2.258699999999997
 31
0.0
  0
LINE
  5
65C
330
1F
100
AcDbEntity
  8
0
  6
Continuous
 62
     7
100
AcDbLine
 10
282.6549835473066
 20
14.606
 30
0.0
 11
285.4523835473066
 21
13.4474
 31
0.0
  0
LINE
  5
65D
330
1F
100
AcDbEntity
  8
0
  6
Continuous
 62
     7
100
AcDbLine
 10
238.7216835473065
 20
-29.3271
 30
0.0
 11
239.8804835473065
 21
-32.12469999999999
 31
0.0
  0
LINE
  5
65E
330
1F
100
AcDbEntity
  8
0
  6
Continuous
 62
     7
100
AcDbLine
 10
254.4276835473066
 20
-22.8217
 30
0.0
 11
255.5863835473065
 21
-25.6191
 31
0.0
  0
LINE
  5
65F
330
1F
100
AcDbEntity
  8
0
  6
Continuous
 62
     7
100
AcDbLine
 10
213.3623835473065
 20
-12.07019999999999
 30
0.0
 11
213.3623835473065
 21
-15.2008
 31
0.0
  0
LINE
  5
660
330
1F
100
AcDbEntity
  8
0
  6
Continuous
 62
     7
100
AcDbLine
 10
164.0697835473066
 20
45.3253
 30
0.0
 11
161.2721835473065
 21
46.48399999999999
 31
0.0
  0
LINE
  5
661
330
1F
100
AcDbEntity
  8
0
  6
Continuous
 62
     7
100
AcDbLine
 10
208.0029835473065
 20
89.25839999999999
 30
0.0
 11
206.8441835473065
 21
92.05580000000001
 31
0.0
  0
LINE
  5
662
330
1F
100
AcDbEntity
  8
0
  6
Continuous
 62
     7
100
AcDbLine
 10
148.3622835473065
 20
-41.0343
 30
0.0
 11
186.8701835473066
 21
-41.0343
 31
0.0
  0
LINE
  5
663
330
1F
100
AcDbEntity
  8
0
  6
Continuous
 62
     7
100
AcDbLine
 10
159.1138835473065
 20
16.7179
 30
0.0
 11
158.6537835473066
 21
16.6231
 31
0.0
  0
LINE
  5
664
330
1F
100
AcDbEntity
  8
0
  6
Continuous
 62
     7
100
AcDbLine
 10
133.8696835473066
 20
26.7655
 30
0.0
 11
155.2623835473065
 21
26.7655
 31
0.0
  0
LINE
  5
665
330
1F
100
AcDbEntity
  8
0
  6
Continuous
 62
     7
100
AcDbLine
 10
158.6537835473066
 20
43.30799999999999
 30
0.0
 11
159.1138835473065
 21
43.2132
 31
0.0
  0
LINE
  5
666
330
1F
100
AcDbEntity
  8
0
  6
Continuous
 62
     7
100
AcDbLine
 10
258.1555835473066
 20
-37.1083
 30
0.0
 11
257.0151835473065
 21
-33.1039
 31
0.0
  0
LINE
  5
667
330
1F
100
AcDbEntity
  8
0
  6
Continuous
 62
     7
100
AcDbLine
 10
219.3622835473065
 20
62.2147
 30
0.0
 11
219.3622835473065
 21
80.48300000000002
 31
0.0
  0
LINE
  5
668
330
1F
100
AcDbEntity
  8
0
  6
Continuous
 62
     7
100
AcDbLine
 10
164.0696835473065
 20
14.606
 30
0.0
 11
161.2722835473065
 21
13.4474
 31
0.0
  0
LINE
  5
669
330
1F
100
AcDbEntity
  8
0
  6
Continuous
 62
     7
100
AcDbLine
 10
254.8623835473065
 20
-36.8344
 30
0.0
 11
191.8622835473065
 21
-36.8344
 31
0.0
  0
LINE
  5
66A
330
1F
100
AcDbEntity
  8
0
  6
Continuous
 62
     7
100
AcDbLine
 10
181.3265835473066
 20
39.9657
 30
0.0
 11
178.1958835473066
 21
39.9657
 31
0.0
  0
LINE
  5
66B
330
1F
100
AcDbEntity
  8
0
  6
Continuous
 62
     7
100
AcDbLine
 10
170.5752835473065
 20
61.0311
 30
0.0
 11
167.7778835473066
 21
62.1898
 31
0.0
  0
LINE
  5
66C
330
1F
100
AcDbEntity
  8
0
  6
Continuous
 62
     7
100
AcDbLine
 10
170.5752835473065
 20
-1.099799999999998
 30
0.0
 11
167.7777835473065
 21
-2.258699999999997
 31
0.0
  0
LINE
  5
66D
330
1F
100
AcDbEntity
  8
0
  6
Continuous
 62
     7
100
AcDbLine
 10
213.3623835473065
 20
2.928599999999999
 30
0.0
 11
213.3623835473065
 21
-0.3658999999999999
 31
0.0
  0
LINE
  5
66E
330
1F
100
AcDbEntity
  8
0
  6
Continuous
 62
     7
100
AcDbLine
 10
208.0028835473065
 20
-29.3271
 30
0.0
 11
206.8441835473065
 21
-32.12469999999999
 31
0.0
  0
LINE
  5
66F
330
1F
100
AcDbEntity
  8
0
  6
Continuous
 62
     7
100
AcDbLine
 10
298.3622835473066
 20
-36.8344
 30
0.0
 11
296.5402835473066
 21
-36.8344
 31
0.0
  0
LINE
  5
670
330
1F
100
AcDbEntity
  8
0
  6
Continuous
 62
     7
100
AcDbLine
 10
186.8701835473066
 20
-41.0343
 30
0.0
 11
193.3622835473066
 21
-41.0343
 31
0.0
  0
LINE
  5
671
330
1F
100
AcDbEntity
  8
0
  6
Continuous
 62
     7
100
AcDbLine
 10
151.9333835473065
 20
-35.8041
 30
0.0
 11
161.3435835473065
 21
-18.82779999999998
 31
0.0
  0
LINE
  5
672
330
1F
100
AcDbEntity
  8
0
  6
Continuous
 62
     7
100
AcDbLine
 10
298.3622835473066
 20
-41.0343
 30
0.0
 11
259.8544835473065
 21
-41.0343
 31
0.0
  0
LINE
  5
673
330
1F
100
AcDbEntity
  8
0
  6
Continuous
 62
     7
100
AcDbLine
 10
259.8544835473065
 20
-41.0343
 30
0.0
 11
253.3623835473065
 21
-41.0343
 31
0.0
  0
LINE
  5
674
330
1F
100
AcDbEntity
  8
0
  6
Continuous
 62
     7
100
AcDbLine
 10
223.3623835473065
 20
-40.0343
 30
0.0
 11
253.3623835473065
 21
-40.0343
 31
0.0
  0
LINE
  5
675
330
1F
100
AcDbEntity
  8
0
  6
Continuous
 62
     7
100
AcDbLine
 10
294.7909835473065
 20
-35.8041
 30
0.0
 11
285.3810835473066
 21
-18.82779999999998
 31
0.0
  0
LINE
  5
676
330
1F
100
AcDbEntity
  8
0
  6
Continuous
 62
     7
100
AcDbLine
 10
148.3622835473065
 20
-36.8344
 30
0.0
 11
150.1841835473065
 21
-36.8344
 31
0.0
  0
LINE
  5
677
330
1F
100
AcDbEntity
  8
0
  6
Continuous
 62
     7
100
AcDbLine
 10
192.2969835473065
 20
-22.8217
 30
0.0
 11
191.1382835473066
 21
-25.6191
 31
0.0
  0
LINE
  5
678
330
1F
100
AcDbEntity
  8
0
  6
Continuous
 62
     7
100
AcDbLine
 10
219.3623835473065
 20
-2.283399999999999
 30
0.0
 11
219.3623835473065
 21
-13.474
 31
0.0
  0
LINE
  5
679
330
1F
100
AcDbEntity
  8
0
  6
Continuous
 62
     7
100
AcDbLine
 10
190.8622835473065
 20
-37.8344
 30
0.0
 11
148.3622835473065
 21
-37.8344
 31
0.0
  0
LINE
  5
67A
330
1F
100
AcDbEntity
  8
0
  6
Continuous
 62
     7
100
AcDbLine
 10
188.5690835473066
 20
-37.1083
 30
0.0
 11
189.7094835473066
 21
-33.1039
 31
0.0
  0
LINE
  5
67B
330
1F
100
AcDbEntity
  8
0
  6
Continuous
 62
     7
100
AcDbLine
 10
179.9226835473066
 20
33.9657
 30
0.0
 11
172.8449835473066
 21
33.9657
 31
0.0
  0
LINE
  5
67C
330
1F
100
AcDbEntity
  8
0
  6
Continuous
 62
     7
100
AcDbLine
 10
191.1132835473065
 20
33.9657
 30
0.0
 11
179.9227835473066
 21
33.9657
 31
0.0
  0
LINE
  5
67D
330
1F
100
AcDbEntity
  8
0
  6
Continuous
 62
     7
100
AcDbLine
 10
196.3251835473066
 20
39.9657
 30
0.0
 11
193.0307835473065
 21
39.9657
 31
0.0
  0
LINE
  5
67E
330
1F
100
AcDbEntity
  8
0
  6
Continuous
 62
     7
100
AcDbLine
 10
201.9261835473066
 20
33.9657
 30
0.0
 11
191.1132835473065
 21
33.9657
 31
0.0
  0
LINE
  5
67F
330
1F
100
AcDbEntity
  8
0
  6
Continuous
 62
     7
100
AcDbLine
 10
201.9263835473065
 20
25.96569999999999
 30
0.0
 11
191.1133835473066
 21
25.96569999999999
 31
0.0
  0
LINE
  5
680
330
1F
100
AcDbEntity
  8
0
  6
Continuous
 62
     7
100
AcDbLine
 10
196.3253835473065
 20
19.9657
 30
0.0
 11
193.0309835473065
 21
19.9657
 31
0.0
  0
LINE
  5
681
330
1F
100
AcDbEntity
  8
0
  6
Continuous
 62
     7
100
AcDbLine
 10
181.3267835473066
 20
19.9657
 30
0.0
 11
178.1960835473065
 21
19.9657
 31
0.0
  0
LINE
  5
682
330
1F
100
AcDbEntity
  8
0
  6
Continuous
 62
     7
100
AcDbLine
 10
191.1133835473066
 20
25.96569999999999
 30
0.0
 11
172.8450835473065
 21
25.96569999999999
 31
0.0
  0
LINE
  5
683
330
1F
100
AcDbEntity
  8
0
  6
Continuous
 62
     7
100
AcDbLine
 10
181.2749835473066
 20
77.00279999999998
 30
0.0
 11
184.1408835473066
 21
74.1473
 31
0.0
  0
LINE
  5
684
330
1F
100
AcDbEntity
  8
0
  6
Continuous
 62
     7
100
AcDbLine
 10
184.1408835473066
 20
74.1473
 30
0.0
 11
183.0866835473065
 21
70.24129999999999
 31
0.0
  0
LINE
  5
685
330
1F
100
AcDbEntity
  8
0
  6
Continuous
 62
     7
100
AcDbLine
 10
183.0866835473065
 20
70.24129999999999
 30
0.0
 11
179.1828835473066
 21
69.1952
 31
0.0
  0
LINE
  5
686
330
1F
100
AcDbEntity
  8
0
  6
Continuous
 62
     7
100
AcDbLine
 10
179.1828835473066
 20
69.1952
 30
0.0
 11
176.3168835473065
 21
72.0509
 31
0.0
  0
LINE
  5
687
330
1F
100
AcDbEntity
  8
0
  6
Continuous
 62
     7
100
AcDbLine
 10
177.3711835473066
 20
75.95659999999998
 30
0.0
 11
181.2749835473066
 21
77.00279999999998
 31
0.0
  0
LINE
  5
688
330
1F
100
AcDbEntity
  8
0
  6
Continuous
 62
     7
100
AcDbLine
 10
176.3168835473065
 20
72.0509
 30
0.0
 11
177.3711835473066
 21
75.95659999999998
 31
0.0
  0
LINE
  5
689
330
1F
100
AcDbEntity
  8
0
  6
Continuous
 62
     7
100
AcDbLine
 10
179.1830835473066
 20
-9.264299999999996
 30
0.0
 11
176.3170835473065
 21
-12.11979999999999
 31
0.0
  0
LINE
  5
68A
330
1F
100
AcDbEntity
  8
0
  6
Continuous
 62
     7
100
AcDbLine
 10
176.3170835473065
 20
-12.11979999999999
 30
0.0
 11
177.3713835473066
 21
-16.0258
 31
0.0
  0
LINE
  5
68B
330
1F
100
AcDbEntity
  8
0
  6
Continuous
 62
     7
100
AcDbLine
 10
177.3713835473066
 20
-16.0258
 30
0.0
 11
181.2750835473065
 21
-17.0717
 31
0.0
  0
LINE
  5
68C
330
1F
100
AcDbEntity
  8
0
  6
Continuous
 62
     7
100
AcDbLine
 10
181.2750835473065
 20
-17.0717
 30
0.0
 11
184.1410835473066
 21
-14.2162
 31
0.0
  0
LINE
  5
68D
330
1F
100
AcDbEntity
  8
0
  6
Continuous
 62
     7
100
AcDbLine
 10
183.0867835473066
 20
-10.3102
 30
0.0
 11
179.1830835473066
 21
-9.264299999999996
 31
0.0
  0
LINE
  5
68E
330
1F
100
AcDbEntity
  8
0
  6
Continuous
 62
     7
100
AcDbLine
 10
184.1410835473066
 20
-14.2162
 30
0.0
 11
183.0867835473066
 21
-10.3102
 31
0.0
  0
LINE
  5
68F
330
1F
100
AcDbEntity
  8
0
  6
Continuous
 62
     7
100
AcDbLine
 10
223.3622835473065
 20
-40.0343
 30
0.0
 11
193.3622835473066
 21
-40.0343
 31
0.0
  0
LINE
  5
690
330
1F
100
AcDbEntity
  8
0
  6
DASH_CENTER
 62
    30
100
AcDbLine
 10
167.2106835473065
 20
74.18779999999998
 30
0.0
 11
173.5065835473066
 21
69.2296
 31
0.0
  0
LINE
  5
691
330
1F
100
AcDbEntity
  8
0
  6
Continuous
 62
     7
100
AcDbLine
 10
161.7232835473066
 20
52.4154
 30
0.0
 11
161.0621835473066
 21
52.93610000000001
 31
0.0
  0
LINE
  5
692
330
1F
100
AcDbEntity
  8
0
  6
Continuous
 62
     7
100
AcDbLine
 10
187.0905835473066
 20
84.62560000000001
 30
0.0
 11
186.4293835473065
 21
85.1463
 31
0.0
  0
LINE
  5
693
330
1F
100
AcDbEntity
  8
0
  6
Continuous
 62
     7
100
AcDbLine
 10
167.8690835473065
 20
97.8541
 30
0.0
 11
185.6787835473065
 21
85.03480000000001
 31
0.0
  0
LINE
  5
694
330
1F
100
AcDbEntity
  8
0
  6
Continuous
 62
     7
100
AcDbLine
 10
143.1138835473065
 20
69.0706
 30
0.0
 11
160.9944835473066
 21
53.6917
 31
0.0
  0
LINE
  5
695
330
1F
100
AcDbEntity
  8
0
  6
Continuous
 62
     7
100
AcDbLine
 10
282.4240835473066
 20
60.74329999999999
 30
0.0
 11
281.6821835473066
 21
60.0014
 31
0.0
  0
LINE
  5
696
330
1F
100
AcDbEntity
  8
0
  6
Continuous
 62
     7
100
AcDbLine
 10
253.3978835473066
 20
88.28570000000002
 30
0.0
 11
254.1397835473066
 21
89.02760000000002
 31
0.0
  0
LINE
  5
697
330
1F
100
AcDbEntity
  8
0
  6
Continuous
 62
     7
100
AcDbLine
 10
169.0329835473066
 20
68.2977
 30
0.0
 11
167.9986835473066
 21
69.26860000000001
 31
0.0
  0
LINE
  5
698
330
1F
100
AcDbEntity
  8
0
  6
Continuous
 62
     7
100
AcDbLine
 10
173.3618835473066
 20
73.7987
 30
0.0
 11
172.1745835473065
 21
74.5753
 31
0.0
  0
LINE
  5
699
330
1F
100
AcDbEntity
  8
0
  6
Continuous
 62
     7
100
AcDbLine
 10
167.8669835473066
 20
71.0206
 30
0.0
 11
170.4411835473066
 21
74.2916
 31
0.0
  0
LINE
  5
69A
330
1F
100
AcDbEntity
  8
0
  6
Continuous
 62
     7
100
AcDbLine
 10
127.8696835473065
 20
0.6122794045264293
 30
0.0
 11
127.8696835473065
 21
20.7655
 31
0.0
  0
LINE
  5
69B
330
1F
100
AcDbEntity
  8
0
  6
Continuous
 62
     7
100
AcDbLine
 10
121.0197835473065
 20
-18.8122
 30
0.0
 11
124.6696835473065
 21
-18.8122
 31
0.0
  0
LINE
  5
69C
330
1F
100
AcDbEntity
  8
0
  6
Continuous
 62
     7
100
AcDbLine
 10
124.6696835473065
 20
-18.8122
 30
0.0
 11
124.6696835473065
 21
20.7655
 31
0.0
  0
LINE
  5
69D
330
1F
100
AcDbEntity
  8
0
  6
Continuous
 62
     7
100
AcDbLine
 10
124.6696835473065
 20
-18.8122
 30
0.0
 11
125.1195835473065
 21
-18.8122
 31
0.0
  0
ARC
  5
69E
330
1F
100
AcDbEntity
  8
0
  6
Continuous
 62
     7
100
AcDbCircle
 10
254.8622835423065
 20
-37.33439999499899
 30
0.0
 40
0.500000005000004
100
AcDbArc
 50
359.9999994269268
 51
89.98854027117634
  0
ARC
  5
69F
330
1F
100
AcDbEntity
  8
0
  6
Continuous
 62
     7
100
AcDbCircle
 10
255.8622835523066
 20
-37.33440000499899
 30
0.0
 40
0.500000005000004
100
AcDbArc
 50
179.9999994271573
 51
270.0114585829071
  0
ARC
  5
6A0
330
1F
100
AcDbEntity
  8
0
  6
Continuous
 62
     7
100
AcDbCircle
 10
191.8622835473065
 20
-37.3344
 30
0.0
 40
0.5
100
AcDbArc
 50
90.0
 51
180.0
  0
ARC
  5
6A1
330
1F
100
AcDbEntity
  8
0
  6
Continuous
 62
     7
100
AcDbCircle
 10
190.8622835473065
 20
-37.3344
 30
0.0
 40
0.5
100
AcDbArc
 50
270.0
 51
0.0
  0
ARC
  5
6A2
330
1F
100
AcDbEntity
  8
0
  6
Continuous
 62
     7
100
AcDbCircle
 10
123.0698335473066
 20
-29.912
 30
0.0
 40
3.29996680021179
100
AcDbArc
 50
168.1508663061888
 51
11.84913369381134
  0
ARC
  5
6A3
330
1F
100
AcDbEntity
  8
0
  6
DASH_CENTER
 62
    30
100
AcDbCircle
 10
223.3619381653773
 20
29.96555303344239
 30
0.0
 40
60.99994390536163
100
AcDbArc
 50
127.1095409942075
 51
143.5115781911295
  0
ARC
  5
6A4
330
1F
100
AcDbEntity
  8
0
  6
DASH_CENTER
 62
    30
100
AcDbCircle
 10
223.3625353073009
 20
29.96564879850796
 30
0.0
 40
60.99998377974946
100
AcDbArc
 50
37.10974419495109
 51
53.51183806226345
  0
ARC
  5
6A5
330
1F
100
AcDbEntity
  8
0
  6
DASH_CENTER
 62
    30
100
AcDbCircle
 10
223.3624802014939
 20
29.96539661769107
 30
0.0
 40
60.99997407290411
100
AcDbArc
 50
307.1098125085658
 51
323.5117747998263
  0
ARC
  5
6A6
330
1F
100
AcDbEntity
  8
0
  6
Continuous
 62
     7
100
AcDbCircle
 10
223.3627450863846
 20
29.96580833475187
 30
0.0
 40
64.24996560364728
100
AcDbArc
 50
104.8980514639106
 51
120.1025912893807
  0
ARC
  5
6A7
330
1F
100
AcDbEntity
  8
0
  6
Continuous
 62
     7
100
AcDbCircle
 10
216.3623921573782
 20
8.52958813118601
 30
0.0
 40
2.999991389951818
100
AcDbArc
 50
0.0002266783004889
 51
71.91678129655305
  0
ARC
  5
6A8
330
1F
100
AcDbEntity
  8
0
  6
Continuous
 62
     7
100
AcDbCircle
 10
210.3624057392095
 20
2.928564706507188
 30
0.0
 40
2.999977808794897
100
AcDbArc
 50
359.9987641876019
 51
64.3230970348895
  0
ARC
  5
6A9
330
1F
100
AcDbEntity
  8
0
  6
Continuous
 62
     7
100
AcDbCircle
 10
216.3623788939919
 20
0.7938059020213295
 30
0.0
 40
3.000004653320311
100
AcDbArc
 50
359.9998872798703
 51
76.50653110942553
  0
ARC
  5
6AA
330
1F
100
AcDbEntity
  8
0
  6
Continuous
 62
     7
100
AcDbCircle
 10
223.3623057496448
 20
29.96562635422966
 30
0.0
 40
61.24995278008763
100
AcDbArc
 50
104.522860724567
 51
120.4769013163317
  0
ARC
  5
6AB
330
1F
100
AcDbEntity
  8
0
  6
Continuous
 62
     7
100
AcDbCircle
 10
178.1958778329463
 20
42.96570759080322
 30
0.0
 40
3.000007590808691
100
AcDbArc
 50
163.9447935344701
 51
270.0001091359668
  0
ARC
  5
6AC
330
1F
100
AcDbEntity
  8
0
  6
Continuous
 62
     7
100
AcDbCircle
 10
216.3623943932046
 20
-2.283391255934644
 30
0.0
 40
2.999989154114708
100
AcDbArc
 50
257.75234267351
 51
359.9998330000496
  0
ARC
  5
6AD
330
1F
100
AcDbEntity
  8
0
  6
Continuous
 62
     7
100
AcDbCircle
 10
210.3623913806691
 20
-0.3658948348284809
 30
0.0
 40
2.999992166641765
100
AcDbArc
 50
246.8003077255739
 51
359.9999013522328
  0
ARC
  5
6AE
330
1F
100
AcDbEntity
  8
0
  6
Continuous
 62
     7
100
AcDbCircle
 10
210.3622621275461
 20
75.13191612438489
 30
0.0
 40
3.000021419803732
100
AcDbArc
 50
359.9996920491316
 51
106.0568429937815
  0
ARC
  5
6AF
330
1F
100
AcDbEntity
  8
0
  6
Continuous
 62
     7
100
AcDbCircle
 10
223.3624835473066
 20
29.9657
 30
0.0
 40
50.00001364499815
100
AcDbArc
 50
196.0572626883143
 51
253.9427373116855
  0
ARC
  5
6B0
330
1F
100
AcDbEntity
  8
0
  6
Continuous
 62
     7
100
AcDbCircle
 10
210.3622640335003
 20
72.00127353873944
 30
0.0
 40
3.000019513923028
100
AcDbArc
 50
287.1857976884868
 51
0.0005053695632977
  0
ARC
  5
6B1
330
1F
100
AcDbEntity
  8
0
  6
Continuous
 62
     7
100
AcDbCircle
 10
133.8696835473066
 20
20.7655
 30
0.0
 40
9.199999999999999
100
AcDbArc
 50
90.0
 51
180.0
  0
ARC
  5
6B2
330
1F
100
AcDbEntity
  8
0
  6
Continuous
 62
     7
100
AcDbCircle
 10
133.8696835473066
 20
20.7655
 30
0.0
 40
12.4
100
AcDbArc
 50
90.0
 51
180.0
  0
ARC
  5
6B3
330
1F
100
AcDbEntity
  8
0
  6
Continuous
 62
     7
100
AcDbCircle
 10
133.8696835473066
 20
20.7655
 30
0.0
 40
6.0
100
AcDbArc
 50
90.0
 51
180.0
  0
ARC
  5
6B4
330
1F
100
AcDbEntity
  8
0
  6
Continuous
 62
     7
100
AcDbCircle
 10
223.36257185332
 20
29.96570608945363
 30
0.0
 40
53.99999391131601
100
AcDbArc
 50
90.00030590221633
 51
97.88927063927907
  0
ARC
  5
6B5
330
1F
100
AcDbEntity
  8
0
  6
Continuous
 62
     7
100
AcDbCircle
 10
223.3626587215356
 20
29.96572788089503
 30
0.0
 40
19.54997212270485
100
AcDbArc
 50
90.00109953609053
 51
108.0856929026035
  0
ARC
  5
6B6
330
1F
100
AcDbEntity
  8
0
  6
Continuous
 62
     7
100
AcDbCircle
 10
223.3623379548026
 20
29.96574559234277
 30
0.0
 40
66.59995347799309
100
AcDbArc
 50
27.52446149323505
 51
62.47574107808834
  0
ARC
  5
6B7
330
1F
100
AcDbEntity
  8
0
  6
Continuous
 62
     7
100
AcDbCircle
 10
223.3621723597094
 20
29.96571102736165
 30
0.0
 40
40.99996787126489
100
AcDbArc
 50
9.153944757834716
 51
81.67258500564916
  0
ARC
  5
6B8
330
1F
100
AcDbEntity
  8
0
  6
Continuous
 62
     7
100
AcDbCircle
 10
223.3621919612367
 20
29.96569158597818
 30
0.0
 40
35.99999688284513
100
AcDbArc
 50
12.24643800743606
 51
77.75293795410131
  0
ARC
  5
6B9
330
1F
100
AcDbEntity
  8
0
  6
Continuous
 62
     7
100
AcDbCircle
 10
223.3621878550084
 20
29.9656957245542
 30
0.0
 40
26.999959995803
100
AcDbArc
 50
13.49321029153638
 51
76.93742959602904
  0
ARC
  5
6BA
330
1F
100
AcDbEntity
  8
0
  6
Continuous
 62
     7
100
AcDbCircle
 10
223.3621835473065
 20
29.9657
 30
0.0
 40
40.99999039853545
100
AcDbArc
 50
279.154238391259
 51
350.8457616087401
  0
ARC
  5
6BB
330
1F
100
AcDbEntity
  8
0
  6
Continuous
 62
     7
100
AcDbCircle
 10
223.3621729248125
 20
29.96571062258725
 30
0.0
 40
49.9999379364092
100
AcDbArc
 50
16.05691726075686
 51
73.94258043035558
  0
ARC
  5
6BC
330
1F
100
AcDbEntity
  8
0
  6
Continuous
 62
     7
100
AcDbCircle
 10
223.3621677614265
 20
29.96568421404086
 30
0.0
 40
26.99999818693513
100
AcDbArc
 50
283.4936524249678
 51
346.5066347049969
  0
ARC
  5
6BD
330
1F
100
AcDbEntity
  8
0
  6
Continuous
 62
     7
100
AcDbCircle
 10
223.3621058233409
 20
29.96562227546998
 30
0.0
 40
36.00000748830364
100
AcDbArc
 50
282.2470358059888
 51
347.7533802204086
  0
ARC
  5
6BE
330
1F
100
AcDbEntity
  8
0
  6
Continuous
 62
     7
100
AcDbCircle
 10
268.5286100822767
 20
16.96566474981552
 30
0.0
 40
3.000035250301796
100
AcDbArc
 50
343.941520517017
 51
90.00050677464278
  0
ARC
  5
6BF
330
1F
100
AcDbEntity
  8
0
  6
Continuous
 62
     7
100
AcDbCircle
 10
273.8795825166495
 20
22.96570118333412
 30
0.0
 40
2.999998816665996
100
AcDbArc
 50
352.1102633129959
 51
89.99998031589333
  0
ARC
  5
6C0
330
1F
100
AcDbEntity
  8
0
  6
Continuous
 62
     7
100
AcDbCircle
 10
266.8019762554544
 20
22.96569378919725
 30
0.0
 40
3.000006210811606
100
AcDbArc
 50
89.99986073616961
 51
170.8452380926093
  0
ARC
  5
6C1
330
1F
100
AcDbEntity
  8
0
  6
Continuous
 62
     7
100
AcDbCircle
 10
265.3979418891048
 20
16.96574302758503
 30
0.0
 40
2.999956972982248
100
AcDbArc
 50
90.00111426224966
 51
162.8170823046318
  0
ARC
  5
6C2
330
1F
100
AcDbEntity
  8
0
  6
Continuous
 62
     7
100
AcDbCircle
 10
250.3992560500844
 20
16.96574558911166
 30
0.0
 40
2.999954411764463
100
AcDbArc
 50
90.00138472209897
 51
154.3212588560874
  0
ARC
  5
6C3
330
1F
100
AcDbEntity
  8
0
  6
Continuous
 62
     7
100
AcDbCircle
 10
253.6936913700828
 20
16.96568813590064
 30
0.0
 40
3.000011864109526
100
AcDbArc
 50
336.7988003654591
 51
90.00014940342811
  0
ARC
  5
6C4
330
1F
100
AcDbEntity
  8
0
  6
Continuous
 62
     7
100
AcDbCircle
 10
255.6112748032413
 20
22.96571084589801
 30
0.0
 40
2.999989154114715
100
AcDbArc
 50
347.7523426735113
 51
89.99983300004897
  0
ARC
  5
6C5
330
1F
100
AcDbEntity
  8
0
  6
Continuous
 62
     7
100
AcDbCircle
 10
252.5342776452852
 20
22.96569534668548
 30
0.0
 40
3.000004653320321
100
AcDbArc
 50
89.99988727987028
 51
166.5065311094246
  0
ARC
  5
6C6
330
1F
100
AcDbEntity
  8
0
  6
Continuous
 62
     7
100
AcDbCircle
 10
244.7982740204623
 20
22.96569308921282
 30
0.0
 40
3.000006910802288
100
AcDbArc
 50
89.99981805109595
 51
161.9145571545608
  0
ARC
  5
6C7
330
1F
100
AcDbEntity
  8
0
  6
Continuous
 62
     7
100
AcDbCircle
 10
244.7983740204623
 20
36.96570691078715
 30
0.0
 40
3.000006910802281
100
AcDbArc
 50
198.0854428454389
 51
270.000181948904
  0
ARC
  5
6C8
330
1F
100
AcDbEntity
  8
0
  6
Continuous
 62
     7
100
AcDbCircle
 10
252.5342776452852
 20
36.96570465331451
 30
0.0
 40
3.000004653320311
100
AcDbArc
 50
193.4934688905752
 51
270.0001127201297
  0
ARC
  5
6C9
330
1F
100
AcDbEntity
  8
0
  6
Continuous
 62
     7
100
AcDbCircle
 10
250.3994127167594
 20
42.96574453433324
 30
0.0
 40
3.000044535169378
100
AcDbArc
 50
205.6798233990871
 51
270.0013527437236
  0
ARC
  5
6CA
330
1F
100
AcDbEntity
  8
0
  6
Continuous
 62
     7
100
AcDbCircle
 10
253.693895699226
 20
42.96571842817093
 30
0.0
 40
3.000018428195541
100
AcDbArc
 50
269.9997679168598
 51
23.19685379095957
  0
ARC
  5
6CB
330
1F
100
AcDbEntity
  8
0
  6
Continuous
 62
     7
100
AcDbCircle
 10
255.6113662520907
 20
36.96567854808022
 30
0.0
 40
2.999978548130083
100
AcDbArc
 50
270.0003303166515
 51
12.24595422833296
  0
ARC
  5
6CC
330
1F
100
AcDbEntity
  8
0
  6
Continuous
 62
     7
100
AcDbCircle
 10
273.8796765393308
 20
36.96569195412868
 30
0.0
 40
2.999991954136881
100
AcDbArc
 50
270.0001338428379
 51
7.887959055481975
  0
ARC
  5
6CD
330
1F
100
AcDbEntity
  8
0
  6
Continuous
 62
     7
100
AcDbCircle
 10
266.8019762554544
 20
36.96570621080275
 30
0.0
 40
3.000006210811613
100
AcDbArc
 50
189.1547619073904
 51
270.0001392638303
  0
ARC
  5
6CE
330
1F
100
AcDbEntity
  8
0
  6
Continuous
 62
     7
100
AcDbCircle
 10
265.398057086046
 20
42.96541951380632
 30
0.0
 40
3.000019513923046
100
AcDbArc
 50
197.1857976884878
 51
270.0005053695627
  0
ARC
  5
6CF
330
1F
100
AcDbEntity
  8
0
  6
Continuous
 62
     7
100
AcDbCircle
 10
268.5287530906666
 20
42.96565954081181
 30
0.0
 40
2.999959540966411
100
AcDbArc
 50
270.0005816868185
 51
16.05642551845303
  0
ARC
  5
6D0
330
1F
100
AcDbEntity
  8
0
  6
Continuous
 62
     7
100
AcDbCircle
 10
230.3622749372349
 20
8.529588131186017
 30
0.0
 40
2.99999138995181
100
AcDbArc
 50
108.0832187034469
 51
179.9997733216996
  0
ARC
  5
6D1
330
1F
100
AcDbEntity
  8
0
  6
Continuous
 62
     7
100
AcDbCircle
 10
230.3622882006211
 20
0.7938059020213295
 30
0.0
 40
3.000004653320318
100
AcDbArc
 50
103.493468890576
 51
180.0001127201293
  0
ARC
  5
6D2
330
1F
100
AcDbEntity
  8
0
  6
Continuous
 62
     7
100
AcDbCircle
 10
236.3622830206674
 20
2.92859916239605
 30
0.0
 40
2.999999474999793
100
AcDbArc
 50
115.6792822802189
 51
180.0018938625916
  0
ARC
  5
6D3
330
1F
100
AcDbEntity
  8
0
  6
Continuous
 62
     7
100
AcDbCircle
 10
236.3622757139439
 20
-0.3658948348284703
 30
0.0
 40
2.999992166641743
100
AcDbArc
 50
180.000098647767
 51
293.1996922744259
  0
ARC
  5
6D4
330
1F
100
AcDbEntity
  8
0
  6
Continuous
 62
     7
100
AcDbCircle
 10
230.3622727014086
 20
-2.283391255934637
 30
0.0
 40
2.999989154114711
100
AcDbArc
 50
180.0001669999506
 51
282.2476573264882
  0
ARC
  5
6D5
330
1F
100
AcDbEntity
  8
0
  6
Continuous
 62
     7
100
AcDbCircle
 10
230.3622755014353
 20
-20.55169299202418
 30
0.0
 40
2.999991954136902
100
AcDbArc
 50
180.000133842838
 51
277.8879590554805
  0
ARC
  5
6D6
330
1F
100
AcDbEntity
  8
0
  6
Continuous
 62
     7
100
AcDbCircle
 10
230.3622897581094
 20
-13.47399270814777
 30
0.0
 40
3.000006210811613
100
AcDbArc
 50
99.15476190739198
 51
180.0001392638304
  0
ARC
  5
6D7
330
1F
100
AcDbEntity
  8
0
  6
Continuous
 62
     7
100
AcDbCircle
 10
236.3622552932179
 20
-12.07023831198817
 30
0.0
 40
2.999971746155928
100
AcDbArc
 50
107.1851249028042
 51
179.9992682880331
  0
ARC
  5
6D8
330
1F
100
AcDbEntity
  8
0
  6
Continuous
 62
     7
100
AcDbCircle
 10
236.3623049670669
 20
-15.20081612438486
 30
0.0
 40
3.000021419803732
100
AcDbArc
 50
179.9996920491318
 51
286.0568429937815
  0
ARC
  5
6D9
330
1F
100
AcDbEntity
  8
0
  6
Continuous
 62
     7
100
AcDbCircle
 10
223.3620083730775
 20
29.96572788089505
 30
0.0
 40
19.54997212270485
100
AcDbArc
 50
71.9143070973964
 51
89.99890046390945
  0
ARC
  5
6DA
330
1F
100
AcDbEntity
  8
0
  6
Continuous
 62
     7
100
AcDbCircle
 10
223.3621836006725
 20
29.96570077393537
 30
0.0
 40
54.00000077430553
100
AcDbArc
 50
270.0002121499645
 51
82.11071790067169
  0
ARC
  5
6DB
330
1F
100
AcDbEntity
  8
0
  6
Continuous
 62
     7
100
AcDbCircle
 10
223.3621791108396
 20
29.96567212242025
 30
0.0
 40
19.54997212348914
100
AcDbArc
 50
270.0005991490241
 51
71.91483349184702
  0
ARC
  5
6DC
330
1F
100
AcDbEntity
  8
0
  6
Continuous
 62
     7
100
AcDbCircle
 10
223.3621835473065
 20
29.9657
 30
0.0
 40
17.25000000115942
100
AcDbArc
 50
270.000664298893
 51
89.99933570110682
  0
ARC
  5
6DD
330
1F
100
AcDbEntity
  8
0
  6
Continuous
 62
     7
100
AcDbCircle
 10
230.3623882006211
 20
59.13749409797865
 30
0.0
 40
3.000004653320311
100
AcDbArc
 50
179.9998872798699
 51
256.5065311094238
  0
ARC
  5
6DE
330
1F
100
AcDbEntity
  8
0
  6
Continuous
 62
     7
100
AcDbCircle
 10
230.3623904580937
 20
51.40149047315568
 30
0.0
 40
3.000006910802288
100
AcDbArc
 50
179.9998180510953
 51
251.9145571545599
  0
ARC
  5
6DF
330
1F
100
AcDbEntity
  8
0
  6
Continuous
 62
     7
100
AcDbCircle
 10
230.3623727014084
 20
62.21469125593464
 30
0.0
 40
2.999989154114715
100
AcDbArc
 50
77.75234267351173
 51
179.9998330000494
  0
ARC
  5
6E0
330
1F
100
AcDbEntity
  8
0
  6
Continuous
 62
     7
100
AcDbCircle
 10
223.3623835473065
 20
29.9657
 30
0.0
 40
65.59999999999999
100
AcDbArc
 50
0.0
 51
90.0
  0
ARC
  5
6E1
330
1F
100
AcDbEntity
  8
0
  6
Continuous
 62
     7
100
AcDbCircle
 10
230.3623897581093
 20
73.40509270814776
 30
0.0
 40
3.000006210811613
100
AcDbArc
 50
179.9998607361692
 51
260.8452380926097
  0
ARC
  5
6E2
330
1F
100
AcDbEntity
  8
0
  6
Continuous
 62
     7
100
AcDbCircle
 10
223.3621947712228
 20
29.96569922602559
 30
0.0
 40
54.00000077430438
100
AcDbArc
 50
82.1107298662457
 51
89.99979970235731
  0
ARC
  5
6E3
330
1F
100
AcDbEntity
  8
0
  6
Continuous
 62
     7
100
AcDbCircle
 10
236.3624046884474
 20
57.00246637490299
 30
0.0
 40
3.000021141329257
100
AcDbArc
 50
179.9993578124774
 51
244.3183383393559
  0
ARC
  5
6E4
330
1F
100
AcDbEntity
  8
0
  6
Continuous
 62
     7
100
AcDbCircle
 10
236.3623757132828
 20
60.29699483420521
 30
0.0
 40
2.999992167475086
100
AcDbArc
 50
66.80030771865722
 51
180.0018112046329
  0
ARC
  5
6E5
330
1F
100
AcDbEntity
  8
0
  6
Continuous
 62
     7
100
AcDbCircle
 10
236.3624049670669
 20
75.13191612438489
 30
0.0
 40
3.000021419803721
100
AcDbArc
 50
73.94315700621847
 51
180.0003079508682
  0
ARC
  5
6E6
330
1F
100
AcDbEntity
  8
0
  6
Continuous
 62
     7
100
AcDbCircle
 10
223.3621835473065
 20
29.9657
 30
0.0
 40
50.00001364499814
100
AcDbArc
 50
286.0572626883143
 51
343.9427373116856
  0
ARC
  5
6E7
330
1F
100
AcDbEntity
  8
0
  6
Continuous
 62
     7
100
AcDbCircle
 10
236.362403061113
 20
72.00127353873944
 30
0.0
 40
3.000019513923035
100
AcDbArc
 50
179.9994946304367
 51
252.8142023115114
  0
ARC
  5
6E8
330
1F
100
AcDbEntity
  8
0
  6
Continuous
 62
     7
100
AcDbCircle
 10
216.3623847306407
 20
-20.55169896934295
 30
0.0
 40
2.999998816666013
100
AcDbArc
 50
262.1102633129954
 51
359.9999803158922
  0
ARC
  5
6E9
330
1F
100
AcDbEntity
  8
0
  6
Continuous
 62
     7
100
AcDbCircle
 10
223.3624834939405
 20
29.96570077393537
 30
0.0
 40
54.00000077430553
100
AcDbArc
 50
97.88928209932832
 51
269.9997878500353
  0
ARC
  5
6EA
330
1F
100
AcDbEntity
  8
0
  6
Continuous
 62
     7
100
AcDbCircle
 10
223.3624879837734
 20
29.96567212242025
 30
0.0
 40
19.54997212348914
100
AcDbArc
 50
108.0851665081529
 51
269.9994008509758
  0
ARC
  5
6EB
330
1F
100
AcDbEntity
  8
0
  6
Continuous
 62
     7
100
AcDbCircle
 10
223.3619220082286
 20
29.96580833475189
 30
0.0
 40
64.24996560364728
100
AcDbArc
 50
59.89740871061929
 51
75.10194853608929
  0
ARC
  5
6EC
330
1F
100
AcDbEntity
  8
0
  6
Continuous
 62
     7
100
AcDbCircle
 10
223.3623613449684
 20
29.96562635422968
 30
0.0
 40
61.24995278008763
100
AcDbArc
 50
59.52309868366818
 51
75.4771392754329
  0
ARC
  5
6ED
330
1F
100
AcDbEntity
  8
0
  6
Continuous
 62
     7
100
AcDbCircle
 10
223.3622021103348
 20
29.96565518490735
 30
0.0
 40
64.24997092880777
100
AcDbArc
 50
14.89775793321316
 51
30.10226206188293
  0
ARC
  5
6EE
330
1F
100
AcDbEntity
  8
0
  6
Continuous
 62
     7
100
AcDbCircle
 10
223.3622787296915
 20
29.96547021157788
 30
0.0
 40
61.2499632841779
100
AcDbArc
 50
14.52315540537473
 51
30.47722939091574
  0
ARC
  5
6EF
330
1F
100
AcDbEntity
  8
0
  6
Continuous
 62
     7
100
AcDbCircle
 10
223.3621667549833
 20
29.96565945976593
 30
0.0
 40
64.25000886080153
100
AcDbArc
 50
329.897742452868
 51
345.1022375520358
  0
ARC
  5
6F0
330
1F
100
AcDbEntity
  8
0
  6
Continuous
 62
     7
100
AcDbCircle
 10
223.3621099015361
 20
29.96552220233805
 30
0.0
 40
61.24995278008763
100
AcDbArc
 50
329.5230986836681
 51
345.4771392754329
  0
ARC
  5
6F1
330
1F
100
AcDbEntity
  8
0
  6
Continuous
 62
     7
100
AcDbCircle
 10
223.3619764236909
 20
29.96561420577446
 30
0.0
 40
64.25004432500211
100
AcDbArc
 50
284.8978902957462
 51
300.102494500543
  0
ARC
  5
6F2
330
1F
100
AcDbEntity
  8
0
  6
Continuous
 62
     7
100
AcDbCircle
 10
223.3621571614951
 20
29.96568907063367
 30
0.0
 40
61.25001891472511
100
AcDbArc
 50
284.5230420048944
 51
300.4769779902004
  0
ARC
  5
6F3
330
1F
100
AcDbEntity
  8
0
  6
Continuous
 62
     7
100
AcDbCircle
 10
230.3623823639724
 20
80.48299896934294
 30
0.0
 40
2.999998816666013
100
AcDbArc
 50
82.11026331299542
 51
179.9999803158922
  0
ARC
  5
6F4
330
1F
100
AcDbEntity
  8
0
  6
Continuous
 62
     7
100
AcDbCircle
 10
216.3623773365038
 20
-13.47399270814777
 30
0.0
 40
3.000006210811613
100
AcDbArc
 50
359.9998607361691
 51
80.84523809260964
  0
ARC
  5
6F5
330
1F
100
AcDbEntity
  8
0
  6
Continuous
 62
     7
100
AcDbCircle
 10
252.2063490345205
 20
-34.47328390971562
 30
0.0
 40
5.000010166344656
100
AcDbArc
 50
15.89505571271119
 51
114.1139228566977
  0
ARC
  5
6F6
330
1F
100
AcDbEntity
  8
0
  6
Continuous
 62
     7
100
AcDbCircle
 10
259.1172206045561
 20
-36.83442797595015
 30
0.0
 40
0.9999720260307771
100
AcDbArc
 50
195.8952618655544
 51
270.0036064548441
  0
ARC
  5
6F7
330
1F
100
AcDbEntity
  8
0
  6
Continuous
 62
     7
100
AcDbCircle
 10
158.249891956706
 20
41.34920571832085
 30
0.0
 40
2.000000863723963
100
AcDbArc
 50
78.3492381444543
 51
170.0815059783185
  0
ARC
  5
6F8
330
1F
100
AcDbEntity
  8
0
  6
Continuous
 62
     7
100
AcDbCircle
 10
223.3622835460874
 20
29.96541401216724
 30
0.0
 40
68.09996896594899
100
AcDbArc
 50
170.082816094195
 51
189.9166953757706
  0
ARC
  5
6F9
330
1F
100
AcDbEntity
  8
0
  6
Continuous
 62
     7
100
AcDbCircle
 10
158.2499035918709
 20
18.58188637043926
 30
0.0
 40
2.000010962323081
100
AcDbArc
 50
189.9182133564137
 51
281.6532869202981
  0
ARC
  5
6FA
330
1F
100
AcDbEntity
  8
0
  6
Continuous
 62
     7
100
AcDbCircle
 10
216.3622766365194
 20
51.40149047315568
 30
0.0
 40
3.000006910802276
100
AcDbArc
 50
288.0854428454383
 51
0.0001819489046764
  0
ARC
  5
6FB
330
1F
100
AcDbEntity
  8
0
  6
Continuous
 62
     7
100
AcDbCircle
 10
223.3624835473066
 20
29.9657
 30
0.0
 40
17.25000000115942
100
AcDbArc
 50
90.00066429889319
 51
269.9993357011068
  0
ARC
  5
6FC
330
1F
100
AcDbEntity
  8
0
  6
Continuous
 62
     7
100
AcDbCircle
 10
216.3622788939921
 20
59.13749409797866
 30
0.0
 40
3.000004653320308
100
AcDbArc
 50
283.4934688905745
 51
0.0001127201295223
  0
ARC
  5
6FD
330
1F
100
AcDbEntity
  8
0
  6
Continuous
 62
     7
100
AcDbCircle
 10
216.3622943932046
 20
62.21469125593464
 30
0.0
 40
2.999989154114711
100
AcDbArc
 50
0.0001669999508149
 51
102.2476573264899
  0
ARC
  5
6FE
330
1F
100
AcDbEntity
  8
0
  6
Continuous
 62
     7
100
AcDbCircle
 10
210.3622913813304
 20
60.29699483420521
 30
0.0
 40
2.999992167475106
100
AcDbArc
 50
359.9981887953669
 51
113.1996922813427
  0
ARC
  5
6FF
330
1F
100
AcDbEntity
  8
0
  6
Continuous
 62
     7
100
AcDbCircle
 10
210.3624118013951
 20
-12.07023831198817
 30
0.0
 40
2.999971746155931
100
AcDbArc
 50
0.0007317119670987
 51
72.8148750971973
  0
ARC
  5
700
330
1F
100
AcDbEntity
  8
0
  6
Continuous
 62
     7
100
AcDbCircle
 10
223.3625071933706
 20
29.96575708698374
 30
0.0
 40
61.25000637629505
100
AcDbArc
 50
149.523105709333
 51
165.4771322497675
  0
ARC
  5
701
330
1F
100
AcDbEntity
  8
0
  6
Continuous
 62
     7
100
AcDbCircle
 10
210.3622624061658
 20
57.00246637490301
 30
0.0
 40
3.000021141329236
100
AcDbArc
 50
295.681661660644
 51
0.0006421875221019
  0
ARC
  5
702
330
1F
100
AcDbEntity
  8
0
  6
Continuous
 62
     7
100
AcDbCircle
 10
210.3623621275461
 20
-15.20081612438488
 30
0.0
 40
3.000021419803723
100
AcDbArc
 50
253.9431570062184
 51
0.0003079508685195
  0
ARC
  5
703
330
1F
100
AcDbEntity
  8
0
  6
Continuous
 62
     7
100
AcDbCircle
 10
216.3622773365038
 20
73.40509270814779
 30
0.0
 40
3.000006210811626
100
AcDbArc
 50
279.1547619073903
 51
0.0001392638305885
  0
ARC
  5
704
330
1F
100
AcDbEntity
  8
0
  6
Continuous
 62
     7
100
AcDbCircle
 10
223.3625003396296
 20
29.96565945976588
 30
0.0
 40
64.25000886080157
100
AcDbArc
 50
194.8977624479639
 51
210.1022575471318
  0
ARC
  5
705
330
1F
100
AcDbEntity
  8
0
  6
Continuous
 62
     7
100
AcDbCircle
 10
216.3622847306406
 20
80.48299896934294
 30
0.0
 40
2.999998816665998
100
AcDbArc
 50
0.000019684107897
 51
97.88973668700458
  0
ARC
  5
706
330
1F
100
AcDbEntity
  8
0
  6
Continuous
 62
     7
100
AcDbCircle
 10
187.607410187068
 20
-36.83437988861413
 30
0.0
 40
1.000020111740695
100
AcDbArc
 50
269.9984736847865
 51
344.1026579948141
  0
ARC
  5
707
330
1F
100
AcDbEntity
  8
0
  6
Continuous
 62
     7
100
AcDbCircle
 10
223.3624649842782
 20
29.96565518490742
 30
0.0
 40
64.24997092880784
100
AcDbArc
 50
149.897737938117
 51
165.1022420667868
  0
ARC
  5
708
330
1F
100
AcDbEntity
  8
0
  6
Continuous
 62
     7
100
AcDbCircle
 10
170.0898019799869
 20
-23.67589737706421
 30
0.0
 40
10.0000192524641
100
AcDbArc
 50
45.19736838300728
 51
151.000053450144
  0
ARC
  5
709
330
1F
100
AcDbEntity
  8
0
  6
DASH_CENTER
 62
    30
100
AcDbCircle
 10
223.3619814368525
 20
29.96559992800142
 30
0.0
 40
61.00001394630314
100
AcDbArc
 50
217.1100157090102
 51
233.5120346712173
  0
ARC
  5
70A
330
1F
100
AcDbEntity
  8
0
  6
Continuous
 62
     7
100
AcDbCircle
 10
223.3626906709222
 20
29.96561420577448
 30
0.0
 40
64.25004432500212
100
AcDbArc
 50
239.8975054994568
 51
255.1021097042537
  0
ARC
  5
70B
330
1F
100
AcDbEntity
  8
0
  6
Continuous
 62
     7
100
AcDbCircle
 10
223.3624237204981
 20
29.96584443332051
 30
0.0
 40
61.2500011825352
100
AcDbArc
 50
194.523160373296
 51
210.4772244229939
  0
ARC
  5
70C
330
1F
100
AcDbEntity
  8
0
  6
Continuous
 62
     7
100
AcDbCircle
 10
194.5183180600925
 20
-34.47328390971562
 30
0.0
 40
5.000010166344665
100
AcDbArc
 50
65.8860771433023
 51
164.1049442872886
  0
ARC
  5
70D
330
1F
100
AcDbEntity
  8
0
  6
Continuous
 62
     7
100
AcDbCircle
 10
296.5403207261773
 20
-34.83442190093096
 30
0.0
 40
1.999978099414615
100
AcDbArc
 50
208.9990001962469
 51
269.9989348921466
  0
ARC
  5
70E
330
1F
100
AcDbEntity
  8
0
  6
Continuous
 62
     7
100
AcDbCircle
 10
223.3622577967064
 20
29.9656884427828
 30
0.0
 40
65.59998844290332
100
AcDbArc
 50
270.000109832011
 51
280.5020229749962
  0
ARC
  5
70F
330
1F
100
AcDbEntity
  8
0
  6
Continuous
 62
     7
100
AcDbCircle
 10
150.1841463684359
 20
-34.83442190093096
 30
0.0
 40
1.999978099414615
100
AcDbArc
 50
270.0010651078532
 51
331.0009998037524
  0
ARC
  5
710
330
1F
100
AcDbEntity
  8
0
  6
Continuous
 62
     7
100
AcDbCircle
 10
223.3625099331179
 20
29.96568907063368
 30
0.0
 40
61.25001891472511
100
AcDbArc
 50
239.5230220097994
 51
255.4769579951054
  0
ARC
  5
711
330
1F
100
AcDbEntity
  8
0
  6
Continuous
 62
     7
100
AcDbCircle
 10
223.3622388855005
 20
29.96562545134501
 30
0.0
 40
65.60000865852469
100
AcDbArc
 50
279.7244920339509
 51
314.8023810876829
  0
ARC
  5
712
330
1F
100
AcDbEntity
  8
0
  6
Continuous
 62
     7
100
AcDbCircle
 10
276.6348651146262
 20
-23.67589737706421
 30
0.0
 40
10.00001925246413
100
AcDbArc
 50
28.99994654985588
 51
134.8026316169927
  0
ARC
  5
713
330
1F
100
AcDbEntity
  8
0
  6
Continuous
 62
     7
100
AcDbCircle
 10
223.3624282091125
 20
29.96562545134503
 30
0.0
 40
65.60000865852472
100
AcDbArc
 50
225.1976189123169
 51
260.2755079660489
  0
ARC
  5
714
330
1F
100
AcDbEntity
  8
0
  6
Continuous
 62
     7
100
AcDbCircle
 10
181.3265452353184
 20
42.96537174591128
 30
0.0
 40
2.999971746155931
100
AcDbArc
 50
270.000731711967
 51
342.8148750971968
  0
ARC
  5
715
330
1F
100
AcDbEntity
  8
0
  6
Continuous
 62
     7
100
AcDbCircle
 10
179.9226908391588
 20
36.96570621080275
 30
0.0
 40
3.000006210811613
100
AcDbArc
 50
269.9998607361695
 51
350.8452380926093
  0
ARC
  5
716
330
1F
100
AcDbEntity
  8
0
  6
Continuous
 62
     7
100
AcDbCircle
 10
172.8449905552824
 20
36.9656919541287
 30
0.0
 40
2.999991954136903
100
AcDbArc
 50
172.1120409445183
 51
269.999866157162
  0
ARC
  5
717
330
1F
100
AcDbEntity
  8
0
  6
Continuous
 62
     7
100
AcDbCircle
 10
191.1132614474055
 20
36.9657274104201
 30
0.0
 40
3.000027410501496
100
AcDbArc
 50
167.7552032380421
 51
270.0004220731589
  0
ARC
  5
718
330
1F
100
AcDbEntity
  8
0
  6
Continuous
 62
     7
100
AcDbCircle
 10
193.0307713953872
 20
42.9657184281709
 30
0.0
 40
3.000018428195521
100
AcDbArc
 50
156.8031462090399
 51
270.0002320831385
  0
ARC
  5
719
330
1F
100
AcDbEntity
  8
0
  6
Continuous
 62
     7
100
AcDbCircle
 10
196.3251827110146
 20
42.96569947416634
 30
0.0
 40
2.999999474166461
100
AcDbArc
 50
270.0000159720033
 51
334.3207176950603
  0
ARC
  5
71A
330
1F
100
AcDbEntity
  8
0
  6
Continuous
 62
     7
100
AcDbCircle
 10
194.1903894493279
 20
36.96570465331449
 30
0.0
 40
3.000004653320297
100
AcDbArc
 50
269.9998872798701
 51
346.5065311094249
  0
ARC
  5
71B
330
1F
100
AcDbEntity
  8
0
  6
Continuous
 62
     7
100
AcDbCircle
 10
201.9262930728983
 20
36.96570690963631
 30
0.0
 40
3.000006911635621
100
AcDbArc
 50
269.9979082200985
 51
341.9145571828806
  0
ARC
  5
71C
330
1F
100
AcDbEntity
  8
0
  6
Continuous
 62
     7
100
AcDbCircle
 10
201.9263716784926
 20
22.96570861007166
 30
0.0
 40
2.999991389951791
100
AcDbArc
 50
18.08321870344779
 51
89.99977332169974
  0
ARC
  5
71D
330
1F
100
AcDbEntity
  8
0
  6
Continuous
 62
     7
100
AcDbCircle
 10
194.1903894493279
 20
22.9656953466855
 30
0.0
 40
3.000004653320308
100
AcDbArc
 50
13.49346889057517
 51
90.00011272012972
  0
ARC
  5
71E
330
1F
100
AcDbEntity
  8
0
  6
Continuous
 62
     7
100
AcDbCircle
 10
191.1133528975064
 20
22.96566198412821
 30
0.0
 40
3.000038016028357
100
AcDbArc
 50
89.99941463935476
 51
192.2464998420367
  0
ARC
  5
71F
330
1F
100
AcDbEntity
  8
0
  6
Continuous
 62
     7
100
AcDbCircle
 10
193.0309757245304
 20
16.96568813590064
 30
0.0
 40
3.000011864109556
100
AcDbArc
 50
89.99985059657189
 51
203.2011996345403
  0
ARC
  5
720
330
1F
100
AcDbEntity
  8
0
  6
Continuous
 62
     7
100
AcDbCircle
 10
196.3253827110145
 20
16.96570052583363
 30
0.0
 40
2.999999474166451
100
AcDbArc
 50
25.67928230493962
 51
89.99998402799654
  0
ARC
  5
721
330
1F
100
AcDbEntity
  8
0
  6
Continuous
 62
     7
100
AcDbCircle
 10
181.3266899757408
 20
16.96569525897364
 30
0.0
 40
3.000004742485641
100
AcDbArc
 50
17.18359051556057
 51
89.99821291755806
  0
ARC
  5
722
330
1F
100
AcDbEntity
  8
0
  6
Continuous
 62
     7
100
AcDbCircle
 10
179.9226908391588
 20
22.96569378919725
 30
0.0
 40
3.000006210811613
100
AcDbArc
 50
9.154761907390655
 51
90.00013926383038
  0
ARC
  5
723
330
1F
100
AcDbEntity
  8
0
  6
Continuous
 62
     7
100
AcDbCircle
 10
172.8450845779637
 20
22.96570118333416
 30
0.0
 40
2.999998816666013
100
AcDbArc
 50
90.00001968410831
 51
187.8897366870043
  0
ARC
  5
724
330
1F
100
AcDbEntity
  8
0
  6
Continuous
 62
     7
100
AcDbCircle
 10
178.1960570132184
 20
16.9656647497644
 30
0.0
 40
3.000035251135122
100
AcDbArc
 50
90.00140307907591
 51
196.0584794773853
  0
ARC
  5
725
330
1F
100
AcDbEntity
  8
0
  6
Continuous
 62
     7
100
AcDbCircle
 10
223.3625612712721
 20
29.96562227546998
 30
0.0
 40
36.00000748830363
100
AcDbArc
 50
192.2466197795909
 51
257.7529641940111
  0
ARC
  5
726
330
1F
100
AcDbEntity
  8
0
  6
Continuous
 62
     7
100
AcDbCircle
 10
223.3624993331865
 20
29.96568421404086
 30
0.0
 40
26.99999818693516
100
AcDbArc
 50
193.4933652950028
 51
256.506347575032
  0
ARC
  5
727
330
1F
100
AcDbEntity
  8
0
  6
Continuous
 62
     7
100
AcDbCircle
 10
223.3624941698006
 20
29.96571062258723
 30
0.0
 40
49.99993793640925
100
AcDbArc
 50
106.0574195696444
 51
163.9430827392429
  0
ARC
  5
728
330
1F
100
AcDbEntity
  8
0
  6
Continuous
 62
     7
100
AcDbCircle
 10
223.3624835473066
 20
29.9657
 30
0.0
 40
40.99999039853547
100
AcDbArc
 50
189.1542383912594
 51
260.8457616087406
  0
ARC
  5
729
330
1F
100
AcDbEntity
  8
0
  6
Continuous
 62
     7
100
AcDbCircle
 10
223.3624792396048
 20
29.96569572455419
 30
0.0
 40
26.99995999580303
100
AcDbArc
 50
103.0625704039709
 51
166.5067897084635
  0
ARC
  5
72A
330
1F
100
AcDbEntity
  8
0
  6
Continuous
 62
     7
100
AcDbCircle
 10
223.3624612716353
 20
29.96567772416696
 30
0.0
 40
36.00000748873542
100
AcDbArc
 50
102.2470358064303
 51
167.7533802199663
  0
ARC
  5
72B
330
1F
100
AcDbEntity
  8
0
  6
Continuous
 62
     7
100
AcDbCircle
 10
223.3625034548556
 20
29.96571962247795
 30
0.0
 40
40.99997511278782
100
AcDbArc
 50
98.32756706373476
 51
170.846069039122
  0
ARC
  5
72C
330
1F
100
AcDbEntity
  8
0
  6
Continuous
 62
     7
100
AcDbCircle
 10
223.3622835473065
 20
29.9657
 30
0.0
 40
65.59995961614609
100
AcDbArc
 50
180.0
 51
225.1977544442376
  0
ARC
  5
72D
330
1F
100
AcDbEntity
  8
0
  6
Continuous
 62
     7
100
AcDbCircle
 10
223.362310134867
 20
29.96569755646779
 30
0.0
 40
65.59999755647317
100
AcDbArc
 50
259.4979777571098
 51
269.9999767781246
  0
ARC
  5
72E
330
1F
100
AcDbEntity
  8
0
  6
Continuous
 62
     7
100
AcDbCircle
 10
223.3611231189111
 20
29.96256885742701
 30
0.0
 40
66.3999853871923
100
AcDbArc
 50
159.5718701206854
 51
159.7578510272466
  0
ARC
  5
72F
330
1F
100
AcDbEntity
  8
0
  6
Continuous
 62
     7
100
AcDbCircle
 10
185.9708498457609
 20
85.44080051893894
 30
0.0
 40
0.4999767833249229
100
AcDbArc
 50
234.2563496608625
 51
303.9793003253873
  0
ARC
  5
730
330
1F
100
AcDbEntity
  8
0
  6
Continuous
 62
     7
100
AcDbCircle
 10
156.1135835473066
 20
82.9273
 30
0.0
 40
18.9999629644376
100
AcDbArc
 50
180.0
 51
226.8300654821909
  0
ARC
  5
731
330
1F
100
AcDbEntity
  8
0
  6
Continuous
 62
     7
100
AcDbCircle
 10
160.6683930159324
 20
53.31256324101523
 30
0.0
 40
0.5000145083486433
100
AcDbArc
 50
339.5789509710973
 51
49.3102969282483
  0
ARC
  5
732
330
1F
100
AcDbEntity
  8
0
  6
Continuous
 62
     7
100
AcDbCircle
 10
223.356456089479
 20
29.96178681323536
 30
0.0
 40
66.39992634866175
100
AcDbArc
 50
123.7886663121734
 51
123.9747166721334
  0
ARC
  5
733
330
1F
100
AcDbEntity
  8
0
  6
Continuous
 62
     7
100
AcDbCircle
 10
223.3622671779256
 20
29.96567921491568
 30
0.0
 40
66.39992349117806
100
AcDbArc
 50
123.7947015750232
 51
159.7605999045665
  0
ARC
  5
734
330
1F
100
AcDbEntity
  8
0
  6
Continuous
 62
     7
100
AcDbCircle
 10
168.8886823947011
 20
70.21641532869074
 30
0.0
 40
1.299959526202149
100
AcDbArc
 50
141.8011897464365
 51
226.7990739594191
  0
ARC
  5
735
330
1F
100
AcDbEntity
  8
0
  6
Continuous
 62
     7
100
AcDbCircle
 10
171.4628513875641
 20
73.48759473466315
 30
0.0
 40
1.300009738016612
100
AcDbArc
 50
56.80028247379808
 51
141.7961677752954
  0
ARC
  5
736
330
1F
100
AcDbEntity
  8
0
  6
Continuous
 62
    30
100
AcDbCircle
 10
127.0696835473065
 20
1.997920050581529
 30
0.0
 40
1.599999999999994
100
AcDbArc
 50
239.9999999999999
 51
300.0
  0
ARC
  5
737
330
1F
100
AcDbEntity
  8
0
  6
Continuous
 62
    30
100
AcDbCircle
 10
125.4696835473066
 20
-0.7733612415286794
 30
0.0
 40
1.600000000000004
100
AcDbArc
 50
60.00000000000006
 51
119.9999999999999
  0
ARC
  5
738
330
1F
100
AcDbEntity
  8
0
  6
Continuous
 62
    30
100
AcDbCircle
 10
125.4696835473066
 20
1.997920050581541
 30
0.0
 40
1.600000000000011
100
AcDbArc
 50
239.9999999999999
 51
299.9999999999999
  0
ARC
  5
739
330
1F
100
AcDbEntity
  8
0
  6
Continuous
 62
     7
100
AcDbCircle
 10
156.1135835473066
 20
82.9273
 30
0.0
 40
18.9999629644376
100
AcDbArc
 50
90.0
 51
180.0
  0
ARC
  5
73A
330
1F
100
AcDbEntity
  8
0
  6
Continuous
 62
     7
100
AcDbCircle
 10
156.1136802237214
 20
82.92726650259094
 30
0.0
 40
18.99999646209261
100
AcDbArc
 50
51.77833138603133
 51
90.00029153429371
  0
ARC
  5
73B
330
1F
100
AcDbEntity
  8
0
  6
Continuous
 62
     7
100
AcDbCircle
 10
223.3623037392273
 20
29.96572019193317
 30
0.0
 40
65.59997980806993
100
AcDbArc
 50
90.00001763585633
 51
180.0000176358675
  0
ARC
  5
73C
330
1F
100
AcDbEntity
  8
0
  6
Continuous
 62
     7
100
AcDbCircle
 10
223.3624037392694
 20
29.96574851065346
 30
0.0
 40
65.59997980805511
100
AcDbArc
 50
314.8022031859716
 51
359.9999576302353
  0
CIRCLE
  5
73D
330
1F
100
AcDbEntity
  8
0
  6
Continuous
 62
     7
100
AcDbCircle
 10
123.0697835473065
 20
-29.912
 30
0.0
 40
2.149999999999991
  0
CIRCLE
  5
73E
330
1F
100
AcDbEntity
  8
0
  6
Continuous
 62
     7
100
AcDbCircle
 10
223.3622835473065
 20
29.9657
 30
0.0
 40
7.0
  0
CIRCLE
  5
73F
330
1F
100
AcDbEntity
  8
0
  6
Continuous
 62
     7
100
AcDbCircle
 10
180.2287835473066
 20
73.09869999999998
 30
0.0
 40
2.000036842160644
  0
CIRCLE
  5
740
330
1F
100
AcDbEntity
  8
0
  6
Continuous
 62
    30
100
AcDbCircle
 10
180.2287835473066
 20
73.09869999999998
 30
0.0
 40
1.650008315130549
  0
CIRCLE
  5
741
330
1F
100
AcDbEntity
  8
0
  6
Continuous
 62
     7
100
AcDbCircle
 10
266.4955835473065
 20
73.09899999999998
 30
0.0
 40
2.000062724016419
  0
CIRCLE
  5
742
330
1F
100
AcDbEntity
  8
0
  6
Continuous
 62
    30
100
AcDbCircle
 10
266.4955835473065
 20
73.09899999999998
 30
0.0
 40
1.650034196615331
  0
CIRCLE
  5
743
330
1F
100
AcDbEntity
  8
0
  6
Continuous
 62
     7
100
AcDbCircle
 10
266.4958835473066
 20
-13.1676
 30
0.0
 40
2.000036842160676
  0
CIRCLE
  5
744
330
1F
100
AcDbEntity
  8
0
  6
Continuous
 62
    30
100
AcDbCircle
 10
266.4958835473066
 20
-13.1676
 30
0.0
 40
1.650008315130578
  0
CIRCLE
  5
745
330
1F
100
AcDbEntity
  8
0
  6
Continuous
 62
     7
100
AcDbCircle
 10
223.3622835473065
 20
29.9657
 30
0.0
 40
7.400000000000003
  0
CIRCLE
  5
746
330
1F
100
AcDbEntity
  8
0
  6
Continuous
 62
     7
100
AcDbCircle
 10
223.3622835473065
 20
29.9657
 30
0.0
 40
7.75
  0
CIRCLE
  5
747
330
1F
100
AcDbEntity
  8
0
  6
Continuous
 62
     7
100
AcDbCircle
 10
266.4955835473065
 20
-13.1679
 30
0.0
 40
3.500066206516668
  0
CIRCLE
  5
748
330
1F
100
AcDbEntity
  8
0
  6
Continuous
 62
     7
100
AcDbCircle
 10
266.4956835473066
 20
73.09899999999998
 30
0.0
 40
3.499969614153806
  0
CIRCLE
  5
749
330
1F
100
AcDbEntity
  8
0
  6
Continuous
 62
     7
100
AcDbCircle
 10
180.2289835473066
 20
73.09899999999998
 30
0.0
 40
3.499969614153798
  0
CIRCLE
  5
74A
330
1F
100
AcDbEntity
  8
0
  6
Continuous
 62
     7
100
AcDbCircle
 10
180.2290835473066
 20
-13.1679
 30
0.0
 40
2.000036842160664
  0
CIRCLE
  5
74B
330
1F
100
AcDbEntity
  8
0
  6
Continuous
 62
     7
100
AcDbCircle
 10
180.2290835473066
 20
-13.1679
 30
0.0
 40
3.500040325481978
  0
CIRCLE
  5
74C
330
1F
100
AcDbEntity
  8
0
  6
Continuous
 62
    30
100
AcDbCircle
 10
180.2290835473066
 20
-13.1679
 30
0.0
 40
1.650008315130569
  0
LINE
  5
7B6
330
1F
100
AcDbEntity
  8
0
  6
Continuous
 62
     7
100
AcDbLine
 10
-14.38719999999999
 20
35.96569999999999
 30
0.0
 11
-7.176099999999991
 21
35.96569999999999
 31
0.0
  0
LINE
  5
7B7
330
1F
100
AcDbEntity
  8
0
  6
DASH_CENTER
 62
    30
100
AcDbLine
 10
-22.90039999999998
 20
29.9657
 30
0.0
 11
1.633399999999993
 21
29.9657
 31
0.0
  0
LINE
  5
7B8
330
1F
100
AcDbEntity
  8
0
  6
DASH_CENTER
 62
    30
100
AcDbLine
 10
-10.7817
 20
41.34559999999999
 30
0.0
 11
-10.7817
 21
17.79309999999998
 31
0.0
  0
LINE
  5
7C1
330
1F
100
AcDbEntity
  8
0
  6
Continuous
 62
     7
100
AcDbLine
 10
256.8081999999999
 20
-157.2809699375739
 30
0.0
 11
276.8081999999999
 21
-157.2809699375739
 31
0.0
  0
LINE
  5
7C2
330
1F
100
AcDbEntity
  8
0
  6
Continuous
 62
     7
100
AcDbLine
 10
256.8081999999999
 20
-150.2809699375738
 30
0.0
 11
276.8081999999999
 21
-150.2809699375738
 31
0.0
  0
LINE
  5
7C3
330
1F
100
AcDbEntity
  8
0
  6
Continuous
 62
     7
100
AcDbLine
 10
285.8081999999999
 20
-153.7812699375741
 30
0.0
 11
285.8081999999999
 21
-165.335869937574
 31
0.0
  0
LINE
  5
7C4
330
1F
100
AcDbEntity
  8
0
  6
Continuous
 62
     7
100
AcDbLine
 10
247.6049999999998
 20
-143.7809699375739
 30
0.0
 11
275.8084
 21
-143.7809699375739
 31
0.0
  0
LINE
  5
7C5
330
1F
100
AcDbEntity
  8
0
  6
DASH_CENTER
 62
    30
100
AcDbLine
 10
283.3755999999997
 20
-153.7809699375739
 30
0.0
 11
247.5125999999998
 21
-153.7809699375739
 31
0.0
  0
LINE
  5
7C6
330
1F
100
AcDbEntity
  8
0
  6
DASH_CENTER
 62
    30
100
AcDbLine
 10
266.8082
 20
-146.1840699375739
 30
0.0
 11
266.8082
 21
-161.8065699375738
 31
0.0
  0
ARC
  5
7C7
330
1F
100
AcDbEntity
  8
0
  6
Continuous
 62
     7
100
AcDbCircle
 10
276.8081999999999
 20
-153.7809699375739
 30
0.0
 40
3.5
100
AcDbArc
 50
270.0
 51
0.0
  0
ARC
  5
7C8
330
1F
100
AcDbEntity
  8
0
  6
Continuous
 62
     7
100
AcDbCircle
 10
256.8081999999999
 20
-153.7809699375739
 30
0.0
 40
3.5
100
AcDbArc
 50
90.0
 51
180.0
  0
ARC
  5
7C9
330
1F
100
AcDbEntity
  8
0
  6
Continuous
 62
     7
100
AcDbCircle
 10
275.8081999989999
 20
-153.7812699365741
 30
0.0
 40
10.00000000099999
100
AcDbArc
 50
359.9999999942703
 51
89.99885407868044
  0
ARC
  5
7CA
330
1F
100
AcDbEntity
  8
0
  6
Continuous
 62
     7
100
AcDbCircle
 10
276.8081999999999
 20
-153.7809699375739
 30
0.0
 40
3.5
100
AcDbArc
 50
0.0
 51
90.0
  0
ARC
  5
7CB
330
1F
100
AcDbEntity
  8
0
  6
Continuous
 62
     7
100
AcDbCircle
 10
256.8081999999999
 20
-153.7809699375739
 30
0.0
 40
3.499999999999971
100
AcDbArc
 50
180.0
 51
270.0
  0
ARC
  5
7CC
330
1F
100
AcDbEntity
  8
0
  6
Continuous
 62
     7
100
AcDbCircle
 10
-10.7817
 20
29.9657
 30
0.0
 40
7.0
100
AcDbArc
 50
90.0
 51
180.0
  0
ARC
  5
7CD
330
1F
100
AcDbEntity
  8
0
  6
Continuous
 62
     7
100
AcDbCircle
 10
-10.7817
 20
29.9657
 30
0.0
 40
7.0
100
AcDbArc
 50
180.0
 51
0.0
  0
ARC
  5
7CE
330
1F
100
AcDbEntity
  8
0
  6
Continuous
 62
     7
100
AcDbCircle
 10
-10.7817
 20
29.9657
 30
0.0
 40
7.0
100
AcDbArc
 50
0.0
 51
90.0
  0
SPLINE
  5
7CF
330
1F
100
AcDbEntity
  8
0
  6
Continuous
 62
    30
100
AcDbSpline
210
0.0
220
0.0
230
1.0
 70
     8
 71
     3
 72
   141
 73
   137
 74
   135
 42
0.0000000001
 43
0.0000000001
 44
0.00000001
 40
0.0
 40
0.0
 40
0.0
 40
0.0
 40
0.2626125722556616
 40
0.5252229897648374
 40
0.7878464660579905
 40
1.075428894539652
 40
1.363038469519171
 40
1.650586370738503
 40
1.931165997059546
 40
2.211798652447601
 40
2.492417660817646
 40
2.793855024799129
 40
3.095312440916037
 40
3.396867360777653
 40
3.698451587455546
 40
4.131419367174409
 40
4.564261333664849
 40
4.997082101088694
 40
5.504456529645334
 40
6.011845427822721
 40
6.017628938581402
 40
6.023412446106833
 40
6.029184323754157
 40
6.034956207771139
 40
6.392597960615622
 40
6.750241790400435
 40
7.107879068242046
 40
7.458869678834468
 40
7.809872634916573
 40
8.16085735196291
 40
8.662250235285895
 40
9.163667674269149
 40
9.665963731559319
 40
10.16826034608108
 40
10.67057205969218
 40
11.53513511739722
 40
12.39966727442299
 40
13.15108807270403
 40
13.9025468186564
 40
14.34352127109344
 40
14.78447779931059
 40
15.22546558312138
 40
15.66670408180288
 40
15.94520950942089
 40
16.22377830584839
 40
16.502280010267
 40
16.78067696223678
 40
17.05903809259536
 40
17.33755265406595
 40
17.60555161429086
 40
17.87365499845058
 40
18.14164887677251
 40
18.40945504999527
 40
18.67714768750857
 40
18.95195816673731
 40
19.2270536333558
 40
19.50247915331857
 40
19.77817141596928
 40
20.05397194558617
 40
20.32963988899201
 40
20.62920858574828
 40
20.928537563687
 40
21.22780795499009
 40
21.52710147147679
 40
21.82640832152214
 40
22.12563524598862
 40
22.45504233936374
 40
22.78431214062661
 40
23.11352656921031
 40
23.4426903316767
 40
23.77173681646109
 40
24.1330412769384
 40
24.49434029182083
 40
24.85579325322768
 40
25.21743423172796
 40
25.57918777449608
 40
25.94088462366879
 40
26.5162396404003
 40
27.09123668120959
 40
27.66612082861379
 40
28.24100476126352
 40
29.19453933397165
 40
30.1481302823652
 40
30.86917923654612
 40
31.59022136773148
 40
32.31126706812962
 40
32.81978126287674
 40
33.32830297845379
 40
33.83682121827329
 40
34.34537023208814
 40
34.88768945933683
 40
35.429959463513
 40
35.9720784822564
 40
36.45475494073525
 40
36.93751076578514
 40
37.42039946420074
 40
37.90335952236917
 40
38.41333129220697
 40
38.923206249633
 40
39.43298700024184
 40
39.94276972224225
 40
40.41621510374525
 40
40.88973934494254
 40
41.36324863011981
 40
41.83667380712332
 40
42.35248327591887
 40
42.86833599801375
 40
43.38431243746336
 40
43.90038956572006
 40
44.41646096010112
 40
45.30530436082366
 40
46.19393822957781
 40
47.08256538739934
 40
47.76074793111888
 40
48.43893529127649
 40
49.11712161447566
 40
49.61240291207275
 40
50.10770005288119
 40
50.60300444592252
 40
51.09835660715186
 40
51.4701903491478
 40
51.84200607556483
 40
52.21375512448401
 40
52.58544661174369
 40
52.88720975880663
 40
53.18899926557978
 40
53.4909129616826
 40
53.6786265435277
 40
53.86630490942644
 40
54.05389867814484
 40
54.24150005309915
 40
54.41175084459248
 40
54.58197677432779
 40
54.75206400148927
 40
54.92310382909748
 40
55.09419135664082
 40
55.09419135664082
 40
55.09419135664082
 40
55.09419135664082
 10
247.6048999999998
 20
-143.7809699375739
 30
0.0
 10
247.5876612042702
 20
-143.8667934981533
 30
0.0
 10
247.5531837620062
 20
-144.0384399166637
 30
0.0
 10
247.5044848331265
 20
-144.2965122527725
 30
0.0
 10
247.4601779694792
 20
-144.5638393706217
 30
0.0
 10
247.4240785409674
 20
-144.8408397248256
 30
0.0
 10
247.3983280730063
 20
-145.1273467940138
 30
0.0
 10
247.3852747819773
 20
-145.4123981637729
 30
0.0
 10
247.3857097183975
 20
-145.6954155201084
 30
0.0
 10
247.398163202668
 20
-145.9758268948812
 30
0.0
 10
247.4221314410274
 20
-146.2624561315503
 30
0.0
 10
247.4574336283876
 20
-146.5548989119897
 30
0.0
 10
247.5030314171304
 20
-146.85295425816
 30
0.0
 10
247.5561534888213
 20
-147.149795178496
 30
0.0
 10
247.6234139640264
 20
-147.4885643141464
 30
0.0
 10
247.7050396783309
 20
-147.8690561212397
 30
0.0
 10
247.8018749691792
 20
-148.2909737561743
 30
0.0
 10
247.9089205928562
 20
-148.7359642585149
 30
0.0
 10
248.0251618324113
 20
-149.2042830493729
 30
0.0
 10
248.1074069603291
 20
-149.534373861702
 30
0.0
 10
248.1487193727236
 20
-149.7023536271511
 30
0.0
 10
248.1500991696156
 20
-149.707966140487
 30
0.0
 10
248.1514774327429
 20
-149.7135750399913
 30
0.0
 10
248.1808326831967
 20
-149.8330843870906
 30
0.0
 10
248.237626069349
 20
-150.0666327629419
 30
0.0
 10
248.3188044634875
 20
-150.4149470935175
 30
0.0
 10
248.3944226960093
 20
-150.7622524824566
 30
0.0
 10
248.4628533099126
 20
-151.1087944202459
 30
0.0
 10
248.5240027209557
 20
-151.4544433311465
 30
0.0
 10
248.5857776409901
 20
-151.8508144580746
 30
0.0
 10
248.6438079019429
 20
-152.2983934741989
 30
0.0
 10
248.6966995437599
 20
-152.7973297815303
 30
0.0
 10
248.7413941185767
 20
-153.2973557133391
 30
0.0
 10
248.7803032969901
 20
-153.7981546773606
 30
0.0
 10
248.8243843130225
 20
-154.4196519617676
 30
0.0
 10
248.875136147862
 20
-155.1617203366611
 30
0.0
 10
248.9329366915689
 20
-155.9865384749899
 30
0.0
 10
248.9929153742802
 20
-156.7734000566469
 30
0.0
 10
249.0482311550759
 20
-157.419000132619
 30
0.0
 10
249.1003462351925
 20
-157.9609723043428
 30
0.0
 10
249.1487027747105
 20
-158.399307866806
 30
0.0
 10
249.2059793318
 20
-158.8366727095118
 30
0.0
 10
249.2664434111986
 20
-159.2188928929025
 30
0.0
 10
249.3272467881346
 20
-159.546088635851
 30
0.0
 10
249.3848547714766
 20
-159.8186248907978
 30
0.0
 10
249.4501882269843
 20
-160.0893859192191
 30
0.0
 10
249.5242414519531
 20
-160.357833855578
 30
0.0
 10
249.608010018533
 20
-160.6234288075074
 30
0.0
 10
249.7012522660388
 20
-160.8821824953336
 30
0.0
 10
249.8043285909945
 20
-161.1334913930595
 30
0.0
 10
249.9172810381843
 20
-161.376671105336
 30
0.0
 10
250.0419786547138
 20
-161.6139871701752
 30
0.0
 10
250.1789037785923
 20
-161.844324225478
 30
0.0
 10
250.3298477377301
 20
-162.0685014885774
 30
0.0
 10
250.4956317773654
 20
-162.2850248195315
 30
0.0
 10
250.6755673476425
 20
-162.4933331456851
 30
0.0
 10
250.8671769421416
 20
-162.6913507004684
 30
0.0
 10
251.0693989168416
 20
-162.8788469087721
 30
0.0
 10
251.2811758713148
 20
-163.0555920613595
 30
0.0
 10
251.50793432894
 20
-163.2262366262015
 30
0.0
 10
251.7496143605252
 20
-163.3894969273182
 30
0.0
 10
252.0060135668868
 20
-163.5443095974881
 30
0.0
 10
252.2695407832693
 20
-163.6864357952901
 30
0.0
 10
252.5393543336597
 20
-163.8161908234691
 30
0.0
 10
252.814615265861
 20
-163.9338904755897
 30
0.0
 10
253.1039706690344
 20
-164.0434417759714
 30
0.0
 10
253.4071942560613
 20
-164.1438097545412
 30
0.0
 10
253.7240017841166
 20
-164.2339824155247
 30
0.0
 10
254.0441059458498
 20
-164.3112659643321
 30
0.0
 10
254.3668664289613
 20
-164.3761567754248
 30
0.0
 10
254.7023399043407
 20
-164.4308977681161
 30
0.0
 10
255.0502292190861
 20
-164.4746520051426
 30
0.0
 10
255.4101667503341
 20
-164.5073087454709
 30
0.0
 10
255.7710393957393
 20
-164.5288495368699
 30
0.0
 10
256.1325021951305
 20
-164.5406060806091
 30
0.0
 10
256.4942124612283
 20
-164.5439084075022
 30
0.0
 10
256.9271446049903
 20
-164.5393315043163
 30
0.0
 10
257.430961681246
 20
-164.5235096753761
 30
0.0
 10
258.0052864072073
 20
-164.4934672343913
 30
0.0
 10
258.5788828461243
 20
-164.4541917690277
 30
0.0
 10
259.2777680046875
 20
-164.3983739718524
 30
0.0
 10
260.1018739184662
 20
-164.3253198276177
 30
0.0
 10
260.9746804248505
 20
-164.2497741669461
 30
0.0
 10
261.7711298562072
 20
-164.1914120546773
 30
0.0
 10
262.4909539679729
 20
-164.1489789497156
 30
0.0
 10
263.1406297899425
 20
-164.1218705295574
 30
0.0
 10
263.7198360197706
 20
-164.107634775984
 30
0.0
 10
264.2283584998336
 20
-164.1031978581705
 30
0.0
 10
264.7368971212424
 20
-164.1076795965805
 30
0.0
 10
265.256522434634
 20
-164.122256154028
 30
0.0
 10
265.7869625136663
 20
-164.1486196017275
 30
0.0
 10
266.3277731036556
 20
-164.1886776226269
 30
0.0
 10
266.8475773493681
 20
-164.2409452344281
 30
0.0
 10
267.3460908577796
 20
-164.3045908624869
 30
0.0
 10
267.823763406255
 20
-164.3747111641176
 30
0.0
 10
268.3006180444206
 20
-164.4507204094798
 30
0.0
 10
268.7859627129821
 20
-164.5310054983184
 30
0.0
 10
269.2802306319149
 20
-164.6124680475163
 30
0.0
 10
269.783812473893
 20
-164.6923740091015
 30
0.0
 10
270.288217129556
 20
-164.7665434280972
 30
0.0
 10
270.7817690661159
 20
-164.8306891089234
 30
0.0
 10
271.2645650092573
 20
-164.8829907559086
 30
0.0
 10
271.7363194490155
 20
-164.9239569979993
 30
0.0
 10
272.2088589759753
 20
-164.9545039064419
 30
0.0
 10
272.6960616623713
 20
-164.9748272993628
 30
0.0
 10
273.1977363171503
 20
-164.9833268460167
 30
0.0
 10
273.7136435804601
 20
-164.9806010655101
 30
0.0
 10
274.2294892223542
 20
-164.9682662526379
 30
0.0
 10
274.7451546531495
 20
-164.9481760767684
 30
0.0
 10
275.3846815287038
 20
-164.9159212228371
 30
0.0
 10
276.1477875821977
 20
-164.8692150397117
 30
0.0
 10
277.0343136916011
 20
-164.8069959477033
 30
0.0
 10
277.8505340358393
 20
-164.7462023025953
 30
0.0
 10
278.5968190194759
 20
-164.690873582078
 30
0.0
 10
279.2734502725825
 20
-164.6448728866692
 30
0.0
 10
279.8897286954324
 20
-164.6103705320489
 30
0.0
 10
280.4455444621064
 20
-164.5878232623906
 30
0.0
 10
280.9406972354796
 20
-164.5751387630812
 30
0.0
 10
281.4360221939347
 20
-164.5708173148906
 30
0.0
 10
281.8901933993045
 20
-164.5754148869065
 30
0.0
 10
282.3030465386184
 20
-164.5871135161534
 30
0.0
 10
282.6744688371481
 20
-164.6043709100155
 30
0.0
 10
283.0454149980453
 20
-164.6292768544364
 30
0.0
 10
283.3924358847258
 20
-164.6606552146719
 30
0.0
 10
283.7154548431525
 20
-164.6974522125247
 30
0.0
 10
284.0144412372453
 20
-164.7389819617021
 30
0.0
 10
284.2746457342721
 20
-164.7826776614808
 30
0.0
 10
284.4962671408575
 20
-164.8258470398412
 30
0.0
 10
284.679454673585
 20
-164.866719711313
 30
0.0
 10
284.8611040818807
 20
-164.9138701817694
 30
0.0
 10
285.0350864725299
 20
-164.9668818523529
 30
0.0
 10
285.2009479380193
 20
-165.0260254541289
 30
0.0
 10
285.3582951518261
 20
-165.0910723811402
 30
0.0
 10
285.5120991943082
 20
-165.1647857387233
 30
0.0
 10
285.6613982158958
 20
-165.2477672329646
 30
0.0
 10
285.7591948578292
 20
-165.3064329804699
 30
0.0
 10
285.8080999999996
 20
-165.335769937574
 30
0.0
 11
247.6048999999998
 21
-143.7809699375739
 31
0.0
 11
247.5536866139393
 21
-144.0385404264506
 31
0.0
 11
247.5054444563409
 21
-144.2966817173604
 31
0.0
 11
247.4629703846936
 21
-144.5558477718909
 31
0.0
 11
247.4259834523965
 21
-144.8410417761116
 31
0.0
 11
247.4004250679856
 21
-145.1275134787335
 31
0.0
 11
247.3874630775488
 21
-145.4147690826989
 31
0.0
 11
247.3877129696266
 21
-145.6953485972331
 31
0.0
 11
247.3999861419651
 21
-145.9757127466211
 31
0.0
 11
247.4232
 21
-146.255369937574
 31
0.0
 11
247.4590090536719
 21
-146.5546727873741
 31
0.0
 11
247.5042788081994
 21
-146.8527117494657
 31
0.0
 11
247.5570853340799
 21
-147.1496070852776
 31
0.0
 11
247.6155047018119
 21
-147.445479056239
 31
0.0
 11
247.7060543975341
 21
-147.8688723141465
 31
0.0
 11
247.8026114146357
 21
-148.2908070370901
 31
0.0
 11
247.9035739466719
 21
-148.7116875235699
 31
0.0
 11
248.0252340196881
 21
-149.2042599928704
 31
0.0
 11
248.1473380954048
 21
-149.6967374937248
 31
0.0
 11
248.1487192966756
 21
-149.702353656095
 31
0.0
 11
248.1500999999997
 21
-149.7079699375739
 31
0.0
 11
248.1514773537734
 21
-149.7135750663129
 31
0.0
 11
248.1528541990256
 21
-149.7191803265459
 31
0.0
 11
248.2370710248585
 21
-150.0667650640087
 31
0.0
 11
248.3179568717644
 21
-150.415142142554
 31
0.0
 11
248.3937499671028
 21
-150.7646558465949
 31
0.0
 11
248.4617106146912
 21
-151.1090041574927
 31
0.0
 11
248.5228211677415
 21
-151.4546464228519
 31
0.0
 11
248.5768324463538
 21
-151.801450479202
 31
0.0
 11
248.6418706679744
 21
-152.2986072486459
 31
0.0
 11
248.6952999999999
 21
-152.7971699375739
 31
0.0
 11
248.7404254594107
 21
-153.2974348896051
 31
0.0
 11
248.7797409939995
 21
-153.7981904964602
 31
0.0
 11
248.8156864237735
 21
-154.2992144317729
 31
0.0
 11
248.8753778526989
 21
-155.1617144109229
 31
0.0
 11
248.9365128434766
 21
-156.0240822925509
 31
0.0
 11
248.9940872095635
 21
-156.7732941506211
 31
0.0
 11
249.0586999999998
 21
-157.5219699375739
 31
0.0
 11
249.1013713914973
 21
-157.96087496144
 31
0.0
 11
249.1501862865205
 21
-158.3991212001311
 31
0.0
 11
249.2079092391791
 21
-158.8363148484553
 31
0.0
 11
249.277304803582
 21
-159.2720621012209
 31
0.0
 11
249.3283620978289
 21
-159.545847465863
 31
0.0
 11
249.3861487430129
 21
-159.8183566913195
 31
0.0
 11
249.451653118565
 21
-160.0890453983753
 31
0.0
 11
249.5258636039161
 21
-160.3573692078163
 31
0.0
 11
249.6097685784968
 21
-160.6227837404279
 31
0.0
 11
249.7043564217379
 21
-160.8847446169959
 31
0.0
 11
249.8061826702185
 21
-161.1326455201744
 31
0.0
 11
249.919259852701
 21
-161.3757359876931
 31
0.0
 11
250.0440582687696
 21
-161.6128985356805
 31
0.0
 11
250.1810482180079
 21
-161.8430156802645
 31
0.0
 11
250.3306999999998
 21
-162.0649699375739
 31
0.0
 11
250.4976678710055
 21
-162.283241625073
 31
0.0
 11
250.6774057250483
 21
-162.4915006455275
 31
0.0
 11
250.8688543620325
 21
-162.6895073031683
 31
0.0
 11
251.0709545818619
 21
-162.8770219022269
 31
0.0
 11
251.2826471844404
 21
-163.0538047469345
 31
0.0
 11
251.5028729696719
 21
-163.2196161415228
 31
0.0
 11
251.7510481019549
 21
-163.3873972722718
 31
0.0
 11
252.0072316264204
 21
-163.542212771724
 31
0.0
 11
252.2705826880782
 21
-163.6843710830524
 31
0.0
 11
252.5402604319384
 21
-163.8141806494308
 31
0.0
 11
252.815424003011
 21
-163.9319499140318
 31
0.0
 11
253.0952325463059
 21
-164.0379873200288
 31
0.0
 11
253.407919987271
 21
-164.1416000484134
 31
0.0
 11
253.7245821231485
 21
-164.2318424651518
 31
0.0
 11
254.044577283913
 21
-164.3092067794524
 31
0.0
 11
254.3672637995388
 21
-164.3741852005234
 31
0.0
 11
254.6919999999998
 21
-164.427269937574
 31
0.0
 11
255.0504523319574
 21
-164.4725782031656
 31
0.0
 11
255.410252771917
 21
-164.5054510127969
 31
0.0
 11
255.7710499209304
 21
-164.5272147584272
 31
0.0
 11
256.132492380049
 21
-164.5391958320145
 31
0.0
 11
256.4942287503252
 21
-164.5427206255186
 31
0.0
 11
256.8559076328108
 21
-164.5391155308979
 31
0.0
 11
257.4309931060129
 21
-164.5215060480103
 31
0.0
 11
258.0052287215094
 21
-164.49192472075
 31
0.0
 11
258.5788009736048
 21
-164.4531090713096
 31
0.0
 11
259.1518963566048
 21
-164.4077966218808
 31
0.0
 11
260.1018858855958
 21
-164.3256499462095
 31
0.0
 11
261.0520999999999
 21
-164.2454699375739
 31
0.0
 11
261.7712462623547
 21
-164.1931225619441
 31
0.0
 11
262.4910593521398
 21
-164.1510408464546
 31
0.0
 11
263.2114926725019
 21
-164.1213300230609
 31
0.0
 11
263.7198568235589
 21
-164.1089778490905
 31
0.0
 11
264.2283604131869
 21
-164.1046842994569
 31
0.0
 11
264.7368576207687
 21
-164.1093092456574
 31
0.0
 11
265.2452026256867
 21
-164.1237125591898
 31
0.0
 11
265.786844421369
 21
-164.1508107035098
 31
0.0
 11
266.3276195061085
 21
-164.1910483123109
 31
0.0
 11
266.8669999999995
 21
-164.2454699375739
 31
0.0
 11
267.3458555351053
 21
-164.3060829730259
 31
0.0
 11
267.8235677309223
 21
-164.3756835806526
 31
0.0
 11
268.3005178351434
 21
-164.4511825417859
 31
0.0
 11
268.777087095461
 21
-164.5294906377569
 31
0.0
 11
269.2803446105023
 21
-164.6119714207915
 31
0.0
 11
269.7839910277092
 21
-164.6914242912664
 31
0.0
 11
270.2884147989631
 21
-164.765133671034
 31
0.0
 11
270.7940043761448
 21
-164.8303839819459
 31
0.0
 11
271.2647022118463
 21
-164.8813160613535
 31
0.0
 11
271.736456393804
 21
-164.9222208139583
 31
0.0
 11
272.2089834728957
 21
-164.9527036394639
 31
0.0
 11
272.6819999999996
 21
-164.9723699375738
 31
0.0
 11
273.1977301392803
 21
-164.9814160141704
 31
0.0
 11
273.7135772055229
 21
-164.9790004186318
 31
0.0
 11
274.2294134948183
 21
-164.9669750842047
 31
0.0
 11
274.7451113032568
 21
-164.9471919441355
 31
0.0
 11
275.2605429269288
 21
-164.9215029316708
 31
0.0
 11
276.1477679150324
 21
-164.8678893950818
 31
0.0
 11
277.0342693506344
 21
-164.8063641388375
 31
0.0
 11
277.9204928963967
 21
-164.7410491152658
 31
0.0
 11
278.5968676325194
 21
-164.6915639783549
 31
0.0
 11
279.2735375174966
 21
-164.6462212605396
 31
0.0
 11
279.9506999999999
 21
-164.6089699375739
 31
0.0
 11
280.4455807682479
 21
-164.589055398868
 31
0.0
 11
280.9407195768678
 21
-164.5765327087433
 31
0.0
 11
281.4360065046457
 21
-164.572373284978
 31
0.0
 11
281.9313316303678
 21
-164.5775485453489
 31
0.0
 11
282.303011782692
 21
-164.5882347966916
 31
0.0
 11
282.6744195575786
 21
-164.6056474090985
 31
0.0
 11
283.0453229780603
 21
-164.6307074957982
 31
0.0
 11
283.4154900671688
 21
-164.6643361700189
 31
0.0
 11
283.7152926681486
 21
-164.6986785241658
 31
0.0
 11
284.0141862395871
 21
-164.740386308306
 31
0.0
 11
284.3118999999997
 21
-164.7905699375739
 31
0.0
 11
284.4961073948276
 21
-164.8266812162823
 31
0.0
 11
284.6792317990741
 21
-164.8677740567654
 31
0.0
 11
284.8607503383851
 21
-164.9151284851186
 31
0.0
 11
285.0401401384079
 21
-164.970024527438
 31
0.0
 11
285.2004533004551
 21
-165.0273396390254
 31
0.0
 11
285.3577074128941
 21
-165.0925164079781
 31
0.0
 11
285.5110238754318
 21
-165.1661623658259
 31
0.0
 11
285.6609029968609
 21
-165.2485691112693
 31
0.0
 11
285.8080999999996
 21
-165.335769937574
 31
0.0
  0
LINE
  5
834
330
1F
100
AcDbEntity
  8
0
 62
    54
100
AcDbLine
 10
-139.2401164526932
 20
55.66259999999998
 30
0.0
 11
-139.2401164526932
 21
67.31259999999998
 31
0.0
  0
LINE
  5
835
330
1F
100
AcDbEntity
  8
0
 62
    54
100
AcDbLine
 10
-259.2397164526933
 20
55.66259999999998
 30
0.0
 11
-259.2397164526933
 21
67.31259999999998
 31
0.0
  0
MTEXT
  5
920
330
1F
100
AcDbEntity
  8
0
100
AcDbMText
 10
-52.70470422781546
 20
-127.0990663411261
 30
0.0
 40
8.0
 41
122.7894460207895
 71
     1
 72
     1
  1
AEC-DBF 4P 0.2kW
 73
     1
 44
1.0
  0
VIEWPORT
  5
71
330
55
100
AcDbEntity
 67
     1
  8
0
100
AcDbViewport
 10
133.3499908447265
 20
101.5999970436096
 30
0.0
 40
381.3957395593833
 41
218.2856291881582
 68
     1
 69
     1
 12
133.3499908447265
 22
101.5999970436096
 13
0.0
 23
0.0
 14
10.0
 24
10.0
 15
10.0
 25
10.0
 16
0.0
 26
0.0
 36
1.0
 17
0.0
 27
0.0
 37
0.0
 42
50.0
 43
0.0
 44
0.0
 45
218.2856291881582
 50
0.0
 51
0.0
 72
   100
 90
    32800
  1

281
     0
 71
     1
 74
     0
110
0.0
120
0.0
130
0.0
111
1.0
121
0.0
131
0.0
112
0.0
122
1.0
132
0.0
 79
     0
146
0.0
  0
VIEWPORT
  5
73
330
55
100
AcDbEntity
 67
     1
  8
0
100
AcDbViewport
 10
133.3499939441679
 20
101.5999939441679
 30
0.0
 40
213.3599903106689
 41
162.5599903106689
 68
     2
 69
     2
 12
210.0
 22
148.5
 13
0.0
 23
0.0
 14
10.0
 24
10.0
 15
10.0
 25
10.0
 16
0.0
 26
0.0
 36
1.0
 17
0.0
 27
0.0
 37
0.0
 42
50.0
 43
0.0
 44
0.0
 45
324.0677920111345
 50
0.0
 51
0.0
 72
   100
 90
    32864
  1

281
     0
 71
     1
 74
     0
110
0.0
120
0.0
130
0.0
111
1.0
121
0.0
131
0.0
112
0.0
122
1.0
132
0.0
 79
     0
146
0.0
  0
ENDSEC
  0
SECTION
  2
OBJECTS
  0
DICTIONARY
  5
C
330
0
100
AcDbDictionary
281
     1
  3
ACAD_GROUP
350
D
  3
ACAD_LAYOUT
350
1A
  3
ACAD_MLINESTYLE
350
17
  3
ACAD_PLOTSETTINGS
350
19
  3
ACAD_PLOTSTYLENAME
350
E
  3
AcDbVariableDictionary
350
5E
  0
DICTIONARY
  5
D
102
{ACAD_REACTORS
330
C
102
}
330
C
100
AcDbDictionary
281
     1
  0
DICTIONARY
  5
1A
102
{ACAD_REACTORS
330
C
102
}
330
C
100
AcDbDictionary
281
     1
  3
Model
350
22
  3
ﾚｲｱｳﾄ1
350
51
  3
ﾚｲｱｳﾄ2
350
56
  0
DICTIONARY
  5
17
102
{ACAD_REACTORS
330
C
102
}
330
C
100
AcDbDictionary
281
     1
  3
Standard
350
18
  0
DICTIONARY
  5
19
102
{ACAD_REACTORS
330
C
102
}
330
C
100
AcDbDictionary
281
     1
  0
ACDBDICTIONARYWDFLT
  5
E
102
{ACAD_REACTORS
330
C
102
}
330
C
100
AcDbDictionary
281
     1
  3
Normal
350
F
100
AcDbDictionaryWithDefault
340
F
  0
DICTIONARY
  5
5E
102
{ACAD_REACTORS
330
C
102
}
330
C
100
AcDbDictionary
281
     1
  3
DIMASSOC
350
5F
  3
HIDETEXT
350
63
  0
LAYOUT
  5
22
102
{ACAD_REACTORS
330
1A
102
}
330
1A
100
AcDbPlotSettings
  1

  2
none_device
  4
ANSI_A_(8.50_x_11.00_Inches)
  6

 40
6.349999904632567
 41
19.04999923706053
 42
6.350006103515625
 43
19.04998779296875
 44
215.8999938964842
 45
279.3999938964843
 46
0.0
 47
0.0
 48
0.0
 49
0.0
140
0.0
141
0.0
142
1.0
143
78.436453180766
 70
 11952
 72
     0
 73
     1
 74
     0
  7

 75
     0
147
0.0127491741332998
148
0.0
149
0.0
100
AcDbLayout
  1
Model
 70
     1
 71
     0
 10
0.0
 20
0.0
 11
12.0
 21
9.0
 12
0.0
 22
0.0
 32
0.0
 14
0.0
 24
0.0
 34
0.0
 15
0.0
 25
0.0
 35
0.0
146
0.0
 13
0.0
 23
0.0
 33
0.0
 16
1.0
 26
0.0
 36
0.0
 17
0.0
 27
1.0
 37
0.0
 76
     0
330
1F
  0
LAYOUT
  5
51
102
{ACAD_REACTORS
330
1A
102
}
330
1A
100
AcDbPlotSettings
  1

  2
none_device
  4
Letter_(8.50_x_11.00_Inches)
  6

 40
6.349999904632567
 41
6.349999904632567
 42
6.350006103515625
 43
6.350006103515625
 44
215.8999938964842
 45
279.3999938964843
 46
0.0
 47
0.0
 48
0.0
 49
0.0
140
0.0
141
0.0
142
1.0
143
1.0
 70
   688
 72
     1
 73
     1
 74
     5
  7

 75
    16
147
1.0
148
0.0
149
0.0
100
AcDbLayout
  1
ﾚｲｱｳﾄ1
 70
     1
 71
     1
 10
-6.350006103515625
 20
-6.349999904632567
 11
273.0499877929687
 21
209.5499939918517
 12
0.0
 22
0.0
 32
0.0
 14
26.66076962115562
 24
20.31135699206657
 34
-0.0015258207003583
 15
240.039213369355
 25
182.8886381005154
 35
0.0000000349246037
146
0.0
 13
0.0
 23
0.0
 33
0.0
 16
1.0
 26
0.0
 36
0.0
 17
0.0
 27
1.0
 37
0.0
 76
     0
330
50
331
6B
  0
LAYOUT
  5
56
102
{ACAD_REACTORS
330
1A
102
}
330
1A
100
AcDbPlotSettings
  1

  2
none_device
  4
Letter_(8.50_x_11.00_Inches)
  6

 40
6.349999904632567
 41
6.349999904632567
 42
6.350006103515625
 43
6.350006103515625
 44
215.8999938964842
 45
279.3999938964843
 46
0.0
 47
0.0
 48
0.0
 49
0.0
140
0.0
141
0.0
142
1.0
143
1.0
 70
   688
 72
     1
 73
     1
 74
     5
  7

 75
    16
147
1.0
148
0.0
149
0.0
100
AcDbLayout
  1
ﾚｲｱｳﾄ2
 70
     1
 71
     2
 10
-6.350006103515625
 20
-6.349999904632567
 11
273.0499877929687
 21
209.5499939918517
 12
0.0
 22
0.0
 32
0.0
 14
26.66076962115562
 24
20.31135699206657
 34
-0.0015258207003583
 15
240.039213369355
 25
182.8886381005154
 35
0.0000000349246037
146
0.0
 13
0.0
 23
0.0
 33
0.0
 16
1.0
 26
0.0
 36
0.0
 17
0.0
 27
1.0
 37
0.0
 76
     0
330
55
331
71
  0
MLINESTYLE
  5
18
102
{ACAD_REACTORS
330
17
102
}
330
17
100
AcDbMlineStyle
  2
STANDARD
 70
     0
  3

 62
   256
 51
90.0
 52
90.0
 71
     2
 49
0.5
 62
   256
  6
BYLAYER
 49
-0.5
 62
   256
  6
BYLAYER
  0
ACDBPLACEHOLDER
  5
F
102
{ACAD_REACTORS
330
E
102
}
330
E
  0
DICTIONARYVAR
  5
5F
102
{ACAD_REACTORS
330
5E
102
}
330
5E
100
DictionaryVariables
280
     0
  1
2
  0
DICTIONARYVAR
  5
63
102
{ACAD_REACTORS
330
5E
102
}
330
5E
100
DictionaryVariables
280
     0
  1
1
  0
ENDSEC
  0
EOF
