  0
SECTION
  2
HEADER
  9
$ACADVER
  1
AC1015
  9
$ACADMAINTVER
 70
    14
  9
$DWGCODEPAGE
  3
ANSI_932
  9
$INSBASE
 10
0.0
 20
0.0
 30
0.0
  9
$EXTMIN
 10
-310.5459588562905
 20
-178.111175052951
 30
-0.0015258207003583
  9
$EXTMAX
 10
270.4019173076399
 20
110.7419159858889
 30
0.0000000349246037
  9
$LIMMIN
 10
0.0
 20
0.0
  9
$LIMMAX
 10
420.0
 20
297.0
  9
$ORTHOMODE
 70
     0
  9
$REGENMODE
 70
     1
  9
$FILLMODE
 70
     1
  9
$QTEXTMODE
 70
     0
  9
$MIRRTEXT
 70
     1
  9
$LTSCALE
 40
1.0
  9
$ATTMODE
 70
     1
  9
$TEXTSIZE
 40
2.5
  9
$TRACEWID
 40
1.0
  9
$TEXTSTYLE
  7
Standard
  9
$CLAYER
  8
0
  9
$CELTYPE
  6
ByLayer
  9
$CECOLOR
 62
   256
  9
$CELTSCALE
 40
1.0
  9
$DISPSILH
 70
     0
  9
$DIMSCALE
 40
1.0
  9
$DIMASZ
 40
2.5
  9
$DIMEXO
 40
0.625
  9
$DIMDLI
 40
3.75
  9
$DIMRND
 40
0.0
  9
$DIMDLE
 40
0.0
  9
$DIMEXE
 40
1.25
  9
$DIMTP
 40
0.0
  9
$DIMTM
 40
0.0
  9
$DIMTXT
 40
2.5
  9
$DIMCEN
 40
2.5
  9
$DIMTSZ
 40
0.0
  9
$DIMTOL
 70
     0
  9
$DIMLIM
 70
     0
  9
$DIMTIH
 70
     0
  9
$DIMTOH
 70
     0
  9
$DIMSE1
 70
     0
  9
$DIMSE2
 70
     0
  9
$DIMTAD
 70
     1
  9
$DIMZIN
 70
     8
  9
$DIMBLK
  1

  9
$DIMASO
 70
     1
  9
$DIMSHO
 70
     1
  9
$DIMPOST
  1

  9
$DIMAPOST
  1

  9
$DIMALT
 70
     0
  9
$DIMALTD
 70
     3
  9
$DIMALTF
 40
0.03937007874016
  9
$DIMLFAC
 40
1.0
  9
$DIMTOFL
 70
     1
  9
$DIMTVP
 40
0.0
  9
$DIMTIX
 70
     0
  9
$DIMSOXD
 70
     0
  9
$DIMSAH
 70
     0
  9
$DIMBLK1
  1

  9
$DIMBLK2
  1

  9
$DIMSTYLE
  2
ISO-25
  9
$DIMCLRD
 70
     0
  9
$DIMCLRE
 70
     0
  9
$DIMCLRT
 70
     0
  9
$DIMTFAC
 40
1.0
  9
$DIMGAP
 40
0.625
  9
$DIMJUST
 70
     0
  9
$DIMSD1
 70
     0
  9
$DIMSD2
 70
     0
  9
$DIMTOLJ
 70
     0
  9
$DIMTZIN
 70
     8
  9
$DIMALTZ
 70
     0
  9
$DIMALTTZ
 70
     0
  9
$DIMUPT
 70
     0
  9
$DIMDEC
 70
     2
  9
$DIMTDEC
 70
     2
  9
$DIMALTU
 70
     2
  9
$DIMALTTD
 70
     3
  9
$DIMTXSTY
  7
Standard
  9
$DIMAUNIT
 70
     0
  9
$DIMADEC
 70
     0
  9
$DIMALTRND
 40
0.0
  9
$DIMAZIN
 70
     0
  9
$DIMDSEP
 70
    44
  9
$DIMATFIT
 70
     3
  9
$DIMFRAC
 70
     0
  9
$DIMLDRBLK
  1

  9
$DIMLUNIT
 70
     2
  9
$DIMLWD
 70
    -2
  9
$DIMLWE
 70
    -2
  9
$DIMTMOVE
 70
     0
  9
$LUNITS
 70
     2
  9
$LUPREC
 70
     4
  9
$SKETCHINC
 40
1.0
  9
$FILLETRAD
 40
10.0
  9
$AUNITS
 70
     0
  9
$AUPREC
 70
     0
  9
$MENU
  1
.
  9
$ELEVATION
 40
0.0
  9
$PELEVATION
 40
0.0
  9
$THICKNESS
 40
0.0
  9
$LIMCHECK
 70
     0
  9
$CHAMFERA
 40
10.0
  9
$CHAMFERB
 40
10.0
  9
$CHAMFERC
 40
20.0
  9
$CHAMFERD
 40
0.0
  9
$SKPOLY
 70
     0
  9
$TDCREATE
 40
2456037.691221238
  9
$TDUCREATE
 40
2456037.316221238
  9
$TDUPDATE
 40
2456037.693381435
  9
$TDUUPDATE
 40
2456037.318381435
  9
$TDINDWG
 40
0.0021603704
  9
$TDUSRTIMER
 40
0.0021603704
  9
$USRTIMER
 70
     1
  9
$ANGBASE
 50
0.0
  9
$ANGDIR
 70
     0
  9
$PDMODE
 70
     0
  9
$PDSIZE
 40
0.0
  9
$PLINEWID
 40
0.0
  9
$SPLFRAME
 70
     0
  9
$SPLINETYPE
 70
     6
  9
$SPLINESEGS
 70
     8
  9
$HANDSEED
  5
F9E
  9
$SURFTAB1
 70
     6
  9
$SURFTAB2
 70
     6
  9
$SURFTYPE
 70
     6
  9
$SURFU
 70
     6
  9
$SURFV
 70
     6
  9
$UCSBASE
  2

  9
$UCSNAME
  2

  9
$UCSORG
 10
0.0
 20
0.0
 30
0.0
  9
$UCSXDIR
 10
1.0
 20
0.0
 30
0.0
  9
$UCSYDIR
 10
0.0
 20
1.0
 30
0.0
  9
$UCSORTHOREF
  2

  9
$UCSORTHOVIEW
 70
     0
  9
$UCSORGTOP
 10
0.0
 20
0.0
 30
0.0
  9
$UCSORGBOTTOM
 10
0.0
 20
0.0
 30
0.0
  9
$UCSORGLEFT
 10
0.0
 20
0.0
 30
0.0
  9
$UCSORGRIGHT
 10
0.0
 20
0.0
 30
0.0
  9
$UCSORGFRONT
 10
0.0
 20
0.0
 30
0.0
  9
$UCSORGBACK
 10
0.0
 20
0.0
 30
0.0
  9
$PUCSBASE
  2

  9
$PUCSNAME
  2

  9
$PUCSORG
 10
0.0
 20
0.0
 30
0.0
  9
$PUCSXDIR
 10
1.0
 20
0.0
 30
0.0
  9
$PUCSYDIR
 10
0.0
 20
1.0
 30
0.0
  9
$PUCSORTHOREF
  2

  9
$PUCSORTHOVIEW
 70
     0
  9
$PUCSORGTOP
 10
0.0
 20
0.0
 30
0.0
  9
$PUCSORGBOTTOM
 10
0.0
 20
0.0
 30
0.0
  9
$PUCSORGLEFT
 10
0.0
 20
0.0
 30
0.0
  9
$PUCSORGRIGHT
 10
0.0
 20
0.0
 30
0.0
  9
$PUCSORGFRONT
 10
0.0
 20
0.0
 30
0.0
  9
$PUCSORGBACK
 10
0.0
 20
0.0
 30
0.0
  9
$USERI1
 70
     0
  9
$USERI2
 70
     0
  9
$USERI3
 70
     0
  9
$USERI4
 70
     0
  9
$USERI5
 70
     0
  9
$USERR1
 40
0.0
  9
$USERR2
 40
0.0
  9
$USERR3
 40
0.0
  9
$USERR4
 40
0.0
  9
$USERR5
 40
0.0
  9
$WORLDVIEW
 70
     1
  9
$SHADEDGE
 70
     3
  9
$SHADEDIF
 70
    70
  9
$TILEMODE
 70
     1
  9
$MAXACTVP
 70
    64
  9
$PINSBASE
 10
0.0
 20
0.0
 30
0.0
  9
$PLIMCHECK
 70
     0
  9
$PEXTMIN
 10
26.66076962115562
 20
20.31135699206657
 30
-0.0015258207003583
  9
$PEXTMAX
 10
240.039213369355
 20
182.8886381005154
 30
0.0000000349246037
  9
$PLIMMIN
 10
-6.350006103515625
 20
-6.349999904632568
  9
$PLIMMAX
 10
273.0499877929687
 20
209.5499939918517
  9
$UNITMODE
 70
     0
  9
$VISRETAIN
 70
     1
  9
$PLINEGEN
 70
     0
  9
$PSLTSCALE
 70
     1
  9
$TREEDEPTH
 70
  3020
  9
$CMLSTYLE
  2
Standard
  9
$CMLJUST
 70
     0
  9
$CMLSCALE
 40
20.0
  9
$PROXYGRAPHICS
 70
     1
  9
$MEASUREMENT
 70
     1
  9
$CELWEIGHT
370
    -1
  9
$ENDCAPS
280
     0
  9
$JOINSTYLE
280
     0
  9
$LWDISPLAY
290
     0
  9
$INSUNITS
 70
     4
  9
$HYPERLINKBASE
  1

  9
$STYLESHEET
  1

  9
$XEDIT
290
     1
  9
$CEPSNTYPE
380
     0
  9
$PSTYLEMODE
290
     1
  9
$FINGERPRINTGUID
  2
{FDEAD578-A652-11D2-9A35-0060089B3A3F}
  9
$VERSIONGUID
  2
{3CBDF065-A443-4C21-A61D-B82FCE4BE1F1}
  9
$EXTNAMES
290
     1
  9
$PSVPSCALE
 40
0.0
  9
$OLESTARTUP
290
     0
  0
ENDSEC
  0
SECTION
  2
CLASSES
  0
CLASS
  1
ACDBDICTIONARYWDFLT
  2
AcDbDictionaryWithDefault
  3
AutoCAD 2000
 90
        0
280
     0
281
     0
  0
CLASS
  1
ACDBPLACEHOLDER
  2
AcDbPlaceHolder
  3
AutoCAD 2000
 90
        0
280
     0
281
     0
  0
CLASS
  1
LAYOUT
  2
AcDbLayout
  3
AutoCAD 2000
 90
        0
280
     0
281
     0
  0
CLASS
  1
DICTIONARYVAR
  2
AcDbDictionaryVar
  3
AutoCAD 2000
 90
        0
280
     0
281
     0
  0
ENDSEC
  0
SECTION
  2
TABLES
  0
TABLE
  2
VPORT
  5
8
330
0
100
AcDbSymbolTable
 70
     4
  0
VPORT
  5
F9D
330
8
100
AcDbSymbolTableRecord
100
AcDbViewportTableRecord
  2
*Active
 70
     0
 10
0.0
 20
0.0
 11
1.0
 21
1.0
 12
-20.07202077432532
 22
-35.04034376044333
 13
0.0
 23
0.0
 14
10.0
 24
10.0
 15
10.0
 25
10.0
 16
0.0
 26
0.0
 36
1.0
 17
0.0
 27
0.0
 37
0.0
 40
295.9216470270463
 41
1.97051597051597
 42
50.0
 43
0.0
 44
0.0
 50
0.0
 51
0.0
 71
     0
 72
   100
 73
     1
 74
     3
 75
     0
 76
     0
 77
     0
 78
     0
281
     0
 65
     1
110
0.0
120
0.0
130
0.0
111
1.0
121
0.0
131
0.0
112
0.0
122
1.0
132
0.0
 79
     0
146
0.0
  0
ENDTAB
  0
TABLE
  2
LTYPE
  5
5
330
0
100
AcDbSymbolTable
 70
     4
  0
LTYPE
  5
14
330
5
100
AcDbSymbolTableRecord
100
AcDbLinetypeTableRecord
  2
ByBlock
 70
     0
  3

 72
    65
 73
     0
 40
0.0
  0
LTYPE
  5
15
330
5
100
AcDbSymbolTableRecord
100
AcDbLinetypeTableRecord
  2
ByLayer
 70
     0
  3

 72
    65
 73
     0
 40
0.0
  0
LTYPE
  5
16
330
5
100
AcDbSymbolTableRecord
100
AcDbLinetypeTableRecord
  2
Continuous
 70
     0
  3
Solid line
 72
    65
 73
     0
 40
0.0
  0
LTYPE
  5
8C
330
5
100
AcDbSymbolTableRecord
100
AcDbLinetypeTableRecord
  2
DASHED
 70
     0
  3
Dashed
 72
    65
 73
     2
 40
15.0
 49
7.0
 74
     0
 49
-8.0
 74
     0
  0
LTYPE
  5
8D
330
5
100
AcDbSymbolTableRecord
100
AcDbLinetypeTableRecord
  2
DASH_CENTER
 70
     0
  3
Dash_Center
 72
    65
 73
     4
 40
14.0
 49
11.0
 74
     0
 49
-1.0
 74
     0
 49
1.0
 74
     0
 49
-1.0
 74
     0
  0
LTYPE
  5
8E
330
5
100
AcDbSymbolTableRecord
100
AcDbLinetypeTableRecord
  2
PHANTOM
 70
     0
  3
Phantom
 72
    65
 73
     6
 40
13.0
 49
10.0
 74
     0
 49
-1.0
 74
     0
 49
0.0
 74
     0
 49
-1.0
 74
     0
 49
0.0
 74
     0
 49
-1.0
 74
     0
  0
ENDTAB
  0
TABLE
  2
LAYER
  5
2
330
0
100
AcDbSymbolTable
 70
     1
  0
LAYER
  5
10
330
2
100
AcDbSymbolTableRecord
100
AcDbLayerTableRecord
  2
0
 70
     0
 62
     7
  6
Continuous
370
    -3
390
F
  0
ENDTAB
  0
TABLE
  2
STYLE
  5
3
330
0
100
AcDbSymbolTable
 70
    27
  0
STYLE
  5
11
330
3
100
AcDbSymbolTableRecord
100
AcDbTextStyleTableRecord
  2
Standard
 70
     0
 40
0.0
 41
1.0
 50
0.0
 71
     0
 42
2.5
  3
txt
  4

  0
STYLE
  5
8F
330
3
100
AcDbSymbolTableRecord
100
AcDbTextStyleTableRecord
  2
CONVERTER_1
 70
     0
 40
0.0
 41
0.834375
 50
0.0
 71
     0
 42
0.2
  3
txt.shx
  4
bigfont.shx
  0
STYLE
  5
90
330
3
100
AcDbSymbolTableRecord
100
AcDbTextStyleTableRecord
  2
CONVERTER_2
 70
     0
 40
0.0
 41
0.89
 50
0.0
 71
     0
 42
0.2
  3
txt.shx
  4
bigfont.shx
  0
STYLE
  5
91
330
3
100
AcDbSymbolTableRecord
100
AcDbTextStyleTableRecord
  2
CONVERTER_3
 70
     0
 40
0.0
 41
0.7565
 50
0.0
 71
     0
 42
0.2
  3
txt.shx
  4

  0
STYLE
  5
92
330
3
100
AcDbSymbolTableRecord
100
AcDbTextStyleTableRecord
  2
CONVERTER_4
 70
     0
 40
0.0
 41
0.7565
 50
0.0
 71
     0
 42
0.2
  3
txt.shx
  4
bigfont.shx
  0
STYLE
  5
93
330
3
100
AcDbSymbolTableRecord
100
AcDbTextStyleTableRecord
  2
CONVERTER_5
 70
     0
 40
0.0
 41
0.7120000000000001
 50
0.0
 71
     0
 42
0.2
  3
txt.shx
  4

  0
STYLE
  5
94
330
3
100
AcDbSymbolTableRecord
100
AcDbTextStyleTableRecord
  2
CONVERTER_6
 70
     0
 40
0.0
 41
0.8523943661971799
 50
0.0
 71
     0
 42
0.2
  3
txt.shx
  4
bigfont.shx
  0
STYLE
  5
95
330
3
100
AcDbSymbolTableRecord
100
AcDbTextStyleTableRecord
  2
CONVERTER_7
 70
     0
 40
0.0
 41
1.008666666666669
 50
0.0
 71
     0
 42
0.2
  3
txt.shx
  4
bigfont.shx
  0
STYLE
  5
96
330
3
100
AcDbSymbolTableRecord
100
AcDbTextStyleTableRecord
  2
CONVERTER_8
 70
     0
 40
0.0
 41
0.97612903225807
 50
0.0
 71
     0
 42
0.2
  3
txt.shx
  4
bigfont.shx
  0
STYLE
  5
97
330
3
100
AcDbSymbolTableRecord
100
AcDbTextStyleTableRecord
  2
CONVERTER_9
 70
     0
 40
0.0
 41
0.8455
 50
0.0
 71
     0
 42
0.2
  3
txt.shx
  4

  0
STYLE
  5
98
330
3
100
AcDbSymbolTableRecord
100
AcDbTextStyleTableRecord
  2
CONVERTER_10
 70
     0
 40
0.0
 41
0.8009999999999999
 50
0.0
 71
     0
 42
0.2
  3
txt.shx
  4
bigfont.shx
  0
STYLE
  5
99
330
3
100
AcDbSymbolTableRecord
100
AcDbTextStyleTableRecord
  2
CONVERTER_11
 70
     0
 40
0.0
 41
0.8009999999999999
 50
0.0
 71
     0
 42
0.2
  3
txt.shx
  4

  0
STYLE
  5
9A
330
3
100
AcDbSymbolTableRecord
100
AcDbTextStyleTableRecord
  2
CONVERTER_12
 70
     0
 40
0.0
 41
0.89
 50
0.0
 71
     0
 42
0.2
  3
txt.shx
  4

  0
STYLE
  5
9B
330
3
100
AcDbSymbolTableRecord
100
AcDbTextStyleTableRecord
  2
CONVERTER_13
 70
     0
 40
0.0
 41
0.741666637
 50
0.0
 71
     0
 42
0.2
  3
txt.shx
  4

  0
STYLE
  5
9C
330
3
100
AcDbSymbolTableRecord
100
AcDbTextStyleTableRecord
  2
CONVERTER_14
 70
     0
 40
0.0
 41
0.6230000000000001
 50
0.0
 71
     0
 42
0.2
  3
txt.shx
  4

  0
STYLE
  5
9D
330
3
100
AcDbSymbolTableRecord
100
AcDbTextStyleTableRecord
  2
CONVERTER_15
 70
     0
 40
0.0
 41
0.94933333333333
 50
0.0
 71
     0
 42
0.2
  3
txt.shx
  4

  0
STYLE
  5
9E
330
3
100
AcDbSymbolTableRecord
100
AcDbTextStyleTableRecord
  2
CONVERTER_16
 70
     0
 40
0.0
 41
1.01714285714286
 50
0.0
 71
     0
 42
0.2
  3
txt.shx
  4

  0
STYLE
  5
9F
330
3
100
AcDbSymbolTableRecord
100
AcDbTextStyleTableRecord
  2
CONVERTER_17
 70
     0
 40
0.0
 41
1.1125
 50
0.0
 71
     0
 42
0.2
  3
txt.shx
  4

  0
STYLE
  5
A0
330
3
100
AcDbSymbolTableRecord
100
AcDbTextStyleTableRecord
  2
CONVERTER_18
 70
     0
 40
0.0
 41
1.148387096774189
 50
0.0
 71
     0
 42
0.2
  3
txt.shx
  4

  0
STYLE
  5
A1
330
3
100
AcDbSymbolTableRecord
100
AcDbTextStyleTableRecord
  2
CONVERTER_19
 70
     0
 40
0.0
 41
1.078787878787879
 50
0.0
 71
     0
 42
0.2
  3
txt.shx
  4

  0
STYLE
  5
A2
330
3
100
AcDbSymbolTableRecord
100
AcDbTextStyleTableRecord
  2
CONVERTER_20
 70
     0
 40
0.0
 41
1.424
 50
0.0
 71
     0
 42
0.2
  3
txt.shx
  4

  0
STYLE
  5
A3
330
3
100
AcDbSymbolTableRecord
100
AcDbTextStyleTableRecord
  2
CONVERTER_21
 70
     0
 40
0.0
 41
0.7719387755102
 50
0.0
 71
     0
 42
0.2
  3
txt.shx
  4
bigfont.shx
  0
STYLE
  5
A4
330
3
100
AcDbSymbolTableRecord
100
AcDbTextStyleTableRecord
  2
CONVERTER_22
 70
     0
 40
0.0
 41
0.85884578997162
 50
0.0
 71
     0
 42
0.2
  3
txt.shx
  4
bigfont.shx
  0
STYLE
  5
A5
330
3
100
AcDbSymbolTableRecord
100
AcDbTextStyleTableRecord
  2
CONVERTER_23
 70
     0
 40
0.0
 41
0.8362966374942399
 50
0.0
 71
     0
 42
0.2
  3
txt.shx
  4
bigfont.shx
  0
STYLE
  5
A6
330
3
100
AcDbSymbolTableRecord
100
AcDbTextStyleTableRecord
  2
CONVERTER_24
 70
     0
 40
0.0
 41
1.68111111111111
 50
0.0
 71
     0
 42
0.2
  3
txt.shx
  4
bigfont.shx
  0
STYLE
  5
A7
330
3
100
AcDbSymbolTableRecord
100
AcDbTextStyleTableRecord
  2
CONVERTER_25
 70
     0
 40
0.0
 41
1.62688172043011
 50
0.0
 71
     0
 42
0.2
  3
txt.shx
  4
bigfont.shx
  0
STYLE
  5
A8
330
3
100
AcDbSymbolTableRecord
100
AcDbTextStyleTableRecord
  2
CONVERTER_26
 70
     0
 40
0.0
 41
0.945625
 50
0.0
 71
     0
 42
0.2
  3
txt.shx
  4
bigfont.shx
  0
ENDTAB
  0
TABLE
  2
VIEW
  5
6
330
0
100
AcDbSymbolTable
 70
     0
  0
ENDTAB
  0
TABLE
  2
UCS
  5
7
330
0
100
AcDbSymbolTable
 70
     0
  0
ENDTAB
  0
TABLE
  2
APPID
  5
9
330
0
100
AcDbSymbolTable
 70
     1
  0
APPID
  5
12
330
9
100
AcDbSymbolTableRecord
100
AcDbRegAppTableRecord
  2
ACAD
 70
     0
  0
ENDTAB
  0
TABLE
  2
DIMSTYLE
  5
A
330
0
100
AcDbSymbolTable
 70
     2
100
AcDbDimStyleTable
 71
     0
  0
DIMSTYLE
105
27
330
A
100
AcDbSymbolTableRecord
100
AcDbDimStyleTableRecord
  2
ISO-25
 70
     0
 41
2.5
 42
0.625
 43
3.75
 44
1.25
 73
     0
 74
     0
 77
     1
 78
     8
140
2.5
141
2.5
143
0.03937007874016
147
0.625
171
     3
172
     1
271
     2
272
     2
274
     3
278
    44
283
     0
284
     8
340
11
  0
DIMSTYLE
105
A9
330
A
100
AcDbSymbolTableRecord
100
AcDbDimStyleTableRecord
  2
Standard
 70
     0
340
11
  0
ENDTAB
  0
TABLE
  2
BLOCK_RECORD
  5
1
330
0
100
AcDbSymbolTable
 70
     3
  0
BLOCK_RECORD
  5
1F
330
1
100
AcDbSymbolTableRecord
100
AcDbBlockTableRecord
  2
*Model_Space
340
22
  0
BLOCK_RECORD
  5
55
330
1
100
AcDbSymbolTableRecord
100
AcDbBlockTableRecord
  2
*Paper_Space
340
56
  0
BLOCK_RECORD
  5
50
330
1
100
AcDbSymbolTableRecord
100
AcDbBlockTableRecord
  2
*Paper_Space0
340
51
  0
BLOCK_RECORD
  5
86
330
1
100
AcDbSymbolTableRecord
100
AcDbBlockTableRecord
  2
_Open30
340
0
102
{BLKREFS
331
74C
331
74B
331
13A
331
133
331
136
331
DF
331
130
331
11B
331
132
331
F6
331
11C
331
F7
331
115
331
F8
331
602
331
195
331
56D
331
194
331
5F7
331
56B
331
601
331
56F
331
5B5
331
555
331
5FE
331
5FC
331
5F9
331
5F0
331
673
331
75D
331
728
331
80C
331
726
331
812
331
716
331
6CA
331
713
331
6C4
331
714
331
69B
331
70C
331
68F
331
688
331
684
331
6C5
331
69C
331
6A1
331
69E
331
70F
331
724
331
817
331
802
331
803
331
75E
331
752
331
755
331
859
331
870
331
871
331
872
331
88F
331
895
331
896
331
8AA
331
8AC
331
8AD
331
8B0
331
8B4
331
90E
331
90F
331
CCF
331
CE5
331
CE7
331
CE9
331
D2F
331
D6A
331
D71
331
D73
331
D76
331
D78
331
D7B
331
D7C
331
DED
331
DFE
331
E02
331
E09
331
E15
331
E16
331
E18
331
E1B
331
E3E
331
E3F
331
E44
331
E86
331
E89
331
E8D
331
E8E
331
E90
331
E9E
331
EA0
331
EA2
331
EC5
331
EC6
331
ECC
331
ECF
331
ED7
331
ED8
331
F7C
331
F7D
331
F86
331
F8C
331
F91
102
}
  0
ENDTAB
  0
ENDSEC
  0
SECTION
  2
BLOCKS
  0
BLOCK
  5
20
330
1F
100
AcDbEntity
  8
0
100
AcDbBlockBegin
  2
*Model_Space
 70
     0
 10
0.0
 20
0.0
 30
0.0
  3
*Model_Space
  1

  0
ENDBLK
  5
21
330
1F
100
AcDbEntity
  8
0
100
AcDbBlockEnd
  0
BLOCK
  5
57
330
55
100
AcDbEntity
 67
     1
  8
0
100
AcDbBlockBegin
  2
*Paper_Space
 70
     0
 10
0.0
 20
0.0
 30
0.0
  3
*Paper_Space
  1

  0
ENDBLK
  5
58
330
55
100
AcDbEntity
 67
     1
  8
0
100
AcDbBlockEnd
  0
BLOCK
  5
52
330
50
100
AcDbEntity
  8
0
100
AcDbBlockBegin
  2
*Paper_Space0
 70
     0
 10
0.0
 20
0.0
 30
0.0
  3
*Paper_Space0
  1

  0
VIEWPORT
  5
6B
330
50
100
AcDbEntity
  8
0
100
AcDbViewport
 10
133.3499908447265
 20
101.5999970436096
 30
0.0
 40
381.3957395593834
 41
218.2856291881582
 69
     0
 12
133.3499908447265
 22
101.5999970436096
 13
0.0
 23
0.0
 14
10.0
 24
10.0
 15
10.0
 25
10.0
 16
0.0
 26
0.0
 36
1.0
 17
0.0
 27
0.0
 37
0.0
 42
50.0
 43
0.0
 44
0.0
 45
218.2856291881582
 50
0.0
 51
0.0
 72
   100
 90
    32800
  1

281
     0
 71
     1
 74
     0
110
0.0
120
0.0
130
0.0
111
1.0
121
0.0
131
0.0
112
0.0
122
1.0
132
0.0
 79
     0
146
0.0
  0
VIEWPORT
  5
6D
330
50
100
AcDbEntity
  8
0
100
AcDbViewport
 10
133.349993944168
 20
101.599993944168
 30
0.0
 40
213.3599903106689
 41
162.5599903106689
 69
     0
 12
210.0
 22
148.5
 13
0.0
 23
0.0
 14
10.0
 24
10.0
 15
10.0
 25
10.0
 16
0.0
 26
0.0
 36
1.0
 17
0.0
 27
0.0
 37
0.0
 42
50.0
 43
0.0
 44
0.0
 45
324.0677920111345
 50
0.0
 51
0.0
 72
   100
 90
    32864
  1

281
     0
 71
     1
 74
     0
110
0.0
120
0.0
130
0.0
111
1.0
121
0.0
131
0.0
112
0.0
122
1.0
132
0.0
 79
     0
146
0.0
  0
ENDBLK
  5
53
330
50
100
AcDbEntity
  8
0
100
AcDbBlockEnd
  0
BLOCK
  5
8A
330
86
100
AcDbEntity
  8
0
100
AcDbBlockBegin
  2
_Open30
 70
     0
 10
0.0
 20
0.0
 30
0.0
  3
_Open30
  1

  0
LINE
  5
87
330
86
100
AcDbEntity
  8
0
  6
ByBlock
 62
     0
370
    -2
100
AcDbLine
 10
-1.0
 20
0.267949
 30
0.0
 11
0.0
 21
0.0
 31
0.0
  0
LINE
  5
88
330
86
100
AcDbEntity
  8
0
  6
ByBlock
 62
     0
370
    -2
100
AcDbLine
 10
0.0
 20
0.0
 30
0.0
 11
-1.0
 21
-0.267949
 31
0.0
  0
LINE
  5
89
330
86
100
AcDbEntity
  8
0
  6
ByBlock
 62
     0
370
    -2
100
AcDbLine
 10
0.0
 20
0.0
 30
0.0
 11
-1.0
 21
0.0
 31
0.0
  0
ENDBLK
  5
8B
330
86
100
AcDbEntity
  8
0
100
AcDbBlockEnd
  0
ENDSEC
  0
SECTION
  2
ENTITIES
  0
LINE
  5
82D
330
1F
100
AcDbEntity
  8
0
  6
Continuous
 62
     7
100
AcDbLine
 10
-281.6682
 20
94.04709999999999
 30
0.0
 11
-281.6682
 21
-37.15280000000007
 31
0.0
  0
LINE
  5
82E
330
1F
100
AcDbEntity
  8
0
  6
Continuous
 62
     7
100
AcDbLine
 10
-102.8682
 20
-37.15280000000007
 30
0.0
 11
-102.8682
 21
94.04709999999999
 31
0.0
  0
LINE
  5
82F
330
1F
100
AcDbEntity
  8
0
  6
Continuous
 62
     7
100
AcDbLine
 10
-283.968
 20
-37.15280000000007
 30
0.0
 11
-283.968
 21
94.04709999999999
 31
0.0
  0
LINE
  5
830
330
1F
100
AcDbEntity
  8
0
  6
Continuous
 62
     7
100
AcDbLine
 10
-105.1681999999999
 20
-37.15280000000007
 30
0.0
 11
-105.1681999999999
 21
94.04709999999999
 31
0.0
  0
LINE
  5
831
330
1F
100
AcDbEntity
  8
0
  6
DASH_CENTER
 62
    30
100
AcDbLine
 10
-178.1682
 20
105.3146999999998
 30
0.0
 11
-178.1682
 21
-49.26510000000006
 31
0.0
  0
LINE
  5
832
330
1F
100
AcDbEntity
  8
0
  6
DASH_CENTER
 62
    30
100
AcDbLine
 10
-276.6626000000001
 20
-14.68650000000002
 30
0.0
 11
-291.5172999999998
 21
-14.68650000000002
 31
0.0
  0
LINE
  5
833
330
1F
100
AcDbEntity
  8
0
  6
Continuous
 62
     7
100
AcDbLine
 10
-283.968
 20
-37.15280000000007
 30
0.0
 11
-274.363
 21
-37.15280000000007
 31
0.0
  0
ARC
  5
84A
330
1F
100
AcDbEntity
  8
0
  6
Continuous
 62
     7
100
AcDbCircle
 10
-285.2678265608044
 20
-12.60522898478268
 30
0.0
 40
1.299973439518725
100
AcDbArc
 50
94.99881820689338
 51
179.9987225079612
  0
ARC
  5
84B
330
1F
100
AcDbEntity
  8
0
  6
Continuous
 62
     7
100
AcDbCircle
 10
-285.267776750911
 20
-16.76782537279457
 30
0.0
 40
1.30002324933661
100
AcDbArc
 50
179.9988817476613
 51
264.9991701575221
  0
LINE
  5
84C
330
1F
100
AcDbEntity
  8
0
  6
Continuous
 62
     7
100
AcDbLine
 10
-286.5679
 20
-12.60519999999997
 30
0.0
 11
-286.5679
 21
-16.76780000000008
 31
0.0
  0
LINE
  5
84D
330
1F
100
AcDbEntity
  8
0
  6
Continuous
 62
     7
100
AcDbLine
 10
-283.9678000000001
 20
-18.18650000000002
 30
0.0
 11
-285.3811
 21
-18.06269999999995
 31
0.0
  0
LINE
  5
84E
330
1F
100
AcDbEntity
  8
0
  6
Continuous
 62
     7
100
AcDbLine
 10
-283.9678000000001
 20
-11.18650000000002
 30
0.0
 11
-285.3811
 21
-11.31010000000015
 31
0.0
  0
ARC
  5
85A
330
1F
100
AcDbEntity
  8
0
  6
Continuous
 62
     7
100
AcDbCircle
 10
-150.6681999949999
 20
-38.85230000500099
 30
0.0
 40
0.500000005000004
100
AcDbArc
 50
179.9999994269277
 51
269.9885402711795
  0
ARC
  5
85B
330
1F
100
AcDbEntity
  8
0
  6
Continuous
 62
     7
100
AcDbCircle
 10
-151.6682000049999
 20
-38.852299995001
 30
0.0
 40
0.500000005000004
100
AcDbArc
 50
359.9999994271565
 51
90.01145858290389
  0
ARC
  5
85C
330
1F
100
AcDbEntity
  8
0
  6
Continuous
 62
     7
100
AcDbCircle
 10
-158.9868953904369
 20
-25.55250406504237
 30
0.0
 40
10.0000040654973
100
AcDbArc
 50
7.184241256839425
 51
89.99945345327835
  0
LINE
  5
85D
330
1F
100
AcDbEntity
  8
0
  6
Continuous
 62
     7
100
AcDbLine
 10
-153.1683
 20
-42.55250000000001
 30
0.0
 11
-123.1683
 21
-42.55250000000001
 31
0.0
  0
ARC
  5
864
330
1F
100
AcDbEntity
  8
0
  6
Continuous
 62
     7
100
AcDbCircle
 10
-219.1687
 20
-18.3022
 30
0.0
 40
2.0
100
AcDbArc
 50
270.0
 51
0.0
  0
ARC
  5
865
330
1F
100
AcDbEntity
  8
0
  6
Continuous
 62
     7
100
AcDbCircle
 10
-219.1687
 20
-16.8022
 30
0.0
 40
2.0
100
AcDbArc
 50
270.0
 51
0.0
  0
ARC
  5
866
330
1F
100
AcDbEntity
  8
0
  6
Continuous
 62
     7
100
AcDbCircle
 10
-219.1687
 20
-16.8022
 30
0.0
 40
2.0
100
AcDbArc
 50
0.0
 51
90.0
  0
ARC
  5
867
330
1F
100
AcDbEntity
  8
0
  6
Continuous
 62
     7
100
AcDbCircle
 10
-219.1687
 20
-3.802200000000002
 30
0.0
 40
2.0
100
AcDbArc
 50
0.0
 51
90.0
  0
ARC
  5
868
330
1F
100
AcDbEntity
  8
0
  6
Continuous
 62
     7
100
AcDbCircle
 10
-219.1687
 20
-6.802200000000002
 30
0.0
 40
1.999999999999999
100
AcDbArc
 50
270.0
 51
0.0
  0
ARC
  5
869
330
1F
100
AcDbEntity
  8
0
  6
Continuous
 62
     7
100
AcDbCircle
 10
-219.1687
 20
-5.602300000000003
 30
0.0
 40
2.0
100
AcDbArc
 50
270.0
 51
0.0
  0
LINE
  5
86A
330
1F
100
AcDbEntity
  8
0
  6
Continuous
 62
     7
100
AcDbLine
 10
-215.5985999999999
 20
-31.05220000000007
 30
0.0
 11
-222.7295000000001
 21
-31.05220000000007
 31
0.0
  0
LINE
  5
86B
330
1F
100
AcDbEntity
  8
0
  6
Continuous
 62
     7
100
AcDbLine
 10
-233.168
 20
-42.55220000000007
 30
0.0
 11
-203.1680000000001
 21
-42.55220000000007
 31
0.0
  0
LINE
  5
86C
330
1F
100
AcDbEntity
  8
0
  6
Continuous
 62
     7
100
AcDbLine
 10
-205.668
 20
-39.3523
 30
0.0
 11
-230.2434
 21
-39.3523
 31
0.0
  0
LINE
  5
874
330
1F
100
AcDbEntity
  8
0
  6
Continuous
 62
     7
100
AcDbLine
 10
-274.363
 20
-37.15280000000007
 30
0.0
 11
-228.1378999999999
 21
-37.15280000000007
 31
0.0
  0
ARC
  5
875
330
1F
100
AcDbEntity
  8
0
  6
Continuous
 62
     7
100
AcDbCircle
 10
-222.7295036975944
 20
-36.0522029124956
 30
0.0
 40
5.000002912496881
100
AcDbArc
 50
89.99995762871446
 51
166.4531460911317
  0
ARC
  5
876
330
1F
100
AcDbEntity
  8
0
  6
Continuous
 62
     7
100
AcDbCircle
 10
-230.2434325743053
 20
-37.35232565835967
 30
0.0
 40
1.999974341905607
100
AcDbArc
 50
270.0009331970809
 51
346.4531620128801
  0
LINE
  5
877
330
1F
100
AcDbEntity
  8
0
  6
Continuous
 62
     7
100
AcDbLine
 10
-227.5905999999999
 20
-34.88110000000006
 30
0.0
 11
-228.2990999999999
 21
-37.82079999999996
 31
0.0
  0
LINE
  5
878
330
1F
100
AcDbEntity
  8
0
  6
Continuous
 62
     7
100
AcDbLine
 10
-230.2434
 20
-39.3523
 30
0.0
 11
-233.168
 21
-39.3523
 31
0.0
  0
LINE
  5
879
330
1F
100
AcDbEntity
  8
0
  6
Continuous
 62
     7
100
AcDbLine
 10
-233.168
 20
-39.3523
 30
0.0
 11
-233.168
 21
-42.55220000000007
 31
0.0
  0
LINE
  5
87A
330
1F
100
AcDbEntity
  8
0
  6
DASH_CENTER
 62
    30
100
AcDbLine
 10
-223.168
 20
-45.87159999999992
 30
0.0
 11
-223.168
 21
-37.10720000000014
 31
0.0
  0
LINE
  5
87B
330
1F
100
AcDbEntity
  8
0
  6
Continuous
 62
     7
100
AcDbLine
 10
-240.1684999999999
 20
-20.3022
 30
0.0
 11
-219.1684999999999
 21
-20.3022
 31
0.0
  0
LINE
  5
87C
330
1F
100
AcDbEntity
  8
0
  6
Continuous
 62
     7
100
AcDbLine
 10
-219.1687
 20
-7.602300000000003
 30
0.0
 11
-240.1687
 21
-7.602300000000003
 31
0.0
  0
LINE
  5
87D
330
1F
100
AcDbEntity
  8
0
  6
Continuous
 62
     7
100
AcDbLine
 10
-219.1687
 20
-8.802200000000002
 30
0.0
 11
-240.1687
 21
-8.802200000000002
 31
0.0
  0
LINE
  5
87E
330
1F
100
AcDbEntity
  8
0
  6
Continuous
 62
     7
100
AcDbLine
 10
-240.1684999999999
 20
-18.8022
 30
0.0
 11
-219.1684999999999
 21
-18.8022
 31
0.0
  0
LINE
  5
87F
330
1F
100
AcDbEntity
  8
0
  6
Continuous
 62
     7
100
AcDbLine
 10
-219.1687
 20
-1.802199999999999
 30
0.0
 11
-240.1687
 21
-1.802199999999999
 31
0.0
  0
LINE
  5
880
330
1F
100
AcDbEntity
  8
0
  6
Continuous
 62
     7
100
AcDbLine
 10
-219.1687
 20
-14.8022
 30
0.0
 11
-240.1687
 21
-14.8022
 31
0.0
  0
ARC
  5
881
330
1F
100
AcDbEntity
  8
0
  6
Continuous
 62
     7
100
AcDbCircle
 10
-240.1687
 20
-16.8022
 30
0.0
 40
2.0
100
AcDbArc
 50
180.0
 51
270.0
  0
ARC
  5
882
330
1F
100
AcDbEntity
  8
0
  6
Continuous
 62
     7
100
AcDbCircle
 10
-240.1687
 20
-18.3022
 30
0.0
 40
2.0
100
AcDbArc
 50
180.0
 51
270.0
  0
ARC
  5
883
330
1F
100
AcDbEntity
  8
0
  6
Continuous
 62
     7
100
AcDbCircle
 10
-240.1687
 20
-16.8022
 30
0.0
 40
2.0
100
AcDbArc
 50
90.0
 51
180.0
  0
LINE
  5
884
330
1F
100
AcDbEntity
  8
0
  6
Continuous
 62
     7
100
AcDbLine
 10
-242.1687
 20
-18.3022
 30
0.0
 11
-242.1687
 21
-16.8022
 31
0.0
  0
ARC
  5
885
330
1F
100
AcDbEntity
  8
0
  6
Continuous
 62
     7
100
AcDbCircle
 10
-240.1687
 20
-5.602300000000003
 30
0.0
 40
2.0
100
AcDbArc
 50
180.0
 51
270.0
  0
ARC
  5
886
330
1F
100
AcDbEntity
  8
0
  6
Continuous
 62
     7
100
AcDbCircle
 10
-240.1687
 20
-3.802200000000002
 30
0.0
 40
2.0
100
AcDbArc
 50
90.0
 51
180.0
  0
ARC
  5
887
330
1F
100
AcDbEntity
  8
0
  6
Continuous
 62
     7
100
AcDbCircle
 10
-240.1687
 20
-6.802200000000002
 30
0.0
 40
2.0
100
AcDbArc
 50
180.0
 51
270.0
  0
LINE
  5
888
330
1F
100
AcDbEntity
  8
0
  6
Continuous
 62
     7
100
AcDbLine
 10
-242.1687
 20
-3.802200000000002
 30
0.0
 11
-242.1687
 21
-6.802200000000002
 31
0.0
  0
LINE
  5
889
330
1F
100
AcDbEntity
  8
0
  6
Continuous
 62
     7
100
AcDbLine
 10
-217.1687
 20
-18.3022
 30
0.0
 11
-217.1687
 21
-16.8022
 31
0.0
  0
LINE
  5
88A
330
1F
100
AcDbEntity
  8
0
  6
Continuous
 62
     7
100
AcDbLine
 10
-217.1687
 20
-3.802200000000002
 30
0.0
 11
-217.1687
 21
-6.802200000000002
 31
0.0
  0
LINE
  5
898
330
1F
100
AcDbEntity
  8
0
  6
Continuous
 62
     7
100
AcDbLine
 10
-178.1682
 20
-41.55220000000007
 30
0.0
 11
-203.1680000000001
 21
-41.55250000000001
 31
0.0
  0
LINE
  5
899
330
1F
100
AcDbEntity
  8
0
  6
Continuous
 62
     7
100
AcDbLine
 10
-178.1680000000001
 20
-38.3523
 30
0.0
 11
-204.6680000000001
 21
-38.3523
 31
0.0
  0
LINE
  5
89A
330
1F
100
AcDbEntity
  8
0
  6
Continuous
 62
     7
100
AcDbLine
 10
-158.9868
 20
-15.55250000000001
 30
0.0
 11
-197.3494
 21
-15.55220000000008
 31
0.0
  0
ARC
  5
89B
330
1F
100
AcDbEntity
  8
0
  6
Continuous
 62
     7
100
AcDbCircle
 10
-197.3494046095513
 20
-25.55220406495016
 30
0.0
 40
10.00000406549724
100
AcDbArc
 50
89.99940063166514
 51
172.8157587436921
  0
LINE
  5
89C
330
1F
100
AcDbEntity
  8
0
  6
Continuous
 62
     7
100
AcDbLine
 10
-207.2709999999999
 20
-24.30179999999996
 30
0.0
 11
-208.8371999999999
 21
-36.72749999999996
 31
0.0
  0
ARC
  5
89D
330
1F
100
AcDbEntity
  8
0
  6
Continuous
 62
     7
100
AcDbCircle
 10
-211.8134690719787
 20
-36.35227272640014
 30
0.0
 40
3.000027273759283
100
AcDbArc
 50
269.9994093236755
 51
352.8149349436767
  0
ARC
  5
89E
330
1F
100
AcDbEntity
  8
0
  6
Continuous
 62
     7
100
AcDbCircle
 10
-204.6680000000001
 20
-38.85229999999999
 30
0.0
 40
0.5
100
AcDbArc
 50
90.0
 51
180.0
  0
ARC
  5
89F
330
1F
100
AcDbEntity
  8
0
  6
Continuous
 62
     7
100
AcDbCircle
 10
-205.668
 20
-38.85229999999999
 30
0.0
 40
0.5
100
AcDbArc
 50
270.0
 51
0.0
  0
LINE
  5
8A0
330
1F
100
AcDbEntity
  8
0
  6
Continuous
 62
     7
100
AcDbLine
 10
-203.1680000000001
 20
-41.55250000000001
 30
0.0
 11
-203.1680000000001
 21
-42.55250000000001
 31
0.0
  0
ARC
  5
8A1
330
1F
100
AcDbEntity
  8
0
  6
Continuous
 62
     7
100
AcDbCircle
 10
-217.2853000897683
 20
-16.14745739447891
 30
0.0
 40
14.99998758793489
100
AcDbArc
 50
276.4567646095786
 51
309.7337212786833
  0
LINE
  5
8A2
330
1F
100
AcDbEntity
  8
0
  6
Continuous
 62
     7
100
AcDbLine
 10
-178.1682
 20
-41.55220000000007
 30
0.0
 11
-153.1683
 21
-41.55250000000001
 31
0.0
  0
LINE
  5
8A3
330
1F
100
AcDbEntity
  8
0
  6
Continuous
 62
     7
100
AcDbLine
 10
-151.6683
 20
-38.3523
 30
0.0
 11
-178.1682
 21
-38.3523
 31
0.0
  0
LINE
  5
8A4
330
1F
100
AcDbEntity
  8
0
  6
Continuous
 62
     7
100
AcDbLine
 10
-153.1683
 20
-41.55250000000001
 30
0.0
 11
-153.1683
 21
-42.55250000000001
 31
0.0
  0
LINE
  5
8B5
330
1F
100
AcDbEntity
  8
0
  6
Continuous
 62
     7
100
AcDbLine
 10
-128.1981
 20
-37.15280000000007
 30
0.0
 11
-102.8682
 21
-37.15280000000007
 31
0.0
  0
LINE
  5
8B6
330
1F
100
AcDbEntity
  8
0
  6
Continuous
 62
     7
100
AcDbLine
 10
-150.6683
 20
-39.3523
 30
0.0
 11
-123.1683
 21
-39.3523
 31
0.0
  0
LINE
  5
8B7
330
1F
100
AcDbEntity
  8
0
  6
Continuous
 62
     7
100
AcDbLine
 10
-140.7376000000001
 20
-31.05220000000007
 30
0.0
 11
-133.6065999999999
 21
-31.05220000000007
 31
0.0
  0
LINE
  5
8B8
330
1F
100
AcDbEntity
  8
0
  6
Continuous
 62
     7
100
AcDbLine
 10
-149.0655000000001
 20
-24.30200000000012
 30
0.0
 11
-147.4990999999999
 21
-36.72749999999996
 31
0.0
  0
ARC
  5
8B9
330
1F
100
AcDbEntity
  8
0
  6
Continuous
 62
     7
100
AcDbCircle
 10
-144.5227746746171
 20
-36.35232233371338
 30
0.0
 40
2.999977666393497
100
AcDbArc
 50
187.1842295597067
 51
269.9995163172174
  0
ARC
  5
8BA
330
1F
100
AcDbEntity
  8
0
  6
Continuous
 62
     7
100
AcDbCircle
 10
-139.0507999102316
 20
-16.14745739447879
 30
0.0
 40
14.999987587935
100
AcDbArc
 50
230.2662787213166
 51
263.5432353904213
  0
ARC
  5
8BB
330
1F
100
AcDbEntity
  8
0
  6
Continuous
 62
     7
100
AcDbCircle
 10
-133.6065963024054
 20
-36.05220291249567
 30
0.0
 40
5.000002912496974
100
AcDbArc
 50
13.54685390886885
 51
90.00004237128718
  0
ARC
  5
8BC
330
1F
100
AcDbEntity
  8
0
  6
Continuous
 62
     7
100
AcDbCircle
 10
-126.0928291381474
 20
-37.35227704943798
 30
0.0
 40
2.000022950774278
100
AcDbArc
 50
193.5479348472124
 51
270.0008347368558
  0
LINE
  5
8BD
330
1F
100
AcDbEntity
  8
0
  6
DASH_CENTER
 62
    30
100
AcDbLine
 10
-133.1683999999999
 20
-45.87159999999999
 30
0.0
 11
-133.1683999999999
 21
-37.10719999999999
 31
0.0
  0
LINE
  5
8BE
330
1F
100
AcDbEntity
  8
0
  6
Continuous
 62
     7
100
AcDbLine
 10
-128.7454999999999
 20
-34.88110000000006
 30
0.0
 11
-128.0370999999999
 21
-37.82079999999996
 31
0.0
  0
LINE
  5
8BF
330
1F
100
AcDbEntity
  8
0
  6
DASH_CENTER
 62
    40
100
AcDbLine
 10
-133.1683999999999
 20
-45.87159999999999
 30
0.0
 11
-133.1683999999999
 21
-37.10719999999999
 31
0.0
  0
LINE
  5
8C0
330
1F
100
AcDbEntity
  8
0
  6
DASH_CENTER
 62
    40
100
AcDbLine
 10
-133.1683999999999
 20
-45.87159999999999
 30
0.0
 11
-133.1683999999999
 21
-37.10719999999999
 31
0.0
  0
LINE
  5
8C1
330
1F
100
AcDbEntity
  8
0
  6
Continuous
 62
     7
100
AcDbLine
 10
-123.1683
 20
-39.3523
 30
0.0
 11
-123.1683
 21
-42.55250000000001
 31
0.0
  0
LINE
  5
8C2
330
1F
100
AcDbEntity
  8
0
  6
Continuous
 62
     7
100
AcDbLine
 10
-121.1689
 20
-14.80220000000008
 30
0.0
 11
-142.1689
 21
-14.80220000000008
 31
0.0
  0
LINE
  5
8C3
330
1F
100
AcDbEntity
  8
0
  6
Continuous
 62
     7
100
AcDbLine
 10
-121.1689
 20
-1.80220000000008
 30
0.0
 11
-142.1689
 21
-1.80220000000008
 31
0.0
  0
LINE
  5
8C4
330
1F
100
AcDbEntity
  8
0
  6
Continuous
 62
     7
100
AcDbLine
 10
-121.1689
 20
-20.30220000000007
 30
0.0
 11
-142.1689
 21
-20.30220000000007
 31
0.0
  0
LINE
  5
8C5
330
1F
100
AcDbEntity
  8
0
  6
Continuous
 62
     7
100
AcDbLine
 10
-121.1689
 20
-18.80220000000007
 30
0.0
 11
-142.1689
 21
-18.80220000000007
 31
0.0
  0
LINE
  5
8C6
330
1F
100
AcDbEntity
  8
0
  6
Continuous
 62
     7
100
AcDbLine
 10
-121.1689
 20
-7.60230000000001
 30
0.0
 11
-142.1689
 21
-7.60230000000001
 31
0.0
  0
LINE
  5
8C7
330
1F
100
AcDbEntity
  8
0
  6
Continuous
 62
     7
100
AcDbLine
 10
-121.1689
 20
-8.80220000000008
 30
0.0
 11
-142.1689
 21
-8.80220000000008
 31
0.0
  0
ARC
  5
8C8
330
1F
100
AcDbEntity
  8
0
  6
Continuous
 62
     7
100
AcDbCircle
 10
-142.1689
 20
-16.80220000000008
 30
0.0
 40
2.0
100
AcDbArc
 50
90.0
 51
180.0
  0
ARC
  5
8C9
330
1F
100
AcDbEntity
  8
0
  6
Continuous
 62
     7
100
AcDbCircle
 10
-142.1689
 20
-16.80220000000008
 30
0.0
 40
2.0
100
AcDbArc
 50
180.0
 51
270.0
  0
ARC
  5
8CA
330
1F
100
AcDbEntity
  8
0
  6
Continuous
 62
     7
100
AcDbCircle
 10
-142.1689000012501
 20
-18.30219999875008
 30
0.0
 40
2.000000001249989
100
AcDbArc
 50
180.0028648247841
 51
270.0000000358111
  0
LINE
  5
8CB
330
1F
100
AcDbEntity
  8
0
  6
Continuous
 62
     7
100
AcDbLine
 10
-144.1689
 20
-16.80220000000008
 30
0.0
 11
-144.1689
 21
-18.30220000000007
 31
0.0
  0
ARC
  5
8CC
330
1F
100
AcDbEntity
  8
0
  6
Continuous
 62
     7
100
AcDbCircle
 10
-142.1689
 20
-6.80220000000008
 30
0.0
 40
2.0
100
AcDbArc
 50
180.0
 51
270.0
  0
ARC
  5
8CD
330
1F
100
AcDbEntity
  8
0
  6
Continuous
 62
     7
100
AcDbCircle
 10
-142.1689
 20
-5.60230000000001
 30
0.0
 40
2.0
100
AcDbArc
 50
180.0
 51
270.0
  0
ARC
  5
8CE
330
1F
100
AcDbEntity
  8
0
  6
Continuous
 62
     7
100
AcDbCircle
 10
-142.1689
 20
-3.80220000000008
 30
0.0
 40
2.0
100
AcDbArc
 50
90.0
 51
180.0
  0
LINE
  5
8CF
330
1F
100
AcDbEntity
  8
0
  6
Continuous
 62
     7
100
AcDbLine
 10
-144.1689
 20
-3.80220000000008
 30
0.0
 11
-144.1689
 21
-6.80220000000008
 31
0.0
  0
ARC
  5
8D0
330
1F
100
AcDbEntity
  8
0
  6
Continuous
 62
     7
100
AcDbCircle
 10
-121.1689
 20
-16.80220000000008
 30
0.0
 40
2.0
100
AcDbArc
 50
270.0
 51
0.0
  0
ARC
  5
8D1
330
1F
100
AcDbEntity
  8
0
  6
Continuous
 62
     7
100
AcDbCircle
 10
-121.1689
 20
-18.30220000000007
 30
0.0
 40
2.0
100
AcDbArc
 50
270.0
 51
0.0
  0
ARC
  5
8D2
330
1F
100
AcDbEntity
  8
0
  6
Continuous
 62
     7
100
AcDbCircle
 10
-121.1689
 20
-16.80220000000008
 30
0.0
 40
2.0
100
AcDbArc
 50
0.0
 51
90.0
  0
LINE
  5
8D3
330
1F
100
AcDbEntity
  8
0
  6
Continuous
 62
     7
100
AcDbLine
 10
-119.1689
 20
-18.30220000000007
 30
0.0
 11
-119.1689
 21
-16.80220000000008
 31
0.0
  0
ARC
  5
8D4
330
1F
100
AcDbEntity
  8
0
  6
Continuous
 62
     7
100
AcDbCircle
 10
-121.1689
 20
-5.60230000000001
 30
0.0
 40
2.0
100
AcDbArc
 50
270.0
 51
0.0
  0
ARC
  5
8D5
330
1F
100
AcDbEntity
  8
0
  6
Continuous
 62
     7
100
AcDbCircle
 10
-121.1689
 20
-3.80220000000008
 30
0.0
 40
2.0
100
AcDbArc
 50
0.0
 51
90.0
  0
ARC
  5
8D6
330
1F
100
AcDbEntity
  8
0
  6
Continuous
 62
     7
100
AcDbCircle
 10
-121.1689
 20
-6.80220000000008
 30
0.0
 40
2.0
100
AcDbArc
 50
270.0
 51
0.0
  0
LINE
  5
8D7
330
1F
100
AcDbEntity
  8
0
  6
Continuous
 62
     7
100
AcDbLine
 10
-119.1689
 20
-3.80220000000008
 30
0.0
 11
-119.1689
 21
-6.80220000000008
 31
0.0
  0
LINE
  5
8D8
330
1F
100
AcDbEntity
  8
0
  6
DASH_CENTER
 62
    30
100
AcDbLine
 10
-85.64569999999994
 20
-14.68650000000002
 30
0.0
 11
-112.5942999999999
 21
-14.68650000000002
 31
0.0
  0
LINE
  5
8D9
330
1F
100
AcDbEntity
  8
0
  6
Continuous
 62
     7
100
AcDbLine
 10
-99.98580000000012
 20
-16.70700000000011
 30
0.0
 11
-102.8682
 21
-16.70700000000011
 31
0.0
  0
LINE
  5
8DA
330
1F
100
AcDbEntity
  8
0
  6
Continuous
 62
     7
100
AcDbLine
 10
-102.5506999999999
 20
-10.63650000000007
 30
0.0
 11
-99.98580000000012
 21
-10.63650000000007
 31
0.0
  0
LINE
  5
8DB
330
1F
100
AcDbEntity
  8
0
  6
Continuous
 62
     7
100
AcDbLine
 10
-99.98580000000012
 20
-18.73630000000003
 30
0.0
 11
-102.5506999999999
 21
-18.73630000000003
 31
0.0
  0
LINE
  5
8DC
330
1F
100
AcDbEntity
  8
0
  6
Continuous
 62
     7
100
AcDbLine
 10
-99.98569999999993
 20
-12.66579999999999
 30
0.0
 11
-102.8682
 21
-12.66579999999999
 31
0.0
  0
LINE
  5
8DD
330
1F
100
AcDbEntity
  8
0
  6
Continuous
 62
     7
100
AcDbLine
 10
-102.8682
 20
-18.18630000000007
 30
0.0
 11
-102.5506999999999
 21
-18.73630000000003
 31
0.0
  0
LINE
  5
8DE
330
1F
100
AcDbEntity
  8
0
  6
Continuous
 62
     7
100
AcDbLine
 10
-102.8682
 20
-11.18650000000002
 30
0.0
 11
-102.5506999999999
 21
-10.63650000000007
 31
0.0
  0
ARC
  5
8DF
330
1F
100
AcDbEntity
  8
0
  6
Continuous
 62
     7
100
AcDbCircle
 10
-106.2564895813054
 20
-10.64494709540769
 30
0.0
 40
6.58827703478612
100
AcDbArc
 50
342.1374444196875
 51
355.5807522366339
  0
LINE
  5
8E0
330
1F
100
AcDbEntity
  8
0
  6
Continuous
 62
     7
100
AcDbLine
 10
-99.66819999999998
 20
-11.18650000000002
 30
0.0
 11
-99.66819999999998
 21
-18.18630000000007
 31
0.0
  0
ARC
  5
8E1
330
1F
100
AcDbEntity
  8
0
  6
Continuous
 62
     7
100
AcDbCircle
 10
-106.2564895813054
 20
-18.72785290459241
 30
0.0
 40
6.58827703478612
100
AcDbArc
 50
4.419247763366093
 51
17.86255558031249
  0
ARC
  5
8E2
330
1F
100
AcDbEntity
  8
0
  6
Continuous
 62
     7
100
AcDbCircle
 10
-106.2564999961606
 20
-14.68614483718498
 30
0.0
 40
6.588287640269168
100
AcDbArc
 50
342.1374535096611
 51
17.8597110481841
  0
LINE
  5
8E3
330
1F
100
AcDbEntity
  8
0
  6
Continuous
 62
     7
100
AcDbLine
 10
-94.3179999999999
 20
-16.68650000000002
 30
0.0
 11
-94.3179999999999
 21
-12.68650000000002
 31
0.0
  0
LINE
  5
8E4
330
1F
100
AcDbEntity
  8
0
  6
Continuous
 62
     7
100
AcDbLine
 10
-93.96799999999998
 20
-13.03639999999996
 30
0.0
 11
-93.96799999999998
 21
-16.33640000000014
 31
0.0
  0
LINE
  5
8E5
330
1F
100
AcDbEntity
  8
0
  6
Continuous
 62
     7
100
AcDbLine
 10
-93.96799999999998
 20
-16.33640000000014
 30
0.0
 11
-94.3179999999999
 21
-16.68650000000002
 31
0.0
  0
LINE
  5
8E6
330
1F
100
AcDbEntity
  8
0
  6
Continuous
 62
     7
100
AcDbLine
 10
-93.96799999999998
 20
-13.03639999999996
 30
0.0
 11
-94.3179999999999
 21
-12.68650000000002
 31
0.0
  0
LINE
  5
8E7
330
1F
100
AcDbEntity
  8
0
  6
Continuous
 62
    30
100
AcDbLine
 10
-93.96799999999998
 20
-13.03639999999996
 30
0.0
 11
-99.66819999999998
 21
-13.03639999999996
 31
0.0
  0
LINE
  5
8E8
330
1F
100
AcDbEntity
  8
0
  6
Continuous
 62
    30
100
AcDbLine
 10
-93.96799999999998
 20
-16.33640000000014
 30
0.0
 11
-99.66819999999998
 21
-16.33640000000014
 31
0.0
  0
LINE
  5
8E9
330
1F
100
AcDbEntity
  8
0
  6
Continuous
 62
     7
100
AcDbLine
 10
-99.66819999999998
 20
-18.18630000000007
 30
0.0
 11
-99.98580000000012
 21
-18.73630000000003
 31
0.0
  0
LINE
  5
8EA
330
1F
100
AcDbEntity
  8
0
  6
Continuous
 62
     7
100
AcDbLine
 10
-99.66819999999998
 20
-12.68650000000002
 30
0.0
 11
-94.3179999999999
 21
-12.68650000000002
 31
0.0
  0
LINE
  5
8EB
330
1F
100
AcDbEntity
  8
0
  6
Continuous
 62
     7
100
AcDbLine
 10
-94.3179999999999
 20
-16.68650000000002
 30
0.0
 11
-99.66819999999998
 21
-16.68650000000002
 31
0.0
  0
LINE
  5
8EC
330
1F
100
AcDbEntity
  8
0
  6
Continuous
 62
     7
100
AcDbLine
 10
-99.66819999999998
 20
-11.18650000000002
 30
0.0
 11
-99.98580000000012
 21
-10.63650000000007
 31
0.0
  0
LINE
  5
8EF
330
1F
100
AcDbEntity
  8
0
  6
DASH_CENTER
 62
    30
100
AcDbLine
 10
-46.93549999999999
 20
28.44730000000003
 30
0.0
 11
-310.5226999999998
 21
28.44730000000003
 31
0.0
  0
LINE
  5
8F0
330
1F
100
AcDbEntity
  8
0
  6
DASH_CENTER
 62
    30
100
AcDbLine
 10
-276.9538999999999
 20
71.58079999999995
 30
0.0
 11
-290.6438
 21
71.58079999999995
 31
0.0
  0
LINE
  5
8F1
330
1F
100
AcDbEntity
  8
0
  6
Continuous
 62
     7
100
AcDbLine
 10
-283.968
 20
94.04709999999999
 30
0.0
 11
-266.363
 21
94.04709999999999
 31
0.0
  0
LINE
  5
8F6
330
1F
100
AcDbEntity
  8
0
  6
Continuous
 62
     7
100
AcDbLine
 10
-294.0676
 20
47.4973
 30
0.0
 11
-294.0676
 21
28.44730000000003
 31
0.0
  0
ARC
  5
8F7
330
1F
100
AcDbEntity
  8
0
  6
Continuous
 62
     7
100
AcDbCircle
 10
-174.0680999999999
 20
28.44730000000003
 30
0.0
 40
122.300008982829
100
AcDbArc
 50
180.0
 51
187.4028805356486
  0
LINE
  5
8F8
330
1F
100
AcDbEntity
  8
0
  6
Continuous
 62
     7
100
AcDbLine
 10
-294.0676
 20
9.39719999999988
 30
0.0
 11
-294.0676
 21
28.44730000000003
 31
0.0
  0
ARC
  5
8F9
330
1F
100
AcDbEntity
  8
0
  6
Continuous
 62
     7
100
AcDbCircle
 10
-293.3649451710741
 20
12.94721968698036
 30
0.0
 40
2.000016070071373
100
AcDbArc
 50
187.4007633462287
 51
241.2411915160016
  0
LINE
  5
8FA
330
1F
100
AcDbEntity
  8
0
  6
Continuous
 62
     7
100
AcDbLine
 10
-293.5676
 20
8.89719999999988
 30
0.0
 11
-283.968
 21
8.89719999999988
 31
0.0
  0
ARC
  5
8FB
330
1F
100
AcDbEntity
  8
0
  6
Continuous
 62
     7
100
AcDbCircle
 10
-293.5676
 20
9.39719999999988
 30
0.0
 40
0.5
100
AcDbArc
 50
180.0
 51
270.0
  0
ARC
  5
8FC
330
1F
100
AcDbEntity
  8
0
  6
Continuous
 62
     7
100
AcDbCircle
 10
-294.5675735646151
 20
10.75535535017661
 30
0.0
 40
0.4999735666088871
100
AcDbArc
 50
0.0051167633871245
 51
61.25105949420983
  0
LINE
  5
8FD
330
1F
100
AcDbEntity
  8
0
  6
Continuous
 62
     7
100
AcDbLine
 10
-294.0676
 20
10.94730000000003
 30
0.0
 11
-294.0676
 21
10.84719999999993
 31
0.0
  0
LINE
  5
8FE
330
1F
100
AcDbEntity
  8
0
  6
Continuous
 62
     7
100
AcDbLine
 10
-294.0676
 20
10.82369999999992
 30
0.0
 11
-294.0676
 21
10.84719999999993
 31
0.0
  0
ARC
  5
8FF
330
1F
100
AcDbEntity
  8
0
  6
Continuous
 62
     7
100
AcDbCircle
 10
-174.0681128847892
 20
28.4471008322875
 30
0.0
 40
122.2999960982019
100
AcDbArc
 50
172.5971190732614
 51
179.999906692807
  0
ARC
  5
900
330
1F
100
AcDbEntity
  8
0
  6
Continuous
 62
     7
100
AcDbCircle
 10
-293.3649997586948
 20
43.94730035343857
 30
0.0
 40
1.999972238557225
100
AcDbArc
 50
118.757713762091
 51
172.5967635949511
  0
ARC
  5
901
330
1F
100
AcDbEntity
  8
0
  6
Continuous
 62
     7
100
AcDbCircle
 10
-294.5676174026656
 20
46.13917059988965
 30
0.0
 40
0.5000174035299359
100
AcDbArc
 50
298.7519144098271
 51
0.0033688872043717
  0
LINE
  5
902
330
1F
100
AcDbEntity
  8
0
  6
Continuous
 62
     7
100
AcDbLine
 10
-294.0676
 20
45.94730000000004
 30
0.0
 11
-294.0676
 21
46.04739999999993
 31
0.0
  0
LINE
  5
903
330
1F
100
AcDbEntity
  8
0
  6
Continuous
 62
     7
100
AcDbLine
 10
-294.0676
 20
45.94730000000004
 30
0.0
 11
-294.0676
 21
46.04739999999993
 31
0.0
  0
LINE
  5
904
330
1F
100
AcDbEntity
  8
0
  6
Continuous
 62
     7
100
AcDbLine
 10
-294.0676
 20
46.07079999999996
 30
0.0
 11
-294.0676
 21
46.04739999999993
 31
0.0
  0
LINE
  5
905
330
1F
100
AcDbEntity
  8
0
  6
Continuous
 62
     7
100
AcDbLine
 10
-286.5679
 20
69.4994999999999
 30
0.0
 11
-286.5679
 21
73.66210000000002
 31
0.0
  0
LINE
  5
906
330
1F
100
AcDbEntity
  8
0
  6
Continuous
 62
     7
100
AcDbLine
 10
-293.5676
 20
47.99710000000004
 30
0.0
 11
-283.968
 21
47.99710000000004
 31
0.0
  0
ARC
  5
907
330
1F
100
AcDbEntity
  8
0
  6
Continuous
 62
     7
100
AcDbCircle
 10
-293.5676
 20
47.4973
 30
0.0
 40
0.5
100
AcDbArc
 50
90.0
 51
180.0
  0
ARC
  5
908
330
1F
100
AcDbEntity
  8
0
  6
Continuous
 62
     7
100
AcDbCircle
 10
-285.2678265608044
 20
69.49952898478262
 30
0.0
 40
1.299973439518711
100
AcDbArc
 50
180.0012774920389
 51
265.0011817931065
  0
LINE
  5
909
330
1F
100
AcDbEntity
  8
0
  6
Continuous
 62
     7
100
AcDbLine
 10
-283.9678000000001
 20
68.08079999999995
 30
0.0
 11
-285.3811
 21
68.20429999999989
 31
0.0
  0
ARC
  5
90A
330
1F
100
AcDbEntity
  8
0
  6
Continuous
 62
     7
100
AcDbCircle
 10
-285.267776750911
 20
73.66212537279452
 30
0.0
 40
1.3000232493366
100
AcDbArc
 50
95.0008298424778
 51
180.0011182523388
  0
LINE
  5
90B
330
1F
100
AcDbEntity
  8
0
  6
Continuous
 62
     7
100
AcDbLine
 10
-283.9678000000001
 20
75.08079999999996
 30
0.0
 11
-285.3811
 21
74.95699999999988
 31
0.0
  0
LINE
  5
C9B
330
1F
100
AcDbEntity
  8
0
  6
Continuous
 62
     7
100
AcDbLine
 10
-139.9575
 20
50.89699999999993
 30
0.0
 11
-254.8776999999999
 21
50.89699999999993
 31
0.0
  0
LINE
  5
C9C
330
1F
100
AcDbEntity
  8
0
  6
Continuous
 62
     7
100
AcDbLine
 10
-142.4181
 20
100.4088999999999
 30
0.0
 11
-252.418
 21
100.4088999999999
 31
0.0
  0
LINE
  5
C9D
330
1F
100
AcDbEntity
  8
0
  6
Continuous
 62
     7
100
AcDbLine
 10
-257.4177000000001
 20
51.79420000000004
 30
0.0
 11
-137.4181
 21
51.79420000000004
 31
0.0
  0
LINE
  5
C9E
330
1F
100
AcDbEntity
  8
0
  6
Continuous
 62
     7
100
AcDbLine
 10
-257.4177000000001
 20
51.79420000000004
 30
0.0
 11
-257.4180000000001
 21
95.4088999999999
 31
0.0
  0
LINE
  5
CA0
330
1F
100
AcDbEntity
  8
0
  6
DASHED
 62
    30
100
AcDbLine
 10
-161.9179999999999
 20
86.76729999999997
 30
0.0
 11
-224.9179999999999
 21
86.76729999999997
 31
0.0
  0
LINE
  5
CA1
330
1F
100
AcDbEntity
  8
0
  6
DASHED
 62
    30
100
AcDbLine
 10
-224.9179999999999
 20
58.48299999999995
 30
0.0
 11
-161.9182
 21
58.48299999999995
 31
0.0
  0
ARC
  5
CA2
330
1F
100
AcDbEntity
  8
0
  6
Continuous
 62
     7
100
AcDbCircle
 10
-243.1679602585806
 20
28.44730000055607
 30
0.0
 40
13.50004115469366
100
AcDbArc
 50
301.964616397977
 51
238.0369870212092
  0
ARC
  5
CA3
330
1F
100
AcDbEntity
  8
0
  6
Continuous
 62
    30
100
AcDbCircle
 10
-248.9949018249375
 20
13.75050064469037
 30
0.0
 40
1.550065537322849
100
AcDbArc
 50
220.5444252823279
 51
280.5422880968939
  0
LINE
  5
CA4
330
1F
100
AcDbEntity
  8
0
  6
Continuous
 62
     7
100
AcDbLine
 10
-251.6342999999998
 20
13.2592999999999
 30
0.0
 11
-246.2680999999999
 21
28.44779999999987
 31
0.0
  0
ARC
  5
CA5
330
1F
100
AcDbEntity
  8
0
  6
Continuous
 62
    30
100
AcDbCircle
 10
-251.3508594630347
 20
11.73542101040787
 30
0.0
 40
1.550033035461711
100
AcDbArc
 50
40.5395354523205
 51
100.540207328663
  0
LINE
  5
CA6
330
1F
100
AcDbEntity
  8
0
  6
Continuous
 62
     7
100
AcDbLine
 10
-243.1679999999999
 20
28.44779999999987
 30
0.0
 11
-243.1679999999999
 21
11.04369999999989
 31
0.0
  0
LINE
  5
CA7
330
1F
100
AcDbEntity
  8
0
  6
Continuous
 62
     7
100
AcDbLine
 10
-246.2680999999999
 20
11.04369999999989
 30
0.0
 11
-246.2680999999999
 21
28.44779999999987
 31
0.0
  0
LINE
  5
CA8
330
1F
100
AcDbEntity
  8
0
  6
Continuous
 62
     7
100
AcDbLine
 10
-234.7017
 20
13.2592999999999
 30
0.0
 11
-240.0678999999999
 21
28.44779999999987
 31
0.0
  0
LINE
  5
CA9
330
1F
100
AcDbEntity
  8
0
  6
Continuous
 62
     7
100
AcDbLine
 10
-240.0680999999998
 20
11.04369999999989
 30
0.0
 11
-240.0680999999998
 21
28.44779999999987
 31
0.0
  0
ARC
  5
CAA
330
1F
100
AcDbEntity
  8
0
  6
Continuous
 62
    30
100
AcDbCircle
 10
-241.6178999999998
 20
13.72849999999989
 30
0.0
 40
3.100018401558408
100
AcDbArc
 50
240.0001963594911
 51
299.9998036405031
  0
ARC
  5
CAB
330
1F
100
AcDbEntity
  8
0
  6
Continuous
 62
    30
100
AcDbCircle
 10
-244.7179999999999
 20
8.358899999999909
 30
0.0
 40
3.100018401558299
100
AcDbArc
 50
60.00019635949485
 51
119.9998036405032
  0
ARC
  5
CAC
330
1F
100
AcDbEntity
  8
0
  6
Continuous
 62
     7
100
AcDbCircle
 10
-243.1674074693855
 20
28.44713016853309
 30
0.0
 40
13.50003836124422
100
AcDbArc
 50
251.2914647760495
 51
256.7217510310004
  0
LINE
  5
CAD
330
1F
100
AcDbEntity
  8
0
  6
Continuous
 62
     7
100
AcDbLine
 10
-248.7108999999998
 20
12.22659999999992
 30
0.0
 11
-246.2680999999999
 21
19.14179999999983
 31
0.0
  0
ARC
  5
CAE
330
1F
100
AcDbEntity
  8
0
  6
Continuous
 62
     7
100
AcDbCircle
 10
-243.1674607329115
 20
28.44745452093049
 30
0.0
 40
13.50004822437006
100
AcDbArc
 50
283.2724315966933
 51
288.7056900655679
  0
ARC
  5
CAF
330
1F
100
AcDbEntity
  8
0
  6
Continuous
 62
    30
100
AcDbCircle
 10
-237.3410265228006
 20
13.75052595530775
 30
0.0
 40
1.550103531680164
100
AcDbArc
 50
259.4552793266782
 51
319.4555449073086
  0
ARC
  5
CB0
330
1F
100
AcDbEntity
  8
0
  6
Continuous
 62
    30
100
AcDbCircle
 10
-234.9851121894101
 20
11.73539569334197
 30
0.0
 40
1.550071033802178
100
AcDbArc
 50
79.45736002986148
 51
139.4604344312905
  0
LINE
  5
CB1
330
1F
100
AcDbEntity
  8
0
  6
Continuous
 62
     7
100
AcDbLine
 10
-237.6249999999999
 20
12.22659999999992
 30
0.0
 11
-240.0678999999999
 21
19.14179999999983
 31
0.0
  0
ARC
  5
CB2
330
1F
100
AcDbEntity
  8
0
  6
Continuous
 62
     7
100
AcDbCircle
 10
-241.6178999999998
 20
28.44779999999987
 30
0.0
 40
1.549800000000004
100
AcDbArc
 50
0.0
 51
180.0
  0
ARC
  5
CB3
330
1F
100
AcDbEntity
  8
0
  6
Continuous
 62
     7
100
AcDbCircle
 10
-243.1679900490313
 20
28.44729999985078
 30
0.0
 40
3.399998306602666
100
AcDbArc
 50
348.7432434086712
 51
191.2550383708677
  0
ARC
  5
CB4
330
1F
100
AcDbEntity
  8
0
  6
Continuous
 62
     7
100
AcDbCircle
 10
-244.71805
 20
28.44779999999987
 30
0.0
 40
1.550049999999941
100
AcDbArc
 50
0.0
 51
180.0
  0
ARC
  5
CB5
330
1F
100
AcDbEntity
  8
0
  6
Continuous
 62
     7
100
AcDbCircle
 10
-264.4751000000001
 20
69.03489999999988
 30
0.0
 40
5.000036660865506
100
AcDbArc
 50
143.8518137862689
 51
216.148186213731
  0
ARC
  5
CB6
330
1F
100
AcDbEntity
  8
0
  6
Continuous
 62
     7
100
AcDbCircle
 10
-266.9957871389645
 20
62.61994653789091
 30
0.0
 40
7.294319862977193
100
AcDbArc
 50
70.9527331660615
 51
75.73001183356257
  0
ARC
  5
CB7
330
1F
100
AcDbEntity
  8
0
  6
Continuous
 62
     7
100
AcDbCircle
 10
-260.8379238001885
 20
62.6203923235698
 30
0.0
 40
7.294351947334481
100
AcDbArc
 50
104.2819930643137
 51
109.0587230067623
  0
ARC
  5
CB8
330
1F
100
AcDbEntity
  8
0
  6
Continuous
 62
     7
100
AcDbCircle
 10
-263.9174958263914
 20
67.16040000012757
 30
0.0
 40
3.720317290901749
100
AcDbArc
 50
28.44775528372265
 51
151.5557478133224
  0
LINE
  5
CB9
330
1F
100
AcDbEntity
  8
0
  6
DASH_CENTER
 62
    30
100
AcDbLine
 10
-263.9177
 20
63.76219999999989
 30
0.0
 11
-263.9177
 21
74.39059999999995
 31
0.0
  0
ARC
  5
CBA
330
1F
100
AcDbEntity
  8
0
  6
Continuous
 62
     7
100
AcDbCircle
 10
-263.9174440405905
 20
70.31270000089773
 30
0.0
 40
4.153055713792984
100
AcDbArc
 50
221.3748993791359
 51
318.6269390864379
  0
LINE
  5
CBB
330
1F
100
AcDbEntity
  8
0
  6
Continuous
 62
     7
100
AcDbLine
 10
-268.5127
 20
66.08539999999994
 30
0.0
 11
-258.9153000000001
 21
52.94749999999999
 31
0.0
  0
LINE
  5
CBC
330
1F
100
AcDbEntity
  8
0
  6
DASH_CENTER
 62
    30
100
AcDbLine
 10
-257.0420000000001
 20
69.0347
 30
0.0
 11
-271.1919
 21
69.0347
 31
0.0
  0
ARC
  5
CBD
330
1F
100
AcDbEntity
  8
0
  6
Continuous
 62
     7
100
AcDbCircle
 10
-266.1335108967678
 20
68.36089612681918
 30
0.0
 40
1.200016966813799
100
AcDbArc
 50
151.55945980529
 51
221.3752231025733
  0
ARC
  5
CBF
330
1F
100
AcDbEntity
  8
0
  6
Continuous
 62
     7
100
AcDbCircle
 10
-254.8777360909347
 20
55.89701833017225
 30
0.0
 40
5.000018330302561
100
AcDbArc
 50
216.148599780829
 51
270.0004135701311
  0
ARC
  5
CC0
330
1F
100
AcDbEntity
  8
0
  6
Continuous
 62
     7
100
AcDbCircle
 10
-265.7597972718919
 20
68.3385848464911
 30
0.0
 40
0.1499883654252373
100
AcDbArc
 50
130.6977600418593
 51
249.7136778010879
  0
ARC
  5
CC1
330
1F
100
AcDbEntity
  8
0
  6
Continuous
 62
     7
100
AcDbCircle
 10
-265.652335935867
 20
68.29909368107569
 30
0.0
 40
0.15001792782421
100
AcDbArc
 50
249.6928748894917
 51
310.2528800604867
  0
ARC
  5
CC2
330
1F
100
AcDbEntity
  8
0
  6
Continuous
 62
     7
100
AcDbCircle
 10
-262.0754027281079
 20
68.3385848464911
 30
0.0
 40
0.1499883654252275
100
AcDbArc
 50
290.286322198912
 51
49.30223995814067
  0
ARC
  5
CC3
330
1F
100
AcDbEntity
  8
0
  6
Continuous
 62
     7
100
AcDbCircle
 10
-262.1831610649334
 20
68.29911073759226
 30
0.0
 40
0.1500328835813498
100
AcDbArc
 50
229.7504546974312
 51
290.3037903525464
  0
ARC
  5
CC4
330
1F
100
AcDbEntity
  8
0
  6
Continuous
 62
     7
100
AcDbCircle
 10
-264.6478976366468
 20
69.42017347792246
 30
0.0
 40
0.0999893458874655
100
AcDbArc
 50
299.2110736788187
 51
70.97315657026534
  0
ARC
  5
CC5
330
1F
100
AcDbEntity
  8
0
  6
Continuous
 62
     7
100
AcDbCircle
 10
-260.8386120782656
 20
62.62030148801851
 30
0.0
 40
7.694333738960438
100
AcDbArc
 50
119.2557441642638
 51
130.7130172769257
  0
ARC
  5
CC6
330
1F
100
AcDbEntity
  8
0
  6
Continuous
 62
     7
100
AcDbCircle
 10
-263.1873023633535
 20
69.4201734779225
 30
0.0
 40
0.0999893458874514
100
AcDbArc
 50
109.0268434297742
 51
240.7889263212502
  0
ARC
  5
CC7
330
1F
100
AcDbEntity
  8
0
  6
Continuous
 62
     7
100
AcDbCircle
 10
-266.9965879217349
 20
62.62030148801881
 30
0.0
 40
7.694333738960401
100
AcDbArc
 50
49.28698272307209
 51
60.74425583573239
  0
ARC
  5
CC8
330
1F
100
AcDbEntity
  8
0
  6
Continuous
 62
     7
100
AcDbCircle
 10
-263.9177
 20
68.78880000000004
 30
0.0
 40
0.3999879623188507
100
AcDbArc
 50
63.47979121722669
 51
116.520208782795
  0
ARC
  5
CC9
330
1F
100
AcDbEntity
  8
0
  6
Continuous
 62
     7
100
AcDbCircle
 10
-266.9962639658716
 20
62.62007623822127
 30
0.0
 40
7.294329315512086
100
AcDbArc
 50
49.71785311777685
 51
63.47849278252897
  0
ARC
  5
CCA
330
1F
100
AcDbEntity
  8
0
  6
Continuous
 62
     7
100
AcDbCircle
 10
-260.8389360341281
 20
62.62007623822142
 30
0.0
 40
7.294329315512037
100
AcDbArc
 50
116.5215072174728
 51
130.2821468822233
  0
ARC
  5
CCB
330
1F
100
AcDbEntity
  8
0
  6
Continuous
 62
     7
100
AcDbCircle
 10
-261.7013930738212
 20
68.36086114391314
 30
0.0
 40
1.199996823418037
100
AcDbArc
 50
318.6261556082834
 51
28.44839096607766
  0
LINE
  5
CCC
330
1F
100
AcDbEntity
  8
0
  6
Continuous
 62
     7
100
AcDbLine
 10
-265.8117999999999
 20
68.19799999999986
 30
0.0
 11
-265.7043000000001
 21
68.15819999999985
 31
0.0
  0
LINE
  5
CCD
330
1F
100
AcDbEntity
  8
0
  6
Continuous
 62
     7
100
AcDbLine
 10
-262.0234
 20
68.19799999999986
 30
0.0
 11
-262.1311
 21
68.15819999999985
 31
0.0
  0
POINT
  5
CCE
330
1F
100
AcDbEntity
  8
0
 62
     7
100
AcDbPoint
 10
-263.9180000000001
 20
69.0346999999999
 30
0.0
  0
LINE
  5
CD0
330
1F
100
AcDbEntity
  8
0
  6
Continuous
 62
     7
100
AcDbLine
 10
-268.5127
 20
71.98440000000005
 30
0.0
 11
-258.9153000000001
 21
85.1217999999999
 31
0.0
  0
ARC
  5
CD1
330
1F
100
AcDbEntity
  8
0
  6
Continuous
 62
     7
100
AcDbCircle
 10
-262.7646008249387
 20
69.9143001959004
 30
0.0
 40
0.1499725641551589
100
AcDbArc
 50
48.48673746596239
 51
104.7957797204452
  0
ARC
  5
CD2
330
1F
100
AcDbEntity
  8
0
  6
Continuous
 62
     7
100
AcDbCircle
 10
-262.6745993866933
 20
69.83450252878668
 30
0.0
 40
0.1500361622850455
100
AcDbArc
 50
284.2765933264415
 51
48.45796301580454
  0
ARC
  5
CD3
330
1F
100
AcDbEntity
  8
0
  6
Continuous
 62
     7
100
AcDbCircle
 10
-265.0705991750614
 20
69.91430019590037
 30
0.0
 40
0.1499725641551861
100
AcDbArc
 50
75.20422027955648
 51
131.5132625340308
  0
ARC
  5
CD4
330
1F
100
AcDbEntity
  8
0
  6
Continuous
 62
     7
100
AcDbCircle
 10
-265.1606006133071
 20
69.83450252878661
 30
0.0
 40
0.1500361622849117
100
AcDbArc
 50
131.5420369840955
 51
255.7234066736575
  0
ARC
  5
CD5
330
1F
100
AcDbEntity
  8
0
  6
Continuous
 62
     7
100
AcDbCircle
 10
-263.91775
 20
70.10600000000001
 30
0.0
 40
0.4000620233165186
100
AcDbArc
 50
247.6467404179292
 51
292.3532595820707
  0
ARC
  5
CD6
330
1F
100
AcDbEntity
  8
0
  6
Continuous
 62
     7
100
AcDbCircle
 10
-266.9963815889353
 20
62.62012741388216
 30
0.0
 40
7.694372544112641
100
AcDbArc
 50
67.6444185286237
 51
75.21088445056438
  0
ARC
  5
CD7
330
1F
100
AcDbEntity
  8
0
  6
Continuous
 62
     7
100
AcDbCircle
 10
-260.8388184110643
 20
62.62012741388225
 30
0.0
 40
7.694372544112643
100
AcDbArc
 50
104.789115549439
 51
112.355581471378
  0
LINE
  5
CD8
330
1F
100
AcDbEntity
  8
0
  6
Continuous
 62
     7
100
AcDbLine
 10
-262.6653000000001
 20
70.02659999999991
 30
0.0
 11
-262.575
 21
69.94679999999994
 31
0.0
  0
LINE
  5
CD9
330
1F
100
AcDbEntity
  8
0
  6
Continuous
 62
     7
100
AcDbLine
 10
-265.1699000000001
 20
70.02659999999991
 30
0.0
 11
-265.2603000000001
 21
69.94679999999994
 31
0.0
  0
ARC
  5
CDA
330
1F
100
AcDbEntity
  8
0
  6
Continuous
 62
     7
100
AcDbCircle
 10
-254.8777938173414
 20
82.17231495982678
 30
0.0
 40
4.999952079667087
100
AcDbArc
 50
120.5297780819368
 51
143.8513180516048
  0
LINE
  5
CDB
330
1F
100
AcDbEntity
  8
0
  6
DASHED
 62
    30
100
AcDbLine
 10
-224.9179999999999
 20
86.76729999999997
 30
0.0
 11
-224.9179999999999
 21
58.48299999999995
 31
0.0
  0
POINT
  5
CDC
330
1F
100
AcDbEntity
  8
0
 62
     7
100
AcDbPoint
 10
-178.1682
 20
28.44730000000004
 30
0.0
  0
POINT
  5
CDE
330
1F
100
AcDbEntity
  8
0
 62
     2
100
AcDbPoint
 10
-189.1682
 20
50.8969999999999
 30
0.0
  0
LINE
  5
CDF
330
1F
100
AcDbEntity
  8
0
  6
DASHED
 62
    30
100
AcDbLine
 10
-161.9182
 20
58.48299999999995
 30
0.0
 11
-161.9179999999999
 21
86.76729999999997
 31
0.0
  0
LINE
  5
CE1
330
1F
100
AcDbEntity
  8
0
  6
Continuous
 62
     7
100
AcDbLine
 10
-266.363
 20
94.04709999999999
 30
0.0
 11
-257.4177000000001
 21
94.04690000000003
 31
0.0
  0
ARC
  5
CE2
330
1F
100
AcDbEntity
  8
0
  6
Continuous
 62
     7
100
AcDbCircle
 10
-252.418
 20
95.4088999999999
 30
0.0
 40
5.0
100
AcDbArc
 50
90.0
 51
180.0
  0
LINE
  5
CF2
330
1F
100
AcDbEntity
  8
0
  6
Continuous
 62
     7
100
AcDbLine
 10
-137.4181
 20
51.79420000000004
 30
0.0
 11
-137.4181
 21
95.4088999999999
 31
0.0
  0
LINE
  5
CF5
330
1F
100
AcDbEntity
  8
0
  6
Continuous
 62
     7
100
AcDbLine
 10
-87.56820000000008
 20
35.44730000000004
 30
0.0
 11
-85.16820000000004
 21
35.44730000000004
 31
0.0
  0
LINE
  5
CF6
330
1F
100
AcDbEntity
  8
0
  6
Continuous
 62
     7
100
AcDbLine
 10
-59.16820000000001
 20
21.44730000000004
 30
0.0
 11
-87.56820000000008
 21
21.44730000000004
 31
0.0
  0
LINE
  5
CF7
330
1F
100
AcDbEntity
  8
0
  6
Continuous
 62
     7
100
AcDbLine
 10
-92.76819999999995
 20
47.4973
 30
0.0
 11
-92.76819999999995
 21
28.44730000000003
 31
0.0
  0
LINE
  5
CF8
330
1F
100
AcDbEntity
  8
0
  6
Continuous
 62
     7
100
AcDbLine
 10
-144.1689
 20
27.19779999999992
 30
0.0
 11
-144.1689
 21
23.19779999999992
 31
0.0
  0
LINE
  5
CF9
330
1F
100
AcDbEntity
  8
0
  6
Continuous
 62
     7
100
AcDbLine
 10
-119.1689
 20
27.19749999999999
 30
0.0
 11
-119.1689
 21
23.19779999999992
 31
0.0
  0
LINE
  5
CFA
330
1F
100
AcDbEntity
  8
0
  6
Continuous
 62
     7
100
AcDbLine
 10
-142.1689
 20
13.19779999999991
 30
0.0
 11
-121.1689
 21
13.19779999999991
 31
0.0
  0
LINE
  5
CFB
330
1F
100
AcDbEntity
  8
0
  6
Continuous
 62
     7
100
AcDbLine
 10
-142.1689
 20
21.19779999999992
 30
0.0
 11
-121.1689
 21
21.19779999999992
 31
0.0
  0
LINE
  5
CFC
330
1F
100
AcDbEntity
  8
0
  6
Continuous
 62
     7
100
AcDbLine
 10
-121.1689
 20
5.197799999999919
 30
0.0
 11
-142.1689
 21
5.197799999999919
 31
0.0
  0
LINE
  5
CFD
330
1F
100
AcDbEntity
  8
0
  6
Continuous
 62
     7
100
AcDbLine
 10
-121.1689
 20
6.197799999999919
 30
0.0
 11
-142.1689
 21
6.197799999999919
 31
0.0
  0
ARC
  5
CFE
330
1F
100
AcDbEntity
  8
0
  6
Continuous
 62
     7
100
AcDbCircle
 10
-142.1689
 20
11.19779999999992
 30
0.0
 40
2.0
100
AcDbArc
 50
90.0
 51
180.0
  0
ARC
  5
CFF
330
1F
100
AcDbEntity
  8
0
  6
Continuous
 62
     7
100
AcDbCircle
 10
-142.1689
 20
8.197799999999919
 30
0.0
 40
2.0
100
AcDbArc
 50
180.0
 51
270.0
  0
ARC
  5
D00
330
1F
100
AcDbEntity
  8
0
  6
Continuous
 62
     7
100
AcDbCircle
 10
-142.1689
 20
7.197799999999919
 30
0.0
 40
2.0
100
AcDbArc
 50
180.0
 51
270.0
  0
LINE
  5
D01
330
1F
100
AcDbEntity
  8
0
  6
Continuous
 62
     7
100
AcDbLine
 10
-144.1689
 20
11.19779999999992
 30
0.0
 11
-144.1689
 21
7.197799999999919
 31
0.0
  0
ARC
  5
D02
330
1F
100
AcDbEntity
  8
0
  6
Continuous
 62
     7
100
AcDbCircle
 10
-142.1689
 20
23.19779999999992
 30
0.0
 40
2.0
100
AcDbArc
 50
180.0
 51
270.0
  0
ARC
  5
D03
330
1F
100
AcDbEntity
  8
0
  6
Continuous
 62
     7
100
AcDbCircle
 10
-121.1689
 20
11.19779999999992
 30
0.0
 40
2.0
100
AcDbArc
 50
0.0
 51
90.0
  0
ARC
  5
D04
330
1F
100
AcDbEntity
  8
0
  6
Continuous
 62
     7
100
AcDbCircle
 10
-121.1689
 20
8.197799999999919
 30
0.0
 40
2.0
100
AcDbArc
 50
270.0
 51
0.0
  0
ARC
  5
D05
330
1F
100
AcDbEntity
  8
0
  6
Continuous
 62
     7
100
AcDbCircle
 10
-121.1689
 20
7.197799999999919
 30
0.0
 40
2.0
100
AcDbArc
 50
270.0
 51
0.0
  0
LINE
  5
D06
330
1F
100
AcDbEntity
  8
0
  6
Continuous
 62
     7
100
AcDbLine
 10
-119.1689
 20
11.19779999999992
 30
0.0
 11
-119.1689
 21
7.197799999999919
 31
0.0
  0
ARC
  5
D07
330
1F
100
AcDbEntity
  8
0
  6
Continuous
 62
     7
100
AcDbCircle
 10
-121.1689
 20
23.19779999999992
 30
0.0
 40
2.0
100
AcDbArc
 50
270.0
 51
0.0
  0
LINE
  5
D08
330
1F
100
AcDbEntity
  8
0
  6
Continuous
 62
     7
100
AcDbLine
 10
-142.1689
 20
29.19779999999992
 30
0.0
 11
-121.1689
 21
29.19779999999992
 31
0.0
  0
LINE
  5
D09
330
1F
100
AcDbEntity
  8
0
  6
Continuous
 62
     7
100
AcDbLine
 10
-142.1689
 20
29.19779999999992
 30
0.0
 11
-121.1689
 21
29.19779999999992
 31
0.0
  0
ARC
  5
D0A
330
1F
100
AcDbEntity
  8
0
  6
Continuous
 62
     7
100
AcDbCircle
 10
-142.1689410314094
 20
27.19778028978603
 30
0.0
 40
2.000019710634778
100
AcDbArc
 50
89.9988245482946
 51
141.317541306339
  0
ARC
  5
D0B
330
1F
100
AcDbEntity
  8
0
  6
Continuous
 62
     7
100
AcDbCircle
 10
-142.1689410314094
 20
27.19778028978603
 30
0.0
 40
2.000019710634778
100
AcDbArc
 50
89.9988245482946
 51
141.317541306339
  0
ARC
  5
D0C
330
1F
100
AcDbEntity
  8
0
  6
Continuous
 62
     7
100
AcDbCircle
 10
-142.1688802905212
 20
27.19785615876102
 30
0.0
 40
2.000019710267244
100
AcDbArc
 50
141.320325517306
 51
180.001608814142
  0
ARC
  5
D0D
330
1F
100
AcDbEntity
  8
0
  6
Continuous
 62
     7
100
AcDbCircle
 10
-121.1688913466925
 20
27.197495843796
 30
0.0
 40
2.00000415622271
100
AcDbArc
 50
38.68958475163013
 51
90.00024789848724
  0
ARC
  5
D0E
330
1F
100
AcDbEntity
  8
0
  6
Continuous
 62
     7
100
AcDbCircle
 10
-121.1688729017634
 20
27.1974228110833
 30
0.0
 40
1.999972901893388
100
AcDbArc
 50
359.9993465017461
 51
38.68931204248172
  0
ARC
  5
D0F
330
1F
100
AcDbEntity
  8
0
  6
Continuous
 62
     7
100
AcDbCircle
 10
-121.1688913466925
 20
27.197495843796
 30
0.0
 40
2.00000415622271
100
AcDbArc
 50
38.68958475163013
 51
90.00024789848724
  0
ARC
  5
D10
330
1F
100
AcDbEntity
  8
0
  6
Continuous
 62
     7
100
AcDbCircle
 10
-212.7676257676324
 20
28.44690167197201
 30
0.0
 40
122.2999960978359
100
AcDbArc
 50
352.5972596171468
 51
0.0001866109206103
  0
LINE
  5
D11
330
1F
100
AcDbEntity
  8
0
  6
Continuous
 62
     7
100
AcDbLine
 10
-92.76819999999995
 20
9.39719999999988
 30
0.0
 11
-92.76819999999995
 21
28.44730000000003
 31
0.0
  0
LINE
  5
D12
330
1F
100
AcDbEntity
  8
0
  6
Continuous
 62
     7
100
AcDbLine
 10
-88.16820000000005
 20
35.94730000000004
 30
0.0
 11
-88.16820000000005
 21
20.94730000000003
 31
0.0
  0
LINE
  5
D13
330
1F
100
AcDbEntity
  8
0
  6
Continuous
 62
     7
100
AcDbLine
 10
-102.8682
 20
8.89719999999988
 30
0.0
 11
-93.26819999999996
 21
8.89719999999988
 31
0.0
  0
ARC
  5
D14
330
1F
100
AcDbEntity
  8
0
  6
Continuous
 62
     7
100
AcDbCircle
 10
-93.47089308036819
 20
12.94731013483472
 30
0.0
 40
2.000065655134751
100
AcDbArc
 50
298.7560111483966
 51
352.5968083306263
  0
ARC
  5
D15
330
1F
100
AcDbEntity
  8
0
  6
Continuous
 62
     7
100
AcDbCircle
 10
-93.26819999999996
 20
9.39719999999988
 30
0.0
 40
0.5
100
AcDbArc
 50
270.0
 51
0.0
  0
ARC
  5
D16
330
1F
100
AcDbEntity
  8
0
  6
Continuous
 62
     7
100
AcDbCircle
 10
-92.26820237504339
 20
10.75539598696398
 30
0.0
 40
0.4999976249726505
100
AcDbArc
 50
118.7636441972877
 51
179.9995401377601
  0
LINE
  5
D17
330
1F
100
AcDbEntity
  8
0
  6
Continuous
 62
     7
100
AcDbLine
 10
-92.76819999999995
 20
10.94730000000003
 30
0.0
 11
-92.76819999999995
 21
10.84719999999993
 31
0.0
  0
LINE
  5
D18
330
1F
100
AcDbEntity
  8
0
  6
Continuous
 62
     7
100
AcDbLine
 10
-92.76819999999995
 20
10.82369999999992
 30
0.0
 11
-92.76819999999995
 21
10.84719999999993
 31
0.0
  0
ARC
  5
D1A
330
1F
100
AcDbEntity
  8
0
  6
Continuous
 62
     7
100
AcDbCircle
 10
-87.5680999958333
 20
20.84720000416718
 30
0.0
 40
0.600000004166689
100
AcDbArc
 50
90.0095496944589
 51
180.0000003979428
  0
LINE
  5
D1B
330
1F
100
AcDbEntity
  8
0
  6
Continuous
 62
     7
100
AcDbLine
 10
-90.69769999999985
 20
20.94730000000003
 30
0.0
 11
-88.16820000000005
 21
20.94730000000003
 31
0.0
  0
LINE
  5
D1C
330
1F
100
AcDbEntity
  8
0
  6
Continuous
 62
     7
100
AcDbLine
 10
-88.16820000000005
 20
20.84719999999993
 30
0.0
 11
-88.16820000000005
 21
20.94730000000003
 31
0.0
  0
ARC
  5
D1D
330
1F
100
AcDbEntity
  8
0
  6
Continuous
 62
     7
100
AcDbCircle
 10
-212.7676000000001
 20
28.44730000000003
 30
0.0
 40
122.2999703295549
100
AcDbArc
 50
0.0
 51
7.402741161449829
  0
ARC
  5
D1E
330
1F
100
AcDbEntity
  8
0
  6
Continuous
 62
     7
100
AcDbCircle
 10
-93.47083848516886
 20
43.94720990836132
 30
0.0
 40
2.000021819405784
100
AcDbArc
 50
7.405664669185095
 51
61.24508375974002
  0
ARC
  5
D1F
330
1F
100
AcDbEntity
  8
0
  6
Continuous
 62
     7
100
AcDbCircle
 10
-92.26815855324881
 20
46.13912995275353
 30
0.0
 40
0.5000414516573363
100
AcDbArc
 50
179.9919738422077
 51
241.2333843930063
  0
ARC
  5
D20
330
1F
100
AcDbEntity
  8
0
  6
Continuous
 62
     7
100
AcDbCircle
 10
-87.56809999583319
 20
36.04709999583263
 30
0.0
 40
0.6000000041668017
100
AcDbArc
 50
179.9999996020463
 51
269.9904503055297
  0
LINE
  5
D21
330
1F
100
AcDbEntity
  8
0
  6
Continuous
 62
     7
100
AcDbLine
 10
-90.69769999999985
 20
35.94730000000004
 30
0.0
 11
-88.16820000000005
 21
35.94730000000004
 31
0.0
  0
LINE
  5
D22
330
1F
100
AcDbEntity
  8
0
  6
Continuous
 62
     7
100
AcDbLine
 10
-92.76819999999995
 20
45.94730000000004
 30
0.0
 11
-92.76819999999995
 21
46.04739999999993
 31
0.0
  0
LINE
  5
D23
330
1F
100
AcDbEntity
  8
0
  6
Continuous
 62
     7
100
AcDbLine
 10
-92.76819999999995
 20
46.07079999999996
 30
0.0
 11
-92.76819999999995
 21
46.04739999999993
 31
0.0
  0
LINE
  5
D24
330
1F
100
AcDbEntity
  8
0
  6
Continuous
 62
     7
100
AcDbLine
 10
-92.76819999999995
 20
45.94730000000004
 30
0.0
 11
-92.76819999999995
 21
46.04739999999993
 31
0.0
  0
LINE
  5
D25
330
1F
100
AcDbEntity
  8
0
  6
Continuous
 62
     7
100
AcDbLine
 10
-88.16820000000005
 20
35.94730000000004
 30
0.0
 11
-88.16820000000005
 21
36.0471
 31
0.0
  0
ARC
  5
D26
330
1F
100
AcDbEntity
  8
0
  6
Continuous
 62
     7
100
AcDbCircle
 10
-130.3601
 20
69.03464999999993
 30
0.0
 40
4.999985406228841
100
AcDbArc
 50
323.8506751751888
 51
36.14932482481115
  0
ARC
  5
D27
330
1F
100
AcDbEntity
  8
0
  6
Continuous
 62
     7
100
AcDbCircle
 10
-133.9964704960735
 20
62.62003131432958
 30
0.0
 40
7.294332207105147
100
AcDbArc
 50
70.95041198487269
 51
75.72692939754087
  0
ARC
  5
D28
330
1F
100
AcDbEntity
  8
0
  6
Continuous
 62
     7
100
AcDbCircle
 10
-127.8383155710385
 20
62.62036484273835
 30
0.0
 40
7.294380608910151
100
AcDbArc
 50
104.2820024542765
 51
109.0587136167965
  0
ARC
  5
D29
330
1F
100
AcDbEntity
  8
0
  6
Continuous
 62
     7
100
AcDbCircle
 10
-130.9177958263913
 20
67.16040000012757
 30
0.0
 40
3.720317290901761
100
AcDbArc
 50
28.44775528372265
 51
151.5557478133222
  0
LINE
  5
D2A
330
1F
100
AcDbEntity
  8
0
  6
DASH_CENTER
 62
    30
100
AcDbLine
 10
-130.9181
 20
63.76219999999989
 30
0.0
 11
-130.9181
 21
74.39059999999995
 31
0.0
  0
LINE
  5
D2B
330
1F
100
AcDbEntity
  8
0
  6
Continuous
 62
     7
100
AcDbLine
 10
-135.9201
 20
52.94749999999999
 30
0.0
 11
-126.3226999999999
 21
66.08519999999998
 31
0.0
  0
LINE
  5
D2C
330
1F
100
AcDbEntity
  8
0
  6
DASH_CENTER
 62
    30
100
AcDbLine
 10
-125.5424
 20
69.03469999999993
 30
0.0
 11
-136.1923000000002
 21
69.03469999999993
 31
0.0
  0
ARC
  5
D2E
330
1F
100
AcDbEntity
  8
0
  6
Continuous
 62
     7
100
AcDbCircle
 10
-139.9574853301974
 20
55.89700745044577
 30
0.0
 40
5.000007450467362
100
AcDbArc
 50
269.9998318966967
 51
323.8500444204525
  0
ARC
  5
D30
330
1F
100
AcDbEntity
  8
0
  6
Continuous
 62
     7
100
AcDbCircle
 10
-132.7601039872028
 20
68.33862209900686
 30
0.0
 40
0.1500209801852344
100
AcDbArc
 50
130.7340483712699
 51
249.7210162328504
  0
ARC
  5
D31
330
1F
100
AcDbEntity
  8
0
  6
Continuous
 62
     7
100
AcDbCircle
 10
-132.6526389350667
 20
68.29911073759227
 30
0.0
 40
0.1500328835813943
100
AcDbArc
 50
249.6962096474363
 51
310.2495453025882
  0
ARC
  5
D32
330
1F
100
AcDbEntity
  8
0
  6
Continuous
 62
     7
100
AcDbCircle
 10
-129.0758027281081
 20
68.33858484649103
 30
0.0
 40
0.1499883654252727
100
AcDbArc
 50
290.2863221990214
 51
49.30223995815555
  0
ARC
  5
D33
330
1F
100
AcDbEntity
  8
0
  6
Continuous
 62
     7
100
AcDbCircle
 10
-129.1835610649335
 20
68.29911073759227
 30
0.0
 40
0.1500328835814525
100
AcDbArc
 50
229.7504546973947
 51
290.3037903526158
  0
ARC
  5
D34
330
1F
100
AcDbEntity
  8
0
  6
Continuous
 62
     7
100
AcDbCircle
 10
-131.6482952323488
 20
69.4201468246023
 30
0.0
 40
0.1000137598015924
100
AcDbArc
 50
299.2673257137228
 51
70.97943659520781
  0
ARC
  5
D35
330
1F
100
AcDbEntity
  8
0
  6
Continuous
 62
     7
100
AcDbCircle
 10
-127.8389792048866
 20
62.62025451271854
 30
0.0
 40
7.694390787929602
100
AcDbArc
 50
119.255786780532
 51
130.712974660665
  0
ARC
  5
D36
330
1F
100
AcDbEntity
  8
0
  6
Continuous
 62
     7
100
AcDbCircle
 10
-130.1876031511378
 20
69.42016463723003
 30
0.0
 40
0.1000300891709597
100
AcDbArc
 50
109.0789151820035
 51
240.7368545690038
  0
ARC
  5
D37
330
1F
100
AcDbEntity
  8
0
  6
Continuous
 62
     7
100
AcDbCircle
 10
-133.9971884908119
 20
62.620441873695
 30
0.0
 40
7.694358157734862
100
AcDbArc
 50
49.28516877845839
 51
60.74179225946642
  0
ARC
  5
D38
330
1F
100
AcDbEntity
  8
0
  6
Continuous
 62
     7
100
AcDbCircle
 10
-130.9181
 20
68.78880000000004
 30
0.0
 40
0.3999879623188379
100
AcDbArc
 50
63.47979121723033
 51
116.5202087827732
  0
ARC
  5
D39
330
1F
100
AcDbEntity
  8
0
  6
Continuous
 62
     7
100
AcDbCircle
 10
-133.9965942717072
 20
62.62003028019826
 30
0.0
 40
7.294383969805934
100
AcDbArc
 50
49.717904918863
 51
63.47844098144292
  0
ARC
  5
D3A
330
1F
100
AcDbEntity
  8
0
  6
Continuous
 62
     7
100
AcDbCircle
 10
-127.8393057282923
 20
62.62003028019865
 30
0.0
 40
7.294383969805907
100
AcDbArc
 50
116.5215590185625
 51
130.2820950811413
  0
ARC
  5
D3B
330
1F
100
AcDbEntity
  8
0
  6
Continuous
 62
     7
100
AcDbCircle
 10
-133.1339022419906
 20
68.36081979071471
 30
0.0
 40
1.199973005781074
100
AcDbArc
 50
151.5541776801685
 51
221.3722148593788
  0
ARC
  5
D3C
330
1F
100
AcDbEntity
  8
0
  6
Continuous
 62
     7
100
AcDbCircle
 10
-128.7017930738211
 20
68.36086114391325
 30
0.0
 40
1.199996823417961
100
AcDbArc
 50
318.626155608273
 51
28.44839096607181
  0
ARC
  5
D3D
330
1F
100
AcDbEntity
  8
0
  6
Continuous
 62
     7
100
AcDbCircle
 10
-130.9178440405905
 20
70.31269999929337
 30
0.0
 40
4.153055712732486
100
AcDbArc
 50
221.3748993625279
 51
318.6269391030478
  0
LINE
  5
D3E
330
1F
100
AcDbEntity
  8
0
  6
Continuous
 62
     7
100
AcDbLine
 10
-132.8121
 20
68.19799999999986
 30
0.0
 11
-132.7046999999999
 21
68.15819999999985
 31
0.0
  0
LINE
  5
D3F
330
1F
100
AcDbEntity
  8
0
  6
Continuous
 62
     7
100
AcDbLine
 10
-129.0237999999999
 20
68.19799999999986
 30
0.0
 11
-129.1314999999999
 21
68.15819999999985
 31
0.0
  0
POINT
  5
D40
330
1F
100
AcDbEntity
  8
0
 62
     7
100
AcDbPoint
 10
-130.9181
 20
69.0346999999999
 30
0.0
  0
LINE
  5
D41
330
1F
100
AcDbEntity
  8
0
  6
Continuous
 62
     7
100
AcDbLine
 10
-135.9201
 20
85.1217999999999
 30
0.0
 11
-126.3226999999999
 21
71.9840999999999
 31
0.0
  0
ARC
  5
D42
330
1F
100
AcDbEntity
  8
0
  6
Continuous
 62
     7
100
AcDbCircle
 10
-139.9575189936725
 20
82.17241721475902
 30
0.0
 40
4.999961094282888
100
AcDbArc
 50
36.14857448556713
 51
59.47676397847494
  0
ARC
  5
D43
330
1F
100
AcDbEntity
  8
0
  6
Continuous
 62
     7
100
AcDbCircle
 10
-129.7650008249387
 20
69.91430019590035
 30
0.0
 40
0.1499725641551908
100
AcDbArc
 50
48.48673746597334
 51
104.7957797204418
  0
ARC
  5
D44
330
1F
100
AcDbEntity
  8
0
  6
Continuous
 62
     7
100
AcDbCircle
 10
-129.6749082146081
 20
69.83446607524847
 30
0.0
 40
0.1500030125751238
100
AcDbArc
 50
284.2832948251771
 51
48.49326200306128
  0
ARC
  5
D45
330
1F
100
AcDbEntity
  8
0
  6
Continuous
 62
     7
100
AcDbCircle
 10
-132.0709674980669
 20
69.91428398267924
 30
0.0
 40
0.1500057005165327
100
AcDbArc
 50
75.1805705795232
 51
131.5182179688838
  0
ARC
  5
D46
330
1F
100
AcDbEntity
  8
0
  6
Continuous
 62
     7
100
AcDbCircle
 10
-132.1610006133068
 20
69.83450252878667
 30
0.0
 40
0.1500361622850011
100
AcDbArc
 50
131.5420369841671
 51
255.7234066735887
  0
ARC
  5
D47
330
1F
100
AcDbEntity
  8
0
  6
Continuous
 62
     7
100
AcDbCircle
 10
-130.9181
 20
70.10600000000001
 30
0.0
 40
0.4000430101877713
100
AcDbArc
 50
247.6533635032321
 51
292.3466364967643
  0
ARC
  5
D48
330
1F
100
AcDbEntity
  8
0
  6
Continuous
 62
     7
100
AcDbCircle
 10
-133.9969649677634
 20
62.62018903841911
 30
0.0
 40
7.694385302405057
100
AcDbArc
 50
67.64298110207146
 51
75.20872705725605
  0
ARC
  5
D49
330
1F
100
AcDbEntity
  8
0
  6
Continuous
 62
     7
100
AcDbCircle
 10
-127.8389350322373
 20
62.62018903841888
 30
0.0
 40
7.694385302405057
100
AcDbArc
 50
104.7912729427372
 51
112.357018897925
  0
LINE
  5
D4A
330
1F
100
AcDbEntity
  8
0
  6
Continuous
 62
     7
100
AcDbLine
 10
-129.6656
 20
70.02659999999991
 30
0.0
 11
-129.5752999999999
 21
69.94679999999994
 31
0.0
  0
LINE
  5
D4B
330
1F
100
AcDbEntity
  8
0
  6
Continuous
 62
     7
100
AcDbLine
 10
-132.1702999999999
 20
70.02659999999991
 30
0.0
 11
-132.2606000000001
 21
69.94679999999994
 31
0.0
  0
ARC
  5
D4C
330
1F
100
AcDbEntity
  8
0
  6
Continuous
 62
     7
100
AcDbCircle
 10
-106.2564999961606
 20
71.5804448371849
 30
0.0
 40
6.588287640269167
100
AcDbArc
 50
342.1402889518159
 51
17.86254649033882
  0
LINE
  5
D4D
330
1F
100
AcDbEntity
  8
0
  6
Continuous
 62
     7
100
AcDbLine
 10
-94.3179999999999
 20
73.58079999999995
 30
0.0
 11
-94.3179999999999
 21
69.58079999999995
 31
0.0
  0
LINE
  5
D4E
330
1F
100
AcDbEntity
  8
0
  6
Continuous
 62
     7
100
AcDbLine
 10
-93.96799999999998
 20
69.9306999999999
 30
0.0
 11
-94.3179999999999
 21
69.58079999999995
 31
0.0
  0
LINE
  5
D4F
330
1F
100
AcDbEntity
  8
0
  6
Continuous
 62
     7
100
AcDbLine
 10
-99.66819999999998
 20
68.08079999999995
 30
0.0
 11
-99.66819999999998
 21
75.0806
 31
0.0
  0
LINE
  5
D50
330
1F
100
AcDbEntity
  8
0
  6
Continuous
 62
     7
100
AcDbLine
 10
-102.8682
 20
47.99710000000004
 30
0.0
 11
-93.26819999999996
 21
47.99710000000004
 31
0.0
  0
LINE
  5
D51
330
1F
100
AcDbEntity
  8
0
  6
Continuous
 62
     7
100
AcDbLine
 10
-102.5506999999999
 20
67.5308
 30
0.0
 11
-99.98580000000012
 21
67.5308
 31
0.0
  0
LINE
  5
D52
330
1F
100
AcDbEntity
  8
0
  6
Continuous
 62
     7
100
AcDbLine
 10
-99.98569999999993
 20
69.56009999999992
 30
0.0
 11
-102.8682
 21
69.56009999999992
 31
0.0
  0
LINE
  5
D53
330
1F
100
AcDbEntity
  8
0
  6
Continuous
 62
     7
100
AcDbLine
 10
-102.8682
 20
68.08079999999995
 30
0.0
 11
-102.5506999999999
 21
67.5308
 31
0.0
  0
ARC
  5
D54
330
1F
100
AcDbEntity
  8
0
  6
Continuous
 62
     7
100
AcDbCircle
 10
-93.26819999999996
 20
47.4973
 30
0.0
 40
0.5
100
AcDbArc
 50
0.0
 51
90.0
  0
ARC
  5
D55
330
1F
100
AcDbEntity
  8
0
  6
Continuous
 62
     7
100
AcDbCircle
 10
-106.2564895813054
 20
67.53924709540761
 30
0.0
 40
6.58827703478612
100
AcDbArc
 50
4.419247763366093
 51
17.86255558031249
  0
LINE
  5
D56
330
1F
100
AcDbEntity
  8
0
  6
Continuous
 62
     7
100
AcDbLine
 10
-99.66819999999998
 20
68.08079999999995
 30
0.0
 11
-99.98580000000012
 21
67.5308
 31
0.0
  0
LINE
  5
D57
330
1F
100
AcDbEntity
  8
0
  6
Continuous
 62
     7
100
AcDbLine
 10
-99.66819999999998
 20
69.58079999999995
 30
0.0
 11
-94.3179999999999
 21
69.58079999999995
 31
0.0
  0
LINE
  5
D58
330
1F
100
AcDbEntity
  8
0
  6
DASH_CENTER
 62
    30
100
AcDbLine
 10
-85.64569999999994
 20
71.58079999999995
 30
0.0
 11
-112.5942999999999
 21
71.58079999999995
 31
0.0
  0
LINE
  5
D59
330
1F
100
AcDbEntity
  8
0
  6
DASH_CENTER
 62
    30
100
AcDbLine
 10
-85.64569999999994
 20
71.58079999999995
 30
0.0
 11
-112.5942999999999
 21
71.58079999999995
 31
0.0
  0
LINE
  5
D5A
330
1F
100
AcDbEntity
  8
0
  6
Continuous
 62
     7
100
AcDbLine
 10
-99.98580000000012
 20
73.60130000000005
 30
0.0
 11
-102.8682
 21
73.60130000000005
 31
0.0
  0
LINE
  5
D5B
330
1F
100
AcDbEntity
  8
0
  6
Continuous
 62
     7
100
AcDbLine
 10
-99.98580000000012
 20
75.63059999999996
 30
0.0
 11
-102.5506999999999
 21
75.63059999999996
 31
0.0
  0
LINE
  5
D5C
330
1F
100
AcDbEntity
  8
0
  6
Continuous
 62
     7
100
AcDbLine
 10
-102.8682
 20
75.0806
 30
0.0
 11
-102.5506999999999
 21
75.63059999999996
 31
0.0
  0
ARC
  5
D5D
330
1F
100
AcDbEntity
  8
0
  6
Continuous
 62
     7
100
AcDbCircle
 10
-106.2564895813054
 20
75.62215290459234
 30
0.0
 40
6.588277034786122
100
AcDbArc
 50
342.1374444196873
 51
355.5807522366339
  0
LINE
  5
D5E
330
1F
100
AcDbEntity
  8
0
  6
Continuous
 62
     7
100
AcDbLine
 10
-93.96799999999998
 20
69.9306999999999
 30
0.0
 11
-93.96799999999998
 21
73.23069999999984
 31
0.0
  0
LINE
  5
D5F
330
1F
100
AcDbEntity
  8
0
  6
Continuous
 62
     7
100
AcDbLine
 10
-93.96799999999998
 20
73.23069999999984
 30
0.0
 11
-94.3179999999999
 21
73.58079999999995
 31
0.0
  0
LINE
  5
D60
330
1F
100
AcDbEntity
  8
0
  6
Continuous
 62
    30
100
AcDbLine
 10
-93.96799999999998
 20
69.9306999999999
 30
0.0
 11
-99.66819999999998
 21
69.9306999999999
 31
0.0
  0
LINE
  5
D61
330
1F
100
AcDbEntity
  8
0
  6
Continuous
 62
    30
100
AcDbLine
 10
-93.96799999999998
 20
73.23069999999984
 30
0.0
 11
-99.66819999999998
 21
73.23069999999984
 31
0.0
  0
LINE
  5
D62
330
1F
100
AcDbEntity
  8
0
  6
Continuous
 62
     7
100
AcDbLine
 10
-99.66819999999998
 20
75.0806
 30
0.0
 11
-99.98580000000012
 21
75.63059999999996
 31
0.0
  0
LINE
  5
D63
330
1F
100
AcDbEntity
  8
0
  6
Continuous
 62
     7
100
AcDbLine
 10
-94.3179999999999
 20
73.58079999999995
 30
0.0
 11
-99.66819999999998
 21
73.58079999999995
 31
0.0
  0
LINE
  5
D64
330
1F
100
AcDbEntity
  8
0
  6
Continuous
 62
     7
100
AcDbLine
 10
-59.16820000000001
 20
21.44730000000004
 30
0.0
 11
-59.16820000000001
 21
34.44730000000004
 31
0.0
  0
LINE
  5
D65
330
1F
100
AcDbEntity
  8
0
  6
Continuous
 62
     7
100
AcDbLine
 10
-58.16820000000001
 20
22.44699999999988
 30
0.0
 11
-58.16820000000001
 21
34.44730000000004
 31
0.0
  0
LINE
  5
D67
330
1F
100
AcDbEntity
  8
0
  6
Continuous
 62
     7
100
AcDbLine
 10
-59.16820000000001
 20
21.44730000000004
 30
0.0
 11
-58.16820000000001
 21
22.44699999999988
 31
0.0
  0
LINE
  5
D68
330
1F
100
AcDbEntity
  8
0
  6
Continuous
 62
     7
100
AcDbLine
 10
-85.16820000000004
 20
34.44730000000004
 30
0.0
 11
-58.16820000000001
 21
34.44730000000004
 31
0.0
  0
LINE
  5
D69
330
1F
100
AcDbEntity
  8
0
  6
Continuous
 62
     7
100
AcDbLine
 10
-85.16820000000004
 20
34.44730000000004
 30
0.0
 11
-85.16820000000004
 21
35.44730000000004
 31
0.0
  0
LINE
  5
D6E
330
1F
100
AcDbEntity
  8
0
  6
Continuous
 62
     7
100
AcDbLine
 10
-137.4181
 20
94.04709999999999
 30
0.0
 11
-102.8682
 21
94.04709999999999
 31
0.0
  0
ARC
  5
D70
330
1F
100
AcDbEntity
  8
0
  6
Continuous
 62
     7
100
AcDbCircle
 10
-142.4181
 20
95.4088999999999
 30
0.0
 40
5.0
100
AcDbArc
 50
0.0
 51
90.0
  0
ARC
  5
D92
330
1F
100
AcDbEntity
  8
0
  6
Continuous
 62
     7
100
AcDbCircle
 10
191.1845201919628
 20
28.44734851065346
 30
0.0
 40
65.59997980805523
100
AcDbArc
 50
314.8022031859717
 51
359.9999576302354
  0
ARC
  5
D93
330
1F
100
AcDbEntity
  8
0
  6
Continuous
 62
     7
100
AcDbCircle
 10
191.1844
 20
28.44730000000003
 30
0.0
 40
65.59995961614601
100
AcDbArc
 50
180.0
 51
225.1977544442376
  0
ARC
  5
D94
330
1F
100
AcDbEntity
  8
0
  6
Continuous
 62
     7
100
AcDbCircle
 10
191.1846000000002
 20
28.44730000000003
 30
0.0
 40
40.99999039853568
100
AcDbArc
 50
189.1542383912596
 51
260.8457616087391
  0
ARC
  5
D95
330
1F
100
AcDbEntity
  8
0
  6
Continuous
 62
     7
100
AcDbCircle
 10
191.1846157858802
 20
28.44728421404092
 30
0.0
 40
26.99999818693537
100
AcDbArc
 50
193.4933652950033
 51
256.5063475750321
  0
ARC
  5
D96
330
1F
100
AcDbEntity
  8
0
  6
Continuous
 62
     7
100
AcDbCircle
 10
191.1846777239657
 20
28.44722227547009
 30
0.0
 40
36.00000748830381
100
AcDbArc
 50
192.2466197795914
 51
257.7529641940111
  0
ARC
  5
D97
330
1F
100
AcDbEntity
  8
0
  6
Continuous
 62
     7
100
AcDbCircle
 10
191.1845401731916
 20
28.44744443332105
 30
0.0
 40
61.25000118253529
100
AcDbArc
 50
194.5231603732962
 51
210.4772244229944
  0
ARC
  5
D98
330
1F
100
AcDbEntity
  8
0
  6
Continuous
 62
     7
100
AcDbCircle
 10
191.1846167923234
 20
28.44725945976565
 30
0.0
 40
64.25000886080169
100
AcDbArc
 50
194.8977624479638
 51
210.1022575471301
  0
ARC
  5
D99
330
1F
100
AcDbEntity
  8
0
  6
Continuous
 62
     7
100
AcDbCircle
 10
191.1842263542295
 20
28.44712220233803
 30
0.0
 40
61.24995278008765
100
AcDbArc
 50
329.5230986836681
 51
345.477139275433
  0
ARC
  5
D9A
330
1F
100
AcDbEntity
  8
0
  6
Continuous
 62
     7
100
AcDbCircle
 10
191.1842832076768
 20
28.447259459766
 30
0.0
 40
64.25000886080167
100
AcDbArc
 50
329.8977424528679
 51
345.1022375520357
  0
ARC
  5
D9B
330
1F
100
AcDbEntity
  8
0
  6
Continuous
 62
     7
100
AcDbCircle
 10
191.1845999466341
 20
28.44730077393534
 30
0.0
 40
54.00000077430545
100
AcDbArc
 50
97.88928209932832
 51
269.9997878500354
  0
ARC
  5
D9C
330
1F
100
AcDbEntity
  8
0
  6
Continuous
 62
     7
100
AcDbCircle
 10
191.1843
 20
28.44730000000003
 30
0.0
 40
50.00001364499826
100
AcDbArc
 50
286.0572626883143
 51
343.9427373116854
  0
ARC
  5
D9D
330
1F
100
AcDbEntity
  8
0
  6
Continuous
 62
     7
100
AcDbCircle
 10
191.1843000533659
 20
28.44730077393533
 30
0.0
 40
54.00000077430545
100
AcDbArc
 50
270.0002121499645
 51
82.11071790067169
  0
ARC
  5
D9E
330
1F
100
AcDbEntity
  8
0
  6
Continuous
 62
     7
100
AcDbCircle
 10
198.1844046533144
 20
-0.7245940979787804
 30
0.0
 40
3.000004653320223
100
AcDbArc
 50
103.4934688905711
 51
180.0001127201274
  0
ARC
  5
D9F
330
1F
100
AcDbEntity
  8
0
  6
Continuous
 62
     7
100
AcDbCircle
 10
191.1842222760343
 20
28.44722227547002
 30
0.0
 40
36.00000748830374
100
AcDbArc
 50
282.2470358059888
 51
347.7533802204085
  0
ARC
  5
DA0
330
1F
100
AcDbEntity
  8
0
  6
Continuous
 62
     7
100
AcDbCircle
 10
191.1842842141199
 20
28.44728421404078
 30
0.0
 40
26.99999818693528
100
AcDbArc
 50
283.4936524249678
 51
346.5066347049968
  0
ARC
  5
DA1
330
1F
100
AcDbEntity
  8
0
  6
Continuous
 62
     7
100
AcDbCircle
 10
191.1843
 20
28.44730000000003
 30
0.0
 40
40.99999039853557
100
AcDbArc
 50
279.1542383912591
 51
350.8457616087401
  0
ARC
  5
DA2
330
1F
100
AcDbEntity
  8
0
  6
Continuous
 62
     7
100
AcDbCircle
 10
191.1846000000002
 20
28.44730000000003
 30
0.0
 40
50.00001364499836
100
AcDbArc
 50
196.0572626883146
 51
253.9427373116856
  0
ARC
  5
DA3
330
1F
100
AcDbEntity
  8
0
  6
Continuous
 62
     7
100
AcDbCircle
 10
184.1844953466855
 20
-0.7245940979787591
 30
0.0
 40
3.000004653320254
100
AcDbArc
 50
359.9998872798721
 51
76.50653110942553
  0
LINE
  5
DA4
330
1F
100
AcDbEntity
  8
0
  6
Continuous
 62
     7
100
AcDbLine
 10
92.49180000000015
 20
-20.3306
 30
0.0
 11
92.49180000000015
 21
19.24710000000004
 31
0.0
  0
LINE
  5
DA5
330
1F
100
AcDbEntity
  8
0
  6
Continuous
 62
     7
100
AcDbLine
 10
95.69180000000015
 20
-0.9061205954740216
 30
0.0
 11
95.69180000000015
 21
19.24710000000004
 31
0.0
  0
LINE
  5
DA6
330
1F
100
AcDbEntity
  8
0
  6
Continuous
 62
     7
100
AcDbLine
 10
181.1845
 20
1.410200000000031
 30
0.0
 11
181.1845
 21
-1.884299999999939
 31
0.0
  0
LINE
  5
DA7
330
1F
100
AcDbEntity
  8
0
  6
Continuous
 62
     7
100
AcDbLine
 10
201.1843999999999
 20
1.410200000000031
 30
0.0
 11
201.1843999999999
 21
-1.884299999999939
 31
0.0
  0
LINE
  5
DA8
330
1F
100
AcDbEntity
  8
0
  6
Continuous
 62
     7
100
AcDbLine
 10
195.1844
 20
7.01099999999997
 30
0.0
 11
195.1844
 21
-3.80179999999996
 31
0.0
  0
LINE
  5
DA9
330
1F
100
AcDbEntity
  8
0
  6
Continuous
 62
     7
100
AcDbLine
 10
89.29180000000007
 20
-20.3306
 30
0.0
 11
89.29180000000007
 21
19.24710000000004
 31
0.0
  0
LINE
  5
DAA
330
1F
100
AcDbEntity
  8
0
  6
Continuous
 62
     7
100
AcDbLine
 10
187.1845
 20
7.01099999999997
 30
0.0
 11
187.1845
 21
-3.80179999999996
 31
0.0
  0
LINE
  5
DAB
330
1F
100
AcDbEntity
  8
0
  6
DASH_CENTER
 62
    30
100
AcDbLine
 10
191.1844
 20
-70.63310000000001
 30
0.0
 11
191.1844
 21
108.0215
 31
0.0
  0
ARC
  5
DB3
330
1F
100
AcDbEntity
  8
0
  6
Continuous
 62
     7
100
AcDbCircle
 10
244.4569815673197
 20
-25.19429737706433
 30
0.0
 40
10.00001925246418
100
AcDbArc
 50
28.99994654985642
 51
134.8026316169925
  0
LINE
  5
DB4
330
1F
100
AcDbEntity
  8
0
  6
Continuous
 62
     7
100
AcDbLine
 10
266.1843999999999
 20
-42.55269999999995
 30
0.0
 11
227.6766
 21
-42.55269999999995
 31
0.0
  0
LINE
  5
DB5
330
1F
100
AcDbEntity
  8
0
  6
Continuous
 62
     7
100
AcDbLine
 10
223.6845
 20
-39.35280000000011
 30
0.0
 11
266.1843999999999
 21
-39.35280000000011
 31
0.0
  0
SPLINE
  5
DB6
330
1F
100
AcDbEntity
  8
0
  6
Continuous
 62
    30
100
AcDbSpline
210
0.0
220
0.0
230
1.0
 70
     8
 71
     3
 72
   141
 73
   137
 74
   135
 42
0.0000000001
 43
0.0000000001
 44
0.00000001
 40
0.0
 40
0.0
 40
0.0
 40
0.0
 40
0.2626125722557814
 40
0.5252229897649226
 40
0.78784646605807
 40
1.075428894539738
 40
1.363038469519146
 40
1.650586370738595
 40
1.931165997059667
 40
2.21179865244772
 40
2.492417660817618
 40
2.793855024799246
 40
3.095312440916038
 40
3.396867360777663
 40
3.698451587455529
 40
4.131419367174491
 40
4.564261333664822
 40
4.997082101088682
 40
5.504456529645312
 40
6.011845427822814
 40
6.017628938581498
 40
6.023412446106937
 40
6.029184323754186
 40
6.034956207771149
 40
6.392597960615539
 40
6.750241790400608
 40
7.107879068242066
 40
7.458869678834506
 40
7.809872634916536
 40
8.160857351962922
 40
8.662250235286043
 40
9.163667674269181
 40
9.665963731559433
 40
10.16826034608115
 40
10.67057205969231
 40
11.53513511739723
 40
12.39966727442304
 40
13.15108807270419
 40
13.90254681865641
 40
14.34352127109355
 40
14.78447779931074
 40
15.22546558312151
 40
15.66670408180287
 40
15.945209509421
 40
16.22377830584841
 40
16.50228001026698
 40
16.78067696223679
 40
17.05903809259541
 40
17.33755265406594
 40
17.60555161429091
 40
17.87365499845074
 40
18.14164887677249
 40
18.40945504999535
 40
18.67714768750864
 40
18.95195816673732
 40
19.22705363335591
 40
19.50247915331857
 40
19.77817141596922
 40
20.05397194558623
 40
20.32963988899208
 40
20.62920858574835
 40
20.92853756368708
 40
21.22780795499024
 40
21.52710147147684
 40
21.82640832152212
 40
22.12563524598867
 40
22.45504233936388
 40
22.7843121406268
 40
23.1135265692105
 40
23.44269033167678
 40
23.77173681646112
 40
24.13304127693865
 40
24.49434029182115
 40
24.85579325322771
 40
25.21743423172812
 40
25.57918777449628
 40
25.94088462366892
 40
26.51623964040057
 40
27.09123668120974
 40
27.66612082861405
 40
28.24100476126361
 40
29.19453933397175
 40
30.14813028236527
 40
30.86917923654638
 40
31.59022136773172
 40
32.31126706812973
 40
32.81978126287691
 40
33.32830297845394
 40
33.83682121827344
 40
34.34537023208843
 40
34.88768945933712
 40
35.42995946351313
 40
35.97207848225675
 40
36.45475494073531
 40
36.93751076578521
 40
37.42039946420071
 40
37.90335952236925
 40
38.4133312922073
 40
38.92320624963315
 40
39.43298700024191
 40
39.94276972224241
 40
40.41621510374548
 40
40.8897393449427
 40
41.36324863011987
 40
41.83667380712353
 40
42.35248327591897
 40
42.86833599801389
 40
43.38431243746346
 40
43.90038956572002
 40
44.41646096010117
 40
45.3053043608238
 40
46.19393822957802
 40
47.08256538739965
 40
47.76074793111912
 40
48.43893529127682
 40
49.11712161447577
 40
49.61240291207296
 40
50.10770005288138
 40
50.60300444592272
 40
51.09835660715198
 40
51.47019034914801
 40
51.84200607556519
 40
52.21375512448424
 40
52.58544661174376
 40
52.88720975880681
 40
53.18899926558
 40
53.49091296168293
 40
53.67862654352796
 40
53.86630490942649
 40
54.05389867814529
 40
54.24150005309929
 40
54.41175084459266
 40
54.5819767743279
 40
54.75206400148948
 40
54.92310382909771
 40
55.09419135664103
 40
55.09419135664103
 40
55.09419135664103
 40
55.09419135664103
 10
227.9812999999999
 20
-156.5371
 30
0.0
 10
227.9640612042703
 20
-156.6229235605794
 30
0.0
 10
227.9295837620063
 20
-156.7945699790898
 30
0.0
 10
227.8808848331266
 20
-157.0526423151987
 30
0.0
 10
227.8365779694794
 20
-157.319969433048
 30
0.0
 10
227.8004785409674
 20
-157.5969697872517
 30
0.0
 10
227.7747280730064
 20
-157.88347685644
 30
0.0
 10
227.7616747819772
 20
-158.1685282261991
 30
0.0
 10
227.7621097183977
 20
-158.4515455825346
 30
0.0
 10
227.774563202668
 20
-158.7319569573073
 30
0.0
 10
227.7985314410274
 20
-159.0185861939765
 30
0.0
 10
227.8338336283876
 20
-159.3110289744159
 30
0.0
 10
227.8794314171303
 20
-159.6090843205862
 30
0.0
 10
227.9325534888215
 20
-159.905925240922
 30
0.0
 10
227.9998139640265
 20
-160.2446943765725
 30
0.0
 10
228.0814396783306
 20
-160.6251861836659
 30
0.0
 10
228.1782749691793
 20
-161.0471038186004
 30
0.0
 10
228.2853205928562
 20
-161.492094320941
 30
0.0
 10
228.401561832412
 20
-161.9604131117987
 30
0.0
 10
228.4838069603292
 20
-162.2905039241284
 30
0.0
 10
228.5251193727237
 20
-162.4584836895772
 30
0.0
 10
228.526499169616
 20
-162.4640962029131
 30
0.0
 10
228.527877432743
 20
-162.4697051024174
 30
0.0
 10
228.5572326831989
 20
-162.5892144495164
 30
0.0
 10
228.6140260693508
 20
-162.8227628253676
 30
0.0
 10
228.6952044634888
 20
-163.1710771559433
 30
0.0
 10
228.7708226960092
 20
-163.5183825448828
 30
0.0
 10
228.839253309912
 20
-163.864924482672
 30
0.0
 10
228.9004027209556
 20
-164.2105733935727
 30
0.0
 10
228.9621776409904
 20
-164.6069445205007
 30
0.0
 10
229.0202079019433
 20
-165.054523536625
 30
0.0
 10
229.0730995437598
 20
-165.5534598439564
 30
0.0
 10
229.1177941185767
 20
-166.0534857757653
 30
0.0
 10
229.1567032969901
 20
-166.5542847397867
 30
0.0
 10
229.2007843130229
 20
-167.1757820241938
 30
0.0
 10
229.251536147862
 20
-167.9178503990872
 30
0.0
 10
229.3093366915692
 20
-168.7426685374161
 30
0.0
 10
229.3693153742804
 20
-169.529530119073
 30
0.0
 10
229.424631155076
 20
-170.1751301950452
 30
0.0
 10
229.4767462351924
 20
-170.7171023667689
 30
0.0
 10
229.5251027747107
 20
-171.1554379292322
 30
0.0
 10
229.5823793318001
 20
-171.5928027719379
 30
0.0
 10
229.6428434111986
 20
-171.9750229553287
 30
0.0
 10
229.7036467881345
 20
-172.3022186982771
 30
0.0
 10
229.7612547714769
 20
-172.5747549532239
 30
0.0
 10
229.8265882269844
 20
-172.8455159816451
 30
0.0
 10
229.9006414519531
 20
-173.1139639180041
 30
0.0
 10
229.9844100185329
 20
-173.3795588699335
 30
0.0
 10
230.077652266039
 20
-173.6383125577597
 30
0.0
 10
230.1807285909944
 20
-173.8896214554857
 30
0.0
 10
230.2936810381843
 20
-174.1328011677621
 30
0.0
 10
230.4183786547138
 20
-174.3701172326015
 30
0.0
 10
230.5553037785922
 20
-174.600454287904
 30
0.0
 10
230.7062477377301
 20
-174.8246315510036
 30
0.0
 10
230.8720317773651
 20
-175.0411548819578
 30
0.0
 10
231.0519673476428
 20
-175.2494632081111
 30
0.0
 10
231.2435769421414
 20
-175.4474807628945
 30
0.0
 10
231.4457989168416
 20
-175.6349769711983
 30
0.0
 10
231.6575758713145
 20
-175.8117221237858
 30
0.0
 10
231.88433432894
 20
-175.9823666886277
 30
0.0
 10
232.1260143605251
 20
-176.1456269897444
 30
0.0
 10
232.382413566887
 20
-176.3004396599144
 30
0.0
 10
232.6459407832693
 20
-176.4425658577165
 30
0.0
 10
232.9157543336597
 20
-176.572320885895
 30
0.0
 10
233.1910152658609
 20
-176.6900205380158
 30
0.0
 10
233.4803706690345
 20
-176.7995718383975
 30
0.0
 10
233.7835942560613
 20
-176.8999398169674
 30
0.0
 10
234.1004017841167
 20
-176.9901124779508
 30
0.0
 10
234.4205059458499
 20
-177.0673960267582
 30
0.0
 10
234.7432664289613
 20
-177.132286837851
 30
0.0
 10
235.0787399043408
 20
-177.1870278305421
 30
0.0
 10
235.4266292190863
 20
-177.2307820675688
 30
0.0
 10
235.7865667503341
 20
-177.2634388078971
 30
0.0
 10
236.1474393957396
 20
-177.2849795992959
 30
0.0
 10
236.5089021951304
 20
-177.2967361430355
 30
0.0
 10
236.8706124612284
 20
-177.3000384699284
 30
0.0
 10
237.3035446049904
 20
-177.2954615667425
 30
0.0
 10
237.807361681246
 20
-177.279639737802
 30
0.0
 10
238.3816864072075
 20
-177.2495972968177
 30
0.0
 10
238.9552828461244
 20
-177.2103218314538
 30
0.0
 10
239.6541680046876
 20
-177.1545040342784
 30
0.0
 10
240.4782739184662
 20
-177.0814498900439
 30
0.0
 10
241.3510804248505
 20
-177.0059042293722
 30
0.0
 10
242.1475298562073
 20
-176.9475421171037
 30
0.0
 10
242.867353967973
 20
-176.905109012142
 30
0.0
 10
243.5170297899426
 20
-176.8780005919833
 30
0.0
 10
244.0962360197708
 20
-176.8637648384103
 30
0.0
 10
244.6047584998336
 20
-176.8593279205965
 30
0.0
 10
245.1132971212425
 20
-176.8638096590067
 30
0.0
 10
245.6329224346341
 20
-176.878386216454
 30
0.0
 10
246.1633625136665
 20
-176.9047496641538
 30
0.0
 10
246.7041731036558
 20
-176.9448076850531
 30
0.0
 10
247.2239773493682
 20
-176.9970752968542
 30
0.0
 10
247.7224908577797
 20
-177.0607209249133
 30
0.0
 10
248.2001634062549
 20
-177.1308412265439
 30
0.0
 10
248.6770180444206
 20
-177.2068504719059
 30
0.0
 10
249.1623627129822
 20
-177.2871355607444
 30
0.0
 10
249.656630631915
 20
-177.3685981099425
 30
0.0
 10
250.160212473893
 20
-177.4485040715279
 30
0.0
 10
250.6646171295561
 20
-177.5226734905233
 30
0.0
 10
251.1581690661159
 20
-177.5868191713496
 30
0.0
 10
251.6409650092574
 20
-177.6391208183347
 30
0.0
 10
252.1127194490156
 20
-177.6800870604255
 30
0.0
 10
252.5852589759754
 20
-177.7106339688681
 30
0.0
 10
253.0724616623714
 20
-177.7309573617888
 30
0.0
 10
253.5741363171502
 20
-177.7394569084429
 30
0.0
 10
254.0900435804601
 20
-177.7367311279364
 30
0.0
 10
254.6058892223541
 20
-177.7243963150639
 30
0.0
 10
255.1215546531494
 20
-177.7043061391946
 30
0.0
 10
255.7610815287036
 20
-177.6720512852631
 30
0.0
 10
256.5241875821978
 20
-177.6253451021378
 30
0.0
 10
257.4107136916012
 20
-177.5631260101295
 30
0.0
 10
258.2269340358395
 20
-177.5023323650215
 30
0.0
 10
258.9732190194761
 20
-177.447003644504
 30
0.0
 10
259.6498502725827
 20
-177.4010029490954
 30
0.0
 10
260.2661286954326
 20
-177.366500594475
 30
0.0
 10
260.8219444621064
 20
-177.3439533248167
 30
0.0
 10
261.3170972354798
 20
-177.3312688255077
 30
0.0
 10
261.8124221939348
 20
-177.3269473773166
 30
0.0
 10
262.2665933993045
 20
-177.3315449493326
 30
0.0
 10
262.6794465386186
 20
-177.3432435785796
 30
0.0
 10
263.0508688371483
 20
-177.3605009724419
 30
0.0
 10
263.4218149980453
 20
-177.3854069168626
 30
0.0
 10
263.7688358847259
 20
-177.4167852770982
 30
0.0
 10
264.0918548431525
 20
-177.4535822749508
 30
0.0
 10
264.3908412372454
 20
-177.4951120241281
 30
0.0
 10
264.6510457342723
 20
-177.5388077239069
 30
0.0
 10
264.8726671408577
 20
-177.5819771022672
 30
0.0
 10
265.0558546735851
 20
-177.6228497737391
 30
0.0
 10
265.2375040818807
 20
-177.6700002441957
 30
0.0
 10
265.4114864725302
 20
-177.7230119147789
 30
0.0
 10
265.5773479380192
 20
-177.7821555165551
 30
0.0
 10
265.7346951518262
 20
-177.8472024435663
 30
0.0
 10
265.8884991943083
 20
-177.9209158011496
 30
0.0
 10
266.037798215896
 20
-178.0038972953906
 30
0.0
 10
266.1355948578294
 20
-178.0625630428959
 30
0.0
 10
266.1844999999997
 20
-178.0919
 30
0.0
 11
227.9812999999999
 21
-156.5371
 31
0.0
 11
227.9300866139394
 21
-156.7946704888768
 31
0.0
 11
227.881844456341
 21
-157.0528117797866
 31
0.0
 11
227.8393703846937
 21
-157.3119778343171
 31
0.0
 11
227.8023834523966
 21
-157.5971718385378
 31
0.0
 11
227.7768250679856
 21
-157.8836435411595
 31
0.0
 11
227.7638630775488
 21
-158.170899145125
 31
0.0
 11
227.7641129696267
 21
-158.4514786596594
 31
0.0
 11
227.7763861419651
 21
-158.7318428090473
 31
0.0
 11
227.7995999999999
 21
-159.0115000000001
 31
0.0
 11
227.8354090536719
 21
-159.3108028498003
 31
0.0
 11
227.8806788081994
 21
-159.6088418118918
 31
0.0
 11
227.9334853340801
 21
-159.9057371477036
 31
0.0
 11
227.991904701812
 21
-160.2016091186651
 31
0.0
 11
228.0824543975339
 21
-160.6250023765728
 31
0.0
 11
228.1790114146357
 21
-161.0469370995161
 31
0.0
 11
228.279973946672
 21
-161.4678175859959
 31
0.0
 11
228.4016340196884
 21
-161.9603900552964
 31
0.0
 11
228.5237380954049
 21
-162.452867556151
 31
0.0
 11
228.5251192966756
 21
-162.4584837185212
 31
0.0
 11
228.5264999999998
 21
-162.4641
 31
0.0
 11
228.5278773537735
 21
-162.469705128739
 31
0.0
 11
228.5292541990258
 21
-162.475310388972
 31
0.0
 11
228.6134710248603
 21
-162.8228951264343
 31
0.0
 11
228.6943568717656
 21
-163.1712722049799
 31
0.0
 11
228.7701499671029
 21
-163.5207859090209
 31
0.0
 11
228.8381106146907
 21
-163.8651342199189
 31
0.0
 11
228.8992211677413
 21
-164.2107764852779
 31
0.0
 11
228.9532324463539
 21
-164.557580541628
 31
0.0
 11
229.0182706679746
 21
-165.054737311072
 31
0.0
 11
229.0716999999999
 21
-165.5533
 31
0.0
 11
229.1168254594107
 21
-166.0535649520313
 31
0.0
 11
229.1561409939996
 21
-166.5543205588863
 31
0.0
 11
229.1920864237737
 21
-167.055344494199
 31
0.0
 11
229.251777852699
 21
-167.9178444733489
 31
0.0
 11
229.3129128434768
 21
-168.780212354977
 31
0.0
 11
229.3704872095638
 21
-169.5294242130473
 31
0.0
 11
229.4350999999999
 21
-170.2780999999999
 31
0.0
 11
229.4777713914973
 21
-170.7170050238661
 31
0.0
 11
229.5265862865206
 21
-171.1552512625573
 31
0.0
 11
229.5843092391792
 21
-171.5924449108815
 31
0.0
 11
229.653704803582
 21
-172.028192163647
 31
0.0
 11
229.7047620978289
 21
-172.3019775282892
 31
0.0
 11
229.762548743013
 21
-172.5744867537455
 31
0.0
 11
229.8280531185651
 21
-172.8451754608013
 31
0.0
 11
229.902263603916
 21
-173.1134992702424
 31
0.0
 11
229.9861685784967
 21
-173.378913802854
 31
0.0
 11
230.0807564217378
 21
-173.640874679422
 31
0.0
 11
230.1825826702184
 21
-173.8887755826006
 31
0.0
 11
230.2956598527011
 21
-174.1318660501193
 31
0.0
 11
230.4204582687696
 21
-174.3690285981065
 31
0.0
 11
230.5574482180078
 21
-174.5991457426907
 31
0.0
 11
230.7070999999997
 21
-174.8211
 31
0.0
 11
230.8740678710054
 21
-175.0393716874992
 31
0.0
 11
231.0538057250484
 21
-175.2476307079536
 31
0.0
 11
231.2452543620325
 21
-175.4456373655943
 31
0.0
 11
231.4473545818617
 21
-175.633151964653
 31
0.0
 11
231.6590471844403
 21
-175.8099348093608
 31
0.0
 11
231.8792729696718
 21
-175.9757462039489
 31
0.0
 11
232.1274481019549
 21
-176.1435273346979
 31
0.0
 11
232.3836316264204
 21
-176.2983428341502
 31
0.0
 11
232.6469826880781
 21
-176.4405011454788
 31
0.0
 11
232.9166604319384
 21
-176.5703107118569
 31
0.0
 11
233.1918240030109
 21
-176.6880799764579
 31
0.0
 11
233.4716325463059
 21
-176.7941173824549
 31
0.0
 11
233.7843199872711
 21
-176.8977301108395
 31
0.0
 11
234.1009821231486
 21
-176.9879725275779
 31
0.0
 11
234.4209772839132
 21
-177.0653368418785
 31
0.0
 11
234.7436637995388
 21
-177.1303152629496
 31
0.0
 11
235.0683999999997
 21
-177.1834
 31
0.0
 11
235.4268523319576
 21
-177.2287082655918
 31
0.0
 11
235.7866527719173
 21
-177.2615810752232
 31
0.0
 11
236.1474499209303
 21
-177.2833448208533
 31
0.0
 11
236.5088923800491
 21
-177.2953258944409
 31
0.0
 11
236.8706287503253
 21
-177.2988506879447
 31
0.0
 11
237.2323076328108
 21
-177.2952455933241
 31
0.0
 11
237.8073931060131
 21
-177.2776361104363
 31
0.0
 11
238.3816287215095
 21
-177.2480547831763
 31
0.0
 11
238.9552009736049
 21
-177.2092391337357
 31
0.0
 11
239.5282963566048
 21
-177.1639266843069
 31
0.0
 11
240.4782858855958
 21
-177.0817800086356
 31
0.0
 11
241.4284999999999
 21
-177.0016
 31
0.0
 11
242.1476462623548
 21
-176.9492526243704
 31
0.0
 11
242.86745935214
 21
-176.9071709088809
 31
0.0
 11
243.5878926725019
 21
-176.8774600854869
 31
0.0
 11
244.0962568235589
 21
-176.8651079115166
 31
0.0
 11
244.6047604131869
 21
-176.860814361883
 31
0.0
 11
245.1132576207688
 21
-176.8654393080836
 31
0.0
 11
245.6216026256869
 21
-176.8798426216159
 31
0.0
 11
246.1632444213693
 21
-176.906940765936
 31
0.0
 11
246.7040195061085
 21
-176.9471783747371
 31
0.0
 11
247.2433999999998
 21
-177.0016
 31
0.0
 11
247.7222555351053
 21
-177.0622130354522
 31
0.0
 11
248.1999677309222
 21
-177.1318136430789
 31
0.0
 11
248.6769178351433
 21
-177.207312604212
 31
0.0
 11
249.1534870954609
 21
-177.2856207001829
 31
0.0
 11
249.6567446105026
 21
-177.3681014832177
 31
0.0
 11
250.1603910277093
 21
-177.4475543536928
 31
0.0
 11
250.664814798963
 21
-177.5212637334601
 31
0.0
 11
251.1704043761449
 21
-177.5865140443721
 31
0.0
 11
251.6411022118465
 21
-177.6374461237796
 31
0.0
 11
252.1128563938041
 21
-177.6783508763845
 31
0.0
 11
252.5853834728957
 21
-177.70883370189
 31
0.0
 11
253.0583999999997
 21
-177.7284999999999
 31
0.0
 11
253.5741301392803
 21
-177.7375460765965
 31
0.0
 11
254.0899772055229
 21
-177.7351304810579
 31
0.0
 11
254.6058134948183
 21
-177.7231051466308
 31
0.0
 11
255.1215113032566
 21
-177.7033220065615
 31
0.0
 11
255.6369429269288
 21
-177.6776329940969
 31
0.0
 11
256.5241679150324
 21
-177.6240194575079
 31
0.0
 11
257.4106693506345
 21
-177.5624942012638
 31
0.0
 11
258.2968928963969
 21
-177.497179177692
 31
0.0
 11
258.9732676325195
 21
-177.447694040781
 31
0.0
 11
259.6499375174968
 21
-177.4023513229657
 31
0.0
 11
260.3270999999999
 21
-177.3651
 31
0.0
 11
260.821980768248
 21
-177.3451854612941
 31
0.0
 11
261.3171195768679
 21
-177.3326627711696
 31
0.0
 11
261.8124065046458
 21
-177.3285033474041
 31
0.0
 11
262.3077316303678
 21
-177.333678607775
 31
0.0
 11
262.6794117826921
 21
-177.3443648591178
 31
0.0
 11
263.0508195575789
 21
-177.3617774715249
 31
0.0
 11
263.4217229780604
 21
-177.3868375582244
 31
0.0
 11
263.7918900671688
 21
-177.4204662324451
 31
0.0
 11
264.0916926681487
 21
-177.4548085865919
 31
0.0
 11
264.3905862395873
 21
-177.496516370732
 31
0.0
 11
264.6883
 21
-177.5467
 31
0.0
 11
264.8725073948277
 21
-177.5828112787084
 31
0.0
 11
265.055631799074
 21
-177.6239041191915
 31
0.0
 11
265.2371503383855
 21
-177.6712585475449
 31
0.0
 11
265.4165401384079
 21
-177.726154589864
 31
0.0
 11
265.5768533004551
 21
-177.7834697014515
 31
0.0
 11
265.7341074128941
 21
-177.8486464704042
 31
0.0
 11
265.8874238754319
 21
-177.9222924282521
 31
0.0
 11
266.037302996861
 21
-178.0046991736954
 31
0.0
 11
266.1844999999997
 21
-178.0919
 31
0.0
  0
LINE
  5
DB7
330
1F
100
AcDbEntity
  8
0
  6
DASH_CENTER
 62
    30
100
AcDbLine
 10
263.7519999999998
 20
-166.5371
 30
0.0
 11
227.8889999999998
 21
-166.5371
 31
0.0
  0
LINE
  5
DB8
330
1F
100
AcDbEntity
  8
0
  6
Continuous
 62
     7
100
AcDbLine
 10
227.9813999999998
 20
-156.5371
 30
0.0
 11
256.1847999999999
 21
-156.5371
 31
0.0
  0
LINE
  5
DB9
330
1F
100
AcDbEntity
  8
0
  6
Continuous
 62
     7
100
AcDbLine
 10
237.1846
 20
-163.0371
 30
0.0
 11
257.1845999999999
 21
-163.0371
 31
0.0
  0
LINE
  5
DBA
330
1F
100
AcDbEntity
  8
0
  6
Continuous
 62
     7
100
AcDbLine
 10
237.1846
 20
-170.0371
 30
0.0
 11
257.1845999999999
 21
-170.0371
 31
0.0
  0
LINE
  5
DEE
330
1F
100
AcDbEntity
  8
0
  6
Continuous
 62
     7
100
AcDbLine
 10
92.94169999999997
 20
-20.3306
 30
0.0
 11
92.94169999999997
 21
-25.13059999999996
 31
0.0
  0
LINE
  5
DEF
330
1F
100
AcDbEntity
  8
0
  6
Continuous
 62
     7
100
AcDbLine
 10
88.84190000000002
 20
-20.3306
 30
0.0
 11
88.84190000000002
 21
-25.13059999999996
 31
0.0
  0
LINE
  5
DF0
330
1F
100
AcDbEntity
  8
0
  6
DASH_CENTER
 62
    30
100
AcDbLine
 10
96.58831575137206
 20
-31.43039999999996
 30
0.0
 11
85.13090659810506
 21
-31.43039999999996
 31
0.0
  0
LINE
  5
DF2
330
1F
100
AcDbEntity
  8
0
  6
DASH_CENTER
 62
    30
100
AcDbLine
 10
90.89189999999996
 20
-26.85337125157207
 30
0.0
 11
90.89189999999996
 21
-37.29797075593001
 31
0.0
  0
CIRCLE
  5
DF3
330
1F
100
AcDbEntity
  8
0
  6
Continuous
 62
     7
100
AcDbCircle
 10
90.89189999999996
 20
-31.43039999999996
 30
0.0
 40
2.15000000000009
  0
ARC
  5
DF4
330
1F
100
AcDbEntity
  8
0
  6
Continuous
 62
     7
100
AcDbCircle
 10
90.89195000000009
 20
-31.43039999999996
 30
0.0
 40
3.299966800211771
100
AcDbArc
 50
168.1508663061888
 51
11.84913369381095
  0
LINE
  5
DF5
330
1F
100
AcDbEntity
  8
0
  6
Continuous
 62
     7
100
AcDbLine
 10
88.84190000000002
 20
-25.13059999999996
 30
0.0
 11
92.94169999999997
 21
-25.13059999999996
 31
0.0
  0
LINE
  5
DF6
330
1F
100
AcDbEntity
  8
0
  6
Continuous
 62
     7
100
AcDbLine
 10
92.94169999999997
 20
-25.13059999999996
 30
0.0
 11
94.12140000000013
 21
-30.75289999999994
 31
0.0
  0
LINE
  5
DF7
330
1F
100
AcDbEntity
  8
0
  6
Continuous
 62
     7
100
AcDbLine
 10
88.84190000000002
 20
-25.13059999999996
 30
0.0
 11
87.66220000000009
 21
-30.75289999999994
 31
0.0
  0
ARC
  5
DF8
330
1F
100
AcDbEntity
  8
0
  6
Continuous
 62
    30
100
AcDbCircle
 10
94.89180000000001
 20
0.4795200505818685
 30
0.0
 40
1.600000000000659
100
AcDbArc
 50
240.000000000015
 51
299.9999999999906
  0
LINE
  5
DF9
330
1F
100
AcDbEntity
  8
0
  6
Continuous
 62
     7
100
AcDbLine
 10
92.49180000000015
 20
-20.3306
 30
0.0
 11
92.94169999999997
 21
-20.3306
 31
0.0
  0
LINE
  5
DFA
330
1F
100
AcDbEntity
  8
0
  6
Continuous
 62
     7
100
AcDbLine
 10
88.84190000000002
 20
-20.3306
 30
0.0
 11
92.49180000000015
 21
-20.3306
 31
0.0
  0
ARC
  5
DFB
330
1F
100
AcDbEntity
  8
0
  6
Continuous
 62
    30
100
AcDbCircle
 10
93.29180000000008
 20
0.4795200505818685
 30
0.0
 40
1.600000000000659
100
AcDbArc
 50
240.000000000015
 51
299.9999999999849
  0
ARC
  5
DFC
330
1F
100
AcDbEntity
  8
0
  6
Continuous
 62
    30
100
AcDbCircle
 10
93.29180000000008
 20
-2.291761241528998
 30
0.0
 40
1.599999999999871
100
AcDbArc
 50
59.99999999999997
 51
120.0
  0
ARC
  5
DFF
330
1F
100
AcDbEntity
  8
0
  6
Continuous
 62
     7
100
AcDbCircle
 10
237.1846
 20
-166.5371
 30
0.0
 40
3.5
100
AcDbArc
 50
90.0
 51
180.0
  0
ARC
  5
E07
330
1F
100
AcDbEntity
  8
0
  6
Continuous
 62
     7
100
AcDbCircle
 10
237.1846
 20
-166.5371
 30
0.0
 40
3.5
100
AcDbArc
 50
180.0
 51
270.0
  0
ARC
  5
E0C
330
1F
100
AcDbEntity
  8
0
  6
Continuous
 62
     7
100
AcDbCircle
 10
191.1845446618059
 20
28.44722545134509
 30
0.0
 40
65.60000865852472
100
AcDbArc
 50
225.197618912317
 51
260.2755079660489
  0
LINE
  5
E0D
330
1F
100
AcDbEntity
  8
0
  6
Continuous
 62
     7
100
AcDbLine
 10
191.1844
 20
-41.55269999999996
 30
0.0
 11
161.1844
 21
-41.55269999999996
 31
0.0
  0
LINE
  5
E0E
330
1F
100
AcDbEntity
  8
0
  6
Continuous
 62
     7
100
AcDbLine
 10
222.6845
 20
-38.35280000000011
 30
0.0
 11
159.6844
 21
-38.35280000000011
 31
0.0
  0
ARC
  5
E1C
330
1F
100
AcDbEntity
  8
0
  6
DASH_CENTER
 62
    30
100
AcDbCircle
 10
191.1840978895463
 20
28.44719992800112
 30
0.0
 40
61.00001394630304
100
AcDbArc
 50
217.1100157090102
 51
233.5120346712173
  0
ARC
  5
E1D
330
1F
100
AcDbEntity
  8
0
  6
Continuous
 62
     7
100
AcDbCircle
 10
137.9119184326804
 20
-25.19429737706436
 30
0.0
 40
10.00001925246419
100
AcDbArc
 50
45.19736838300743
 51
151.0000534501435
  0
LINE
  5
E1E
330
1F
100
AcDbEntity
  8
0
  6
Continuous
 62
     7
100
AcDbLine
 10
158.6844
 20
-39.35280000000011
 30
0.0
 11
116.1844
 21
-39.35280000000011
 31
0.0
  0
LINE
  5
E1F
330
1F
100
AcDbEntity
  8
0
  6
Continuous
 62
     7
100
AcDbLine
 10
116.1844
 20
-42.55269999999995
 30
0.0
 11
154.6922999999999
 21
-42.55269999999995
 31
0.0
  0
LINE
  5
E20
330
1F
100
AcDbEntity
  8
0
  6
DASH_CENTER
 62
    30
100
AcDbLine
 10
153.5497000000001
 20
-9.187699999999946
 30
0.0
 11
141.4541999999999
 21
-21.28340000000003
 31
0.0
  0
LINE
  5
E21
330
1F
100
AcDbEntity
  8
0
  6
Continuous
 62
     7
100
AcDbLine
 10
119.7555000000001
 20
-37.32249999999999
 30
0.0
 11
129.1657
 21
-20.34619999999994
 31
0.0
  0
ARC
  5
E22
330
1F
100
AcDbEntity
  8
0
  6
Continuous
 62
     7
100
AcDbCircle
 10
118.0062628211292
 20
-36.35282190093109
 30
0.0
 40
1.999978099414589
100
AcDbArc
 50
270.0010651078548
 51
331.0009998037562
  0
LINE
  5
E23
330
1F
100
AcDbEntity
  8
0
  6
Continuous
 62
     7
100
AcDbLine
 10
116.1844
 20
-38.35280000000011
 30
0.0
 11
118.0063
 21
-38.35280000000011
 31
0.0
  0
LINE
  5
E24
330
1F
100
AcDbEntity
  8
0
  6
Continuous
 62
     7
100
AcDbLine
 10
116.1844
 20
-38.35280000000011
 30
0.0
 11
116.1844
 21
-42.55269999999995
 31
0.0
  0
LINE
  5
E25
330
1F
100
AcDbEntity
  8
0
  6
DASH_CENTER
 62
    30
100
AcDbLine
 10
135.1844
 20
-33.51269999999999
 30
0.0
 11
135.1844
 21
-45.86959999999999
 31
0.0
  0
LINE
  5
E26
330
1F
100
AcDbEntity
  8
0
  6
Continuous
 62
     7
100
AcDbLine
 10
138.3974000000002
 20
-2.618200000000111
 30
0.0
 11
135.5998999999999
 21
-3.777100000000022
 31
0.0
  0
ARC
  5
E27
330
1F
100
AcDbEntity
  8
0
  6
Continuous
 62
     7
100
AcDbCircle
 10
191.184626385811
 20
28.44728907063389
 30
0.0
 40
61.25001891472532
100
AcDbArc
 50
239.5230220097995
 51
255.4769579951054
  0
ARC
  5
E28
330
1F
100
AcDbEntity
  8
0
  6
Continuous
 62
     7
100
AcDbCircle
 10
162.3404345127861
 20
-35.99168390971572
 30
0.0
 40
5.000010166344646
100
AcDbArc
 50
65.8860771433023
 51
164.1049442872878
  0
ARC
  5
E29
330
1F
100
AcDbEntity
  8
0
  6
Continuous
 62
     7
100
AcDbCircle
 10
191.1848071236155
 20
28.4472142057746
 30
0.0
 40
64.25004432500227
100
AcDbArc
 50
239.8975054994568
 51
255.1021097042537
  0
LINE
  5
E2A
330
1F
100
AcDbEntity
  8
0
  6
Continuous
 62
     7
100
AcDbLine
 10
154.6922999999999
 20
-42.55269999999995
 30
0.0
 11
161.1844
 21
-42.55269999999995
 31
0.0
  0
LINE
  5
E2B
330
1F
100
AcDbEntity
  8
0
  6
Continuous
 62
     7
100
AcDbLine
 10
156.3912
 20
-38.62670000000003
 30
0.0
 11
157.5316
 21
-34.62229999999999
 31
0.0
  0
ARC
  5
E2C
330
1F
100
AcDbEntity
  8
0
  6
Continuous
 62
     7
100
AcDbCircle
 10
155.4295266397616
 20
-38.35277988861427
 30
0.0
 40
1.000020111740667
100
AcDbArc
 50
269.9984736847898
 51
344.1026579948211
  0
ARC
  5
E2D
330
1F
100
AcDbEntity
  8
0
  6
Continuous
 62
     7
100
AcDbCircle
 10
158.6844
 20
-38.85280000000011
 30
0.0
 40
0.5
100
AcDbArc
 50
270.0
 51
0.0
  0
ARC
  5
E2E
330
1F
100
AcDbEntity
  8
0
  6
Continuous
 62
     7
100
AcDbCircle
 10
159.6844
 20
-38.85280000000011
 30
0.0
 40
0.5
100
AcDbArc
 50
90.0
 51
180.0
  0
LINE
  5
E2F
330
1F
100
AcDbEntity
  8
0
  6
Continuous
 62
     7
100
AcDbLine
 10
160.1191
 20
-24.34010000000012
 30
0.0
 11
158.9604
 21
-27.13750000000004
 31
0.0
  0
LINE
  5
E30
330
1F
100
AcDbEntity
  8
0
  6
Continuous
 62
     7
100
AcDbLine
 10
161.1844
 20
-41.55269999999996
 30
0.0
 11
161.1844
 21
-42.55269999999995
 31
0.0
  0
LINE
  5
E31
330
1F
100
AcDbEntity
  8
0
  6
Continuous
 62
     7
100
AcDbLine
 10
175.8250000000001
 20
-30.84550000000013
 30
0.0
 11
174.6663
 21
-33.64309999999999
 31
0.0
  0
CIRCLE
  5
E32
330
1F
100
AcDbEntity
  8
0
  6
Continuous
 62
     7
100
AcDbCircle
 10
148.0512
 20
-14.68630000000007
 30
0.0
 40
3.500040325482105
  0
LINE
  5
E33
330
1F
100
AcDbEntity
  8
0
  6
Continuous
 62
     7
100
AcDbLine
 10
150.9088999999999
 20
-11.82860000000004
 30
0.0
 11
147.0052000000002
 21
-10.78269999999998
 31
0.0
  0
LINE
  5
E34
330
1F
100
AcDbEntity
  8
0
  6
Continuous
 62
     7
100
AcDbLine
 10
147.0052000000002
 20
-10.78269999999998
 30
0.0
 11
144.1392
 21
-13.6382000000001
 31
0.0
  0
CIRCLE
  5
E35
330
1F
100
AcDbEntity
  8
0
  6
Continuous
 62
    30
100
AcDbCircle
 10
148.0512
 20
-14.68630000000007
 30
0.0
 40
1.650008315130688
  0
CIRCLE
  5
E36
330
1F
100
AcDbEntity
  8
0
  6
Continuous
 62
     7
100
AcDbCircle
 10
148.0512
 20
-14.68630000000007
 30
0.0
 40
2.000036842160727
  0
LINE
  5
E37
330
1F
100
AcDbEntity
  8
0
  6
Continuous
 62
     7
100
AcDbLine
 10
151.9632
 20
-15.7346
 30
0.0
 11
150.9088999999999
 21
-11.82860000000004
 31
0.0
  0
LINE
  5
E38
330
1F
100
AcDbEntity
  8
0
  6
Continuous
 62
     7
100
AcDbLine
 10
149.0972
 20
-18.59010000000012
 30
0.0
 11
151.9632
 21
-15.7346
 31
0.0
  0
LINE
  5
E39
330
1F
100
AcDbEntity
  8
0
  6
Continuous
 62
     7
100
AcDbLine
 10
145.1934999999999
 20
-17.54420000000004
 30
0.0
 11
149.0972
 21
-18.59010000000012
 31
0.0
  0
LINE
  5
E3A
330
1F
100
AcDbEntity
  8
0
  6
Continuous
 62
     7
100
AcDbLine
 10
144.1392
 20
-13.6382000000001
 30
0.0
 11
145.1934999999999
 21
-17.54420000000004
 31
0.0
  0
ARC
  5
E45
330
1F
100
AcDbEntity
  8
0
  6
Continuous
 62
     7
100
AcDbCircle
 10
191.184355338194
 20
28.44722545134512
 30
0.0
 40
65.60000865852479
100
AcDbArc
 50
279.724492033951
 51
314.8023810876829
  0
ARC
  5
E46
330
1F
100
AcDbEntity
  8
0
  6
Continuous
 62
     7
100
AcDbCircle
 10
191.1842736141889
 20
28.44728907063387
 30
0.0
 40
61.25001891472529
100
AcDbArc
 50
284.5230420048945
 51
300.4769779902003
  0
ARC
  5
E47
330
1F
100
AcDbEntity
  8
0
  6
Continuous
 62
     7
100
AcDbCircle
 10
191.1840928763847
 20
28.44721420577467
 30
0.0
 40
64.25004432500222
100
AcDbArc
 50
284.8978902957462
 51
300.102494500543
  0
LINE
  5
E48
330
1F
100
AcDbEntity
  8
0
  6
Continuous
 62
     7
100
AcDbLine
 10
191.1845
 20
-41.55269999999996
 30
0.0
 11
221.1845
 21
-41.55269999999996
 31
0.0
  0
ARC
  5
E49
330
1F
100
AcDbEntity
  8
0
  6
Continuous
 62
     7
100
AcDbCircle
 10
184.1845011833343
 20
-22.07009896934301
 30
0.0
 40
2.999998816665943
100
AcDbArc
 50
262.1102633129954
 51
359.9999803158908
  0
ARC
  5
E4A
330
1F
100
AcDbEntity
  8
0
  6
Continuous
 62
     7
100
AcDbCircle
 10
198.1843919541286
 20
-22.07009299202424
 30
0.0
 40
2.999991954136816
100
AcDbArc
 50
180.0001338428392
 51
277.887959055484
  0
ARC
  5
E4B
330
1F
100
AcDbEntity
  8
0
  6
Continuous
 62
     7
100
AcDbCircle
 10
191.1843742494003
 20
28.44728844278288
 30
0.0
 40
65.59998844290352
100
AcDbArc
 50
270.000109832011
 51
280.5020229749946
  0
ARC
  5
E4C
330
1F
100
AcDbEntity
  8
0
  6
Continuous
 62
     7
100
AcDbCircle
 10
191.1844265875604
 20
28.44729755646783
 30
0.0
 40
65.59999755647332
100
AcDbArc
 50
259.4979777571098
 51
269.9999767781247
  0
LINE
  5
E4D
330
1F
100
AcDbEntity
  8
0
  6
Continuous
 62
     7
100
AcDbLine
 10
206.5437999999999
 20
-30.84550000000013
 30
0.0
 11
207.7026
 21
-33.64309999999999
 31
0.0
  0
ARC
  5
E4E
330
1F
100
AcDbEntity
  8
0
  6
Continuous
 62
     7
100
AcDbCircle
 10
178.1845282540886
 20
-13.58863831198821
 30
0.0
 40
2.999971746155932
100
AcDbArc
 50
0.0007317119668952
 51
72.81487509719387
  0
ARC
  5
E4F
330
1F
100
AcDbEntity
  8
0
  6
Continuous
 62
     7
100
AcDbCircle
 10
184.1844937891973
 20
-14.99239270814785
 30
0.0
 40
3.000006210811613
100
AcDbArc
 50
359.999860736169
 51
80.84523809260966
  0
LINE
  5
E50
330
1F
100
AcDbEntity
  8
0
  6
Continuous
 62
     7
100
AcDbLine
 10
187.1845
 20
-3.80179999999996
 30
0.0
 11
187.1845
 21
-14.99240000000009
 31
0.0
  0
ARC
  5
E51
330
1F
100
AcDbEntity
  8
0
  6
Continuous
 62
     7
100
AcDbCircle
 10
178.1844785802396
 20
-16.71921612438489
 30
0.0
 40
3.000021419803761
100
AcDbArc
 50
253.9431570062184
 51
0.0003079508685195
  0
LINE
  5
E52
330
1F
100
AcDbEntity
  8
0
  6
Continuous
 62
     7
100
AcDbLine
 10
181.1845
 20
-13.58860000000003
 30
0.0
 11
181.1845
 21
-16.7192
 31
0.0
  0
LINE
  5
E53
330
1F
100
AcDbEntity
  8
0
  6
Continuous
 62
     7
100
AcDbLine
 10
187.1845
 20
-14.99240000000009
 30
0.0
 11
187.1845
 21
-22.07010000000014
 31
0.0
  0
ARC
  5
E54
330
1F
100
AcDbEntity
  8
0
  6
Continuous
 62
     7
100
AcDbCircle
 10
184.184510845898
 20
-3.801791255934627
 30
0.0
 40
2.999989154114751
100
AcDbArc
 50
257.7523426735134
 51
359.99983300005
  0
ARC
  5
E55
330
1F
100
AcDbEntity
  8
0
  6
Continuous
 62
     7
100
AcDbCircle
 10
178.1845078333625
 20
-1.88429483482847
 30
0.0
 40
2.999992166641825
100
AcDbArc
 50
246.8003077255775
 51
359.9999013522339
  0
ARC
  5
E56
330
1F
100
AcDbEntity
  8
0
  6
Continuous
 62
     7
100
AcDbCircle
 10
204.1843717459113
 20
-13.58863831198825
 30
0.0
 40
2.999971746155911
100
AcDbArc
 50
107.1851249028009
 51
179.9992682880324
  0
ARC
  5
E57
330
1F
100
AcDbEntity
  8
0
  6
Continuous
 62
     7
100
AcDbCircle
 10
198.1844062108027
 20
-14.99239270814785
 30
0.0
 40
3.000006210811634
100
AcDbArc
 50
99.15476190739198
 51
180.0001392638311
  0
LINE
  5
E58
330
1F
100
AcDbEntity
  8
0
  6
Continuous
 62
     7
100
AcDbLine
 10
195.1844
 20
-3.80179999999996
 30
0.0
 11
195.1844
 21
-14.99240000000009
 31
0.0
  0
ARC
  5
E59
330
1F
100
AcDbEntity
  8
0
  6
Continuous
 62
     7
100
AcDbCircle
 10
204.1844214197604
 20
-16.7192161243849
 30
0.0
 40
3.000021419803732
100
AcDbArc
 50
179.9996920491314
 51
286.0568429937815
  0
LINE
  5
E5A
330
1F
100
AcDbEntity
  8
0
  6
Continuous
 62
     7
100
AcDbLine
 10
201.1843999999999
 20
-13.58860000000003
 30
0.0
 11
201.1843999999999
 21
-16.7192
 31
0.0
  0
LINE
  5
E5B
330
1F
100
AcDbEntity
  8
0
  6
Continuous
 62
     7
100
AcDbLine
 10
195.1844
 20
-14.99240000000009
 30
0.0
 11
195.1844
 21
-22.07010000000014
 31
0.0
  0
ARC
  5
E5C
330
1F
100
AcDbEntity
  8
0
  6
Continuous
 62
     7
100
AcDbCircle
 10
204.1843921666374
 20
-1.88429483482848
 30
0.0
 40
2.999992166641857
100
AcDbArc
 50
180.0000986477658
 51
293.1996922744224
  0
ARC
  5
E5D
330
1F
100
AcDbEntity
  8
0
  6
Continuous
 62
     7
100
AcDbCircle
 10
198.1843891541019
 20
-3.801791255934649
 30
0.0
 40
2.999989154114767
100
AcDbArc
 50
180.0001669999497
 51
282.2476573264899
  0
ARC
  5
E5E
330
1F
100
AcDbEntity
  8
0
  6
Continuous
 62
     7
100
AcDbCircle
 10
226.9393370572496
 20
-38.3528279759503
 30
0.0
 40
0.9999720260307711
100
AcDbArc
 50
195.8952618655465
 51
270.0036064548409
  0
LINE
  5
E5F
330
1F
100
AcDbEntity
  8
0
  6
Continuous
 62
     7
100
AcDbLine
 10
227.6766
 20
-42.55269999999995
 30
0.0
 11
221.1845
 21
-42.55269999999995
 31
0.0
  0
LINE
  5
E60
330
1F
100
AcDbEntity
  8
0
  6
Continuous
 62
     7
100
AcDbLine
 10
225.9777
 20
-38.62670000000003
 30
0.0
 11
224.8372999999999
 21
-34.62229999999999
 31
0.0
  0
ARC
  5
E61
330
1F
100
AcDbEntity
  8
0
  6
Continuous
 62
     7
100
AcDbCircle
 10
223.684400005
 20
-38.85280000499912
 30
0.0
 40
0.500000005000004
100
AcDbArc
 50
179.9999994271557
 51
270.0114585829071
  0
ARC
  5
E62
330
1F
100
AcDbEntity
  8
0
  6
Continuous
 62
     7
100
AcDbCircle
 10
222.684399995
 20
-38.85279999499913
 30
0.0
 40
0.500000005000004
100
AcDbArc
 50
359.9999994269285
 51
89.98854027117635
  0
LINE
  5
E63
330
1F
100
AcDbEntity
  8
0
  6
Continuous
 62
     7
100
AcDbLine
 10
221.1845
 20
-41.55269999999996
 30
0.0
 11
221.1845
 21
-42.55269999999995
 31
0.0
  0
ARC
  5
E64
330
1F
100
AcDbEntity
  8
0
  6
Continuous
 62
     7
100
AcDbCircle
 10
220.028465487214
 20
-35.9916839097157
 30
0.0
 40
5.000010166344616
100
AcDbArc
 50
15.89505571271198
 51
114.1139228566977
  0
LINE
  5
E65
330
1F
100
AcDbEntity
  8
0
  6
Continuous
 62
     7
100
AcDbLine
 10
222.2498000000002
 20
-24.34010000000012
 30
0.0
 11
223.4085
 21
-27.13750000000004
 31
0.0
  0
CIRCLE
  5
E66
330
1F
100
AcDbEntity
  8
0
  6
Continuous
 62
     7
100
AcDbCircle
 10
234.3177000000002
 20
-14.68630000000007
 30
0.0
 40
3.500066206516848
  0
ARC
  5
E67
330
1F
100
AcDbEntity
  8
0
  6
DASH_CENTER
 62
    30
100
AcDbCircle
 10
191.1845966541877
 20
28.44699661769113
 30
0.0
 40
60.99997407290393
100
AcDbArc
 50
307.1098125085658
 51
323.5117747998263
  0
LINE
  5
E68
330
1F
100
AcDbEntity
  8
0
  6
Continuous
 62
     7
100
AcDbLine
 10
235.3636999999999
 20
-10.78269999999998
 30
0.0
 11
238.2297
 21
-13.6382000000001
 31
0.0
  0
LINE
  5
E69
330
1F
100
AcDbEntity
  8
0
  6
Continuous
 62
     7
100
AcDbLine
 10
231.4599000000002
 20
-11.82860000000004
 30
0.0
 11
235.3636999999999
 21
-10.78269999999998
 31
0.0
  0
LINE
  5
E6A
330
1F
100
AcDbEntity
  8
0
  6
DASH_CENTER
 62
    30
100
AcDbLine
 10
228.8194
 20
-9.187500000000003
 30
0.0
 11
240.9149
 21
-21.28320000000008
 31
0.0
  0
CIRCLE
  5
E6B
330
1F
100
AcDbEntity
  8
0
  6
Continuous
 62
    30
100
AcDbCircle
 10
234.318
 20
-14.68600000000015
 30
0.0
 40
1.650008315130696
  0
CIRCLE
  5
E6C
330
1F
100
AcDbEntity
  8
0
  6
Continuous
 62
     7
100
AcDbCircle
 10
234.318
 20
-14.68600000000015
 30
0.0
 40
2.000036842160683
  0
LINE
  5
E6D
330
1F
100
AcDbEntity
  8
0
  6
Continuous
 62
     7
100
AcDbLine
 10
237.1754
 20
-17.54420000000004
 30
0.0
 11
233.2717
 21
-18.59010000000012
 31
0.0
  0
LINE
  5
E6E
330
1F
100
AcDbEntity
  8
0
  6
Continuous
 62
     7
100
AcDbLine
 10
233.2717
 20
-18.59010000000012
 30
0.0
 11
230.4057
 21
-15.7346
 31
0.0
  0
LINE
  5
E6F
330
1F
100
AcDbEntity
  8
0
  6
Continuous
 62
     7
100
AcDbLine
 10
230.4057
 20
-15.7346
 30
0.0
 11
231.4599000000002
 21
-11.82860000000004
 31
0.0
  0
LINE
  5
E70
330
1F
100
AcDbEntity
  8
0
  6
Continuous
 62
     7
100
AcDbLine
 10
238.2297
 20
-13.6382000000001
 30
0.0
 11
237.1754
 21
-17.54420000000004
 31
0.0
  0
ARC
  5
E81
330
1F
100
AcDbEntity
  8
0
  6
Continuous
 62
     7
100
AcDbCircle
 10
257.1845999999999
 20
-166.5371
 30
0.0
 40
3.5
100
AcDbArc
 50
0.0
 51
90.0
  0
ARC
  5
E82
330
1F
100
AcDbEntity
  8
0
  6
Continuous
 62
     7
100
AcDbCircle
 10
256.184599999
 20
-166.537399999
 30
0.0
 40
10.00000000099999
100
AcDbArc
 50
359.9999999942701
 51
89.99885407868044
  0
LINE
  5
E83
330
1F
100
AcDbEntity
  8
0
  6
DASH_CENTER
 62
    30
100
AcDbLine
 10
247.1845999999999
 20
-158.9401999999999
 30
0.0
 11
247.1845999999999
 21
-174.5626999999999
 31
0.0
  0
ARC
  5
E84
330
1F
100
AcDbEntity
  8
0
  6
Continuous
 62
     7
100
AcDbCircle
 10
257.1845999999999
 20
-166.5371
 30
0.0
 40
3.5
100
AcDbArc
 50
270.0
 51
0.0
  0
LINE
  5
E85
330
1F
100
AcDbEntity
  8
0
  6
Continuous
 62
     7
100
AcDbLine
 10
266.1846
 20
-166.5374000000001
 30
0.0
 11
266.1846
 21
-178.092
 31
0.0
  0
LINE
  5
E95
330
1F
100
AcDbEntity
  8
0
  6
Continuous
 62
     7
100
AcDbLine
 10
262.6131
 20
-37.32249999999999
 30
0.0
 11
253.2032
 21
-20.34619999999994
 31
0.0
  0
LINE
  5
E96
330
1F
100
AcDbEntity
  8
0
  6
DASH_CENTER
 62
    30
100
AcDbLine
 10
247.1845
 20
-33.51269999999999
 30
0.0
 11
247.1845
 21
-45.86959999999999
 31
0.0
  0
ARC
  5
E97
330
1F
100
AcDbEntity
  8
0
  6
Continuous
 62
     7
100
AcDbCircle
 10
264.3624371788709
 20
-36.35282190093112
 30
0.0
 40
1.999978099414551
100
AcDbArc
 50
208.9990001962437
 51
269.9989348921451
  0
LINE
  5
E98
330
1F
100
AcDbEntity
  8
0
  6
Continuous
 62
     7
100
AcDbLine
 10
266.1843999999999
 20
-38.35280000000011
 30
0.0
 11
264.3624
 21
-38.35280000000011
 31
0.0
  0
LINE
  5
E99
330
1F
100
AcDbEntity
  8
0
  6
Continuous
 62
     7
100
AcDbLine
 10
266.1843999999999
 20
-38.35280000000011
 30
0.0
 11
266.1843999999999
 21
-42.55269999999995
 31
0.0
  0
LINE
  5
E9A
330
1F
100
AcDbEntity
  8
0
  6
Continuous
 62
     7
100
AcDbLine
 10
243.9713999999999
 20
-2.618200000000111
 30
0.0
 11
246.7689
 21
-3.777100000000022
 31
0.0
  0
ARC
  5
EAB
330
1F
100
AcDbEntity
  8
0
  6
Continuous
 62
     7
100
AcDbCircle
 10
191.1845
 20
28.44730000000003
 30
0.0
 40
65.60000000000008
100
AcDbArc
 50
0.0
 51
90.0
  0
ARC
  5
EAC
330
1F
100
AcDbEntity
  8
0
  6
Continuous
 62
     7
100
AcDbCircle
 10
241.7017929920243
 20
35.44729195412864
 30
0.0
 40
2.999991954136794
100
AcDbArc
 50
270.0001338428396
 51
7.88795905548137
  0
ARC
  5
EAD
330
1F
100
AcDbEntity
  8
0
  6
Continuous
 62
     7
100
AcDbCircle
 10
241.7016989693429
 20
21.44730118333418
 30
0.0
 40
2.999998816666036
100
AcDbArc
 50
352.1102633129945
 51
89.99998031589333
  0
ARC
  5
EAE
330
1F
100
AcDbEntity
  8
0
  6
Continuous
 62
     7
100
AcDbCircle
 10
191.1842893775059
 20
28.44731062258725
 30
0.0
 40
49.99993793640922
100
AcDbArc
 50
16.05691726075668
 51
73.94258043035558
  0
ARC
  5
EAF
330
1F
100
AcDbEntity
  8
0
  6
Continuous
 62
     7
100
AcDbCircle
 10
191.1844544074961
 20
28.44734559234264
 30
0.0
 40
66.59995347799311
100
AcDbArc
 50
27.52446149323505
 51
62.47574107808834
  0
LINE
  5
EB0
330
1F
100
AcDbEntity
  8
0
  6
DASH_CENTER
 62
    30
100
AcDbLine
 10
266.9020000000002
 20
28.44730000000003
 30
0.0
 11
113.7093000000001
 21
28.44730000000003
 31
0.0
  0
ARC
  5
EB3
330
1F
100
AcDbEntity
  8
0
  6
Continuous
 62
     7
100
AcDbCircle
 10
123.9357
 20
81.40889999999989
 30
0.0
 40
18.9999629644381
100
AcDbArc
 50
90.0
 51
180.0
  0
LINE
  5
EB4
330
1F
100
AcDbEntity
  8
0
  6
Continuous
 62
     7
100
AcDbLine
 10
110.936
 20
67.55219999999986
 30
0.0
 11
128.8165999999999
 21
52.17329999999993
 31
0.0
  0
LINE
  5
EB5
330
1F
100
AcDbEntity
  8
0
  6
Continuous
 62
     7
100
AcDbLine
 10
101.6918000000002
 20
25.24710000000005
 30
0.0
 11
123.0845
 21
25.24710000000005
 31
0.0
  0
LINE
  5
EB6
330
1F
100
AcDbEntity
  8
0
  6
Continuous
 62
     7
100
AcDbLine
 10
123.0845
 20
28.44699999999988
 30
0.0
 11
101.6918000000002
 21
28.44699999999988
 31
0.0
  0
LINE
  5
EB7
330
1F
100
AcDbEntity
  8
0
  6
Continuous
 62
     7
100
AcDbLine
 10
123.0845
 20
31.64719999999988
 30
0.0
 11
101.6918000000002
 21
31.64719999999988
 31
0.0
  0
ARC
  5
EC1
330
1F
100
AcDbEntity
  8
0
  6
Continuous
 62
     7
100
AcDbCircle
 10
-1.113799999999997
 20
28.4473
 30
0.0
 40
7.0
100
AcDbArc
 50
179.9999999999996
 51
0.0
  0
LINE
  5
EC2
330
1F
100
AcDbEntity
  8
0
  6
DASH_CENTER
 62
    30
100
AcDbLine
 10
-1.113799999999997
 20
39.82719999999995
 30
0.0
 11
-1.113799999999997
 21
16.27469999999993
 31
0.0
  0
ARC
  5
EC7
330
1F
100
AcDbEntity
  8
0
  6
Continuous
 62
     7
100
AcDbCircle
 10
-1.113799999999997
 20
28.4473
 30
0.0
 40
7.000000000000042
100
AcDbArc
 50
90.0
 51
179.9999999999996
  0
LINE
  5
EC8
330
1F
100
AcDbEntity
  8
0
  6
DASH_CENTER
 62
    30
100
AcDbLine
 10
-13.23249999999998
 20
28.44730000000003
 30
0.0
 11
11.30129999999994
 21
28.44730000000003
 31
0.0
  0
LINE
  5
EC9
330
1F
100
AcDbEntity
  8
0
  6
Continuous
 62
     7
100
AcDbLine
 10
-4.719300000000004
 20
34.44729999999999
 30
0.0
 11
2.491800000000012
 21
34.44729999999999
 31
0.0
  0
ARC
  5
ECA
330
1F
100
AcDbEntity
  8
0
  6
Continuous
 62
     7
100
AcDbCircle
 10
-1.113799999999997
 20
28.4473
 30
0.0
 40
7.0
100
AcDbArc
 50
0.0
 51
90.0
  0
ARC
  5
ED2
330
1F
100
AcDbEntity
  8
0
  6
Continuous
 62
     7
100
AcDbCircle
 10
101.6918000000002
 20
19.24710000000004
 30
0.0
 40
6.0
100
AcDbArc
 50
90.0
 51
180.0
  0
ARC
  5
ED3
330
1F
100
AcDbEntity
  8
0
  6
Continuous
 62
     7
100
AcDbCircle
 10
101.6918000000002
 20
19.24710000000004
 30
0.0
 40
12.39999999999986
100
AcDbArc
 50
90.0
 51
180.0
  0
ARC
  5
ED4
330
1F
100
AcDbEntity
  8
0
  6
Continuous
 62
     7
100
AcDbCircle
 10
101.6918000000002
 20
19.24710000000004
 30
0.0
 40
9.199999999999812
100
AcDbArc
 50
90.0
 51
180.0
  0
ARC
  5
ED6
330
1F
100
AcDbEntity
  8
0
  6
Continuous
 62
     7
100
AcDbCircle
 10
123.9357
 20
81.40889999999989
 30
0.0
 40
18.999962964438
100
AcDbArc
 50
180.0
 51
226.8300654821909
  0
ARC
  5
EDA
330
1F
100
AcDbEntity
  8
0
  6
Continuous
 62
     7
100
AcDbCircle
 10
191.1844201919208
 20
28.44732019193319
 30
0.0
 40
65.59997980806986
100
AcDbArc
 50
90.00001763585633
 51
180.0000176358675
  0
LINE
  5
EDB
330
1F
100
AcDbEntity
  8
0
  6
Continuous
 62
     7
100
AcDbLine
 10
135.6912000000001
 20
96.33569999999986
 30
0.0
 11
153.5009
 21
83.51639999999997
 31
0.0
  0
ARC
  5
EDC
330
1F
100
AcDbEntity
  8
0
  6
Continuous
 62
     7
100
AcDbCircle
 10
191.1846199075491
 20
28.44731962247779
 30
0.0
 40
40.99997511278782
100
AcDbArc
 50
98.32756706373475
 51
170.8460690391216
  0
ARC
  5
EDD
330
1F
100
AcDbEntity
  8
0
  6
Continuous
 62
     7
100
AcDbCircle
 10
191.1845777243287
 20
28.44727772416692
 30
0.0
 40
36.00000748873542
100
AcDbArc
 50
102.2470358064304
 51
167.7533802199664
  0
ARC
  5
EDE
330
1F
100
AcDbEntity
  8
0
  6
Continuous
 62
     7
100
AcDbCircle
 10
191.1845956922982
 20
28.44729572455404
 30
0.0
 40
26.99995999580303
100
AcDbArc
 50
103.0625704039709
 51
166.5067897084631
  0
ARC
  5
EDF
330
1F
100
AcDbEntity
  8
0
  6
Continuous
 62
     7
100
AcDbCircle
 10
191.1846106224942
 20
28.44731062258718
 30
0.0
 40
49.99993793640928
100
AcDbArc
 50
106.0574195696444
 51
163.9430827392431
  0
ARC
  5
EE0
330
1F
100
AcDbEntity
  8
0
  6
Continuous
 62
     7
100
AcDbCircle
 10
191.1846000000002
 20
28.44730000000003
 30
0.0
 40
17.25000000115942
100
AcDbArc
 50
90.00066429889315
 51
269.9993357011068
  0
ARC
  5
EE1
330
1F
100
AcDbEntity
  8
0
  6
Continuous
 62
     7
100
AcDbCircle
 10
191.184604436467
 20
28.44727212242011
 30
0.0
 40
19.54997212348914
100
AcDbArc
 50
108.0851665081529
 51
269.9994008509742
  0
ARC
  5
EE2
330
1F
100
AcDbEntity
  8
0
  6
Continuous
 62
     7
100
AcDbCircle
 10
191.1845814369718
 20
28.44725518490753
 30
0.0
 40
64.2499709288079
100
AcDbArc
 50
149.8977379381172
 51
165.102242066787
  0
ARC
  5
EE3
330
1F
100
AcDbEntity
  8
0
  6
Continuous
 62
     7
100
AcDbCircle
 10
191.1846236460641
 20
28.44735708698367
 30
0.0
 40
61.25000637629515
100
AcDbArc
 50
149.523105709333
 51
165.4771322497685
  0
ARC
  5
EE4
330
1F
100
AcDbEntity
  8
0
  6
Continuous
 62
     7
100
AcDbCircle
 10
146.0181734659119
 20
15.44726474976443
 30
0.0
 40
3.000035251135142
100
AcDbArc
 50
90.00140307907591
 51
196.0584794773891
  0
ARC
  5
EE5
330
1F
100
AcDbEntity
  8
0
  6
Continuous
 62
     7
100
AcDbCircle
 10
146.0179942856398
 20
41.44730759080327
 30
0.0
 40
3.000007590808666
100
AcDbArc
 50
163.94479353447
 51
270.0001091359668
  0
LINE
  5
EE6
330
1F
100
AcDbEntity
  8
0
  6
Continuous
 62
     7
100
AcDbLine
 10
158.9355000000001
 20
24.44730000000003
 30
0.0
 11
140.6672
 21
24.44730000000003
 31
0.0
  0
LINE
  5
EE7
330
1F
100
AcDbEntity
  8
0
  6
Continuous
 62
     7
100
AcDbLine
 10
147.7448
 20
32.44730000000004
 30
0.0
 11
140.6671
 21
32.44730000000004
 31
0.0
  0
ARC
  5
EE8
330
1F
100
AcDbEntity
  8
0
  6
Continuous
 62
     7
100
AcDbCircle
 10
140.6672010306571
 20
21.44730118333423
 30
0.0
 40
2.999998816665984
100
AcDbArc
 50
90.00001968410831
 51
187.8897366870069
  0
ARC
  5
EE9
330
1F
100
AcDbEntity
  8
0
  6
Continuous
 62
     7
100
AcDbCircle
 10
191.1843999987808
 20
28.4470140121673
 30
0.0
 40
68.09996896594893
100
AcDbArc
 50
170.082816094195
 51
189.9166953757707
  0
ARC
  5
EEA
330
1F
100
AcDbEntity
  8
0
  6
Continuous
 62
     7
100
AcDbCircle
 10
126.0720200445643
 20
17.0634863704392
 30
0.0
 40
2.000010962323118
100
AcDbArc
 50
189.9182133564103
 51
281.6532869202965
  0
LINE
  5
EEB
330
1F
100
AcDbEntity
  8
0
  6
Continuous
 62
     7
100
AcDbLine
 10
126.936
 20
15.19949999999994
 30
0.0
 11
126.4758999999999
 21
15.10469999999987
 31
0.0
  0
LINE
  5
EEC
330
1F
100
AcDbEntity
  8
0
  6
Continuous
 62
     7
100
AcDbLine
 10
131.8917999999999
 20
13.08759999999984
 30
0.0
 11
129.0944
 21
11.92899999999986
 31
0.0
  0
ARC
  5
EED
330
1F
100
AcDbEntity
  8
0
  6
Continuous
 62
     7
100
AcDbCircle
 10
126.0720084093995
 20
39.83080571832078
 30
0.0
 40
2.000000863723898
100
AcDbArc
 50
78.34923814445099
 51
170.0815059783192
  0
LINE
  5
EEE
330
1F
100
AcDbEntity
  8
0
  6
Continuous
 62
     7
100
AcDbLine
 10
126.4758999999999
 20
41.78959999999984
 30
0.0
 11
126.936
 21
41.69479999999999
 31
0.0
  0
ARC
  5
EEF
330
1F
100
AcDbEntity
  8
0
  6
Continuous
 62
     7
100
AcDbCircle
 10
140.6671070079759
 20
35.44729195412864
 30
0.0
 40
2.999991954136788
100
AcDbArc
 50
172.1120409445186
 51
269.9998661571603
  0
LINE
  5
EF0
330
1F
100
AcDbEntity
  8
0
  6
Continuous
 62
     7
100
AcDbLine
 10
131.8918999999999
 20
43.80690000000003
 30
0.0
 11
129.0943
 21
44.96559999999998
 31
0.0
  0
ARC
  5
EF1
330
1F
100
AcDbEntity
  8
0
  6
Continuous
 62
     7
100
AcDbCircle
 10
147.7448072918523
 20
21.4472937891973
 30
0.0
 40
3.000006210811613
100
AcDbArc
 50
9.154761907390655
 51
90.00013926383038
  0
ARC
  5
EF2
330
1F
100
AcDbEntity
  8
0
  6
Continuous
 62
     7
100
AcDbCircle
 10
158.9354693502
 20
21.44726198412818
 30
0.0
 40
3.000038016028425
100
AcDbArc
 50
89.99941463935476
 51
192.2464998420367
  0
ARC
  5
EF3
330
1F
100
AcDbEntity
  8
0
  6
Continuous
 62
     7
100
AcDbCircle
 10
162.0125059020214
 20
21.44729534668564
 30
0.0
 40
3.000004653320186
100
AcDbArc
 50
13.49346889056985
 51
90.00011272012647
  0
ARC
  5
EF4
330
1F
100
AcDbEntity
  8
0
  6
Continuous
 62
     7
100
AcDbCircle
 10
169.7484881311861
 20
21.44730861007162
 30
0.0
 40
2.999991389951897
100
AcDbArc
 50
18.08321870344856
 51
89.99977332170134
  0
ARC
  5
EF5
330
1F
100
AcDbEntity
  8
0
  6
Continuous
 62
     7
100
AcDbCircle
 10
160.853092177224
 20
15.44728813590059
 30
0.0
 40
3.000011864109649
100
AcDbArc
 50
89.99985059657024
 51
203.2011996345378
  0
ARC
  5
EF6
330
1F
100
AcDbEntity
  8
0
  6
Continuous
 62
     7
100
AcDbCircle
 10
149.1488064284343
 20
15.44729525897375
 30
0.0
 40
3.000004742485563
100
AcDbArc
 50
17.18359051555804
 51
89.99821291755806
  0
LINE
  5
EF7
330
1F
100
AcDbEntity
  8
0
  6
Continuous
 62
     7
100
AcDbLine
 10
149.1489
 20
18.44730000000003
 30
0.0
 11
146.0182
 21
18.44730000000003
 31
0.0
  0
ARC
  5
EF8
330
1F
100
AcDbEntity
  8
0
  6
Continuous
 62
     7
100
AcDbCircle
 10
164.1474991637082
 20
15.4473005258337
 30
0.0
 40
2.999999474166431
100
AcDbArc
 50
25.67928230493908
 51
89.99998402799654
  0
LINE
  5
EF9
330
1F
100
AcDbEntity
  8
0
  6
Continuous
 62
     7
100
AcDbLine
 10
164.1475000000001
 20
18.44730000000003
 30
0.0
 11
160.8531000000001
 21
18.44730000000003
 31
0.0
  0
ARC
  5
EFA
330
1F
100
AcDbEntity
  8
0
  6
Continuous
 62
     7
100
AcDbCircle
 10
160.8528878480806
 20
41.44731842817092
 30
0.0
 40
3.000018428195508
100
AcDbArc
 50
156.8031462090415
 51
270.0002320831385
  0
LINE
  5
EFB
330
1F
100
AcDbEntity
  8
0
  6
Continuous
 62
     7
100
AcDbLine
 10
169.7485
 20
24.44730000000003
 30
0.0
 11
158.9355000000001
 21
24.44730000000003
 31
0.0
  0
LINE
  5
EFC
330
1F
100
AcDbEntity
  8
0
  6
Continuous
 62
     7
100
AcDbLine
 10
169.7483
 20
32.44730000000004
 30
0.0
 11
158.9353999999999
 21
32.44730000000004
 31
0.0
  0
ARC
  5
EFD
330
1F
100
AcDbEntity
  8
0
  6
Continuous
 62
     7
100
AcDbCircle
 10
158.9353779000991
 20
35.44732741042007
 30
0.0
 40
3.000027410501434
100
AcDbArc
 50
167.7552032380434
 51
270.0004220731589
  0
ARC
  5
EFE
330
1F
100
AcDbEntity
  8
0
  6
Continuous
 62
     7
100
AcDbCircle
 10
147.7448072918523
 20
35.44730621080278
 30
0.0
 40
3.000006210811606
100
AcDbArc
 50
269.9998607361696
 51
350.8452380926091
  0
LINE
  5
EFF
330
1F
100
AcDbEntity
  8
0
  6
Continuous
 62
     7
100
AcDbLine
 10
158.9353999999999
 20
32.44730000000004
 30
0.0
 11
147.7449
 21
32.44730000000004
 31
0.0
  0
ARC
  5
F00
330
1F
100
AcDbEntity
  8
0
  6
Continuous
 62
     7
100
AcDbCircle
 10
149.1486616880119
 20
41.44697174591115
 30
0.0
 40
2.999971746155912
100
AcDbArc
 50
270.000731711967
 51
342.8148750971992
  0
LINE
  5
F01
330
1F
100
AcDbEntity
  8
0
  6
Continuous
 62
     7
100
AcDbLine
 10
149.1487000000001
 20
38.44730000000004
 30
0.0
 11
146.018
 21
38.44730000000004
 31
0.0
  0
ARC
  5
F02
330
1F
100
AcDbEntity
  8
0
  6
Continuous
 62
     7
100
AcDbCircle
 10
162.0125059020214
 20
35.44730465331445
 30
0.0
 40
3.000004653320218
100
AcDbArc
 50
269.9998872798719
 51
346.506531109425
  0
ARC
  5
F03
330
1F
100
AcDbEntity
  8
0
  6
Continuous
 62
     7
100
AcDbCircle
 10
169.7484095255919
 20
35.44730690963635
 30
0.0
 40
3.00000691163561
100
AcDbArc
 50
269.9979082200985
 51
341.9145571828764
  0
ARC
  5
F04
330
1F
100
AcDbEntity
  8
0
  6
Continuous
 62
     7
100
AcDbCircle
 10
164.147299163708
 20
41.44729947416641
 30
0.0
 40
2.99999947416649
100
AcDbArc
 50
270.0000159720034
 51
334.3207176950564
  0
LINE
  5
F05
330
1F
100
AcDbEntity
  8
0
  6
Continuous
 62
     7
100
AcDbLine
 10
164.1472999999999
 20
38.44730000000004
 30
0.0
 11
160.8529
 21
38.44730000000004
 31
0.0
  0
ARC
  5
F06
330
1F
100
AcDbEntity
  8
0
  6
Continuous
 62
     7
100
AcDbCircle
 10
191.1843836306193
 20
28.4472792149158
 30
0.0
 40
66.39992349117794
100
AcDbArc
 50
123.7947015750232
 51
159.7605999045666
  0
ARC
  5
F07
330
1F
100
AcDbEntity
  8
0
  6
DASH_CENTER
 62
    30
100
AcDbCircle
 10
191.1840546180708
 20
28.44715303344246
 30
0.0
 40
60.99994390536148
100
AcDbArc
 50
127.1095409942076
 51
143.5115781911296
  0
LINE
  5
F08
330
1F
100
AcDbEntity
  8
0
  6
DASH_CENTER
 62
    30
100
AcDbLine
 10
153.5495
 20
66.08179999999993
 30
0.0
 11
141.4540000000001
 21
78.17750000000002
 31
0.0
  0
LINE
  5
F09
330
1F
100
AcDbEntity
  8
0
  6
Continuous
 62
     7
100
AcDbLine
 10
135.6891000000002
 20
69.50219999999989
 30
0.0
 11
138.2633
 21
72.77319999999986
 31
0.0
  0
LINE
  5
F0A
330
1F
100
AcDbEntity
  8
0
  6
DASH_CENTER
 62
    30
100
AcDbLine
 10
135.0328
 20
72.66939999999999
 30
0.0
 11
141.3287
 21
67.71119999999996
 31
0.0
  0
ARC
  5
F0B
330
1F
100
AcDbEntity
  8
0
  6
Continuous
 62
     7
100
AcDbCircle
 10
128.4905094686257
 20
51.79416324101511
 30
0.0
 40
0.5000145083486375
100
AcDbArc
 50
339.5789509711092
 51
49.31029692825682
  0
ARC
  5
F0C
330
1F
100
AcDbEntity
  8
0
  6
Continuous
 62
     7
100
AcDbCircle
 10
191.1832395716066
 20
28.44416885743253
 30
0.0
 40
66.39998538719218
100
AcDbArc
 50
159.5718701206905
 51
159.7578510272517
  0
LINE
  5
F0D
330
1F
100
AcDbEntity
  8
0
  6
Continuous
 62
     7
100
AcDbLine
 10
129.5454000000001
 20
50.89699999999993
 30
0.0
 11
128.8843
 21
51.41769999999997
 31
0.0
  0
LINE
  5
F0E
330
1F
100
AcDbEntity
  8
0
  6
Continuous
 62
     7
100
AcDbLine
 10
136.8551000000001
 20
66.77929999999992
 30
0.0
 11
135.8208
 21
67.75019999999995
 31
0.0
  0
LINE
  5
F0F
330
1F
100
AcDbEntity
  8
0
  6
Continuous
 62
     7
100
AcDbLine
 10
138.3974000000002
 20
59.5127
 30
0.0
 11
135.5999999999999
 21
60.67139999999996
 31
0.0
  0
ARC
  5
F10
330
1F
100
AcDbEntity
  8
0
  6
Continuous
 62
     7
100
AcDbCircle
 10
136.7107988473946
 20
68.69801532869068
 30
0.0
 40
1.299959526202232
100
AcDbArc
 50
141.8011897464369
 51
226.7990739594172
  0
ARC
  5
F11
330
1F
100
AcDbEntity
  8
0
  6
Continuous
 62
     7
100
AcDbCircle
 10
139.2849678402577
 20
71.96919473466319
 30
0.0
 40
1.300009738016506
100
AcDbArc
 50
56.80028247380393
 51
141.7961677753007
  0
LINE
  5
F12
330
1F
100
AcDbEntity
  8
0
  6
Continuous
 62
     7
100
AcDbLine
 10
141.184
 20
72.28029999999991
 30
0.0
 11
139.9966999999999
 21
73.05690000000004
 31
0.0
  0
CIRCLE
  5
F13
330
1F
100
AcDbEntity
  8
0
  6
Continuous
 62
     7
100
AcDbCircle
 10
148.0510999999999
 20
71.5806
 30
0.0
 40
3.499969614153751
  0
CIRCLE
  5
F14
330
1F
100
AcDbEntity
  8
0
  6
Continuous
 62
     7
100
AcDbCircle
 10
148.0509
 20
71.58029999999985
 30
0.0
 40
2.00003684216065
  0
LINE
  5
F15
330
1F
100
AcDbEntity
  8
0
  6
Continuous
 62
     7
100
AcDbLine
 10
147.005
 20
67.67679999999995
 30
0.0
 11
144.139
 21
70.53250000000002
 31
0.0
  0
LINE
  5
F16
330
1F
100
AcDbEntity
  8
0
  6
Continuous
 62
     7
100
AcDbLine
 10
151.9630000000001
 20
72.62889999999993
 30
0.0
 11
150.9088
 21
68.72289999999998
 31
0.0
  0
LINE
  5
F17
330
1F
100
AcDbEntity
  8
0
  6
Continuous
 62
     7
100
AcDbLine
 10
150.9088
 20
68.72289999999998
 30
0.0
 11
147.005
 21
67.67679999999995
 31
0.0
  0
ARC
  5
F18
330
1F
100
AcDbEntity
  8
0
  6
Continuous
 62
     7
100
AcDbCircle
 10
191.1844222023379
 20
28.44722635422953
 30
0.0
 40
61.24995278008765
100
AcDbArc
 50
104.522860724567
 51
120.4769013163317
  0
ARC
  5
F19
330
1F
100
AcDbEntity
  8
0
  6
Continuous
 62
     7
100
AcDbCircle
 10
191.1848615390779
 20
28.44740833475183
 30
0.0
 40
64.24996560364721
100
AcDbArc
 50
104.8980514639106
 51
120.1025912893807
  0
CIRCLE
  5
F1A
330
1F
100
AcDbEntity
  8
0
  6
Continuous
 62
    30
100
AcDbCircle
 10
148.0509
 20
71.58029999999985
 30
0.0
 40
1.650008315130637
  0
LINE
  5
F1B
330
1F
100
AcDbEntity
  8
0
  6
Continuous
 62
     7
100
AcDbLine
 10
144.139
 20
70.53250000000002
 30
0.0
 11
145.1932999999999
 21
74.43820000000005
 31
0.0
  0
LINE
  5
F1C
330
1F
100
AcDbEntity
  8
0
  6
Continuous
 62
     7
100
AcDbLine
 10
145.1932999999999
 20
74.43820000000005
 30
0.0
 11
149.0971
 21
75.48440000000005
 31
0.0
  0
LINE
  5
F1D
330
1F
100
AcDbEntity
  8
0
  6
Continuous
 62
     7
100
AcDbLine
 10
149.0971
 20
75.48440000000005
 30
0.0
 11
151.9630000000001
 21
72.62889999999993
 31
0.0
  0
ARC
  5
F1E
330
1F
100
AcDbEntity
  8
0
  6
Continuous
 62
     7
100
AcDbCircle
 10
191.1785725422036
 20
28.44338681325637
 30
0.0
 40
66.39992634866159
100
AcDbArc
 50
123.7886663122047
 51
123.9747166721667
  0
ARC
  5
F1F
330
1F
100
AcDbEntity
  8
0
  6
Continuous
 62
     7
100
AcDbCircle
 10
153.7929662984545
 20
83.92240051893885
 30
0.0
 40
0.4999767833249561
100
AcDbArc
 50
234.2563496608584
 51
303.9793003253774
  0
LINE
  5
F20
330
1F
100
AcDbEntity
  8
0
  6
Continuous
 62
     7
100
AcDbLine
 10
154.9127
 20
83.10719999999992
 30
0.0
 11
154.2514999999999
 21
83.62789999999995
 31
0.0
  0
LINE
  5
F21
330
1F
100
AcDbEntity
  8
0
  6
Continuous
 62
     7
100
AcDbLine
 10
160.1191
 20
81.23440000000005
 30
0.0
 11
158.9604
 21
84.03199999999994
 31
0.0
  0
LINE
  5
F22
330
1F
100
AcDbEntity
  8
0
  6
Continuous
 62
     7
100
AcDbLine
 10
175.8251
 20
87.74000000000002
 30
0.0
 11
174.6663
 21
90.53739999999992
 31
0.0
  0
ARC
  5
F23
330
1F
100
AcDbEntity
  8
0
  6
Continuous
 62
     7
100
AcDbCircle
 10
191.1842955635331
 20
28.44727212242011
 30
0.0
 40
19.54997212348915
100
AcDbArc
 50
270.0005991490241
 51
71.91483349184702
  0
ARC
  5
F24
330
1F
100
AcDbEntity
  8
0
  6
Continuous
 62
     7
100
AcDbCircle
 10
191.1843043077019
 20
28.44729572455417
 30
0.0
 40
26.99995999580294
100
AcDbArc
 50
13.49321029153657
 51
76.93742959602904
  0
ARC
  5
F25
330
1F
100
AcDbEntity
  8
0
  6
Continuous
 62
     7
100
AcDbCircle
 10
191.1843084139303
 20
28.44729158597811
 30
0.0
 40
35.99999688284512
100
AcDbArc
 50
12.24643800743606
 51
77.75293795410128
  0
ARC
  5
F26
330
1F
100
AcDbEntity
  8
0
  6
Continuous
 62
     7
100
AcDbCircle
 10
191.1842888124029
 20
28.44731102736153
 30
0.0
 40
40.99996787126486
100
AcDbArc
 50
9.153944757834915
 51
81.67258500564916
  0
ARC
  5
F27
330
1F
100
AcDbEntity
  8
0
  6
Continuous
 62
     7
100
AcDbCircle
 10
212.6204904731556
 20
35.44730691078729
 30
0.0
 40
3.000006910802372
100
AcDbArc
 50
198.0854428454442
 51
270.0001819489073
  0
ARC
  5
F28
330
1F
100
AcDbEntity
  8
0
  6
Continuous
 62
     7
100
AcDbCircle
 10
212.6203904731556
 20
21.44729308921283
 30
0.0
 40
3.00000691080233
100
AcDbArc
 50
89.99981805109431
 51
161.914557154561
  0
CIRCLE
  5
F29
330
1F
100
AcDbEntity
  8
0
  6
Continuous
 62
     7
100
AcDbCircle
 10
191.1844
 20
28.44730000000003
 30
0.0
 40
7.75
  0
CIRCLE
  5
F2A
330
1F
100
AcDbEntity
  8
0
  6
Continuous
 62
     7
100
AcDbCircle
 10
191.1844
 20
28.44730000000003
 30
0.0
 40
7.40000000000009
  0
CIRCLE
  5
F2B
330
1F
100
AcDbEntity
  8
0
  6
Continuous
 62
     7
100
AcDbCircle
 10
191.1844
 20
28.44730000000003
 30
0.0
 40
7.0
  0
ARC
  5
F2C
330
1F
100
AcDbEntity
  8
0
  6
Continuous
 62
     7
100
AcDbCircle
 10
191.1843
 20
28.44730000000003
 30
0.0
 40
17.25000000115942
100
AcDbArc
 50
270.0006642988931
 51
89.99933570110684
  0
ARC
  5
F2D
330
1F
100
AcDbEntity
  8
0
  6
Continuous
 62
     7
100
AcDbCircle
 10
178.1845221919029
 20
1.410164706507298
 30
0.0
 40
2.999977808794954
100
AcDbArc
 50
359.998764187601
 51
64.32309703488411
  0
ARC
  5
F2E
330
1F
100
AcDbEntity
  8
0
  6
Continuous
 62
     7
100
AcDbCircle
 10
184.1845086100715
 20
7.011188131186049
 30
0.0
 40
2.999991389951903
100
AcDbArc
 50
0.0002266782980462
 51
71.91678129654789
  0
ARC
  5
F2F
330
1F
100
AcDbEntity
  8
0
  6
Continuous
 62
     7
100
AcDbCircle
 10
204.1843994733609
 20
1.4101991623961
 30
0.0
 40
2.999999474999799
100
AcDbArc
 50
115.679282280219
 51
180.0018938625916
  0
ARC
  5
F30
330
1F
100
AcDbEntity
  8
0
  6
Continuous
 62
     7
100
AcDbCircle
 10
198.1843913899284
 20
7.01118813118602
 30
0.0
 40
2.999991389951885
100
AcDbArc
 50
108.0832187034486
 51
179.9997733217013
  0
LINE
  5
F31
330
1F
100
AcDbEntity
  8
0
  6
Continuous
 62
     7
100
AcDbLine
 10
187.5789000000001
 20
34.44730000000004
 30
0.0
 11
194.79
 21
34.44730000000004
 31
0.0
  0
ARC
  5
F32
330
1F
100
AcDbEntity
  8
0
  6
Continuous
 62
     7
100
AcDbCircle
 10
220.3563940979788
 20
21.44729534668562
 30
0.0
 40
3.000004653320228
100
AcDbArc
 50
89.9998872798719
 51
166.5065311094297
  0
ARC
  5
F33
330
1F
100
AcDbEntity
  8
0
  6
Continuous
 62
     7
100
AcDbCircle
 10
223.4333912559346
 20
21.44731084589801
 30
0.0
 40
2.999989154114754
100
AcDbArc
 50
347.7523426735108
 51
89.99983300005061
  0
ARC
  5
F34
330
1F
100
AcDbEntity
  8
0
  6
Continuous
 62
     7
100
AcDbCircle
 10
234.6240927081479
 20
21.44729378919728
 30
0.0
 40
3.000006210811624
100
AcDbArc
 50
89.99986073616961
 51
170.8452380926082
  0
ARC
  5
F35
330
1F
100
AcDbEntity
  8
0
  6
Continuous
 62
     7
100
AcDbCircle
 10
218.2213725027779
 20
15.44734558911172
 30
0.0
 40
2.999954411764444
100
AcDbArc
 50
90.00138472210062
 51
154.3212588560897
  0
ARC
  5
F36
330
1F
100
AcDbEntity
  8
0
  6
Continuous
 62
     7
100
AcDbCircle
 10
221.5158078227761
 20
15.44728813590069
 30
0.0
 40
3.000011864109569
100
AcDbArc
 50
336.7988003654586
 51
90.00014940342813
  0
LINE
  5
F37
330
1F
100
AcDbEntity
  8
0
  6
Continuous
 62
     7
100
AcDbLine
 10
218.2213
 20
18.44730000000003
 30
0.0
 11
221.5158
 21
18.44730000000003
 31
0.0
  0
LINE
  5
F38
330
1F
100
AcDbEntity
  8
0
  6
Continuous
 62
     7
100
AcDbLine
 10
233.22
 20
18.44730000000003
 30
0.0
 11
236.3507
 21
18.44730000000003
 31
0.0
  0
ARC
  5
F39
330
1F
100
AcDbEntity
  8
0
  6
Continuous
 62
     7
100
AcDbCircle
 10
233.2200583417983
 20
15.44734302758514
 30
0.0
 40
2.9999569729822
100
AcDbArc
 50
90.00111426224965
 51
162.8170823046348
  0
ARC
  5
F3A
330
1F
100
AcDbEntity
  8
0
  6
Continuous
 62
     7
100
AcDbCircle
 10
236.3507265349701
 20
15.44726474981558
 30
0.0
 40
3.000035250301818
100
AcDbArc
 50
343.941520517013
 51
90.00050677464278
  0
ARC
  5
F3B
330
1F
100
AcDbEntity
  8
0
  6
Continuous
 62
     7
100
AcDbCircle
 10
223.4334827047842
 20
35.44727854808031
 30
0.0
 40
2.999978548130118
100
AcDbArc
 50
270.0003303166515
 51
12.24595422833038
  0
LINE
  5
F3C
330
1F
100
AcDbEntity
  8
0
  6
Continuous
 62
     7
100
AcDbLine
 10
223.4335
 20
32.44730000000004
 30
0.0
 11
234.624
 21
32.44730000000004
 31
0.0
  0
LINE
  5
F3D
330
1F
100
AcDbEntity
  8
0
  6
Continuous
 62
     7
100
AcDbLine
 10
223.4334
 20
24.44730000000003
 30
0.0
 11
241.7016999999999
 21
24.44730000000003
 31
0.0
  0
ARC
  5
F3E
330
1F
100
AcDbEntity
  8
0
  6
Continuous
 62
     7
100
AcDbCircle
 10
220.3563940979788
 20
35.44730465331449
 30
0.0
 40
3.000004653320278
100
AcDbArc
 50
193.4934688905749
 51
270.000112720128
  0
LINE
  5
F3F
330
1F
100
AcDbEntity
  8
0
  6
Continuous
 62
     7
100
AcDbLine
 10
212.6206
 20
32.44730000000004
 30
0.0
 11
223.4335
 21
32.44730000000004
 31
0.0
  0
LINE
  5
F40
330
1F
100
AcDbEntity
  8
0
  6
Continuous
 62
     7
100
AcDbLine
 10
212.6204
 20
24.44730000000003
 30
0.0
 11
223.4334
 21
24.44730000000003
 31
0.0
  0
ARC
  5
F41
330
1F
100
AcDbEntity
  8
0
  6
Continuous
 62
     7
100
AcDbCircle
 10
218.2215291694526
 20
41.44734453433333
 30
0.0
 40
3.000044535169426
100
AcDbArc
 50
205.6798233990914
 51
270.0013527437253
  0
ARC
  5
F42
330
1F
100
AcDbEntity
  8
0
  6
Continuous
 62
     7
100
AcDbCircle
 10
221.5160121519193
 20
41.44731842817097
 30
0.0
 40
3.000018428195542
100
AcDbArc
 50
269.9997679168598
 51
23.19685379095751
  0
LINE
  5
F43
330
1F
100
AcDbEntity
  8
0
  6
Continuous
 62
     7
100
AcDbLine
 10
218.2215999999999
 20
38.44730000000004
 30
0.0
 11
221.516
 21
38.44730000000004
 31
0.0
  0
ARC
  5
F44
330
1F
100
AcDbEntity
  8
0
  6
Continuous
 62
     7
100
AcDbCircle
 10
234.6240927081479
 20
35.44730621080281
 30
0.0
 40
3.000006210811618
100
AcDbArc
 50
189.1547619073919
 51
270.0001392638303
  0
LINE
  5
F45
330
1F
100
AcDbEntity
  8
0
  6
Continuous
 62
     7
100
AcDbLine
 10
234.6241
 20
32.44730000000004
 30
0.0
 11
241.7018000000001
 21
32.44730000000004
 31
0.0
  0
LINE
  5
F46
330
1F
100
AcDbEntity
  8
0
  6
Continuous
 62
     7
100
AcDbLine
 10
233.2202
 20
38.44730000000004
 30
0.0
 11
236.3509
 21
38.44730000000004
 31
0.0
  0
ARC
  5
F47
330
1F
100
AcDbEntity
  8
0
  6
Continuous
 62
     7
100
AcDbCircle
 10
233.2201735387395
 20
41.4470195138062
 30
0.0
 40
3.000019513923029
100
AcDbArc
 50
197.1857976884847
 51
270.0005053695627
  0
ARC
  5
F48
330
1F
100
AcDbEntity
  8
0
  6
Continuous
 62
     7
100
AcDbCircle
 10
236.3508695433601
 20
41.44725954081191
 30
0.0
 40
2.999959540966468
100
AcDbArc
 50
270.0005816868169
 51
16.05642551845185
  0
ARC
  5
F49
330
1F
100
AcDbEntity
  8
0
  6
Continuous
 62
     7
100
AcDbCircle
 10
191.1844777976622
 20
28.44722635422959
 30
0.0
 40
61.24995278008761
100
AcDbArc
 50
59.52309868366818
 51
75.47713927543291
  0
ARC
  5
F4A
330
1F
100
AcDbEntity
  8
0
  6
Continuous
 62
     7
100
AcDbCircle
 10
191.1840384609223
 20
28.44740833475183
 30
0.0
 40
64.24996560364721
100
AcDbArc
 50
59.89740871061929
 51
75.10194853608929
  0
ARC
  5
F4B
330
1F
100
AcDbEntity
  8
0
  6
Continuous
 62
     7
100
AcDbCircle
 10
184.1843937891971
 20
71.88669270814777
 30
0.0
 40
3.000006210811631
100
AcDbArc
 50
279.1547619073919
 51
0.0001392638311991
  0
ARC
  5
F4C
330
1F
100
AcDbEntity
  8
0
  6
Continuous
 62
     7
100
AcDbCircle
 10
204.1845195138062
 20
70.48287353873944
 30
0.0
 40
3.000019513923006
100
AcDbArc
 50
179.9994946304375
 51
252.814202311513
  0
ARC
  5
F4D
330
1F
100
AcDbEntity
  8
0
  6
Continuous
 62
     7
100
AcDbCircle
 10
198.1845062108027
 20
71.88669270814779
 30
0.0
 40
3.000006210811613
100
AcDbArc
 50
179.9998607361692
 51
260.8452380926129
  0
ARC
  5
F4E
330
1F
100
AcDbEntity
  8
0
  6
Continuous
 62
     7
100
AcDbCircle
 10
178.1843804861937
 20
70.4828735387394
 30
0.0
 40
3.000019513923037
100
AcDbArc
 50
287.1857976884903
 51
0.0005053695630941
  0
LINE
  5
F4F
330
1F
100
AcDbEntity
  8
0
  6
Continuous
 62
     7
100
AcDbLine
 10
187.1844
 20
60.69629999999985
 30
0.0
 11
187.1844
 21
78.96460000000002
 31
0.0
  0
LINE
  5
F50
330
1F
100
AcDbEntity
  8
0
  6
Continuous
 62
     7
100
AcDbLine
 10
195.1845
 20
60.69629999999985
 30
0.0
 11
195.1845
 21
78.96460000000002
 31
0.0
  0
ARC
  5
F51
330
1F
100
AcDbEntity
  8
0
  6
Continuous
 62
     7
100
AcDbCircle
 10
191.1841248257704
 20
28.44732788089516
 30
0.0
 40
19.54997212270473
100
AcDbArc
 50
71.91430709739464
 51
89.99890046390946
  0
LINE
  5
F52
330
1F
100
AcDbEntity
  8
0
  6
Continuous
 62
     7
100
AcDbLine
 10
181.1844
 20
55.48409999999989
 30
0.0
 11
181.1844
 21
58.77859999999987
 31
0.0
  0
LINE
  5
F53
330
1F
100
AcDbEntity
  8
0
  6
Continuous
 62
     7
100
AcDbLine
 10
187.1844
 20
49.88310000000001
 30
0.0
 11
187.1844
 21
60.69629999999985
 31
0.0
  0
ARC
  5
F54
330
1F
100
AcDbEntity
  8
0
  6
Continuous
 62
     7
100
AcDbCircle
 10
184.1843953466856
 20
57.61909409797864
 30
0.0
 40
3.000004653320246
100
AcDbArc
 50
283.4934688905745
 51
0.0001127201278939
  0
ARC
  5
F55
330
1F
100
AcDbEntity
  8
0
  6
Continuous
 62
     7
100
AcDbCircle
 10
191.1847751742296
 20
28.44732788089516
 30
0.0
 40
19.54997212270473
100
AcDbArc
 50
90.00109953609218
 51
108.0856929026053
  0
ARC
  5
F56
330
1F
100
AcDbEntity
  8
0
  6
Continuous
 62
     7
100
AcDbCircle
 10
178.1843788588592
 20
55.48406637490285
 30
0.0
 40
3.000021141329265
100
AcDbArc
 50
295.6816616606457
 51
0.0006421875233233
  0
ARC
  5
F57
330
1F
100
AcDbEntity
  8
0
  6
Continuous
 62
     7
100
AcDbCircle
 10
184.1843930892127
 20
49.88309047315557
 30
0.0
 40
3.000006910802386
100
AcDbArc
 50
288.0854428454434
 51
0.0001819489071191
  0
ARC
  5
F58
330
1F
100
AcDbEntity
  8
0
  6
Continuous
 62
     7
100
AcDbCircle
 10
184.184410845898
 20
60.69629125593451
 30
0.0
 40
2.999989154114738
100
AcDbArc
 50
0.0001669999500007
 51
102.2476573264865
  0
ARC
  5
F59
330
1F
100
AcDbEntity
  8
0
  6
Continuous
 62
     7
100
AcDbCircle
 10
178.1844078340238
 20
58.77859483420511
 30
0.0
 40
2.999992167475163
100
AcDbArc
 50
359.9981887953666
 51
113.1996922813391
  0
LINE
  5
F5A
330
1F
100
AcDbEntity
  8
0
  6
Continuous
 62
     7
100
AcDbLine
 10
195.1845
 20
49.88310000000001
 30
0.0
 11
195.1845
 21
60.69629999999985
 31
0.0
  0
LINE
  5
F5B
330
1F
100
AcDbEntity
  8
0
  6
Continuous
 62
     7
100
AcDbLine
 10
201.1845
 20
55.48409999999989
 30
0.0
 11
201.1845
 21
58.77859999999987
 31
0.0
  0
ARC
  5
F5C
330
1F
100
AcDbEntity
  8
0
  6
Continuous
 62
     7
100
AcDbCircle
 10
204.1845211411408
 20
55.48406637490288
 30
0.0
 40
3.000021141329259
100
AcDbArc
 50
179.9993578124772
 51
244.3183383393559
  0
ARC
  5
F5D
330
1F
100
AcDbEntity
  8
0
  6
Continuous
 62
     7
100
AcDbCircle
 10
198.1845069107872
 20
49.88309047315561
 30
0.0
 40
3.000006910802348
100
AcDbArc
 50
179.9998180510934
 51
251.9145571545599
  0
ARC
  5
F5E
330
1F
100
AcDbEntity
  8
0
  6
Continuous
 62
     7
100
AcDbCircle
 10
198.1845046533144
 20
57.61909409797866
 30
0.0
 40
3.000004653320226
100
AcDbArc
 50
179.9998872798725
 51
256.5065311094271
  0
ARC
  5
F5F
330
1F
100
AcDbEntity
  8
0
  6
Continuous
 62
     7
100
AcDbCircle
 10
204.1844921659762
 20
58.77859483420511
 30
0.0
 40
2.999992167475196
100
AcDbArc
 50
66.80030771866078
 51
180.0018112046333
  0
ARC
  5
F60
330
1F
100
AcDbEntity
  8
0
  6
Continuous
 62
     7
100
AcDbCircle
 10
198.1844891541019
 20
60.69629125593454
 30
0.0
 40
2.999989154114767
100
AcDbArc
 50
77.75234267351007
 51
179.9998330000502
  0
ARC
  5
F61
330
1F
100
AcDbEntity
  8
0
  6
Continuous
 62
     7
100
AcDbCircle
 10
191.1843112239149
 20
28.44729922602571
 30
0.0
 40
54.0000007743043
100
AcDbArc
 50
82.11072986624403
 51
89.99979970235568
  0
ARC
  5
F62
330
1F
100
AcDbEntity
  8
0
  6
Continuous
 62
     7
100
AcDbCircle
 10
184.1844011833341
 20
78.96459896934288
 30
0.0
 40
2.999998816665943
100
AcDbArc
 50
0.0000196841089148
 51
97.88973668700458
  0
ARC
  5
F63
330
1F
100
AcDbEntity
  8
0
  6
Continuous
 62
     7
100
AcDbCircle
 10
178.1843785802396
 20
73.61351612438483
 30
0.0
 40
3.000021419803761
100
AcDbArc
 50
359.9996920491314
 51
106.0568429937815
  0
LINE
  5
F64
330
1F
100
AcDbEntity
  8
0
  6
Continuous
 62
     7
100
AcDbLine
 10
181.1844
 20
70.48289999999997
 30
0.0
 11
181.1844
 21
73.61349999999993
 31
0.0
  0
ARC
  5
F65
330
1F
100
AcDbEntity
  8
0
  6
Continuous
 62
     7
100
AcDbCircle
 10
191.1846883060148
 20
28.44730608945375
 30
0.0
 40
53.99999391131593
100
AcDbArc
 50
90.00030590221635
 51
97.8892706392807
  0
ARC
  5
F66
330
1F
100
AcDbEntity
  8
0
  6
Continuous
 62
     7
100
AcDbCircle
 10
198.1844988166658
 20
78.96459896934288
 30
0.0
 40
2.999998816665953
100
AcDbArc
 50
82.11026331299379
 51
179.9999803158911
  0
ARC
  5
F67
330
1F
100
AcDbEntity
  8
0
  6
Continuous
 62
     7
100
AcDbCircle
 10
204.1845214197604
 20
73.61351612438486
 30
0.0
 40
3.00002141980376
100
AcDbArc
 50
73.94315700621672
 51
180.0003079508691
  0
LINE
  5
F68
330
1F
100
AcDbEntity
  8
0
  6
Continuous
 62
     7
100
AcDbLine
 10
201.1845
 20
70.48289999999997
 30
0.0
 11
201.1845
 21
73.61349999999993
 31
0.0
  0
LINE
  5
F69
330
1F
100
AcDbEntity
  8
0
  6
Continuous
 62
     7
100
AcDbLine
 10
206.5437999999999
 20
87.74000000000002
 30
0.0
 11
207.7026
 21
90.53739999999992
 31
0.0
  0
CIRCLE
  5
F6A
330
1F
100
AcDbEntity
  8
0
  6
Continuous
 62
     7
100
AcDbCircle
 10
234.3178
 20
71.5806
 30
0.0
 40
3.499969614153751
  0
CIRCLE
  5
F6B
330
1F
100
AcDbEntity
  8
0
  6
Continuous
 62
     7
100
AcDbCircle
 10
234.3177000000002
 20
71.5806
 30
0.0
 40
2.00006272401649
  0
ARC
  5
F6C
330
1F
100
AcDbEntity
  8
0
  6
DASH_CENTER
 62
    30
100
AcDbCircle
 10
191.1846517599943
 20
28.4472487985082
 30
0.0
 40
60.99998377974928
100
AcDbArc
 50
37.10974419495093
 51
53.51183806226345
  0
LINE
  5
F6D
330
1F
100
AcDbEntity
  8
0
  6
Continuous
 62
     7
100
AcDbLine
 10
230.4058
 20
72.62889999999993
 30
0.0
 11
231.4601
 21
68.72289999999998
 31
0.0
  0
LINE
  5
F6E
330
1F
100
AcDbEntity
  8
0
  6
Continuous
 62
     7
100
AcDbLine
 10
235.3638
 20
67.67679999999995
 30
0.0
 11
238.2298
 21
70.53250000000002
 31
0.0
  0
LINE
  5
F6F
330
1F
100
AcDbEntity
  8
0
  6
DASH_CENTER
 62
    30
100
AcDbLine
 10
228.8190999999999
 20
66.08199999999988
 30
0.0
 11
240.9147000000001
 21
78.17769999999995
 31
0.0
  0
LINE
  5
F70
330
1F
100
AcDbEntity
  8
0
  6
Continuous
 62
     7
100
AcDbLine
 10
231.4601
 20
68.72289999999998
 30
0.0
 11
235.3638
 21
67.67679999999995
 31
0.0
  0
LINE
  5
F71
330
1F
100
AcDbEntity
  8
0
  6
Continuous
 62
     7
100
AcDbLine
 10
221.2200000000001
 20
86.76729999999997
 30
0.0
 11
221.9619
 21
87.50919999999997
 31
0.0
  0
LINE
  5
F72
330
1F
100
AcDbEntity
  8
0
  6
Continuous
 62
     7
100
AcDbLine
 10
222.2497
 20
81.23440000000005
 30
0.0
 11
223.4085
 21
84.03199999999994
 31
0.0
  0
CIRCLE
  5
F74
330
1F
100
AcDbEntity
  8
0
  6
Continuous
 62
    30
100
AcDbCircle
 10
234.3177000000002
 20
71.5806
 30
0.0
 40
1.650034196615456
  0
LINE
  5
F75
330
1F
100
AcDbEntity
  8
0
  6
Continuous
 62
     7
100
AcDbLine
 10
237.1756
 20
74.43820000000005
 30
0.0
 11
233.2718
 21
75.48440000000005
 31
0.0
  0
LINE
  5
F76
330
1F
100
AcDbEntity
  8
0
  6
Continuous
 62
     7
100
AcDbLine
 10
233.2718
 20
75.48440000000005
 30
0.0
 11
230.4058
 21
72.62889999999993
 31
0.0
  0
LINE
  5
F77
330
1F
100
AcDbEntity
  8
0
  6
Continuous
 62
     7
100
AcDbLine
 10
238.2298
 20
70.53250000000002
 30
0.0
 11
237.1756
 21
74.43820000000005
 31
0.0
  0
ARC
  5
F7B
330
1F
100
AcDbEntity
  8
0
  6
Continuous
 62
     7
100
AcDbCircle
 10
123.935796676414
 20
81.4088665025911
 30
0.0
 40
18.99999646209285
100
AcDbArc
 50
51.77833138602918
 51
90.00029153429048
  0
ARC
  5
F87
330
1F
100
AcDbEntity
  8
0
  6
Continuous
 62
     7
100
AcDbCircle
 10
191.1843951823851
 20
28.44707021157725
 30
0.0
 40
61.2499632841779
100
AcDbArc
 50
14.52315540537513
 51
30.47722939091609
  0
ARC
  5
F88
330
1F
100
AcDbEntity
  8
0
  6
Continuous
 62
     7
100
AcDbCircle
 10
191.1843185630284
 20
28.44725518490719
 30
0.0
 40
64.24997092880781
100
AcDbArc
 50
14.89775793321317
 51
30.10226206188312
  0
LINE
  5
F8A
330
1F
100
AcDbEntity
  8
0
  6
Continuous
 62
     7
100
AcDbLine
 10
250.4771
 20
13.08759999999984
 30
0.0
 11
253.2745
 21
11.92899999999986
 31
0.0
  0
LINE
  5
F8B
330
1F
100
AcDbEntity
  8
0
  6
Continuous
 62
     7
100
AcDbLine
 10
250.477
 20
43.80690000000003
 30
0.0
 11
253.2745
 21
44.96559999999998
 31
0.0
  0
LINE
  5
F8D
330
1F
100
AcDbEntity
  8
0
  6
Continuous
 62
     7
100
AcDbLine
 10
250.2462000000001
 20
59.22489999999993
 30
0.0
 11
249.5043000000002
 21
58.48299999999995
 31
0.0
  0
LINE
  5
F8E
330
1F
100
AcDbEntity
  8
0
  6
Continuous
 62
     7
100
AcDbLine
 10
243.9715
 20
59.5127
 30
0.0
 11
246.7689
 21
60.67139999999996
 31
0.0
  0
MTEXT
  5
F9A
330
1F
100
AcDbEntity
  8
0
100
AcDbMText
 10
-55.49509513553909
 20
-125.9954020430675
 30
0.0
 40
8.0
 41
125.5248473237043
 71
     1
 72
     1
  1
AEC-DBF 4P 0.3kW
 73
     1
 44
1.0
  0
VIEWPORT
  5
71
330
55
100
AcDbEntity
 67
     1
  8
0
100
AcDbViewport
 10
133.3499908447265
 20
101.5999970436096
 30
0.0
 40
381.3957395593834
 41
218.2856291881582
 68
     1
 69
     1
 12
133.3499908447265
 22
101.5999970436096
 13
0.0
 23
0.0
 14
10.0
 24
10.0
 15
10.0
 25
10.0
 16
0.0
 26
0.0
 36
1.0
 17
0.0
 27
0.0
 37
0.0
 42
50.0
 43
0.0
 44
0.0
 45
218.2856291881582
 50
0.0
 51
0.0
 72
   100
 90
    32800
  1

281
     0
 71
     1
 74
     0
110
0.0
120
0.0
130
0.0
111
1.0
121
0.0
131
0.0
112
0.0
122
1.0
132
0.0
 79
     0
146
0.0
  0
VIEWPORT
  5
73
330
55
100
AcDbEntity
 67
     1
  8
0
100
AcDbViewport
 10
133.349993944168
 20
101.599993944168
 30
0.0
 40
213.3599903106689
 41
162.5599903106689
 68
     2
 69
     2
 12
210.0
 22
148.5
 13
0.0
 23
0.0
 14
10.0
 24
10.0
 15
10.0
 25
10.0
 16
0.0
 26
0.0
 36
1.0
 17
0.0
 27
0.0
 37
0.0
 42
50.0
 43
0.0
 44
0.0
 45
324.0677920111345
 50
0.0
 51
0.0
 72
   100
 90
    32864
  1

281
     0
 71
     1
 74
     0
110
0.0
120
0.0
130
0.0
111
1.0
121
0.0
131
0.0
112
0.0
122
1.0
132
0.0
 79
     0
146
0.0
  0
ENDSEC
  0
SECTION
  2
OBJECTS
  0
DICTIONARY
  5
C
330
0
100
AcDbDictionary
281
     1
  3
ACAD_GROUP
350
D
  3
ACAD_LAYOUT
350
1A
  3
ACAD_MLINESTYLE
350
17
  3
ACAD_PLOTSETTINGS
350
19
  3
ACAD_PLOTSTYLENAME
350
E
  3
AcDbVariableDictionary
350
5E
  0
DICTIONARY
  5
D
102
{ACAD_REACTORS
330
C
102
}
330
C
100
AcDbDictionary
281
     1
  0
DICTIONARY
  5
1A
102
{ACAD_REACTORS
330
C
102
}
330
C
100
AcDbDictionary
281
     1
  3
Model
350
22
  3
ﾚｲｱｳﾄ1
350
51
  3
ﾚｲｱｳﾄ2
350
56
  0
DICTIONARY
  5
17
102
{ACAD_REACTORS
330
C
102
}
330
C
100
AcDbDictionary
281
     1
  3
Standard
350
18
  0
DICTIONARY
  5
19
102
{ACAD_REACTORS
330
C
102
}
330
C
100
AcDbDictionary
281
     1
  0
ACDBDICTIONARYWDFLT
  5
E
102
{ACAD_REACTORS
330
C
102
}
330
C
100
AcDbDictionary
281
     1
  3
Normal
350
F
100
AcDbDictionaryWithDefault
340
F
  0
DICTIONARY
  5
5E
102
{ACAD_REACTORS
330
C
102
}
330
C
100
AcDbDictionary
281
     1
  3
DIMASSOC
350
5F
  3
HIDETEXT
350
63
  0
LAYOUT
  5
22
102
{ACAD_REACTORS
330
1A
102
}
330
1A
100
AcDbPlotSettings
  1

  2
none_device
  4
ANSI_A_(8.50_x_11.00_Inches)
  6

 40
6.349999904632568
 41
19.04999923706054
 42
6.350006103515625
 43
19.04998779296875
 44
215.8999938964843
 45
279.3999938964843
 46
0.0
 47
0.0
 48
0.0
 49
0.0
140
0.0
141
0.0
142
1.0
143
78.436453180766
 70
 11952
 72
     0
 73
     1
 74
     0
  7

 75
     0
147
0.0127491741332998
148
0.0
149
0.0
100
AcDbLayout
  1
Model
 70
     1
 71
     0
 10
0.0
 20
0.0
 11
12.0
 21
9.0
 12
0.0
 22
0.0
 32
0.0
 14
0.0
 24
0.0
 34
0.0
 15
0.0
 25
0.0
 35
0.0
146
0.0
 13
0.0
 23
0.0
 33
0.0
 16
1.0
 26
0.0
 36
0.0
 17
0.0
 27
1.0
 37
0.0
 76
     0
330
1F
  0
LAYOUT
  5
51
102
{ACAD_REACTORS
330
1A
102
}
330
1A
100
AcDbPlotSettings
  1

  2
none_device
  4
Letter_(8.50_x_11.00_Inches)
  6

 40
6.349999904632568
 41
6.349999904632568
 42
6.350006103515625
 43
6.350006103515625
 44
215.8999938964843
 45
279.3999938964843
 46
0.0
 47
0.0
 48
0.0
 49
0.0
140
0.0
141
0.0
142
1.0
143
1.0
 70
   688
 72
     1
 73
     1
 74
     5
  7

 75
    16
147
1.0
148
0.0
149
0.0
100
AcDbLayout
  1
ﾚｲｱｳﾄ1
 70
     1
 71
     1
 10
-6.350006103515625
 20
-6.349999904632568
 11
273.0499877929687
 21
209.5499939918517
 12
0.0
 22
0.0
 32
0.0
 14
26.66076962115562
 24
20.31135699206657
 34
-0.0015258207003583
 15
240.039213369355
 25
182.8886381005154
 35
0.0000000349246037
146
0.0
 13
0.0
 23
0.0
 33
0.0
 16
1.0
 26
0.0
 36
0.0
 17
0.0
 27
1.0
 37
0.0
 76
     0
330
50
331
6B
  0
LAYOUT
  5
56
102
{ACAD_REACTORS
330
1A
102
}
330
1A
100
AcDbPlotSettings
  1

  2
none_device
  4
Letter_(8.50_x_11.00_Inches)
  6

 40
6.349999904632568
 41
6.349999904632568
 42
6.350006103515625
 43
6.350006103515625
 44
215.8999938964843
 45
279.3999938964843
 46
0.0
 47
0.0
 48
0.0
 49
0.0
140
0.0
141
0.0
142
1.0
143
1.0
 70
   688
 72
     1
 73
     1
 74
     5
  7

 75
    16
147
1.0
148
0.0
149
0.0
100
AcDbLayout
  1
ﾚｲｱｳﾄ2
 70
     1
 71
     2
 10
-6.350006103515625
 20
-6.349999904632568
 11
273.0499877929687
 21
209.5499939918517
 12
0.0
 22
0.0
 32
0.0
 14
26.66076962115562
 24
20.31135699206657
 34
-0.0015258207003583
 15
240.039213369355
 25
182.8886381005154
 35
0.0000000349246037
146
0.0
 13
0.0
 23
0.0
 33
0.0
 16
1.0
 26
0.0
 36
0.0
 17
0.0
 27
1.0
 37
0.0
 76
     0
330
55
331
71
  0
MLINESTYLE
  5
18
102
{ACAD_REACTORS
330
17
102
}
330
17
100
AcDbMlineStyle
  2
STANDARD
 70
     0
  3

 62
   256
 51
90.0
 52
90.0
 71
     2
 49
0.5
 62
   256
  6
BYLAYER
 49
-0.5
 62
   256
  6
BYLAYER
  0
ACDBPLACEHOLDER
  5
F
102
{ACAD_REACTORS
330
E
102
}
330
E
  0
DICTIONARYVAR
  5
5F
102
{ACAD_REACTORS
330
5E
102
}
330
5E
100
DictionaryVariables
280
     0
  1
2
  0
DICTIONARYVAR
  5
63
102
{ACAD_REACTORS
330
5E
102
}
330
5E
100
DictionaryVariables
280
     0
  1
1
  0
ENDSEC
  0
EOF
