  0
SECTION
  2
HEADER
  9
$ACADVER
  1
AC1015
  9
$ACADMAINTVER
 70
    14
  9
$DWGCODEPAGE
  3
ANSI_932
  9
$INSBASE
 10
0.0
 20
0.0
 30
0.0
  9
$EXTMIN
 10
-339.3441541733764
 20
-184.19855137707
 30
-0.0000000349181948
  9
$EXTMAX
 10
304.9710294318622
 20
122.7455951312122
 30
0.0000000814935747
  9
$LIMMIN
 10
0.0
 20
0.0
  9
$LIMMAX
 10
420.0
 20
297.0
  9
$ORTHOMODE
 70
     0
  9
$REGENMODE
 70
     1
  9
$FILLMODE
 70
     1
  9
$QTEXTMODE
 70
     0
  9
$MIRRTEXT
 70
     1
  9
$LTSCALE
 40
1.0
  9
$ATTMODE
 70
     1
  9
$TEXTSIZE
 40
2.5
  9
$TRACEWID
 40
1.0
  9
$TEXTSTYLE
  7
Standard
  9
$CLAYER
  8
0
  9
$CELTYPE
  6
ByLayer
  9
$CECOLOR
 62
   256
  9
$CELTSCALE
 40
1.0
  9
$DISPSILH
 70
     0
  9
$DIMSCALE
 40
1.0
  9
$DIMASZ
 40
2.5
  9
$DIMEXO
 40
0.625
  9
$DIMDLI
 40
3.75
  9
$DIMRND
 40
0.0
  9
$DIMDLE
 40
0.0
  9
$DIMEXE
 40
1.25
  9
$DIMTP
 40
0.0
  9
$DIMTM
 40
0.0
  9
$DIMTXT
 40
2.5
  9
$DIMCEN
 40
2.5
  9
$DIMTSZ
 40
0.0
  9
$DIMTOL
 70
     0
  9
$DIMLIM
 70
     0
  9
$DIMTIH
 70
     0
  9
$DIMTOH
 70
     0
  9
$DIMSE1
 70
     0
  9
$DIMSE2
 70
     0
  9
$DIMTAD
 70
     1
  9
$DIMZIN
 70
     8
  9
$DIMBLK
  1

  9
$DIMASO
 70
     1
  9
$DIMSHO
 70
     1
  9
$DIMPOST
  1

  9
$DIMAPOST
  1

  9
$DIMALT
 70
     0
  9
$DIMALTD
 70
     3
  9
$DIMALTF
 40
0.03937007874016
  9
$DIMLFAC
 40
1.0
  9
$DIMTOFL
 70
     1
  9
$DIMTVP
 40
0.0
  9
$DIMTIX
 70
     0
  9
$DIMSOXD
 70
     0
  9
$DIMSAH
 70
     0
  9
$DIMBLK1
  1

  9
$DIMBLK2
  1

  9
$DIMSTYLE
  2
ISO-25
  9
$DIMCLRD
 70
     0
  9
$DIMCLRE
 70
     0
  9
$DIMCLRT
 70
     0
  9
$DIMTFAC
 40
1.0
  9
$DIMGAP
 40
0.625
  9
$DIMJUST
 70
     0
  9
$DIMSD1
 70
     0
  9
$DIMSD2
 70
     0
  9
$DIMTOLJ
 70
     0
  9
$DIMTZIN
 70
     8
  9
$DIMALTZ
 70
     0
  9
$DIMALTTZ
 70
     0
  9
$DIMUPT
 70
     0
  9
$DIMDEC
 70
     2
  9
$DIMTDEC
 70
     2
  9
$DIMALTU
 70
     2
  9
$DIMALTTD
 70
     3
  9
$DIMTXSTY
  7
Standard
  9
$DIMAUNIT
 70
     0
  9
$DIMADEC
 70
     0
  9
$DIMALTRND
 40
0.0
  9
$DIMAZIN
 70
     0
  9
$DIMDSEP
 70
    44
  9
$DIMATFIT
 70
     3
  9
$DIMFRAC
 70
     0
  9
$DIMLDRBLK
  1

  9
$DIMLUNIT
 70
     2
  9
$DIMLWD
 70
    -2
  9
$DIMLWE
 70
    -2
  9
$DIMTMOVE
 70
     0
  9
$LUNITS
 70
     2
  9
$LUPREC
 70
     4
  9
$SKETCHINC
 40
1.0
  9
$FILLETRAD
 40
10.0
  9
$AUNITS
 70
     0
  9
$AUPREC
 70
     0
  9
$MENU
  1
.
  9
$ELEVATION
 40
0.0
  9
$PELEVATION
 40
0.0
  9
$THICKNESS
 40
0.0
  9
$LIMCHECK
 70
     0
  9
$CHAMFERA
 40
10.0
  9
$CHAMFERB
 40
10.0
  9
$CHAMFERC
 40
20.0
  9
$CHAMFERD
 40
0.0
  9
$SKPOLY
 70
     0
  9
$TDCREATE
 40
2456037.707100868
  9
$TDUCREATE
 40
2456037.332100868
  9
$TDUPDATE
 40
2456044.418476921
  9
$TDUUPDATE
 40
2456044.043476921
  9
$TDINDWG
 40
0.0312509144
  9
$TDUSRTIMER
 40
0.0312509144
  9
$USRTIMER
 70
     1
  9
$ANGBASE
 50
0.0
  9
$ANGDIR
 70
     0
  9
$PDMODE
 70
     0
  9
$PDSIZE
 40
0.0
  9
$PLINEWID
 40
0.0
  9
$SPLFRAME
 70
     0
  9
$SPLINETYPE
 70
     6
  9
$SPLINESEGS
 70
     8
  9
$HANDSEED
  5
AD1
  9
$SURFTAB1
 70
     6
  9
$SURFTAB2
 70
     6
  9
$SURFTYPE
 70
     6
  9
$SURFU
 70
     6
  9
$SURFV
 70
     6
  9
$UCSBASE
  2

  9
$UCSNAME
  2

  9
$UCSORG
 10
0.0
 20
0.0
 30
0.0
  9
$UCSXDIR
 10
1.0
 20
0.0
 30
0.0
  9
$UCSYDIR
 10
0.0
 20
1.0
 30
0.0
  9
$UCSORTHOREF
  2

  9
$UCSORTHOVIEW
 70
     0
  9
$UCSORGTOP
 10
0.0
 20
0.0
 30
0.0
  9
$UCSORGBOTTOM
 10
0.0
 20
0.0
 30
0.0
  9
$UCSORGLEFT
 10
0.0
 20
0.0
 30
0.0
  9
$UCSORGRIGHT
 10
0.0
 20
0.0
 30
0.0
  9
$UCSORGFRONT
 10
0.0
 20
0.0
 30
0.0
  9
$UCSORGBACK
 10
0.0
 20
0.0
 30
0.0
  9
$PUCSBASE
  2

  9
$PUCSNAME
  2

  9
$PUCSORG
 10
0.0
 20
0.0
 30
0.0
  9
$PUCSXDIR
 10
1.0
 20
0.0
 30
0.0
  9
$PUCSYDIR
 10
0.0
 20
1.0
 30
0.0
  9
$PUCSORTHOREF
  2

  9
$PUCSORTHOVIEW
 70
     0
  9
$PUCSORGTOP
 10
0.0
 20
0.0
 30
0.0
  9
$PUCSORGBOTTOM
 10
0.0
 20
0.0
 30
0.0
  9
$PUCSORGLEFT
 10
0.0
 20
0.0
 30
0.0
  9
$PUCSORGRIGHT
 10
0.0
 20
0.0
 30
0.0
  9
$PUCSORGFRONT
 10
0.0
 20
0.0
 30
0.0
  9
$PUCSORGBACK
 10
0.0
 20
0.0
 30
0.0
  9
$USERI1
 70
     0
  9
$USERI2
 70
     0
  9
$USERI3
 70
     0
  9
$USERI4
 70
     0
  9
$USERI5
 70
     0
  9
$USERR1
 40
0.0
  9
$USERR2
 40
0.0
  9
$USERR3
 40
0.0
  9
$USERR4
 40
0.0
  9
$USERR5
 40
0.0
  9
$WORLDVIEW
 70
     1
  9
$SHADEDGE
 70
     3
  9
$SHADEDIF
 70
    70
  9
$TILEMODE
 70
     1
  9
$MAXACTVP
 70
    64
  9
$PINSBASE
 10
0.0
 20
0.0
 30
0.0
  9
$PLIMCHECK
 70
     0
  9
$PEXTMIN
 10
26.66076962115562
 20
20.31135699206657
 30
-0.0015258207003583
  9
$PEXTMAX
 10
240.039213369355
 20
182.8886381005154
 30
0.0000000349246037
  9
$PLIMMIN
 10
-6.350006103515625
 20
-6.349999904632567
  9
$PLIMMAX
 10
273.0499877929687
 20
209.5499939918517
  9
$UNITMODE
 70
     0
  9
$VISRETAIN
 70
     1
  9
$PLINEGEN
 70
     0
  9
$PSLTSCALE
 70
     1
  9
$TREEDEPTH
 70
  3020
  9
$CMLSTYLE
  2
Standard
  9
$CMLJUST
 70
     0
  9
$CMLSCALE
 40
20.0
  9
$PROXYGRAPHICS
 70
     1
  9
$MEASUREMENT
 70
     1
  9
$CELWEIGHT
370
    -1
  9
$ENDCAPS
280
     0
  9
$JOINSTYLE
280
     0
  9
$LWDISPLAY
290
     0
  9
$INSUNITS
 70
     4
  9
$HYPERLINKBASE
  1

  9
$STYLESHEET
  1

  9
$XEDIT
290
     1
  9
$CEPSNTYPE
380
     0
  9
$PSTYLEMODE
290
     1
  9
$FINGERPRINTGUID
  2
{FDEAD578-A652-11D2-9A35-0060089B3A3F}
  9
$VERSIONGUID
  2
{894BF62F-69DE-480B-B9FA-085F9F7881D8}
  9
$EXTNAMES
290
     1
  9
$PSVPSCALE
 40
0.0
  9
$OLESTARTUP
290
     0
  0
ENDSEC
  0
SECTION
  2
CLASSES
  0
CLASS
  1
ACDBDICTIONARYWDFLT
  2
AcDbDictionaryWithDefault
  3
AutoCAD 2000
 90
        0
280
     0
281
     0
  0
CLASS
  1
ACDBPLACEHOLDER
  2
AcDbPlaceHolder
  3
AutoCAD 2000
 90
        0
280
     0
281
     0
  0
CLASS
  1
LAYOUT
  2
AcDbLayout
  3
AutoCAD 2000
 90
        0
280
     0
281
     0
  0
CLASS
  1
DICTIONARYVAR
  2
AcDbDictionaryVar
  3
AutoCAD 2000
 90
        0
280
     0
281
     0
  0
ENDSEC
  0
SECTION
  2
TABLES
  0
TABLE
  2
VPORT
  5
8
330
0
100
AcDbSymbolTable
 70
     2
  0
VPORT
  5
AD0
330
8
100
AcDbSymbolTableRecord
100
AcDbViewportTableRecord
  2
*Active
 70
     0
 10
0.0
 20
0.0
 11
1.0
 21
1.0
 12
-17.18656237075708
 22
-30.72647812292894
 13
0.0
 23
0.0
 14
10.0
 24
10.0
 15
10.0
 25
10.0
 16
0.0
 26
0.0
 36
1.0
 17
0.0
 27
0.0
 37
0.0
 40
328.1995135191682
 41
1.97051597051597
 42
50.0
 43
0.0
 44
0.0
 50
0.0
 51
0.0
 71
     0
 72
   100
 73
     1
 74
     3
 75
     0
 76
     0
 77
     0
 78
     0
281
     0
 65
     1
110
0.0
120
0.0
130
0.0
111
1.0
121
0.0
131
0.0
112
0.0
122
1.0
132
0.0
 79
     0
146
0.0
  0
ENDTAB
  0
TABLE
  2
LTYPE
  5
5
330
0
100
AcDbSymbolTable
 70
     3
  0
LTYPE
  5
14
330
5
100
AcDbSymbolTableRecord
100
AcDbLinetypeTableRecord
  2
ByBlock
 70
     0
  3

 72
    65
 73
     0
 40
0.0
  0
LTYPE
  5
15
330
5
100
AcDbSymbolTableRecord
100
AcDbLinetypeTableRecord
  2
ByLayer
 70
     0
  3

 72
    65
 73
     0
 40
0.0
  0
LTYPE
  5
16
330
5
100
AcDbSymbolTableRecord
100
AcDbLinetypeTableRecord
  2
Continuous
 70
     0
  3
Solid line
 72
    65
 73
     0
 40
0.0
  0
LTYPE
  5
8C
330
5
100
AcDbSymbolTableRecord
100
AcDbLinetypeTableRecord
  2
DASH_CENTER
 70
     0
  3
Dash_Center
 72
    65
 73
     4
 40
14.0
 49
11.0
 74
     0
 49
-1.0
 74
     0
 49
1.0
 74
     0
 49
-1.0
 74
     0
  0
LTYPE
  5
8D
330
5
100
AcDbSymbolTableRecord
100
AcDbLinetypeTableRecord
  2
PHANTOM
 70
     0
  3
Phantom
 72
    65
 73
     6
 40
13.0
 49
10.0
 74
     0
 49
-1.0
 74
     0
 49
0.0
 74
     0
 49
-1.0
 74
     0
 49
0.0
 74
     0
 49
-1.0
 74
     0
  0
ENDTAB
  0
TABLE
  2
LAYER
  5
2
330
0
100
AcDbSymbolTable
 70
     1
  0
LAYER
  5
10
330
2
100
AcDbSymbolTableRecord
100
AcDbLayerTableRecord
  2
0
 70
     0
 62
     7
  6
Continuous
370
    -3
390
F
  0
ENDTAB
  0
TABLE
  2
STYLE
  5
3
330
0
100
AcDbSymbolTable
 70
    22
  0
STYLE
  5
11
330
3
100
AcDbSymbolTableRecord
100
AcDbTextStyleTableRecord
  2
Standard
 70
     0
 40
0.0
 41
1.0
 50
0.0
 71
     0
 42
2.5
  3
txt
  4

  0
STYLE
  5
8E
330
3
100
AcDbSymbolTableRecord
100
AcDbTextStyleTableRecord
  2
CONVERTER_1
 70
     0
 40
0.0
 41
0.89
 50
0.0
 71
     0
 42
0.2
  3
simplex.shx
  4
bigfont.shx
  0
STYLE
  5
8F
330
3
100
AcDbSymbolTableRecord
100
AcDbTextStyleTableRecord
  2
CONVERTER_2
 70
     0
 40
0.0
 41
0.7565
 50
0.0
 71
     0
 42
0.2
  3
simplex.shx
  4
bigfont.shx
  0
STYLE
  5
90
330
3
100
AcDbSymbolTableRecord
100
AcDbTextStyleTableRecord
  2
CONVERTER_3
 70
     0
 40
0.0
 41
0.89
 50
0.0
 71
     0
 42
0.2
  3
simplex.shx
  4

  0
STYLE
  5
91
330
3
100
AcDbSymbolTableRecord
100
AcDbTextStyleTableRecord
  2
CONVERTER_4
 70
     0
 40
0.0
 41
0.7565
 50
0.0
 71
     0
 42
0.2
  3
simplex.shx
  4

  0
STYLE
  5
92
330
3
100
AcDbSymbolTableRecord
100
AcDbTextStyleTableRecord
  2
CONVERTER_5
 70
     0
 40
0.0
 41
0.7120000000000001
 50
0.0
 71
     0
 42
0.2
  3
simplex.shx
  4

  0
STYLE
  5
93
330
3
100
AcDbSymbolTableRecord
100
AcDbTextStyleTableRecord
  2
CONVERTER_6
 70
     0
 40
0.0
 41
0.82229147571036
 50
0.0
 71
     0
 42
0.2
  3
simplex.shx
  4
bigfont.shx
  0
STYLE
  5
94
330
3
100
AcDbSymbolTableRecord
100
AcDbTextStyleTableRecord
  2
CONVERTER_7
 70
     0
 40
0.0
 41
1.008666666666669
 50
0.0
 71
     0
 42
0.2
  3
txt.shx
  4
bigfont.shx
  0
STYLE
  5
95
330
3
100
AcDbSymbolTableRecord
100
AcDbTextStyleTableRecord
  2
CONVERTER_8
 70
     0
 40
0.0
 41
0.9761290322580599
 50
0.0
 71
     0
 42
0.2
  3
txt.shx
  4
bigfont.shx
  0
STYLE
  5
96
330
3
100
AcDbSymbolTableRecord
100
AcDbTextStyleTableRecord
  2
CONVERTER_10
 70
     0
 40
0.0
 41
1.0235
 50
0.0
 71
     0
 42
0.2
  3
simplex.shx
  4

  0
STYLE
  5
97
330
3
100
AcDbSymbolTableRecord
100
AcDbTextStyleTableRecord
  2
CONVERTER_11
 70
     0
 40
0.0
 41
0.8009999999999999
 50
0.0
 71
     0
 42
0.2
  3
simplex.shx
  4

  0
STYLE
  5
98
330
3
100
AcDbSymbolTableRecord
100
AcDbTextStyleTableRecord
  2
CONVERTER_12
 70
     0
 40
0.0
 41
0.8009999999999999
 50
0.0
 71
     0
 42
0.2
  3
txt.shx
  4
bigfont.shx
  0
STYLE
  5
99
330
3
100
AcDbSymbolTableRecord
100
AcDbTextStyleTableRecord
  2
CONVERTER_13
 70
     0
 40
0.0
 41
0.7758974358974399
 50
0.0
 71
     0
 42
0.2
  3
txt.shx
  4
bigfont.shx
  0
STYLE
  5
9A
330
3
100
AcDbSymbolTableRecord
100
AcDbTextStyleTableRecord
  2
CONVERTER_15
 70
     0
 40
0.0
 41
1.87368421052632
 50
0.0
 71
     0
 42
0.2
  3
txt.shx
  4

  0
STYLE
  5
9B
330
3
100
AcDbSymbolTableRecord
100
AcDbTextStyleTableRecord
  2
CONVERTER_16
 70
     0
 40
0.0
 41
0.7120000000000001
 50
0.0
 71
     0
 42
0.2
  3
simplex.shx
  4
bigfont.shx
  0
STYLE
  5
9C
330
3
100
AcDbSymbolTableRecord
100
AcDbTextStyleTableRecord
  2
CONVERTER_17
 70
     0
 40
0.0
 41
1.080714285714289
 50
0.0
 71
     0
 42
0.2
  3
txt.shx
  4
bigfont.shx
  0
STYLE
  5
9D
330
3
100
AcDbSymbolTableRecord
100
AcDbTextStyleTableRecord
  2
CONVERTER_18
 70
     0
 40
0.0
 41
0.945625
 50
0.0
 71
     0
 42
0.2
  3
txt.shx
  4
bigfont.shx
  0
STYLE
  5
9E
330
3
100
AcDbSymbolTableRecord
100
AcDbTextStyleTableRecord
  2
CONVERTER_19
 70
     0
 40
0.0
 41
0.73514
 50
0.0
 71
     0
 42
0.2
  3
simplex.shx
  4

  0
STYLE
  5
9F
330
3
100
AcDbSymbolTableRecord
100
AcDbTextStyleTableRecord
  2
CONVERTER_20
 70
     0
 40
0.0
 41
0.6230000000000003
 50
0.0
 71
     0
 42
0.2
  3
simplex.shx
  4

  0
STYLE
  5
A0
330
3
100
AcDbSymbolTableRecord
100
AcDbTextStyleTableRecord
  2
CONVERTER_21
 70
     0
 40
0.0
 41
1.62688172043011
 50
0.0
 71
     0
 42
0.2
  3
txt.shx
  4
bigfont.shx
  0
STYLE
  5
A1
330
3
100
AcDbSymbolTableRecord
100
AcDbTextStyleTableRecord
  2
CONVERTER_22
 70
     0
 40
0.0
 41
1.68111111111111
 50
0.0
 71
     0
 42
0.2
  3
txt.shx
  4
bigfont.shx
  0
STYLE
  5
A2
330
3
100
AcDbSymbolTableRecord
100
AcDbTextStyleTableRecord
  2
社名
 70
     0
 40
2.5
 41
0.8
 50
0.0
 71
     0
 42
2.5
  3

  4

1001
ACAD
1000
Swis721 Blk BT
1071
       34
  0
ENDTAB
  0
TABLE
  2
VIEW
  5
6
330
0
100
AcDbSymbolTable
 70
     0
  0
ENDTAB
  0
TABLE
  2
UCS
  5
7
330
0
100
AcDbSymbolTable
 70
     0
  0
ENDTAB
  0
TABLE
  2
APPID
  5
9
330
0
100
AcDbSymbolTable
 70
     1
  0
APPID
  5
12
330
9
100
AcDbSymbolTableRecord
100
AcDbRegAppTableRecord
  2
ACAD
 70
     0
  0
ENDTAB
  0
TABLE
  2
DIMSTYLE
  5
A
330
0
100
AcDbSymbolTable
 70
     3
100
AcDbDimStyleTable
 71
     0
  0
DIMSTYLE
105
27
330
A
100
AcDbSymbolTableRecord
100
AcDbDimStyleTableRecord
  2
ISO-25
 70
     0
 41
2.5
 42
0.625
 43
3.75
 44
1.25
 73
     0
 74
     0
 77
     1
 78
     8
140
2.5
141
2.5
143
0.03937007874016
147
0.625
171
     3
172
     1
271
     2
272
     2
274
     3
278
    44
283
     0
284
     8
340
11
  0
DIMSTYLE
105
A3
330
A
100
AcDbSymbolTableRecord
100
AcDbDimStyleTableRecord
  2
Standard
 70
     0
340
11
  0
DIMSTYLE
105
A4
330
A
100
AcDbSymbolTableRecord
100
AcDbDimStyleTableRecord
  2
ME10_DIM_7
 70
     0
  3
{\Fgdt;%%c}<>
 41
4.0
 42
2.35
 44
4.0
 73
     0
 74
     0
 77
     1
 78
     8
140
5.0
147
1.6
172
     1
173
     1
176
    54
177
    54
178
     2
271
     2
272
     2
340
92
341
86
343
86
344
86
  0
ENDTAB
  0
TABLE
  2
BLOCK_RECORD
  5
1
330
0
100
AcDbSymbolTable
 70
     2
  0
BLOCK_RECORD
  5
1F
330
1
100
AcDbSymbolTableRecord
100
AcDbBlockTableRecord
  2
*Model_Space
340
22
  0
BLOCK_RECORD
  5
55
330
1
100
AcDbSymbolTableRecord
100
AcDbBlockTableRecord
  2
*Paper_Space
340
56
  0
BLOCK_RECORD
  5
50
330
1
100
AcDbSymbolTableRecord
100
AcDbBlockTableRecord
  2
*Paper_Space0
340
51
  0
BLOCK_RECORD
  5
86
330
1
100
AcDbSymbolTableRecord
100
AcDbBlockTableRecord
  2
_Open30
340
0
  0
ENDTAB
  0
ENDSEC
  0
SECTION
  2
BLOCKS
  0
BLOCK
  5
20
330
1F
100
AcDbEntity
  8
0
100
AcDbBlockBegin
  2
*Model_Space
 70
     0
 10
0.0
 20
0.0
 30
0.0
  3
*Model_Space
  1

  0
ENDBLK
  5
21
330
1F
100
AcDbEntity
  8
0
100
AcDbBlockEnd
  0
BLOCK
  5
57
330
55
100
AcDbEntity
 67
     1
  8
0
100
AcDbBlockBegin
  2
*Paper_Space
 70
     0
 10
0.0
 20
0.0
 30
0.0
  3
*Paper_Space
  1

  0
ENDBLK
  5
58
330
55
100
AcDbEntity
 67
     1
  8
0
100
AcDbBlockEnd
  0
BLOCK
  5
52
330
50
100
AcDbEntity
  8
0
100
AcDbBlockBegin
  2
*Paper_Space0
 70
     0
 10
0.0
 20
0.0
 30
0.0
  3
*Paper_Space0
  1

  0
VIEWPORT
  5
6B
330
50
100
AcDbEntity
  8
0
100
AcDbViewport
 10
133.3499908447265
 20
101.5999970436096
 30
0.0
 40
381.3957395593833
 41
218.2856291881582
 69
     0
 12
133.3499908447265
 22
101.5999970436096
 13
0.0
 23
0.0
 14
10.0
 24
10.0
 15
10.0
 25
10.0
 16
0.0
 26
0.0
 36
1.0
 17
0.0
 27
0.0
 37
0.0
 42
50.0
 43
0.0
 44
0.0
 45
218.2856291881582
 50
0.0
 51
0.0
 72
   100
 90
    32800
  1

281
     0
 71
     1
 74
     0
110
0.0
120
0.0
130
0.0
111
1.0
121
0.0
131
0.0
112
0.0
122
1.0
132
0.0
 79
     0
146
0.0
  0
VIEWPORT
  5
6D
330
50
100
AcDbEntity
  8
0
100
AcDbViewport
 10
133.3499939441679
 20
101.5999939441679
 30
0.0
 40
213.3599903106689
 41
162.5599903106689
 69
     0
 12
210.0
 22
148.5
 13
0.0
 23
0.0
 14
10.0
 24
10.0
 15
10.0
 25
10.0
 16
0.0
 26
0.0
 36
1.0
 17
0.0
 27
0.0
 37
0.0
 42
50.0
 43
0.0
 44
0.0
 45
324.0677920111345
 50
0.0
 51
0.0
 72
   100
 90
    32864
  1

281
     0
 71
     1
 74
     0
110
0.0
120
0.0
130
0.0
111
1.0
121
0.0
131
0.0
112
0.0
122
1.0
132
0.0
 79
     0
146
0.0
  0
ENDBLK
  5
53
330
50
100
AcDbEntity
  8
0
100
AcDbBlockEnd
  0
BLOCK
  5
8A
330
86
100
AcDbEntity
  8
0
100
AcDbBlockBegin
  2
_Open30
 70
     0
 10
0.0
 20
0.0
 30
0.0
  3
_Open30
  1

  0
LINE
  5
87
330
86
100
AcDbEntity
  8
0
  6
ByBlock
 62
     0
370
    -2
100
AcDbLine
 10
-1.0
 20
0.267949
 30
0.0
 11
0.0
 21
0.0
 31
0.0
  0
LINE
  5
88
330
86
100
AcDbEntity
  8
0
  6
ByBlock
 62
     0
370
    -2
100
AcDbLine
 10
0.0
 20
0.0
 30
0.0
 11
-1.0
 21
-0.267949
 31
0.0
  0
LINE
  5
89
330
86
100
AcDbEntity
  8
0
  6
ByBlock
 62
     0
370
    -2
100
AcDbLine
 10
0.0
 20
0.0
 30
0.0
 11
-1.0
 21
0.0
 31
0.0
  0
ENDBLK
  5
8B
330
86
100
AcDbEntity
  8
0
100
AcDbBlockEnd
  0
ENDSEC
  0
SECTION
  2
ENTITIES
  0
CIRCLE
  5
7C0
330
1F
100
AcDbEntity
  8
0
  6
Continuous
 62
     7
100
AcDbCircle
 10
-172.6519
 20
-47.13969999999998
 30
0.0
 40
5.0
  0
CIRCLE
  5
7C1
330
1F
100
AcDbEntity
  8
0
  6
Continuous
 62
     7
100
AcDbCircle
 10
-172.6519
 20
-47.13969999999998
 30
0.0
 40
4.5
  0
ARC
  5
7C2
330
1F
100
AcDbEntity
  8
0
  6
Continuous
 62
     7
100
AcDbCircle
 10
-134.9318483567752
 20
-57.9398351197251
 30
0.0
 40
3.999964880608267
100
AcDbArc
 50
201.5657966818043
 51
269.9992602588025
  0
ARC
  5
7C3
330
1F
100
AcDbEntity
  8
0
  6
Continuous
 62
     7
100
AcDbCircle
 10
-210.3723246170678
 20
-57.93981673960613
 30
0.0
 40
3.999983261104194
100
AcDbArc
 50
269.9989202145169
 51
338.4324840503586
  0
ARC
  5
7C4
330
1F
100
AcDbEntity
  8
0
  6
Continuous
 62
     7
100
AcDbCircle
 10
-235.4206942580895
 20
-57.93979573359408
 30
0.0
 40
4.000032241113678
100
AcDbArc
 50
273.8501953721244
 51
339.3766419212516
  0
ARC
  5
7C5
330
1F
100
AcDbEntity
  8
0
  6
Continuous
 62
     7
100
AcDbCircle
 10
-207.3761866455298
 20
-47.63969091905215
 30
0.0
 40
5.000009080965672
100
AcDbArc
 50
269.9998469693218
 51
338.4310180405232
  0
ARC
  5
7C6
330
1F
100
AcDbEntity
  8
0
  6
Continuous
 62
     7
100
AcDbCircle
 10
-137.9279863244784
 20
-47.6397092995547
 30
0.0
 40
4.999990700464012
100
AcDbArc
 50
201.5676065398716
 51
269.9998432897746
  0
ARC
  5
7C7
330
1F
100
AcDbEntity
  8
0
  6
Continuous
 62
     7
100
AcDbCircle
 10
-153.0922665291979
 20
-44.63972276104519
 30
0.0
 40
8.00002276111523
100
AcDbArc
 50
21.5662496322543
 51
90.00023971628079
  0
ARC
  5
7C8
330
1F
100
AcDbEntity
  8
0
  6
Continuous
 62
     7
100
AcDbCircle
 10
-192.211933470802
 20
-44.63972276104519
 30
0.0
 40
8.00002276111522
100
AcDbArc
 50
89.9997602837192
 51
158.4337503677456
  0
ARC
  5
7C9
330
1F
100
AcDbEntity
  8
0
  6
Continuous
 62
     7
100
AcDbCircle
 10
-109.8837462903146
 20
-57.9398399067043
 30
0.0
 40
3.999978732508798
100
AcDbArc
 50
200.6229704674189
 51
266.1517708153784
  0
ARC
  5
7CA
330
1F
100
AcDbEntity
  8
0
  6
Continuous
 62
     7
100
AcDbCircle
 10
-120.304907396186
 20
-58.63969488081985
 30
0.0
 40
5.999994880824406
100
AcDbArc
 50
20.62292259207651
 51
89.99992937156667
  0
ARC
  5
7CB
330
1F
100
AcDbEntity
  8
0
  6
Continuous
 62
     7
100
AcDbCircle
 10
-224.9992926032583
 20
-58.63969488052646
 30
0.0
 40
5.999994881241079
100
AcDbArc
 50
89.99911570326679
 51
159.3770774124139
  0
ARC
  5
7CC
330
1F
100
AcDbEntity
  8
0
  6
Continuous
 62
     7
100
AcDbCircle
 10
-84.87395535316847
 20
-56.80575901880104
 30
0.0
 40
1.499947772866503
100
AcDbArc
 50
273.1780404689851
 51
351.9194265951436
  0
ARC
  5
7CD
330
1F
100
AcDbEntity
  8
0
  6
Continuous
 62
     7
100
AcDbCircle
 10
-578.4248775952128
 20
13.25897395028758
 30
0.0
 40
499.9999818927815
100
AcDbArc
 50
351.9201670667946
 51
355.8793831625994
  0
ARC
  5
7CE
330
1F
100
AcDbEntity
  8
0
  6
Continuous
 62
     7
100
AcDbCircle
 10
-578.4247074161331
 20
13.26053572303383
 30
0.0
 40
498.7997887392275
100
AcDbArc
 50
352.8155090438958
 51
354.5412541805831
  0
ARC
  5
7CF
330
1F
100
AcDbEntity
  8
0
  6
Continuous
 62
     7
100
AcDbCircle
 10
-78.72068979153846
 20
-22.74029049980553
 30
0.0
 40
0.9999904998576479
100
AcDbArc
 50
90.00058490731573
 51
175.8831267207393
  0
ARC
  5
7D0
330
1F
100
AcDbEntity
  8
0
  6
Continuous
 62
     7
100
AcDbCircle
 10
-77.65190000000003
 20
-20.74009999999999
 30
0.0
 40
1.0
100
AcDbArc
 50
270.0
 51
0.0
  0
ARC
  5
7D1
330
1F
100
AcDbEntity
  8
0
  6
Continuous
 62
     7
100
AcDbCircle
 10
-317.4563086557636
 20
86.36979182193744
 30
0.0
 40
7.000021301743167
100
AcDbArc
 50
90.97481997764226
 51
175.7742354486109
  0
ARC
  5
7D2
330
1F
100
AcDbEntity
  8
0
  6
Continuous
 62
     7
100
AcDbCircle
 10
-317.717026753784
 20
-56.24037505583024
 30
0.0
 40
7.000024949502827
100
AcDbArc
 50
184.0117160003528
 51
269.9977634572634
  0
ARC
  5
7D3
330
1F
100
AcDbEntity
  8
0
  6
Continuous
 62
     7
100
AcDbCircle
 10
-174.0661
 20
-47.13965
 30
0.0
 40
0.5000305615659899
100
AcDbArc
 50
315.0040511758061
 51
44.99594882419404
  0
ARC
  5
7D4
330
1F
100
AcDbEntity
  8
0
  6
Continuous
 62
     7
100
AcDbCircle
 10
-172.6518499999999
 20
-45.7254
 30
0.0
 40
0.5000305615659797
100
AcDbArc
 50
225.0040511758068
 51
314.9959488241953
  0
ARC
  5
7D5
330
1F
100
AcDbEntity
  8
0
  6
Continuous
 62
     7
100
AcDbCircle
 10
-171.2377
 20
-47.13965
 30
0.0
 40
0.4999598508880505
100
AcDbArc
 50
134.9959482512252
 51
225.0040517487746
  0
ARC
  5
7D6
330
1F
100
AcDbEntity
  8
0
  6
Continuous
 62
     7
100
AcDbCircle
 10
-172.6518499999999
 20
-48.5538
 30
0.0
 40
0.4999598508880606
100
AcDbArc
 50
44.99594825122541
 51
135.0040517487722
  0
ARC
  5
7D7
330
1F
100
AcDbEntity
  8
0
  6
Continuous
 62
     7
100
AcDbCircle
 10
-86.45194193013992
 20
-30.66415424315348
 30
0.0
 40
1.60004193105936
100
AcDbArc
 50
0.0019423889480067
 51
85.00039226780806
  0
ARC
  5
7D8
330
1F
100
AcDbEntity
  8
0
  6
Continuous
 62
     7
100
AcDbCircle
 10
-86.45189212022751
 20
-36.154591401089
 30
0.0
 40
1.599992120250581
100
AcDbArc
 50
274.9979732705777
 51
359.9996920726652
  0
ARC
  5
7D9
330
1F
100
AcDbEntity
  8
0
  6
Continuous
 62
     7
100
AcDbCircle
 10
-72.26179999358976
 20
21.64749999358809
 30
0.0
 40
0.3900000064102472
100
AcDbArc
 50
179.9999990580141
 51
269.9853078328199
  0
ARC
  5
7DA
330
1F
100
AcDbEntity
  8
0
  6
Continuous
 62
     7
100
AcDbCircle
 10
-86.45149647810802
 20
62.6715961564234
 30
0.0
 40
1.599996478112628
100
AcDbArc
 50
0.0001376382513299
 51
84.99828905335666
  0
ARC
  5
7DB
330
1F
100
AcDbEntity
  8
0
  6
Continuous
 62
     7
100
AcDbCircle
 10
-86.45164628772324
 20
57.18114948442172
 30
0.0
 40
1.600046288488431
100
AcDbArc
 50
275.0033452874509
 51
359.9982280209408
  0
ARC
  5
7DC
330
1F
100
AcDbEntity
  8
0
  6
Continuous
 62
     7
100
AcDbCircle
 10
672.8479
 20
13.2556
 30
0.0
 40
1000.000005254245
100
AcDbArc
 50
179.9997792040204
 51
184.0131658529367
  0
ARC
  5
7DD
330
1F
100
AcDbEntity
  8
0
  6
Continuous
 62
     7
100
AcDbCircle
 10
-77.65160000000003
 20
47.25699999999998
 30
0.0
 40
1.0
100
AcDbArc
 50
0.0
 51
90.0
  0
ARC
  5
7DE
330
1F
100
AcDbEntity
  8
0
  6
Continuous
 62
     7
100
AcDbCircle
 10
-78.72038979153853
 20
49.25729049980553
 30
0.0
 40
0.9999904998576328
100
AcDbArc
 50
184.1168732792604
 51
269.9994150926841
  0
ARC
  5
7DF
330
1F
100
AcDbEntity
  8
0
  6
Continuous
 62
     7
100
AcDbCircle
 10
-578.4247902119004
 20
13.26291718565697
 30
0.0
 40
498.7998451102006
100
AcDbArc
 50
5.45798905718945
 51
7.183731469102418
  0
ARC
  5
7E0
330
1F
100
AcDbEntity
  8
0
  6
Continuous
 62
     7
100
AcDbCircle
 10
-578.4245549944819
 20
13.26077886546478
 30
0.0
 40
500.0000535902528
100
AcDbArc
 50
4.120288489750646
 51
8.079501580726949
  0
ARC
  5
7E1
330
1F
100
AcDbEntity
  8
0
  6
Continuous
 62
     7
100
AcDbCircle
 10
-84.87351333212746
 20
83.3227122384727
 30
0.0
 40
1.49999769655573
100
AcDbArc
 50
8.078249441779988
 51
86.81984736295587
  0
ARC
  5
7E2
330
1F
100
AcDbEntity
  8
0
  6
Continuous
 62
     7
100
AcDbCircle
 10
-276.8964961564234
 20
95.80620352189198
 30
0.0
 40
1.599996478112628
100
AcDbArc
 50
90.00013763825247
 51
174.9982890533573
  0
ARC
  5
7E3
330
1F
100
AcDbEntity
  8
0
  6
Continuous
 62
     7
100
AcDbCircle
 10
-271.4060038435765
 20
95.80620352189198
 30
0.0
 40
1.599996478112663
100
AcDbArc
 50
5.001710946642586
 51
89.99986236174754
  0
ARC
  5
7E4
330
1F
100
AcDbEntity
  8
0
  6
Continuous
 62
     7
100
AcDbCircle
 10
-82.88670000000001
 20
-24.2896
 30
0.0
 40
1.0
100
AcDbArc
 50
0.0
 51
90.0
  0
ARC
  5
7E5
330
1F
100
AcDbEntity
  8
0
  6
Continuous
 62
     7
100
AcDbCircle
 10
-82.88639999999999
 20
50.8066
 30
0.0
 40
1.0
100
AcDbArc
 50
270.0
 51
0.0
  0
ARC
  5
7E6
330
1F
100
AcDbEntity
  8
0
  6
Continuous
 62
    30
100
AcDbCircle
 10
-237.4020999999999
 20
-9.351100000000002
 30
0.0
 40
5.499828998250761
100
AcDbArc
 50
60.00017441516297
 51
119.9998255848369
  0
ARC
  5
7E7
330
1F
100
AcDbEntity
  8
0
  6
Continuous
 62
    30
100
AcDbCircle
 10
-223.9030893519214
 20
-4.753896397948068
 30
0.0
 40
1.599968644965784
100
AcDbArc
 50
78.68971383456951
 51
138.6897782537344
  0
ARC
  5
7E8
330
1F
100
AcDbEntity
  8
0
  6
Continuous
 62
     7
100
AcDbCircle
 10
-234.6520836510129
 20
13.26000000021315
 30
0.0
 40
9.99997952496566
100
AcDbArc
 50
320.0879236935879
 51
219.9135702903878
  0
ARC
  5
7E9
330
1F
100
AcDbEntity
  8
0
  6
Continuous
 62
    30
100
AcDbCircle
 10
-242.9977676206394
 20
-2.641610954764228
 30
0.0
 40
1.600055231494081
100
AcDbArc
 50
221.3071464253101
 51
281.3088724610076
  0
ARC
  5
7EA
330
1F
100
AcDbEntity
  8
0
  6
Continuous
 62
     7
100
AcDbCircle
 10
-234.6521
 20
13.26
 30
0.0
 40
5.5
100
AcDbArc
 50
0.0
 51
180.0
  0
ARC
  5
7EB
330
1F
100
AcDbEntity
  8
0
  6
Continuous
 62
     7
100
AcDbCircle
 10
-230.7521765620224
 20
13.25928534132917
 30
0.0
 40
1.599976562089513
100
AcDbArc
 50
0.0005249326714963
 51
115.9537866702459
  0
ARC
  5
7EC
330
1F
100
AcDbEntity
  8
0
  6
Continuous
 62
     7
100
AcDbCircle
 10
-233.0521999999999
 20
16.79269999999998
 30
0.0
 40
1.599999999999994
100
AcDbArc
 50
0.0
 51
180.0
  0
ARC
  5
7ED
330
1F
100
AcDbEntity
  8
0
  6
Continuous
 62
    30
100
AcDbCircle
 10
-231.9021999999999
 20
0.1747999999999994
 30
0.0
 40
5.499742395785458
100
AcDbArc
 50
239.9996535227899
 51
300.0003464772101
  0
ARC
  5
7EE
330
1F
100
AcDbEntity
  8
0
  6
Continuous
 62
     7
100
AcDbCircle
 10
-112.2481005065345
 20
73.81372394055434
 30
0.0
 40
0.1500208796310926
100
AcDbArc
 50
48.4522198005407
 51
104.7515344162162
  0
ARC
  5
7EF
330
1F
100
AcDbEntity
  8
0
  6
Continuous
 62
     7
100
AcDbCircle
 10
-115.2431972718918
 20
72.23798484649117
 30
0.0
 40
0.1499883654251988
100
AcDbArc
 50
130.6977600418505
 51
249.7136778010635
  0
ARC
  5
7F0
330
1F
100
AcDbEntity
  8
0
  6
Continuous
 62
     7
100
AcDbCircle
 10
-115.1358104188717
 20
72.19848050995754
 30
0.0
 40
0.1499797400578206
100
AcDbArc
 50
249.7178143389804
 51
310.3025325512808
  0
ARC
  5
7F1
330
1F
100
AcDbEntity
  8
0
  6
Continuous
 62
     7
100
AcDbCircle
 10
-112.157999386693
 20
73.73390252878666
 30
0.0
 40
0.150036162285059
100
AcDbArc
 50
284.2765933264179
 51
48.4579630158435
  0
ARC
  5
7F2
330
1F
100
AcDbEntity
  8
0
  6
Continuous
 62
     7
100
AcDbCircle
 10
-114.5538994934653
 20
73.81372394055434
 30
0.0
 40
0.150020879631099
100
AcDbArc
 50
75.24846558377864
 51
131.5477801994593
  0
ARC
  5
7F3
330
1F
100
AcDbEntity
  8
0
  6
Continuous
 62
     7
100
AcDbCircle
 10
-111.558802728108
 20
72.23798484649117
 30
0.0
 40
0.1499883654252254
100
AcDbArc
 50
290.2863221989416
 51
49.30223995814507
  0
ARC
  5
7F4
330
1F
100
AcDbEntity
  8
0
  6
Continuous
 62
     7
100
AcDbCircle
 10
-111.6664865596834
 20
72.19849762764879
 30
0.0
 40
0.1499947492871943
100
AcDbArc
 50
229.7008166383049
 51
290.278836471425
  0
ARC
  5
7F5
330
1F
100
AcDbEntity
  8
0
  6
Continuous
 62
     7
100
AcDbCircle
 10
-114.6440006133066
 20
73.73390252878666
 30
0.0
 40
0.1500361622850637
100
AcDbArc
 50
131.542036984152
 51
255.7234066735869
  0
ARC
  5
7F6
330
1F
100
AcDbEntity
  8
0
  6
Continuous
 62
     7
100
AcDbCircle
 10
-114.1312976366466
 20
73.31957347792259
 30
0.0
 40
0.0999893458874294
100
AcDbArc
 50
299.2110736787645
 51
70.97315657022917
  0
ARC
  5
7F7
330
1F
100
AcDbEntity
  8
0
  6
Continuous
 62
     7
100
AcDbCircle
 10
-110.3223231746824
 20
66.51948378416739
 30
0.0
 40
7.694371647782558
100
AcDbArc
 50
119.2529308278478
 51
130.7097182324685
  0
ARC
  5
7F8
330
1F
100
AcDbEntity
  8
0
  6
Continuous
 62
     7
100
AcDbCircle
 10
-116.4803009388049
 20
66.51967992056239
 30
0.0
 40
7.294368312026837
100
AcDbArc
 50
70.94360889506758
 51
75.72108124126732
  0
ARC
  5
7F9
330
1F
100
AcDbEntity
  8
0
  6
Continuous
 62
     7
100
AcDbCircle
 10
-112.6707023633532
 20
73.31957347792259
 30
0.0
 40
0.0999893458874199
100
AcDbArc
 50
109.0268434297708
 51
240.7889263212353
  0
ARC
  5
7FA
330
1F
100
AcDbEntity
  8
0
  6
Continuous
 62
     7
100
AcDbCircle
 10
-110.3213238001897
 20
66.51979232356956
 30
0.0
 40
7.294351947334387
100
AcDbArc
 50
104.2819930643019
 51
109.0587230067519
  0
ARC
  5
7FB
330
1F
100
AcDbEntity
  8
0
  6
Continuous
 62
     7
100
AcDbCircle
 10
-116.4796768253175
 20
66.51948378416739
 30
0.0
 40
7.694371647782558
100
AcDbArc
 50
49.29028176753142
 51
60.74706917215213
  0
ARC
  5
7FC
330
1F
100
AcDbEntity
  8
0
  6
Continuous
 62
     7
100
AcDbCircle
 10
-113.4011499999999
 20
74.00539999999998
 30
0.0
 40
0.4000620233163735
100
AcDbArc
 50
247.6467404179327
 51
292.353259582069
  0
ARC
  5
7FD
330
1F
100
AcDbEntity
  8
0
  6
Continuous
 62
     7
100
AcDbCircle
 10
-116.4797815889355
 20
66.51952741388235
 30
0.0
 40
7.694372544112467
100
AcDbArc
 50
67.64441852862195
 51
75.21088445056268
  0
ARC
  5
7FE
330
1F
100
AcDbEntity
  8
0
  6
Continuous
 62
     7
100
AcDbCircle
 10
-110.3222184110643
 20
66.51952741388234
 30
0.0
 40
7.694372544112472
100
AcDbArc
 50
104.7891155494373
 51
112.355581471378
  0
ARC
  5
7FF
330
1F
100
AcDbEntity
  8
0
  6
Continuous
 62
     7
100
AcDbCircle
 10
-113.4010999999998
 20
72.68819999999998
 30
0.0
 40
0.3999879623188698
100
AcDbArc
 50
63.47979121723039
 51
116.5202087827695
  0
ARC
  5
800
330
1F
100
AcDbEntity
  8
0
  6
Continuous
 62
     7
100
AcDbCircle
 10
-116.4796639658717
 20
66.51947623822157
 30
0.0
 40
7.294329315511942
100
AcDbArc
 50
49.71785311777462
 51
63.47849278252715
  0
ARC
  5
801
330
1F
100
AcDbEntity
  8
0
  6
Continuous
 62
     7
100
AcDbCircle
 10
-110.3223360341282
 20
66.51947623822157
 30
0.0
 40
7.294329315511942
100
AcDbArc
 50
116.5215072174728
 51
130.2821468822253
  0
ARC
  5
802
330
1F
100
AcDbEntity
  8
0
  6
Continuous
 62
     7
100
AcDbCircle
 10
-115.6168997047613
 20
72.26029739552534
 30
0.0
 40
1.200026203877694
100
AcDbArc
 50
151.5597675600801
 51
221.3749153477754
  0
ARC
  5
803
330
1F
100
AcDbEntity
  8
0
  6
Continuous
 62
     7
100
AcDbCircle
 10
-111.1848042579774
 20
72.2602624108172
 30
0.0
 40
1.200006053555114
100
AcDbArc
 50
318.6264631744661
 51
28.44808339988917
  0
ARC
  5
804
330
1F
100
AcDbEntity
  8
0
  6
Continuous
 62
     7
100
AcDbCircle
 10
-113.4008440421948
 20
74.21220000089777
 30
0.0
 40
4.15312181158568
100
AcDbArc
 50
221.3759346341363
 51
318.6259038314354
  0
ARC
  5
805
330
1F
100
AcDbEntity
  8
0
  6
Continuous
 62
     7
100
AcDbCircle
 10
-113.4009229124312
 20
71.05979999964977
 30
0.0
 40
3.720341106602321
100
AcDbArc
 50
28.44755658091999
 51
151.5541949676036
  0
ARC
  5
806
330
1F
100
AcDbEntity
  8
0
  6
Continuous
 62
     7
100
AcDbCircle
 10
-245.2475005065345
 20
73.81372394055434
 30
0.0
 40
0.1500208796310926
100
AcDbArc
 50
48.4522198005407
 51
104.7515344162162
  0
ARC
  5
807
330
1F
100
AcDbEntity
  8
0
  6
Continuous
 62
     7
100
AcDbCircle
 10
-248.2425972718917
 20
72.23798484649115
 30
0.0
 40
0.1499883654252003
100
AcDbArc
 50
130.6977600418422
 51
249.7136778010618
  0
ARC
  5
808
330
1F
100
AcDbEntity
  8
0
  6
Continuous
 62
     7
100
AcDbCircle
 10
-248.1351134403165
 20
72.19849762764879
 30
0.0
 40
0.1499947492871914
100
AcDbArc
 50
249.7211635285697
 51
310.2991833616948
  0
ARC
  5
809
330
1F
100
AcDbEntity
  8
0
  6
Continuous
 62
     7
100
AcDbCircle
 10
-245.1573049420086
 20
73.73387962311034
 30
0.0
 40
0.1499906982461277
100
AcDbArc
 50
284.2437878155548
 51
48.49076852670219
  0
ARC
  5
80A
330
1F
100
AcDbEntity
  8
0
  6
Continuous
 62
     7
100
AcDbCircle
 10
-247.5532941242334
 20
73.81370139960163
 30
0.0
 40
0.1500413108564512
100
AcDbArc
 50
75.25264007856326
 51
131.5436057046631
  0
ARC
  5
80B
330
1F
100
AcDbEntity
  8
0
  6
Continuous
 62
     7
100
AcDbCircle
 10
-244.5582027281079
 20
72.23798484649117
 30
0.0
 40
0.1499883654252205
100
AcDbArc
 50
290.2863221989363
 51
49.30223995814507
  0
ARC
  5
80C
330
1F
100
AcDbEntity
  8
0
  6
Continuous
 62
     7
100
AcDbCircle
 10
-244.6658865596834
 20
72.19849762764879
 30
0.0
 40
0.1499947492871943
100
AcDbArc
 50
229.7008166383049
 51
290.2788364714302
  0
ARC
  5
80D
330
1F
100
AcDbEntity
  8
0
  6
Continuous
 62
     7
100
AcDbCircle
 10
-247.6434006133066
 20
73.73390252878666
 30
0.0
 40
0.1500361622850543
100
AcDbArc
 50
131.5420369841497
 51
255.7234066735937
  0
ARC
  5
80E
330
1F
100
AcDbEntity
  8
0
  6
Continuous
 62
     7
100
AcDbCircle
 10
-247.1306976366464
 20
73.31957347792259
 30
0.0
 40
0.0999893458874225
100
AcDbArc
 50
299.2110736787571
 51
70.97315657023606
  0
ARC
  5
80F
330
1F
100
AcDbEntity
  8
0
  6
Continuous
 62
     7
100
AcDbCircle
 10
-243.3217231746823
 20
66.51948378416739
 30
0.0
 40
7.69437164778257
100
AcDbArc
 50
119.2529308278478
 51
130.7097182324685
  0
ARC
  5
810
330
1F
100
AcDbEntity
  8
0
  6
Continuous
 62
     7
100
AcDbCircle
 10
-249.4797009388048
 20
66.51967992056239
 30
0.0
 40
7.294368312026832
100
AcDbArc
 50
70.94360889506758
 51
75.72108124126732
  0
ARC
  5
811
330
1F
100
AcDbEntity
  8
0
  6
Continuous
 62
     7
100
AcDbCircle
 10
-245.6700031511379
 20
73.31956463723013
 30
0.0
 40
0.1000300891709329
100
AcDbArc
 50
109.0789151820085
 51
240.7368545689962
  0
ARC
  5
812
330
1F
100
AcDbEntity
  8
0
  6
Continuous
 62
     7
100
AcDbCircle
 10
-243.3207238001897
 20
66.51979232356957
 30
0.0
 40
7.294351947334387
100
AcDbArc
 50
104.2819930643035
 51
109.0587230067519
  0
ARC
  5
813
330
1F
100
AcDbEntity
  8
0
  6
Continuous
 62
     7
100
AcDbCircle
 10
-249.4790768253176
 20
66.51948378416742
 30
0.0
 40
7.694371647782547
100
AcDbArc
 50
49.29028176753142
 51
60.74706917215213
  0
ARC
  5
814
330
1F
100
AcDbEntity
  8
0
  6
Continuous
 62
     7
100
AcDbCircle
 10
-246.40055
 20
74.00539999999998
 30
0.0
 40
0.4000620233163679
100
AcDbArc
 50
247.6467404179345
 51
292.353259582069
  0
ARC
  5
815
330
1F
100
AcDbEntity
  8
0
  6
Continuous
 62
     7
100
AcDbCircle
 10
-249.4791815889355
 20
66.51952741388237
 30
0.0
 40
7.694372544112463
100
AcDbArc
 50
67.64441852862195
 51
75.21088445056268
  0
ARC
  5
816
330
1F
100
AcDbEntity
  8
0
  6
Continuous
 62
     7
100
AcDbCircle
 10
-243.3216184110642
 20
66.51952741388234
 30
0.0
 40
7.694372544112469
100
AcDbArc
 50
104.7891155494373
 51
112.355581471378
  0
ARC
  5
817
330
1F
100
AcDbEntity
  8
0
  6
Continuous
 62
     7
100
AcDbCircle
 10
-246.4004999999999
 20
72.68819999999998
 30
0.0
 40
0.3999879623188635
100
AcDbArc
 50
63.4797912172322
 51
116.5202087827714
  0
ARC
  5
818
330
1F
100
AcDbEntity
  8
0
  6
Continuous
 62
     7
100
AcDbCircle
 10
-249.4790639658716
 20
66.51947623822157
 30
0.0
 40
7.294329315511935
100
AcDbArc
 50
49.71785311777462
 51
63.47849278252715
  0
ARC
  5
819
330
1F
100
AcDbEntity
  8
0
  6
Continuous
 62
     7
100
AcDbCircle
 10
-243.3217360341281
 20
66.51947623822156
 30
0.0
 40
7.294329315511963
100
AcDbArc
 50
116.5215072174728
 51
130.2821468822253
  0
ARC
  5
81A
330
1F
100
AcDbEntity
  8
0
  6
Continuous
 62
     7
100
AcDbCircle
 10
-248.6162997047613
 20
72.26029739552536
 30
0.0
 40
1.20002620387771
100
AcDbArc
 50
151.5597675600808
 51
221.3749153477754
  0
ARC
  5
81B
330
1F
100
AcDbEntity
  8
0
  6
Continuous
 62
     7
100
AcDbCircle
 10
-244.1842042579775
 20
72.26026241081722
 30
0.0
 40
1.200006053555123
100
AcDbArc
 50
318.6264631744658
 51
28.44808339988723
  0
ARC
  5
81C
330
1F
100
AcDbEntity
  8
0
  6
Continuous
 62
     7
100
AcDbCircle
 10
-246.4002440421948
 20
74.21220000089777
 30
0.0
 40
4.15312181158568
100
AcDbArc
 50
221.3759346341363
 51
318.6259038314336
  0
ARC
  5
81D
330
1F
100
AcDbEntity
  8
0
  6
Continuous
 62
     7
100
AcDbCircle
 10
-246.4003229124314
 20
71.05979999964977
 30
0.0
 40
3.720341106602346
100
AcDbArc
 50
28.44755658091981
 51
151.5541949676036
  0
ARC
  5
81E
330
1F
100
AcDbEntity
  8
0
  6
Continuous
 62
     7
100
AcDbCircle
 10
-121.4981533824996
 20
78.77752520411977
 30
0.0
 40
4.999993227786299
100
AcDbArc
 50
54.5711553779882
 51
71.37268499279921
  0
ARC
  5
81F
330
1F
100
AcDbEntity
  8
0
  6
Continuous
 62
     7
100
AcDbCircle
 10
-237.3615146698026
 20
63.80520745044586
 30
0.0
 40
5.00000745046737
100
AcDbArc
 50
216.1499555795479
 51
270.0001681033032
  0
ARC
  5
820
330
1F
100
AcDbEntity
  8
0
  6
Continuous
 62
     7
100
AcDbCircle
 10
-122.4405058354397
 20
63.8052478227692
 30
0.0
 40
5.000047823655891
100
AcDbArc
 50
269.9989209639447
 51
323.8498094685025
  0
ARC
  5
821
330
1F
100
AcDbEntity
  8
0
  6
Continuous
 62
     7
100
AcDbCircle
 10
-112.8430999999999
 20
72.93404999999999
 30
0.0
 40
4.999985406228706
100
AcDbArc
 50
323.8506751751863
 51
36.14932482481351
  0
ARC
  5
822
330
1F
100
AcDbEntity
  8
0
  6
Continuous
 62
     7
100
AcDbCircle
 10
-124.9010999999998
 20
103.0302999999999
 30
0.0
 40
5.0
100
AcDbArc
 50
0.0
 51
90.0
  0
ARC
  5
823
330
1F
100
AcDbEntity
  8
0
  6
Continuous
 62
     7
100
AcDbCircle
 10
-238.3037466175004
 20
78.77752520411977
 30
0.0
 40
4.999993227786301
100
AcDbArc
 50
108.6273150072006
 51
125.4288446220117
  0
ARC
  5
824
330
1F
100
AcDbEntity
  8
0
  6
Continuous
 62
     7
100
AcDbCircle
 10
-234.9007999999999
 20
103.0302999999999
 30
0.0
 40
5.0
100
AcDbArc
 50
90.0
 51
180.0
  0
ARC
  5
825
330
1F
100
AcDbEntity
  8
0
  6
Continuous
 62
     7
100
AcDbCircle
 10
-246.9588999999999
 20
72.93404999999999
 30
0.0
 40
4.999985406228693
100
AcDbArc
 50
143.8506751751865
 51
216.1493248248135
  0
ARC
  5
826
330
1F
100
AcDbEntity
  8
0
  6
Continuous
 62
    30
100
AcDbCircle
 10
-245.4013209164802
 20
-4.753926752520839
 30
0.0
 40
1.599996396255335
100
AcDbArc
 50
41.31079549993724
 51
101.3097124117595
  0
ARC
  5
827
330
1F
100
AcDbEntity
  8
0
  6
Continuous
 62
    30
100
AcDbCircle
 10
-224.7910323793604
 20
-2.128910954764219
 30
0.0
 40
1.600055231494087
100
AcDbArc
 50
258.6911275389906
 51
318.6928535746893
  0
ARC
  5
828
330
1F
100
AcDbEntity
  8
0
  6
Continuous
 62
    30
100
AcDbCircle
 10
-244.51338619387
 20
-2.128904671274359
 30
0.0
 40
1.600045427413741
100
AcDbArc
 50
221.3077544647636
 51
281.3059691517297
  0
ARC
  5
829
330
1F
100
AcDbEntity
  8
0
  6
Continuous
 62
    30
100
AcDbCircle
 10
-226.3066106480785
 20
-2.64160360205193
 30
0.0
 40
1.599968644965784
100
AcDbArc
 50
258.6897138345694
 51
318.6897782537343
  0
ARC
  5
82A
330
1F
100
AcDbEntity
  8
0
  6
Continuous
 62
    30
100
AcDbCircle
 10
-237.4020999999999
 20
0.1747999999999994
 30
0.0
 40
5.499742395785458
100
AcDbArc
 50
239.9996535227899
 51
300.0003464772101
  0
ARC
  5
82B
330
1F
100
AcDbEntity
  8
0
  6
Continuous
 62
     7
100
AcDbCircle
 10
-236.2521999999999
 20
16.79269999999998
 30
0.0
 40
1.599999999999994
100
AcDbArc
 50
0.0
 51
180.0
  0
ARC
  5
82C
330
1F
100
AcDbEntity
  8
0
  6
Continuous
 62
     7
100
AcDbCircle
 10
-238.5522234379775
 20
13.25928534132919
 30
0.0
 40
1.599976562089505
100
AcDbArc
 50
64.04621332975398
 51
179.9994750673286
  0
ARC
  5
82D
330
1F
100
AcDbEntity
  8
0
  6
Continuous
 62
     7
100
AcDbCircle
 10
-272.7104039853921
 20
-28.3392009465885
 30
0.0
 40
0.1875189989927051
100
AcDbArc
 50
255.2015543053915
 51
311.5204573902983
  0
ARC
  5
82E
330
1F
100
AcDbEntity
  8
0
  6
Continuous
 62
     7
100
AcDbCircle
 10
-276.4541052333681
 20
-26.36972903469016
 30
0.0
 40
0.1874571127740804
100
AcDbArc
 50
110.2867079188319
 51
229.2781119741519
  0
ARC
  5
82F
330
1F
100
AcDbEntity
  8
0
  6
Continuous
 62
     7
100
AcDbCircle
 10
-276.3197796851586
 20
-26.3199035785542
 30
0.0
 40
0.1874420965911817
100
AcDbArc
 50
49.722419495744
 51
110.2967307596504
  0
ARC
  5
830
330
1F
100
AcDbEntity
  8
0
  6
Continuous
 62
     7
100
AcDbCircle
 10
-272.5976897120858
 20
-28.23934242941293
 30
0.0
 40
0.1875447895674405
100
AcDbArc
 50
311.5484671614738
 51
75.71061366106495
  0
ARC
  5
831
330
1F
100
AcDbEntity
  8
0
  6
Continuous
 62
     7
100
AcDbCircle
 10
-275.5925223297781
 20
-28.33919469327179
 30
0.0
 40
0.1875062384914811
100
AcDbArc
 50
228.4868297533463
 51
284.7761887976243
  0
ARC
  5
832
330
1F
100
AcDbEntity
  8
0
  6
Continuous
 62
     7
100
AcDbCircle
 10
-271.8488947666318
 20
-26.36972903469016
 30
0.0
 40
0.1874571127740868
100
AcDbArc
 50
310.7218880258479
 51
69.71329208116799
  0
ARC
  5
833
330
1F
100
AcDbEntity
  8
0
  6
Continuous
 62
     7
100
AcDbCircle
 10
-271.9831864375734
 20
-26.31989761219757
 30
0.0
 40
0.1874594484424983
100
AcDbArc
 50
69.68368154751492
 51
130.2866590019489
  0
ARC
  5
834
330
1F
100
AcDbEntity
  8
0
  6
Continuous
 62
     7
100
AcDbCircle
 10
-275.705301445202
 20
-28.23930596794244
 30
0.0
 40
0.1875116395381726
100
AcDbArc
 50
104.2947545541947
 51
228.479767927644
  0
ARC
  5
835
330
1F
100
AcDbEntity
  8
0
  6
Continuous
 62
     7
100
AcDbCircle
 10
-275.0645042272216
 20
-27.72154731156426
 30
0.0
 40
0.1250001709748619
100
AcDbArc
 50
289.0524379877025
 51
60.73608332889239
  0
ARC
  5
836
330
1F
100
AcDbEntity
  8
0
  6
Continuous
 62
     7
100
AcDbCircle
 10
-270.3031088482969
 20
-19.22136378475292
 30
0.0
 40
9.617933358192015
100
AcDbArc
 50
229.2885883989581
 51
240.7454620859146
  0
ARC
  5
837
330
1F
100
AcDbEntity
  8
0
  6
Continuous
 62
     7
100
AcDbCircle
 10
-277.999462339398
 20
-19.22119894761004
 30
0.0
 40
9.117929367228823
100
AcDbArc
 50
284.2723945870888
 51
289.0495522129721
  0
ARC
  5
838
330
1F
100
AcDbEntity
  8
0
  6
Continuous
 62
     7
100
AcDbCircle
 10
-273.2387957727784
 20
-27.72154731156428
 30
0.0
 40
0.125000170974845
100
AcDbArc
 50
119.2639166710814
 51
250.9475620122957
  0
ARC
  5
839
330
1F
100
AcDbEntity
  8
0
  6
Continuous
 62
     7
100
AcDbCircle
 10
-270.3031624883549
 20
-19.22131122773001
 30
0.0
 40
9.117913053076716
100
AcDbArc
 50
250.9485830516052
 51
255.7251467038446
  0
ARC
  5
83A
330
1F
100
AcDbEntity
  8
0
  6
Continuous
 62
     7
100
AcDbCircle
 10
-277.9998911517029
 20
-19.22136378475292
 30
0.0
 40
9.617933358192015
100
AcDbArc
 50
299.2545379140853
 51
310.7114116010418
  0
ARC
  5
83B
330
1F
100
AcDbEntity
  8
0
  6
Continuous
 62
     7
100
AcDbCircle
 10
-274.1515999999999
 20
-28.5787
 30
0.0
 40
0.4999897998959403
100
AcDbArc
 50
67.64105744184019
 51
112.358942558165
  0
ARC
  5
83C
330
1F
100
AcDbEntity
  8
0
  6
Continuous
 62
     7
100
AcDbCircle
 10
-277.9995256137414
 20
-19.22120781570468
 30
0.0
 40
9.617944883976733
100
AcDbArc
 50
284.7874454531465
 51
292.3536912054493
  0
ARC
  5
83D
330
1F
100
AcDbEntity
  8
0
  6
Continuous
 62
     7
100
AcDbCircle
 10
-270.3032011652151
 20
-19.22129960849548
 30
0.0
 40
9.617925870997256
100
AcDbArc
 50
247.6451464578585
 51
255.2108412575097
  0
ARC
  5
83E
330
1F
100
AcDbEntity
  8
0
  6
Continuous
 62
     7
100
AcDbCircle
 10
-274.1515999999999
 20
-26.9322
 30
0.0
 40
0.5000296491209511
100
AcDbArc
 50
243.4759439179778
 51
296.5240560820165
  0
ARC
  5
83F
330
1F
100
AcDbEntity
  8
0
  6
Continuous
 62
     7
100
AcDbCircle
 10
-277.9994716964249
 20
-19.22108351909228
 30
0.0
 40
9.117929830578475
100
AcDbArc
 50
296.5201631709573
 51
310.2809523504266
  0
ARC
  5
840
330
1F
100
AcDbEntity
  8
0
  6
Continuous
 62
     7
100
AcDbCircle
 10
-270.3033030160223
 20
-19.22123206828512
 30
0.0
 40
9.117897509830481
100
AcDbArc
 50
229.7178435184588
 51
243.4781533064813
  0
ARC
  5
841
330
1F
100
AcDbEntity
  8
0
  6
Continuous
 62
     7
100
AcDbCircle
 10
-276.9213986835956
 20
-26.39728838186453
 30
0.0
 40
1.500009178259688
100
AcDbArc
 50
138.624717077513
 51
208.4465135700246
  0
ARC
  5
842
330
1F
100
AcDbEntity
  8
0
  6
Continuous
 62
     7
100
AcDbCircle
 10
-271.3813034619615
 20
-26.39726943188402
 30
0.0
 40
1.499932166484103
100
AcDbArc
 50
331.551069439295
 51
41.37181912857565
  0
ARC
  5
843
330
1F
100
AcDbEntity
  8
0
  6
Continuous
 62
     7
100
AcDbCircle
 10
-274.1513880814252
 20
-28.83720000030594
 30
0.0
 40
5.191292620326641
100
AcDbArc
 50
41.37258820682465
 51
138.6244702293843
  0
ARC
  5
844
330
1F
100
AcDbEntity
  8
0
  6
Continuous
 62
     7
100
AcDbCircle
 10
-274.1513458265059
 20
-24.89660000132489
 30
0.0
 40
4.650351731543037
100
AcDbArc
 50
208.4445517184195
 51
331.5526457782406
  0
ARC
  5
845
330
1F
100
AcDbEntity
  8
0
  6
Continuous
 62
     7
100
AcDbCircle
 10
-72.26179999999998
 20
4.868299999999996
 30
0.0
 40
0.3899999999999997
100
AcDbArc
 50
90.0
 51
180.0
  0
ARC
  5
846
330
1F
100
AcDbEntity
  8
0
  6
Continuous
 62
     7
100
AcDbCircle
 10
672.8478835878036
 20
13.25515483184627
 30
0.0
 40
999.9999888438631
100
AcDbArc
 50
175.7774649521621
 51
179.9997536977602
  0
LINE
  5
847
330
1F
100
AcDbEntity
  8
0
  6
Continuous
 62
     7
100
AcDbLine
 10
-110.1520999999999
 20
-66.64
 30
0.0
 11
-133.6520999999999
 21
-66.6397
 31
0.0
  0
LINE
  5
848
330
1F
100
AcDbEntity
  8
0
  6
Continuous
 62
     7
100
AcDbLine
 10
-133.6520999999999
 20
-63.43979999999999
 30
0.0
 11
-110.1520999999999
 21
-63.43979999999999
 31
0.0
  0
LINE
  5
849
330
1F
100
AcDbEntity
  8
0
  6
Continuous
 62
     7
100
AcDbLine
 10
-192.2119
 20
-36.63969999999999
 30
0.0
 11
-153.0923
 21
-36.63969999999999
 31
0.0
  0
LINE
  5
84A
330
1F
100
AcDbEntity
  8
0
  6
Continuous
 62
     7
100
AcDbLine
 10
-211.6521
 20
-61.93979999999999
 30
0.0
 11
-134.9320999999999
 21
-61.93979999999999
 31
0.0
  0
LINE
  5
84B
330
1F
100
AcDbEntity
  8
0
  6
Continuous
 62
     7
100
AcDbLine
 10
-211.6521
 20
-61.93979999999999
 30
0.0
 11
-211.6521
 21
-63.43979999999999
 31
0.0
  0
LINE
  5
84C
330
1F
100
AcDbEntity
  8
0
  6
Continuous
 62
     7
100
AcDbLine
 10
-133.6520999999999
 20
-61.93979999999999
 30
0.0
 11
-133.6520999999999
 21
-63.43979999999999
 31
0.0
  0
LINE
  5
84D
330
1F
100
AcDbEntity
  8
0
  6
Continuous
 62
     7
100
AcDbLine
 10
-64.65219999999999
 20
21.2575
 30
0.0
 11
-64.65210000000002
 21
23.25819999999999
 31
0.0
  0
LINE
  5
84E
330
1F
100
AcDbEntity
  8
0
  6
Continuous
 62
     7
100
AcDbLine
 10
-211.6521
 20
-66.6397
 30
0.0
 11
-235.1520999999999
 21
-66.6397
 31
0.0
  0
LINE
  5
84F
330
1F
100
AcDbEntity
  8
0
  6
Continuous
 62
     7
100
AcDbLine
 10
-235.1520999999999
 20
-63.43979999999999
 30
0.0
 11
-211.6521
 21
-63.43979999999999
 31
0.0
  0
LINE
  5
850
330
1F
100
AcDbEntity
  8
0
  6
Continuous
 62
     7
100
AcDbLine
 10
-230.6146999999999
 20
-56.5265
 30
0.0
 11
-231.677
 21
-59.3487
 31
0.0
  0
LINE
  5
851
330
1F
100
AcDbEntity
  8
0
  6
Continuous
 62
     7
100
AcDbLine
 10
-114.6894999999999
 20
-56.5265
 30
0.0
 11
-113.6271999999999
 21
-59.3487
 31
0.0
  0
LINE
  5
852
330
1F
100
AcDbEntity
  8
0
  6
Continuous
 62
     7
100
AcDbLine
 10
-224.9992999999999
 20
-52.6397
 30
0.0
 11
-207.3762
 21
-52.6397
 31
0.0
  0
LINE
  5
853
330
1F
100
AcDbEntity
  8
0
  6
Continuous
 62
     7
100
AcDbLine
 10
-137.928
 20
-52.6397
 30
0.0
 11
-120.3048999999999
 21
-52.64
 31
0.0
  0
LINE
  5
854
330
1F
100
AcDbEntity
  8
0
  6
Continuous
 62
     7
100
AcDbLine
 10
-142.5779
 20
-49.4776
 30
0.0
 11
-138.6519
 21
-59.4102
 31
0.0
  0
LINE
  5
855
330
1F
100
AcDbEntity
  8
0
  6
DASH_CENTER
 62
    30
100
AcDbLine
 10
-122.6520999999999
 20
-72.8244
 30
0.0
 11
-122.6520999999999
 21
-55.1509
 31
0.0
  0
LINE
  5
856
330
1F
100
AcDbEntity
  8
0
  6
Continuous
 62
     7
100
AcDbLine
 10
-134.9319
 20
-61.93979999999999
 30
0.0
 11
-110.1520999999999
 21
-61.93979999999999
 31
0.0
  0
LINE
  5
857
330
1F
100
AcDbEntity
  8
0
  6
Continuous
 62
     7
100
AcDbLine
 10
-145.6522999999999
 20
-41.6991
 30
0.0
 11
-142.5779
 21
-49.4779
 31
0.0
  0
LINE
  5
858
330
1F
100
AcDbEntity
  8
0
  6
Continuous
 62
     7
100
AcDbLine
 10
-199.6519
 20
-41.6991
 30
0.0
 11
-202.7263
 21
-49.4776
 31
0.0
  0
LINE
  5
859
330
1F
100
AcDbEntity
  8
0
  6
Continuous
 62
     7
100
AcDbLine
 10
-202.7263
 20
-49.4776
 30
0.0
 11
-206.6522999999999
 21
-59.4102
 31
0.0
  0
LINE
  5
85A
330
1F
100
AcDbEntity
  8
0
  6
Continuous
 62
     7
100
AcDbLine
 10
-235.1520999999999
 20
-61.93979999999999
 30
0.0
 11
-210.3723
 21
-61.93979999999999
 31
0.0
  0
LINE
  5
85B
330
1F
100
AcDbEntity
  8
0
  6
DASH_CENTER
 62
    30
100
AcDbLine
 10
-222.6520999999999
 20
-53.9075
 30
0.0
 11
-222.6520999999999
 21
-72.46909999999998
 31
0.0
  0
LINE
  5
85C
330
1F
100
AcDbEntity
  8
0
  6
Continuous
 62
     7
100
AcDbLine
 10
-265.1518999999999
 20
-59.0394
 30
0.0
 11
-231.5746999999999
 21
-59.0394
 31
0.0
  0
LINE
  5
85D
330
1F
100
AcDbEntity
  8
0
  6
Continuous
 62
     7
100
AcDbLine
 10
-113.7434
 20
-59.0399
 30
0.0
 11
-92.65210000000001
 21
-59.04009999999999
 31
0.0
  0
LINE
  5
85E
330
1F
100
AcDbEntity
  8
0
  6
DASH_CENTER
 62
    30
100
AcDbLine
 10
-339.3057
 20
13.2583
 30
0.0
 11
-24.8745
 21
13.2583
 31
0.0
  0
LINE
  5
85F
330
1F
100
AcDbEntity
  8
0
  6
DASH_CENTER
 62
    30
100
AcDbLine
 10
-172.6520999999999
 20
-87.4783
 30
0.0
 11
-172.6517999999999
 21
117.4668
 31
0.0
  0
LINE
  5
86C
330
1F
100
AcDbEntity
  8
0
  6
DASH_CENTER
 62
    30
100
AcDbLine
 10
-165.0951999999998
 20
-47.13969999999998
 30
0.0
 11
-180.4162999999999
 21
-47.13969999999998
 31
0.0
  0
LINE
  5
86D
330
1F
100
AcDbEntity
  8
0
  6
Continuous
 62
     7
100
AcDbLine
 10
-77.65190000000003
 20
-21.74009999999999
 30
0.0
 11
-78.72069999999997
 21
-21.74009999999999
 31
0.0
  0
LINE
  5
86E
330
1F
100
AcDbEntity
  8
0
  6
Continuous
 62
     7
100
AcDbLine
 10
-84.79079999999997
 20
-58.3033
 30
0.0
 11
-92.65190000000002
 21
-58.7401
 31
0.0
  0
LINE
  5
86F
330
1F
100
AcDbEntity
  8
0
  6
Continuous
 62
     7
100
AcDbLine
 10
-83.5627
 20
-57.5345
 30
0.0
 11
-83.5627
 21
-49.1214
 31
0.0
  0
LINE
  5
870
330
1F
100
AcDbEntity
  8
0
  6
Continuous
 62
     7
100
AcDbLine
 10
-92.65160000000005
 20
-58.7401
 30
0.0
 11
-92.65190000000002
 21
13.2599
 31
0.0
  0
LINE
  5
871
330
1F
100
AcDbEntity
  8
0
  6
Continuous
 62
     7
100
AcDbLine
 10
-83.5627
 20
-23.28959999999999
 30
0.0
 11
-83.5627
 21
13.2599
 31
0.0
  0
LINE
  5
872
330
1F
100
AcDbEntity
  8
0
  6
Continuous
 62
     7
100
AcDbLine
 10
-81.88670000000001
 20
-24.2896
 30
0.0
 11
-81.88670000000001
 21
-34.18950000000001
 31
0.0
  0
LINE
  5
873
330
1F
100
AcDbEntity
  8
0
  6
DASH_CENTER
 62
    30
100
AcDbLine
 10
-73.86040000000003
 20
-33.4093
 30
0.0
 11
-102.4377
 21
-33.4093
 31
0.0
  0
LINE
  5
874
330
1F
100
AcDbEntity
  8
0
  6
Continuous
 62
     7
100
AcDbLine
 10
-88.15189999999995
 20
-49.1214
 30
0.0
 11
-88.15189999999995
 21
-23.28959999999999
 31
0.0
  0
LINE
  5
875
330
1F
100
AcDbEntity
  8
0
  6
Continuous
 62
     7
100
AcDbLine
 10
-83.5627
 20
-49.1214
 30
0.0
 11
-88.15189999999995
 21
-49.1214
 31
0.0
  0
LINE
  5
876
330
1F
100
AcDbEntity
  8
0
  6
Continuous
 62
     7
100
AcDbLine
 10
-84.85209999999995
 20
-31.7755
 30
0.0
 11
-81.88670000000001
 21
-31.7755
 31
0.0
  0
LINE
  5
877
330
1F
100
AcDbEntity
  8
0
  6
Continuous
 62
     7
100
AcDbLine
 10
-82.88670000000001
 20
-23.28959999999999
 30
0.0
 11
-88.15189999999995
 21
-23.28959999999999
 31
0.0
  0
LINE
  5
878
330
1F
100
AcDbEntity
  8
0
  6
Continuous
 62
     7
100
AcDbLine
 10
-265.1515999999999
 20
-63.24080000000001
 30
0.0
 11
-317.7173
 21
-63.2406
 31
0.0
  0
LINE
  5
879
330
1F
100
AcDbEntity
  8
0
  6
Continuous
 62
     7
100
AcDbLine
 10
-79.65109999999999
 20
-21.74009999999999
 30
0.0
 11
-79.65109999999999
 21
12.8236
 31
0.0
  0
LINE
  5
87A
330
1F
100
AcDbEntity
  8
0
  6
Continuous
 62
     7
100
AcDbLine
 10
-32.65195254109514
 20
6.2583
 30
0.0
 11
-32.65195254109514
 21
13.2583
 31
0.0
  0
LINE
  5
87B
330
1F
100
AcDbEntity
  8
0
  6
Continuous
 62
     7
100
AcDbLine
 10
-33.65195254109514
 20
5.2583
 30
0.0
 11
-72.26179999999998
 21
5.2583
 31
0.0
  0
LINE
  5
87C
330
1F
100
AcDbEntity
  8
0
  6
Continuous
 62
     7
100
AcDbLine
 10
-173.9954999999999
 20
-45.0889
 30
0.0
 11
-174.7025999999999
 21
-45.79600000000001
 31
0.0
  0
LINE
  5
87D
330
1F
100
AcDbEntity
  8
0
  6
Continuous
 62
     7
100
AcDbLine
 10
-170.6013
 20
-48.483
 30
0.0
 11
-171.3084999999999
 21
-49.19019999999999
 31
0.0
  0
LINE
  5
87E
330
1F
100
AcDbEntity
  8
0
  6
Continuous
 62
     7
100
AcDbLine
 10
-170.6013
 20
-45.7962
 30
0.0
 11
-171.3084999999999
 21
-45.0891
 31
0.0
  0
LINE
  5
87F
330
1F
100
AcDbEntity
  8
0
  6
Continuous
 62
     7
100
AcDbLine
 10
-173.9954999999999
 20
-49.1903
 30
0.0
 11
-174.7025999999999
 21
-48.4832
 31
0.0
  0
LINE
  5
880
330
1F
100
AcDbEntity
  8
0
  6
Continuous
 62
     7
100
AcDbLine
 10
-173.0054
 20
-46.0789
 30
0.0
 11
-173.9954999999999
 21
-45.0889
 31
0.0
  0
LINE
  5
881
330
1F
100
AcDbEntity
  8
0
  6
Continuous
 62
     7
100
AcDbLine
 10
-173.7124999999999
 20
-47.49319999999999
 30
0.0
 11
-174.7025999999999
 21
-48.4832
 31
0.0
  0
LINE
  5
882
330
1F
100
AcDbEntity
  8
0
  6
Continuous
 62
     7
100
AcDbLine
 10
-173.0054
 20
-48.2003
 30
0.0
 11
-173.9954999999999
 21
-49.1903
 31
0.0
  0
LINE
  5
883
330
1F
100
AcDbEntity
  8
0
  6
Continuous
 62
     7
100
AcDbLine
 10
-173.7124999999999
 20
-46.78609999999999
 30
0.0
 11
-174.7025999999999
 21
-45.79600000000001
 31
0.0
  0
LINE
  5
884
330
1F
100
AcDbEntity
  8
0
  6
Continuous
 62
     7
100
AcDbLine
 10
-171.3084999999999
 20
-45.0891
 30
0.0
 11
-172.2983
 21
-46.0789
 31
0.0
  0
LINE
  5
885
330
1F
100
AcDbEntity
  8
0
  6
Continuous
 62
     7
100
AcDbLine
 10
-170.6013
 20
-45.7962
 30
0.0
 11
-171.5911999999998
 21
-46.78609999999999
 31
0.0
  0
LINE
  5
886
330
1F
100
AcDbEntity
  8
0
  6
Continuous
 62
     7
100
AcDbLine
 10
-170.6013
 20
-48.483
 30
0.0
 11
-171.5911999999998
 21
-47.49319999999999
 31
0.0
  0
LINE
  5
887
330
1F
100
AcDbEntity
  8
0
  6
Continuous
 62
     7
100
AcDbLine
 10
-171.3084999999999
 20
-49.19019999999999
 30
0.0
 11
-172.2983
 21
-48.2003
 31
0.0
  0
LINE
  5
888
330
1F
100
AcDbEntity
  8
0
  6
Continuous
 62
     7
100
AcDbLine
 10
-76.65189999999995
 20
4.859499999999997
 30
0.0
 11
-72.65190000000003
 21
4.859499999999997
 31
0.0
  0
LINE
  5
889
330
1F
100
AcDbEntity
  8
0
  6
Continuous
 62
     7
100
AcDbLine
 10
-76.65189999999995
 20
-20.74009999999999
 30
0.0
 11
-76.65189999999995
 21
13.2594
 31
0.0
  0
LINE
  5
88A
330
1F
100
AcDbEntity
  8
0
  6
Continuous
 62
     7
100
AcDbLine
 10
-88.15189999999995
 20
-37.9093
 30
0.0
 11
-88.15189999999995
 21
-28.9093
 31
0.0
  0
LINE
  5
88B
330
1F
100
AcDbEntity
  8
0
  6
Continuous
 62
     7
100
AcDbLine
 10
-84.85209999999995
 20
-30.6642
 30
0.0
 11
-84.85209999999995
 21
-36.15460000000001
 31
0.0
  0
LINE
  5
88C
330
1F
100
AcDbEntity
  8
0
  6
Continuous
 62
     7
100
AcDbLine
 10
-88.15189999999995
 20
-37.9093
 30
0.0
 11
-86.31249999999999
 21
-37.74839999999999
 31
0.0
  0
LINE
  5
88D
330
1F
100
AcDbEntity
  8
0
  6
Continuous
 62
     7
100
AcDbLine
 10
-88.15189999999995
 20
-28.9093
 30
0.0
 11
-86.31249999999999
 21
-29.0704
 31
0.0
  0
LINE
  5
88E
330
1F
100
AcDbEntity
  8
0
  6
Continuous
 62
     7
100
AcDbLine
 10
-32.65195254109514
 20
23.25819999999999
 30
0.0
 11
-32.65195254109514
 21
13.2583
 31
0.0
  0
LINE
  5
88F
330
1F
100
AcDbEntity
  8
0
  6
Continuous
 62
     7
100
AcDbLine
 10
-265.1515999999999
 20
-63.24080000000001
 30
0.0
 11
-265.1515999999999
 21
94.25920000000001
 31
0.0
  0
LINE
  5
890
330
1F
100
AcDbEntity
  8
0
  6
Continuous
 62
     7
100
AcDbLine
 10
-88.1515
 20
55.42629999999999
 30
0.0
 11
-86.31220000000002
 21
55.5874
 31
0.0
  0
LINE
  5
891
330
1F
100
AcDbEntity
  8
0
  6
Continuous
 62
     7
100
AcDbLine
 10
-88.15139999999997
 20
64.4263
 30
0.0
 11
-86.31209999999999
 21
64.2654
 31
0.0
  0
LINE
  5
892
330
1F
100
AcDbEntity
  8
0
  6
Continuous
 62
     7
100
AcDbLine
 10
-84.8517
 20
57.1811
 30
0.0
 11
-84.8517
 21
62.6716
 31
0.0
  0
LINE
  5
893
330
1F
100
AcDbEntity
  8
0
  6
Continuous
 62
     7
100
AcDbLine
 10
-88.15139999999997
 20
64.4263
 30
0.0
 11
-88.1515
 21
55.42629999999999
 31
0.0
  0
LINE
  5
894
330
1F
100
AcDbEntity
  8
0
  6
Continuous
 62
     7
100
AcDbLine
 10
-76.65160000000003
 20
47.25699999999998
 30
0.0
 11
-76.65179999999998
 21
13.2575
 31
0.0
  0
LINE
  5
895
330
1F
100
AcDbEntity
  8
0
  6
Continuous
 62
     7
100
AcDbLine
 10
-76.65179999999998
 20
21.65739999999999
 30
0.0
 11
-72.65179999999998
 21
21.65739999999999
 31
0.0
  0
LINE
  5
896
330
1F
100
AcDbEntity
  8
0
  6
Continuous
 62
     7
100
AcDbLine
 10
-33.65025254109514
 20
21.25739999999998
 30
0.0
 11
-72.26189999999997
 21
21.2575
 31
0.0
  0
LINE
  5
897
330
1F
100
AcDbEntity
  8
0
  6
Continuous
 62
     7
100
AcDbLine
 10
-79.6508
 20
48.257
 30
0.0
 11
-79.65109999999999
 21
13.6933
 31
0.0
  0
LINE
  5
898
330
1F
100
AcDbEntity
  8
0
  6
Continuous
 62
     7
100
AcDbLine
 10
-317.5753999999999
 20
93.3684
 30
0.0
 11
-265.1515999999999
 21
94.25920000000001
 31
0.0
  0
LINE
  5
899
330
1F
100
AcDbEntity
  8
0
  6
Continuous
 62
     7
100
AcDbLine
 10
-82.88639999999999
 20
49.8066
 30
0.0
 11
-88.15160000000004
 21
49.80669999999999
 31
0.0
  0
LINE
  5
89A
330
1F
100
AcDbEntity
  8
0
  6
Continuous
 62
     7
100
AcDbLine
 10
-84.8517
 20
58.2925
 30
0.0
 11
-81.88639999999997
 21
58.2924
 31
0.0
  0
LINE
  5
89B
330
1F
100
AcDbEntity
  8
0
  6
Continuous
 62
     7
100
AcDbLine
 10
-83.5623
 20
75.6384
 30
0.0
 11
-88.15139999999997
 21
75.6384
 31
0.0
  0
LINE
  5
89C
330
1F
100
AcDbEntity
  8
0
  6
Continuous
 62
     7
100
AcDbLine
 10
-88.15139999999997
 20
75.6384
 30
0.0
 11
-88.15160000000004
 21
49.80669999999999
 31
0.0
  0
LINE
  5
89D
330
1F
100
AcDbEntity
  8
0
  6
DASH_CENTER
 62
    30
100
AcDbLine
 10
-73.86000000000001
 20
59.9262
 30
0.0
 11
-102.4373999999999
 21
59.9264
 31
0.0
  0
LINE
  5
89E
330
1F
100
AcDbEntity
  8
0
  6
Continuous
 62
     7
100
AcDbLine
 10
-81.88639999999997
 20
50.8066
 30
0.0
 11
-81.88630000000001
 21
60.7065
 31
0.0
  0
LINE
  5
89F
330
1F
100
AcDbEntity
  8
0
  6
Continuous
 62
     7
100
AcDbLine
 10
-83.56250000000001
 20
49.8066
 30
0.0
 11
-83.5627
 21
13.25709999999999
 31
0.0
  0
LINE
  5
8A0
330
1F
100
AcDbEntity
  8
0
  6
Continuous
 62
     7
100
AcDbLine
 10
-32.6516
 20
20.2574
 30
0.0
 11
-33.65025254109514
 21
21.25739999999998
 31
0.0
  0
LINE
  5
8A1
330
1F
100
AcDbEntity
  8
0
  6
Continuous
 62
     7
100
AcDbLine
 10
-92.65100000000002
 20
85.25709999999998
 30
0.0
 11
-92.65179999999999
 21
13.2572
 31
0.0
  0
LINE
  5
8A2
330
1F
100
AcDbEntity
  8
0
  6
Continuous
 62
     7
100
AcDbLine
 10
-83.56220000000002
 20
84.0515
 30
0.0
 11
-83.5623
 21
75.6384
 31
0.0
  0
LINE
  5
8A3
330
1F
100
AcDbEntity
  8
0
  6
Continuous
 62
     7
100
AcDbLine
 10
-84.79020000000003
 20
84.82029999999998
 30
0.0
 11
-92.6513
 21
85.25709999999998
 31
0.0
  0
LINE
  5
8A4
330
1F
100
AcDbEntity
  8
0
  6
Continuous
 62
     7
100
AcDbLine
 10
-72.65179999999998
 20
4.8695
 30
0.0
 11
-72.65179999999998
 21
4.859499999999997
 31
0.0
  0
LINE
  5
8A5
330
1F
100
AcDbEntity
  8
0
  6
Continuous
 62
     7
100
AcDbLine
 10
-72.65190000000003
 20
21.65739999999999
 30
0.0
 11
-72.65190000000003
 21
21.6475
 31
0.0
  0
LINE
  5
8A6
330
1F
100
AcDbEntity
  8
0
  6
Continuous
 62
     7
100
AcDbLine
 10
-77.65160000000003
 20
48.257
 30
0.0
 11
-78.72039999999998
 21
48.257
 31
0.0
  0
LINE
  5
8A7
330
1F
100
AcDbEntity
  8
0
  6
DASH_CENTER
 62
    30
100
AcDbLine
 10
-274.1515999999999
 20
103.3833999999999
 30
0.0
 11
-274.1515999999999
 21
86.4919
 31
0.0
  0
LINE
  5
8A8
330
1F
100
AcDbEntity
  8
0
  6
Continuous
 62
     7
100
AcDbLine
 10
-276.8965
 20
97.40630000000001
 30
0.0
 11
-271.4059999999999
 21
97.40630000000001
 31
0.0
  0
LINE
  5
8A9
330
1F
100
AcDbEntity
  8
0
  6
Continuous
 62
     7
100
AcDbLine
 10
-269.6514
 20
94.10630000000001
 30
0.0
 11
-269.8122999999999
 21
95.94559999999999
 31
0.0
  0
LINE
  5
8AA
330
1F
100
AcDbEntity
  8
0
  6
Continuous
 62
     7
100
AcDbLine
 10
-278.6514
 20
94.10630000000001
 30
0.0
 11
-278.4902
 21
95.94559999999999
 31
0.0
  0
LINE
  5
8AB
330
1F
100
AcDbEntity
  8
0
  6
Continuous
 62
     7
100
AcDbLine
 10
-119.9010999999998
 20
85.55660000000001
 30
0.0
 11
-92.65100000000002
 21
85.5564
 31
0.0
  0
LINE
  5
8AC
330
1F
100
AcDbEntity
  8
0
  6
Continuous
 62
     7
100
AcDbLine
 10
-265.1510999999999
 20
85.5578
 30
0.0
 11
-239.9008
 21
85.55750000000001
 31
0.0
  0
LINE
  5
8AD
330
1F
100
AcDbEntity
  8
0
  6
Continuous
 62
     7
100
AcDbLine
 10
-72.65190000000003
 20
4.859499999999997
 30
0.0
 11
-72.65190000000003
 21
21.65739999999999
 31
0.0
  0
LINE
  5
8AE
330
1F
100
AcDbEntity
  8
0
  6
Continuous
 62
     7
100
AcDbLine
 10
-133.6520999999999
 20
-65.14050000000001
 30
0.0
 11
-211.6521
 21
-65.14050000000001
 31
0.0
  0
LINE
  5
8AF
330
1F
100
AcDbEntity
  8
0
  6
Continuous
 62
     7
100
AcDbLine
 10
-32.65195254109514
 20
23.25819999999999
 30
0.0
 11
-64.65219999999999
 21
23.25819999999999
 31
0.0
  0
LINE
  5
8B0
330
1F
100
AcDbEntity
  8
0
  6
Continuous
 62
     7
100
AcDbLine
 10
-33.65025254109514
 20
21.25739999999998
 30
0.0
 11
-33.65025254109514
 21
5.259199999999998
 31
0.0
  0
LINE
  5
8B1
330
1F
100
AcDbEntity
  8
0
  6
Continuous
 62
     7
100
AcDbLine
 10
-234.6521
 20
16.79269999999998
 30
0.0
 11
-234.6521
 21
-4.587900000000001
 31
0.0
  0
LINE
  5
8B2
330
1F
100
AcDbEntity
  8
0
  6
Continuous
 62
     7
100
AcDbLine
 10
-229.1522999999999
 20
-4.588099999999997
 30
0.0
 11
-229.1522999999999
 21
13.2593
 31
0.0
  0
LINE
  5
8B3
330
1F
100
AcDbEntity
  8
0
  6
Continuous
 62
     7
100
AcDbLine
 10
-231.4523
 20
-5.3064
 30
0.0
 11
-231.4523
 21
16.79269999999998
 31
0.0
  0
LINE
  5
8B4
330
1F
100
AcDbEntity
  8
0
  6
Continuous
 62
     7
100
AcDbLine
 10
-237.8521
 20
-3.869599999999998
 30
0.0
 11
-237.8521
 21
16.79269999999998
 31
0.0
  0
LINE
  5
8B5
330
1F
100
AcDbEntity
  8
0
  6
Continuous
 62
     7
100
AcDbLine
 10
-240.1520999999999
 20
-4.588099999999997
 30
0.0
 11
-240.1520999999999
 21
13.2593
 31
0.0
  0
LINE
  5
8B6
330
1F
100
AcDbEntity
  8
0
  6
Continuous
 62
     7
100
AcDbLine
 10
-223.5891
 20
-3.185099999999998
 30
0.0
 11
-229.1522999999999
 21
13.2593
 31
0.0
  0
LINE
  5
8B7
330
1F
100
AcDbEntity
  8
0
  6
Continuous
 62
     7
100
AcDbLine
 10
-245.7153
 20
-3.185099999999998
 30
0.0
 11
-240.1520999999999
 21
13.2593
 31
0.0
  0
LINE
  5
8B8
330
1F
100
AcDbEntity
  8
0
  6
DASH_CENTER
 62
    30
100
AcDbLine
 10
-113.4010999999998
 20
67.66160000000001
 30
0.0
 11
-113.4010999999998
 21
78.29000000000002
 31
0.0
  0
LINE
  5
8B9
330
1F
100
AcDbEntity
  8
0
  6
Continuous
 62
     7
100
AcDbLine
 10
-115.2951999999999
 20
72.09739999999998
 30
0.0
 11
-115.1877
 21
72.05759999999997
 31
0.0
  0
LINE
  5
8BA
330
1F
100
AcDbEntity
  8
0
  6
Continuous
 62
     7
100
AcDbLine
 10
-112.1487
 20
73.926
 30
0.0
 11
-112.0583
 21
73.84619999999998
 31
0.0
  0
LINE
  5
8BB
330
1F
100
AcDbEntity
  8
0
  6
Continuous
 62
     7
100
AcDbLine
 10
-111.5067999999999
 20
72.09739999999998
 30
0.0
 11
-111.6145
 21
72.05759999999997
 31
0.0
  0
LINE
  5
8BC
330
1F
100
AcDbEntity
  8
0
  6
Continuous
 62
     7
100
AcDbLine
 10
-114.6533
 20
73.926
 30
0.0
 11
-114.7436999999999
 21
73.84619999999998
 31
0.0
  0
LINE
  5
8BD
330
1F
100
AcDbEntity
  8
0
  6
DASH_CENTER
 62
    30
100
AcDbLine
 10
-108.0253999999999
 20
72.9341
 30
0.0
 11
-118.6752999999999
 21
72.9341
 31
0.0
  0
LINE
  5
8BE
330
1F
100
AcDbEntity
  8
0
  6
DASH_CENTER
 62
    30
100
AcDbLine
 10
-246.4004999999999
 20
67.66160000000001
 30
0.0
 11
-246.4004999999999
 21
78.29000000000002
 31
0.0
  0
LINE
  5
8BF
330
1F
100
AcDbEntity
  8
0
  6
Continuous
 62
     7
100
AcDbLine
 10
-248.2946
 20
72.09739999999998
 30
0.0
 11
-248.1870999999999
 21
72.05759999999997
 31
0.0
  0
LINE
  5
8C0
330
1F
100
AcDbEntity
  8
0
  6
Continuous
 62
     7
100
AcDbLine
 10
-245.1481
 20
73.926
 30
0.0
 11
-245.0577
 21
73.84619999999998
 31
0.0
  0
LINE
  5
8C1
330
1F
100
AcDbEntity
  8
0
  6
Continuous
 62
     7
100
AcDbLine
 10
-244.5062
 20
72.09739999999998
 30
0.0
 11
-244.6139
 21
72.05759999999997
 31
0.0
  0
LINE
  5
8C2
330
1F
100
AcDbEntity
  8
0
  6
Continuous
 62
     7
100
AcDbLine
 10
-247.6526999999999
 20
73.926
 30
0.0
 11
-247.743
 21
73.84619999999998
 31
0.0
  0
LINE
  5
8C3
330
1F
100
AcDbEntity
  8
0
  6
DASH_CENTER
 62
    30
100
AcDbLine
 10
-241.0248
 20
72.9341
 30
0.0
 11
-251.6747
 21
72.9341
 31
0.0
  0
LINE
  5
8C4
330
1F
100
AcDbEntity
  8
0
  6
Continuous
 62
     7
100
AcDbLine
 10
-241.3987999999999
 20
60.856
 30
0.0
 11
-250.9961999999999
 21
69.9846
 31
0.0
  0
LINE
  5
8C5
330
1F
100
AcDbEntity
  8
0
  6
Continuous
 62
     7
100
AcDbLine
 10
-124.9010999999998
 20
108.0303
 30
0.0
 11
-234.9007999999999
 21
108.0303
 31
0.0
  0
LINE
  5
8C6
330
1F
100
AcDbEntity
  8
0
  6
Continuous
 62
     7
100
AcDbLine
 10
-250.9961999999999
 20
75.8835
 30
0.0
 11
-241.2023
 21
82.8518
 31
0.0
  0
LINE
  5
8C7
330
1F
100
AcDbEntity
  8
0
  6
Continuous
 62
     7
100
AcDbLine
 10
-122.4406
 20
58.8052
 30
0.0
 11
-237.3607
 21
58.8052
 31
0.0
  0
LINE
  5
8C8
330
1F
100
AcDbEntity
  8
0
  6
Continuous
 62
     7
100
AcDbLine
 10
-239.9008
 20
59.7024
 30
0.0
 11
-119.9010999999998
 21
59.7024
 31
0.0
  0
LINE
  5
8C9
330
1F
100
AcDbEntity
  8
0
  6
Continuous
 62
     7
100
AcDbLine
 10
-108.8057
 20
75.8835
 30
0.0
 11
-118.5996999999999
 21
82.8518
 31
0.0
  0
LINE
  5
8CA
330
1F
100
AcDbEntity
  8
0
  6
Continuous
 62
     7
100
AcDbLine
 10
-118.4031
 20
60.856
 30
0.0
 11
-108.8057
 21
69.9846
 31
0.0
  0
LINE
  5
8CB
330
1F
100
AcDbEntity
  8
0
  6
Continuous
 62
     7
100
AcDbLine
 10
-242.6841
 20
-4.210699999999999
 30
0.0
 11
-240.1520999999999
 21
3.273899999999998
 31
0.0
  0
LINE
  5
8CC
330
1F
100
AcDbEntity
  8
0
  6
Continuous
 62
     7
100
AcDbLine
 10
-226.6204
 20
-4.210699999999999
 30
0.0
 11
-229.1522999999999
 21
3.273899999999998
 31
0.0
  0
LINE
  5
8CD
330
1F
100
AcDbEntity
  8
0
  6
DASH_CENTER
 62
    30
100
AcDbLine
 10
-274.1515999999999
 20
-20.649
 30
0.0
 11
-274.1515999999999
 21
-33.9344
 31
0.0
  0
LINE
  5
8CE
330
1F
100
AcDbEntity
  8
0
  6
DASH_CENTER
 62
    30
100
AcDbLine
 10
-265.9357999999999
 20
-27.23959999999999
 30
0.0
 11
-282.1331
 21
-27.23959999999999
 31
0.0
  0
LINE
  5
8CF
330
1F
100
AcDbEntity
  8
0
  6
Continuous
 62
     7
100
AcDbLine
 10
-276.519
 20
-26.19369999999999
 30
0.0
 11
-276.3847999999999
 21
-26.1441
 31
0.0
  0
LINE
  5
8D0
330
1F
100
AcDbEntity
  8
0
  6
Continuous
 62
     7
100
AcDbLine
 10
-272.5862
 20
-28.4796
 30
0.0
 11
-272.4734
 21
-28.3797
 31
0.0
  0
LINE
  5
8D1
330
1F
100
AcDbEntity
  8
0
  6
Continuous
 62
     7
100
AcDbLine
 10
-271.7839
 20
-26.19369999999999
 30
0.0
 11
-271.9181999999999
 21
-26.1441
 31
0.0
  0
LINE
  5
8D2
330
1F
100
AcDbEntity
  8
0
  6
Continuous
 62
     7
100
AcDbLine
 10
-275.7167999999999
 20
-28.4796
 30
0.0
 11
-275.8296
 21
-28.3797
 31
0.0
  0
LINE
  5
8D3
330
1F
100
AcDbEntity
  8
0
  6
Continuous
 62
     7
100
AcDbLine
 10
-239.9008
 20
59.7024
 30
0.0
 11
-239.9008
 21
103.0302999999999
 31
0.0
  0
LINE
  5
8D4
330
1F
100
AcDbEntity
  8
0
  6
Continuous
 62
     7
100
AcDbLine
 10
-119.9010999999998
 20
59.7024
 30
0.0
 11
-119.9010999999998
 21
103.0302999999999
 31
0.0
  0
LINE
  5
8D5
330
1F
100
AcDbEntity
  8
0
  6
Continuous
 62
     7
100
AcDbLine
 10
-133.6520999999999
 20
-66.6397
 30
0.0
 11
-133.6520999999999
 21
-65.14050000000001
 31
0.0
  0
LINE
  5
8D6
330
1F
100
AcDbEntity
  8
0
  6
Continuous
 62
     7
100
AcDbLine
 10
-211.6521
 20
-65.14050000000001
 30
0.0
 11
-211.6521
 21
-66.6397
 31
0.0
  0
LINE
  5
8D7
330
1F
100
AcDbEntity
  8
0
  6
Continuous
 62
     7
100
AcDbLine
 10
-235.1520999999999
 20
-61.93979999999999
 30
0.0
 11
-235.1520999999999
 21
-66.6397
 31
0.0
  0
LINE
  5
8D8
330
1F
100
AcDbEntity
  8
0
  6
Continuous
 62
     7
100
AcDbLine
 10
-110.1520999999999
 20
-61.93979999999999
 30
0.0
 11
-110.1520999999999
 21
-66.64
 31
0.0
  0
LINE
  5
8D9
330
1F
100
AcDbEntity
  8
0
  6
Continuous
 62
     7
100
AcDbLine
 10
-33.65195254109514
 20
5.2583
 30
0.0
 11
-32.65195254109514
 21
6.2583
 31
0.0
  0
POINT
  5
8DA
330
1F
100
AcDbEntity
  8
0
 62
     2
100
AcDbPoint
 10
-32.6533
 20
15.60329999999999
 30
0.0
  0
SPLINE
  5
92D
330
1F
100
AcDbEntity
  8
0
  6
Continuous
 62
    30
100
AcDbSpline
210
0.0
220
0.0
230
1.0
 70
     8
 71
     3
 72
    43
 73
    39
 74
    37
 42
0.0000000001
 43
0.0000000001
 44
0.00000001
 40
0.0
 40
0.0
 40
0.0
 40
0.0
 40
0.1978294436339098
 40
0.3956726572683013
 40
0.591889394315558
 40
0.7880658944101386
 40
0.917920251141629
 40
1.047769161288668
 40
1.243075753872088
 40
1.438456286048438
 40
1.637738697900871
 40
1.836995330537768
 40
1.973293935005811
 40
2.109584566040849
 40
2.322560327021784
 40
2.535563927741545
 40
2.770150661911341
 40
3.004745524584922
 40
3.179954748408334
 40
3.355141056951476
 40
3.644411397526516
 40
3.933797461866016
 40
4.211165007262088
 40
4.488175260610157
 40
4.638413662839586
 40
4.789242391696791
 40
4.945413461430151
 40
5.100170395171335
 40
5.224300488226703
 40
5.34919042617698
 40
5.448050018133258
 40
5.546677513745148
 40
5.744982835519071
 40
5.94345230186243
 40
6.1857742655016
 40
6.428038001802692
 40
6.600951815872408
 40
6.773872838099508
 40
6.773872838099508
 40
6.773872838099508
 40
6.773872838099508
 10
104.889741761881
 20
-16.5012
 30
0.0
 10
104.9510923538798
 20
-16.52537893783699
 30
0.0
 10
105.073797813277
 20
-16.57373848355509
 30
0.0
 10
105.2583315843431
 20
-16.64358396126576
 30
0.0
 10
105.4441939736036
 20
-16.70821878703637
 30
0.0
 10
105.6109196584154
 20
-16.75855401935548
 30
0.0
 10
105.7583184025509
 20
-16.79566994626707
 30
0.0
 10
105.9069240775041
 20
-16.82627211627584
 30
0.0
 10
106.0788988947553
 20
-16.85054321803276
 30
0.0
 10
106.2752160221599
 20
-16.86434660826684
 30
0.0
 10
106.4733194642335
 20
-16.86524067027521
 30
0.0
 10
106.6514245296655
 20
-16.85539908060576
 30
0.0
 10
106.8079490625188
 20
-16.83968814795082
 30
0.0
 10
106.9683838573699
 20
-16.81808862673497
 30
0.0
 10
107.1530558973763
 20
-16.78567808049075
 30
0.0
 10
107.3681312463323
 20
-16.73822464216046
 30
0.0
 10
107.5880894258585
 20
-16.68031986547417
 30
0.0
 10
107.7938530804022
 20
-16.6185726524198
 30
0.0
 10
107.9793057719893
 20
-16.55828667144247
 30
0.0
 10
108.1810340610461
 20
-16.48920462519333
 30
0.0
 10
108.4174670765203
 20
-16.40407996661076
 30
0.0
 10
108.6851370815379
 20
-16.30522879189548
 30
0.0
 10
108.9492764415451
 20
-16.20860363770053
 30
0.0
 10
109.1712341914826
 20
-16.1317264724399
 30
0.0
 10
109.35482129398
 20
-16.07311713899562
 30
0.0
 10
109.5017054050616
 20
-16.03226533501492
 30
0.0
 10
109.6522378684631
 20
-15.9994680621813
 30
0.0
 10
109.7979075138346
 20
-15.98889166609311
 30
0.0
 10
109.9318554907187
 20
-16.0075970971527
 30
0.0
 10
110.0438767802272
 20
-16.03817691010219
 30
0.0
 10
110.1454246674562
 20
-16.07340385758867
 30
0.0
 10
110.2689881103889
 20
-16.11964081933283
 30
0.0
 10
110.4247427546936
 20
-16.17454547931426
 30
0.0
 10
110.6265679633186
 20
-16.24272904360388
 30
0.0
 10
110.8423441499553
 20
-16.315401339166
 30
0.0
 10
111.0501741619461
 20
-16.3849765796135
 30
0.0
 10
111.2362093106585
 20
-16.44678139597514
 30
0.0
 10
111.3456301860721
 20
-16.48306020882204
 30
0.0
 10
111.400341761881
 20
-16.5012
 30
0.0
 11
104.889741761881
 21
-16.5012
 31
0.0
 11
105.0739569516386
 21
-16.57331971923587
 31
0.0
 11
105.2591489884435
 21
-16.64293183593748
 31
0.0
 11
105.4446336201593
 21
-16.7069354250338
 31
0.0
 11
105.632574574381
 21
-16.7631796875
 31
0.0
 11
105.7585325255737
 21
-16.79475101256245
 31
0.0
 11
105.885741761881
 21
-16.8208
 31
0.0
 11
106.0791066283425
 21
-16.84827168975608
 31
0.0
 11
106.273994496256
 21
-16.862137890625
 31
0.0
 11
106.4732737659454
 21
-16.86325708889508
 31
0.0
 11
106.672238636881
 21
-16.852478125
 31
0.0
 11
106.8078617783049
 21
-16.83892551520036
 31
0.0
 11
106.9429417618809
 21
-16.8208
 31
0.0
 11
107.1527435362882
 21
-16.78416817405263
 31
0.0
 11
107.360783558756
 21
-16.7384529296875
 31
0.0
 11
107.5877212436139
 21
-16.67903724091392
 31
0.0
 11
107.812507386881
 21
-16.6119109375
 31
0.0
 11
107.9791682032551
 21
-16.55785129805352
 31
0.0
 11
108.144941761881
 21
-16.5012
 31
0.0
 11
108.417293812541
 21
-16.40372339220596
 31
0.0
 11
108.6889482071935
 21
-16.30398281249999
 31
0.0
 11
108.9496597690999
 21
-16.20931372419799
 31
0.0
 11
109.211630824381
 21
-16.11928125
 31
0.0
 11
109.3549081968179
 21
-16.07407978970751
 31
0.0
 11
109.500341761881
 21
-16.0341
 31
0.0
 11
109.6533913923354
 21
-16.00303211224106
 31
0.0
 11
109.807896840006
 21
-15.9942130859375
 31
0.0
 11
109.9310016259907
 21
-16.01013450866327
 31
0.0
 11
110.051769886881
 21
-16.04195468749999
 31
0.0
 11
110.1453589776814
 21
-16.07380278016685
 31
0.0
 11
110.2379417618809
 21
-16.1078
 31
0.0
 11
110.4248296315272
 21
-16.17411685162472
 31
0.0
 11
110.612728480631
 21
-16.23802421875
 31
0.0
 11
110.842385917226
 21
-16.31533783899416
 31
0.0
 11
111.072129261881
 21
-16.3922125
 31
0.0
 11
111.2362124828887
 21
-16.4467641606137
 31
0.0
 11
111.400341761881
 21
-16.5012
 31
0.0
  0
SPLINE
  5
92E
330
1F
100
AcDbEntity
  8
0
  6
Continuous
 62
    40
100
AcDbSpline
210
0.0
220
0.0
230
1.0
 70
     8
 71
     3
 72
    25
 73
    21
 74
    19
 42
0.0000000001
 43
0.0000000001
 44
0.00000001
 40
0.0
 40
0.0
 40
0.0
 40
0.0
 40
0.2522062283143883
 40
0.504542026206325
 40
0.7471286708970171
 40
0.9892914076548793
 40
1.067316617356482
 40
1.145385895094589
 40
1.375790582434191
 40
1.606477758025183
 40
1.843609279885054
 40
2.080564458362233
 40
2.163724500150712
 40
2.246820019368686
 40
2.512899083240932
 40
2.779571606649014
 40
3.066512147406134
 40
3.353246587747364
 40
3.450986962872643
 40
3.548730964960276
 40
3.548730964960276
 40
3.548730964960276
 40
3.548730964960276
 10
94.965841761881
 20
-22.6975
 30
0.0
 10
95.03203599739714
 20
-22.64567377641016
 30
0.0
 10
95.16445848395347
 20
-22.54199471486696
 30
0.0
 10
95.36446682254291
 20
-22.39350425501678
 30
0.0
 10
95.5690610968735
 20
-22.25719643871664
 30
0.0
 10
95.73361331796453
 20
-22.16634691026583
 30
0.0
 10
95.85450677796917
 20
-22.11141648957083
 30
0.0
 10
95.97401715114635
 20
-22.06321725799634
 30
0.0
 10
96.14697127604536
 20
-22.01195534763665
 30
0.0
 10
96.37803183435442
 20
-21.97799047179659
 30
0.0
 10
96.6137851021099
 20
-21.97863232108379
 30
0.0
 10
96.79828245885332
 20
-22.00485926470431
 30
0.0
 10
96.9292109067571
 20
-22.03535072605282
 30
0.0
 10
97.06807391378553
 20
-22.07404060519907
 30
0.0
 10
97.26092643802386
 20
-22.14580557302606
 30
0.0
 10
97.50749939357161
 20
-22.26395733682453
 30
0.0
 10
97.75301236920691
 20
-22.39903051517874
 30
0.0
 10
97.94515584223669
 20
-22.51382497628987
 30
0.0
 10
98.0824612095119
 20
-22.59739642256238
 30
0.0
 10
98.13804790313669
 20
-22.63139859315451
 30
0.0
 10
98.16584176188101
 20
-22.64839999999999
 30
0.0
 11
94.965841761881
 21
-22.6975
 31
0.0
 11
95.16508532399768
 21
-22.54287145777675
 31
0.0
 11
95.36834642660402
 21
-22.39334460641399
 31
0.0
 11
95.57097819635686
 21
-22.25997052234742
 31
0.0
 11
95.78365050823668
 21
-22.14415481049563
 31
0.0
 11
95.85471400243539
 21
-22.11193815062719
 31
0.0
 11
95.92714176188101
 21
-22.08279999999999
 31
0.0
 11
96.14804840155478
 21
-22.01732804554798
 31
0.0
 11
96.37630677645823
 21
-21.9839411078717
 31
0.0
 11
96.61343824114396
 21
-21.98410685169317
 31
0.0
 11
96.84808432747866
 21
-22.01710641399416
 31
0.0
 11
96.92908538582244
 21
-22.03593248995635
 31
0.0
 11
97.00914176188101
 21
-22.0582
 31
0.0
 11
97.2591009404816
 21
-22.14940568848869
 31
0.0
 11
97.50029074147279
 21
-22.26316734693878
 31
0.0
 11
97.75221436520521
 21
-22.40053314337824
 31
0.0
 11
97.99893359861568
 21
-22.54663673469387
 31
0.0
 11
98.08244146355306
 21
-22.59742666922394
 31
0.0
 11
98.16584176188101
 21
-22.64839999999999
 31
0.0
  0
SPLINE
  5
92F
330
1F
100
AcDbEntity
  8
0
  6
Continuous
 62
    30
100
AcDbSpline
210
0.0
220
0.0
230
1.0
 70
     8
 71
     3
 72
   162
 73
   158
 74
   156
 42
0.0000000001
 43
0.0000000001
 44
0.00000001
 40
0.0
 40
0.0
 40
0.0
 40
0.0
 40
0.0863165565491939
 40
0.1726327406166856
 40
0.2589575303749037
 40
0.3246096101581155
 40
0.3902635095017517
 40
0.4559102933709646
 40
0.5215582897670262
 40
0.5970087838624656
 40
0.6724599045721862
 40
0.7478953006076639
 40
0.819411017100014
 40
0.890947737635208
 40
0.9625097336582573
 40
1.034076659029132
 40
1.107127577954041
 40
1.18015896554123
 40
1.253181841967234
 40
1.326199967740584
 40
1.404990323171593
 40
1.483781337351693
 40
1.562584882288432
 40
1.629902060828938
 40
1.697218916899042
 40
1.764525362954095
 40
1.831822798819591
 40
1.902434098578878
 40
1.973058773770851
 40
2.043693644094177
 40
2.114323776594013
 40
2.205562259647146
 40
2.296793130133527
 40
2.388022484184687
 40
2.518534866806064
 40
2.649050923065262
 40
2.779578509611635
 40
2.884019843331146
 40
2.988455878089261
 40
3.092890248069089
 40
3.197343675477676
 40
3.262862553718925
 40
3.32838147454992
 40
3.393892150984149
 40
3.459406634771637
 40
3.524961469931882
 40
3.582412446722925
 40
3.639895301287654
 40
3.697373424726205
 40
3.754822925808199
 40
3.812233909311078
 40
3.869611797194121
 40
3.925760493545768
 40
3.98193012500425
 40
4.038134723766507
 40
4.094370361603548
 40
4.150616800122491
 40
4.206839103811852
 40
4.285957345394207
 40
4.365023514818131
 40
4.44408552377994
 40
4.523154230617513
 40
4.634128866657619
 40
4.745098447390411
 40
4.856067924705405
 40
4.967032433069975
 40
5.121870305190957
 40
5.276713632125632
 40
5.431610082187107
 40
5.520416257355015
 40
5.609209363400922
 40
5.697957163727583
 40
5.786648320118649
 40
5.874714162054271
 40
5.962814370982195
 40
6.050986632719277
 40
6.139244188755906
 40
6.202252687504477
 40
6.265244000442086
 40
6.328175301601508
 40
6.391040505753416
 40
6.453885007369595
 40
6.510471829253112
 40
6.567118648744733
 40
6.62380558788441
 40
6.68050316363292
 40
6.737173315995181
 40
6.80707592250006
 40
6.876960299250084
 40
6.946880255205091
 40
7.016853078707768
 40
7.086864585640897
 40
7.15687416684844
 40
7.251764683326982
 40
7.346577212674041
 40
7.441343781485061
 40
7.536090220774281
 40
7.630836453737344
 40
7.72875773402159
 40
7.826691060339262
 40
7.924634568795968
 40
8.022588016924297
 40
8.128801921984894
 40
8.235011682930361
 40
8.341210528801649
 40
8.447403792806452
 40
8.543961682410449
 40
8.640525514069512
 40
8.737090697971613
 40
8.833652095621827
 40
8.936513985715803
 40
9.039367813149514
 40
9.142203425613864
 40
9.264977301889816
 40
9.387769223225086
 40
9.510603684906385
 40
9.583612919296189
 40
9.656618757589718
 40
9.729608229510631
 40
9.802590829979866
 40
9.875604572082828
 40
9.936264781701609
 40
9.996942773442821
 40
10.05760264247257
 40
10.11822753613291
 40
10.17882178716125
 40
10.24055688290191
 40
10.30232546211476
 40
10.36414487294969
 40
10.42601226251026
 40
10.48790639684812
 40
10.5497894408333
 40
10.62059624088638
 40
10.69134650892618
 40
10.76206510372212
 40
10.83277554193668
 40
10.90350009875266
 40
10.96517320712561
 40
11.02683848449665
 40
11.08847687813333
 40
11.15008763491764
 40
11.1513991453833
 40
11.15271056883726
 40
11.15396993862224
 40
11.15522943031479
 40
11.19864252425449
 40
11.24212453705463
 40
11.28558230900505
 40
11.32897600503072
 40
11.37233447193976
 40
11.41231644922322
 40
11.45234204438779
 40
11.49237736383632
 40
11.53237428906894
 40
11.57077292205638
 40
11.60916327484587
 40
11.64755460841371
 40
11.64755460841371
 40
11.64755460841371
 40
11.64755460841371
 10
92.66584176188098
 20
-16.5012
 30
0.0
 10
92.69208365670577
 20
-16.51299844894265
 30
0.0
 10
92.74456733899869
 20
-16.53659528278187
 30
0.0
 10
92.82355319388789
 20
-16.57141605716935
 30
0.0
 10
92.89669772081632
 20
-16.60239859122643
 30
0.0
 10
92.96403012024351
 20
-16.62940795714055
 30
0.0
 10
93.02544796602139
 20
-16.6526153944532
 30
0.0
 10
93.08740289544122
 20
-16.67435028003756
 30
0.0
 10
93.15304554406777
 20
-16.6953661722135
 30
0.0
 10
93.22250758400498
 20
-16.71506143678283
 30
0.0
 10
93.29584527919204
 20
-16.73285298243747
 30
0.0
 10
93.36856505904552
 20
-16.74738146939762
 30
0.0
 10
93.44054131728055
 20
-16.75862136790399
 30
0.0
 10
93.51160432065109
 20
-16.76698513687054
 30
0.0
 10
93.58292727020163
 20
-16.77290282439423
 30
0.0
 10
93.65490102773232
 20
-16.77662900361391
 30
0.0
 10
93.72743976197517
 20
-16.77834224829048
 30
0.0
 10
93.80048291995962
 20
-16.77808571054145
 30
0.0
 10
93.87348336399304
 20
-16.77594235981524
 30
0.0
 10
93.9483251782509
 20
-16.77190317156979
 30
0.0
 10
94.02496532249925
 20
-16.76590189585447
 30
0.0
 10
94.1033454029694
 20
-16.75774202320654
 30
0.0
 10
94.17769432755994
 20
-16.74803966347156
 30
0.0
 10
94.24800110824284
 20
-16.73710390929601
 30
0.0
 10
94.31424653628008
 20
-16.72511803326144
 30
0.0
 10
94.38014160795738
 20
-16.71136225193637
 30
0.0
 10
94.44668085382675
 20
-16.69544948840355
 30
0.0
 10
94.51374788737808
 20
-16.67713332942467
 30
0.0
 10
94.58128421489425
 20
-16.65644557065851
 30
0.0
 10
94.64820422224045
 20
-16.63382739720315
 30
0.0
 10
94.72094253774669
 20
-16.60705290083925
 30
0.0
 10
94.79926410126418
 20
-16.57565783955954
 30
0.0
 10
94.88301057091568
 20
-16.53944250973296
 30
0.0
 10
94.97785201499681
 20
-16.49596911160412
 30
0.0
 10
95.08360203244142
 20
-16.44492056740695
 30
0.0
 10
95.2003626706878
 20
-16.38659123079435
 30
0.0
 10
95.30914903286909
 20
-16.33174900765717
 30
0.0
 10
95.41045901802405
 20
-16.28139007891676
 30
0.0
 10
95.50440195411402
 20
-16.23575771132659
 30
0.0
 10
95.59894632211912
 20
-16.19137126585825
 30
0.0
 10
95.6824126330293
 20
-16.15394053842005
 30
0.0
 10
95.75458983153637
 20
-16.12307468043726
 30
0.0
 10
95.815287376219
 20
-16.09840148644125
 30
0.0
 10
95.87652749643105
 20
-16.07510542420106
 30
0.0
 10
95.93839184442055
 20
-16.0534774988824
 30
0.0
 10
95.99835217431467
 20
-16.03463017058397
 30
0.0
 10
96.05633708804191
 20
-16.01854905469014
 30
0.0
 10
96.11221395372863
 20
-16.00505925116624
 30
0.0
 10
96.1685372016112
 20
-15.99357044163939
 30
0.0
 10
96.22523223329912
 20
-15.9842212912652
 30
0.0
 10
96.28222414607721
 20
-15.97715076376009
 30
0.0
 10
96.33903425460287
 20
-15.97253087275171
 30
0.0
 10
96.39557815168039
 20
-15.97043835367297
 30
0.0
 10
96.45176644608012
 20
-15.97065267842046
 30
0.0
 10
96.50793325141965
 20
-15.97299948244897
 30
0.0
 10
96.56400659498237
 20
-15.97731978736414
 30
0.0
 10
96.61991489241076
 20
-15.98345494350764
 30
0.0
 10
96.68316902170353
 20
-15.99230736827784
 30
0.0
 10
96.75360154445293
 20
-16.00452899090246
 30
0.0
 10
96.83104854428339
 20
-16.02058228851785
 30
0.0
 10
96.90801944128095
 20
-16.03869457235697
 30
0.0
 10
96.99489261259357
 20
-16.061060217422
 30
0.0
 10
97.09160048788369
 20
-16.08783023786556
 30
0.0
 10
97.19795997693744
 20
-16.11951112635481
 30
0.0
 10
97.30373515996749
 20
-16.15307721727863
 30
0.0
 10
97.42281888082187
 20
-16.19299179262442
 30
0.0
 10
97.55498148410131
 20
-16.23985574775606
 30
0.0
 10
97.69983137665384
 20
-16.29465925307624
 30
0.0
 10
97.82304749891068
 20
-16.34435405272365
 30
0.0
 10
97.92509273197048
 20
-16.38761163738076
 30
0.0
 10
98.00625201635561
 20
-16.42361733327581
 30
0.0
 10
98.08662521898526
 20
-16.46125904853479
 30
0.0
 10
98.16584665892122
 20
-16.50073667333685
 30
0.0
 10
98.24373531729367
 20
-16.54232210167395
 30
0.0
 10
98.32064817404727
 20
-16.58531944815624
 30
0.0
 10
98.39715145821374
 20
-16.62916528676829
 30
0.0
 10
98.46631811239616
 20
-16.66899038670882
 30
0.0
 10
98.52841308529081
 20
-16.70427526909584
 30
0.0
 10
98.58358317918899
 20
-16.73465234423814
 30
0.0
 10
98.63937473365719
 20
-16.76377835286248
 30
0.0
 10
98.6960026807799
 20
-16.79114253784566
 30
0.0
 10
98.75174471447614
 20
-16.81538810629141
 30
0.0
 10
98.80660712540475
 20
-16.8362958446855
 30
0.0
 10
98.86035162044166
 20
-16.85422495312923
 30
0.0
 10
98.91481473540416
 20
-16.86996582921604
 30
0.0
 10
98.96986065187128
 20
-16.88355736165271
 30
0.0
 10
99.02969752011726
 20
-16.89593748885899
 30
0.0
 10
99.09433982546246
 20
-16.90654773292232
 30
0.0
 10
99.16374133327288
 20
-16.91504044284087
 30
0.0
 10
99.23342355495137
 20
-16.92102743202524
 30
0.0
 10
99.3032973244469
 20
-16.92483933961499
 30
0.0
 10
99.37327445106229
 20
-16.92680630628187
 30
0.0
 10
99.45158106665957
 20
-16.92731151250776
 30
0.0
 10
99.53815146145295
 20
-16.92613937881549
 30
0.0
 10
99.63292199102326
 20
-16.92276803357186
 30
0.0
 10
99.72755225980961
 20
-16.91741054863118
 30
0.0
 10
99.82203407056152
 20
-16.91016696105569
 30
0.0
 10
99.91740800490561
 20
-16.90103692485513
 30
0.0
 10
100.0136559618867
 20
-16.89005465165196
 30
0.0
 10
100.1107378312146
 20
-16.87712924614868
 30
0.0
 10
100.2075669498921
 20
-16.86235691682674
 30
0.0
 10
100.306812734037
 20
-16.84524733770263
 30
0.0
 10
100.408395321762
 20
-16.82558811972959
 30
0.0
 10
100.5121903909612
 20
-16.80303348193521
 30
0.0
 10
100.6153997577874
 20
-16.77795853598059
 30
0.0
 10
100.7148201431042
 20
-16.75105585426811
 30
0.0
 10
100.8104205801152
 20
-16.72247263482657
 30
0.0
 10
100.9022282309839
 20
-16.69251339220713
 30
0.0
 10
100.9932651625212
 20
-16.66028470226179
 30
0.0
 10
101.0854378331677
 20
-16.62506340078737
 30
0.0
 10
101.1786214867011
 20
-16.58670400248133
 30
0.0
 10
101.2727483300406
 20
-16.54522785869091
 30
0.0
 10
101.371918323769
 20
-16.49880650256869
 30
0.0
 10
101.475942768421
 20
-16.44715639408117
 30
0.0
 10
101.5852879981717
 20
-16.39127005846217
 30
0.0
 10
101.6799540607739
 20
-16.34310734333743
 30
0.0
 10
101.7603193155899
 20
-16.3034473721328
 30
0.0
 10
101.8262421650317
 20
-16.27208024953246
 30
0.0
 10
101.8927601611136
 20
-16.24201108388762
 30
0.0
 10
101.9600089048292
 20
-16.21359946428341
 30
0.0
 10
102.0242530494035
 20
-16.18870623100484
 30
0.0
 10
102.0853936642491
 20
-16.16725674218391
 30
0.0
 10
102.1432648981941
 20
-16.14901748598372
 30
0.0
 10
102.2017303597296
 20
-16.13281970716094
 30
0.0
 10
102.2607451703477
 20
-16.11886578013295
 30
0.0
 10
102.3206398898871
 20
-16.10728600362205
 30
0.0
 10
102.3813712696126
 20
-16.09834355325185
 30
0.0
 10
102.4428299306449
 20
-16.09193928493369
 30
0.0
 10
102.5045357147776
 20
-16.0879671249723
 30
0.0
 10
102.566385527159
 20
-16.08626590802359
 30
0.0
 10
102.6282768859632
 20
-16.08667472241298
 30
0.0
 10
102.693100576642
 20
-16.08914689265977
 30
0.0
 10
102.7607638834713
 20
-16.093840834601
 30
0.0
 10
102.8311649029973
 20
-16.10107145358751
 30
0.0
 10
102.9012580039778
 20
-16.11060997807251
 30
0.0
 10
102.9709928168462
 20
-16.12243559080494
 30
0.0
 10
103.0373504525863
 20
-16.13592415986346
 30
0.0
 10
103.1003309393044
 20
-16.1507264955711
 30
0.0
 10
103.1598982954907
 20
-16.16669297439262
 30
0.0
 10
103.2188704741451
 20
-16.1846659779376
 30
0.0
 10
103.2581249475956
 20
-16.1982316315719
 30
0.0
 10
103.2782151270418
 20
-16.20563600664923
 30
0.0
 10
103.2794264765515
 20
-16.20609141058459
 30
0.0
 10
103.2806161643743
 20
-16.20655489550697
 30
0.0
 10
103.2948482101508
 20
-16.21219976466242
 30
0.0
 10
103.3220585899792
 20
-16.22330139772469
 30
0.0
 10
103.3618042986445
 20
-16.24087897670407
 30
0.0
 10
103.4008289645205
 20
-16.26000354048798
 30
0.0
 10
103.4388230683065
 20
-16.28103095115029
 30
0.0
 10
103.4745052575007
 20
-16.30370547457506
 30
0.0
 10
103.5076463321634
 20
-16.3280998578648
 30
0.0
 10
103.5383333590525
 20
-16.3538192287847
 30
0.0
 10
103.5674012491514
 20
-16.38135994299474
 30
0.0
 10
103.5944208230569
 20
-16.4101741986281
 30
0.0
 10
103.6194039340871
 20
-16.44004802004525
 30
0.0
 10
103.6429189170669
 20
-16.47040333027174
 30
0.0
 10
103.658200751341
 20
-16.49093435389854
 30
0.0
 10
103.665841761881
 20
-16.5012
 30
0.0
 11
92.66584176188098
 21
-16.5012
 31
0.0
 11
92.74461041071536
 21
-16.53649940827018
 31
0.0
 11
92.8236341722938
 21
-16.57122301374911
 31
0.0
 11
92.90316270631413
 21
-16.60479653979239
 31
0.0
 11
92.96411005242523
 21
-16.62920179771741
 31
0.0
 11
93.02553992064536
 21
-16.6523708682018
 31
0.0
 11
93.08749871681079
 21
-16.67406436617699
 31
0.0
 11
93.15003284675785
 21
-16.6940429065744
 31
0.0
 11
93.22263008671308
 21
-16.71459571421673
 31
0.0
 11
93.2959618375486
 21
-16.73235313698842
 31
0.0
 11
93.36994176188101
 21
-16.7471
 31
0.0
 11
93.44059483420423
 21
-16.75817435715535
 31
0.0
 11
93.51163644071759
 21
-16.76657632166
 31
0.0
 11
93.58295009006386
 21
-16.77253306244026
 31
0.0
 11
93.6544192908857
 21
-16.77627174842255
 31
0.0
 11
93.72744947479755
 21
-16.77801207065676
 31
0.0
 11
93.80048046390498
 21
-16.7777711667658
 31
0.0
 11
93.87347233810871
 21
-16.77564357019008
 31
0.0
 11
93.94638517730944
 21
-16.77172381437003
 31
0.0
 11
94.02493463160949
 21
-16.76556725209102
 31
0.0
 11
94.10330150932562
 21
-16.7574029195255
 31
0.0
 11
94.181441761881
 21
-16.74719999999998
 31
0.0
 11
94.24795551578151
 21
-16.7368306687883
 31
0.0
 11
94.31419262606691
 21
-16.72482215949544
 31
0.0
 11
94.38007387478656
 21
-16.71104468830547
 31
0.0
 11
94.44552004398969
 21
-16.6953684714024
 31
0.0
 11
94.51364293499953
 21
-16.67678817707474
 31
0.0
 11
94.58117725964545
 21
-16.65612517378551
 31
0.0
 11
94.64810059299109
 21
-16.63352976882641
 31
0.0
 11
94.71439051009999
 21
-16.6091522694891
 31
0.0
 11
94.79910818702469
 21
-16.57527933110467
 31
0.0
 11
94.88287664146955
 21
-16.53914184749469
 31
0.0
 11
94.965841761881
 21
-16.5012
 31
0.0
 11
95.08346977656477
 21
-16.44465681211052
 31
0.0
 11
95.20032352513908
 21
-16.3865221209843
 31
0.0
 11
95.31697475597828
 21
-16.32795642173825
 31
0.0
 11
95.41053086720843
 21
-16.28153179246699
 31
0.0
 11
95.50450208081064
 21
-16.23596539766202
 31
0.0
 11
95.59906711215132
 21
-16.19164844324852
 31
0.0
 11
95.69440467659706
 21
-16.14897213515164
 31
0.0
 11
95.75466584480768
 21
-16.12325608956716
 31
0.0
 11
95.8153805862096
 21
-16.09862990122464
 31
0.0
 11
95.87662845203457
 21
-16.07538452215919
 31
0.0
 11
95.93848899351444
 21
-16.05381090440594
 31
0.0
 11
96.00104176188102
 21
-16.03419999999999
 31
0.0
 11
96.05640791432492
 21
-16.01886364159531
 31
0.0
 11
96.11228997990284
 21
-16.00539243873517
 31
0.0
 11
96.16861247866207
 21
-15.99392462300107
 31
0.0
 11
96.22529993064986
 21
-15.98459842597453
 31
0.0
 11
96.28227685591362
 21
-15.97755207923702
 31
0.0
 11
96.33946777450056
 21
-15.97292381437003
 31
0.0
 11
96.39557705910748
 21
-15.97082041990844
 31
0.0
 11
96.45174637821602
 21
-15.97100769623999
 31
0.0
 11
96.50790308034814
 21
-15.97332754727104
 31
0.0
 11
96.56397451402556
 21
-15.97762187690793
 31
0.0
 11
96.61988802777029
 21
-15.983732589057
 31
0.0
 11
96.67557097010408
 21
-15.99150158762467
 31
0.0
 11
96.75353718797415
 21
-16.00495390947977
 31
0.0
 11
96.83097323862716
 21
-16.02092629629812
 31
0.0
 11
96.90795085296286
 21
-16.03896093187358
 31
0.0
 11
96.984541761881
 21
-16.05859999999999
 31
0.0
 11
97.09150254857195
 21
-16.0881763387271
 31
0.0
 11
97.19786315440048
 21
-16.11982549781441
 31
0.0
 11
97.30364395649928
 21
-16.15336125157276
 31
0.0
 11
97.40886533200107
 21
-16.18859737431305
 31
0.0
 11
97.55479384284786
 21
-16.24036258241932
 31
0.0
 11
97.69961167100539
 21
-16.29517364921681
 31
0.0
 11
97.84325800450261
 21
-16.35312743741094
 31
0.0
 11
97.92499929045213
 21
-16.38783909315397
 31
0.0
 11
98.00614054125125
 21
-16.42389894906865
 31
0.0
 11
98.08648646302065
 21
-16.46159118980174
 31
0.0
 11
98.16584176188101
 21
-16.5012
 31
0.0
 11
98.24358810383372
 21
-16.54256543118403
 31
0.0
 11
98.32054974374843
 21
-16.58544378065336
 31
0.0
 11
98.3971120640097
 21
-16.62917659334781
 31
0.0
 11
98.47366044700208
 21
-16.67310541420721
 31
0.0
 11
98.5284872795836
 21
-16.70415520266371
 31
0.0
 11
98.58371141107241
 21
-16.73445703139951
 31
0.0
 11
98.63954108820813
 21
-16.76349830948533
 31
0.0
 11
98.69618455773052
 21
-16.79076644599184
 31
0.0
 11
98.75385006637928
 21
-16.81574884998982
 31
0.0
 11
98.80672167348835
 21
-16.83591470189247
 31
0.0
 11
98.8604527570704
 21
-16.85385440159007
 31
0.0
 11
98.91490720664808
 21
-16.86960629033736
 31
0.0
 11
98.96994891174404
 21
-16.88320870938909
 31
0.0
 11
99.02544176188101
 21
-16.8947
 31
0.0
 11
99.094412409429
 21
-16.90607647499074
 31
0.0
 11
99.16377243098482
 21
-16.9146212706339
 31
0.0
 11
99.23343084989539
 21
-16.92066320109335
 31
0.0
 11
99.30329668950772
 21
-16.92453108053296
 31
0.0
 11
99.37327897316885
 21
-16.92655372311667
 31
0.0
 11
99.44328672422578
 21
-16.92705994300833
 31
0.0
 11
99.5381687522026
 21
-16.92579073298447
 31
0.0
 11
99.63292191235098
 21
-16.92243597942375
 31
0.0
 11
99.72753788509349
 21
-16.91709554184587
 31
0.0
 11
99.82200835085269
 21
-16.90986927977049
 31
0.0
 11
99.91632499005115
 21
-16.90085705271728
 31
0.0
 11
100.0136144694432
 21
-16.8897514533614
 31
0.0
 11
100.1106905733367
 21
-16.87682216643166
 31
0.0
 11
100.2075130785449
 21
-16.8620460594654
 31
0.0
 11
100.304041761881
 21
-16.8454
 31
0.0
 11
100.4083156456822
 21
-16.82519230873069
 31
0.0
 11
100.5120974336211
 21
-16.80261236603587
 31
0.0
 11
100.6152877280467
 21
-16.77751340193517
 31
0.0
 11
100.7177871313089
 21
-16.7497486464482
 31
0.0
 11
100.810299087565
 21
-16.72209066405905
 31
0.0
 11
100.9020991608281
 21
-16.692135361902
 31
0.0
 11
100.9931287576993
 21
-16.65991041461728
 31
0.0
 11
101.0833292847794
 21
-16.6254434968451
 31
0.0
 11
101.1784587808565
 21
-16.58631617396016
 31
0.0
 11
101.2725924136782
 21
-16.54487019739707
 31
0.0
 11
101.365741761881
 21
-16.5013
 31
0.0
 11
101.4758290076279
 21
-16.44694723569206
 31
0.0
 11
101.5852929994083
 21
-16.39131010409525
 31
0.0
 11
101.6948976137026
 21
-16.33585621819661
 31
0.0
 11
101.7603965689092
 21
-16.30360354144689
 31
0.0
 11
101.8263476433219
 21
-16.27229366772581
 31
0.0
 11
101.8928836305244
 21
-16.24228657854286
 31
0.0
 11
101.9601373240994
 21
-16.21394225540743
 31
0.0
 11
102.028241517631
 21
-16.18762067982902
 31
0.0
 11
102.0854908710778
 21
-16.16756643968059
 31
0.0
 11
102.1433716191795
 21
-16.14935551801961
 31
0.0
 11
102.2018377149828
 21
-16.13318964844995
 31
0.0
 11
102.2608431115344
 21
-16.11927056457544
 31
0.0
 11
102.320341761881
 21
-16.1078
 31
0.0
 11
102.3814140217705
 21
-16.09877774389728
 31
0.0
 11
102.4428469008209
 21
-16.0923466680008
 31
0.0
 11
102.5045367688054
 21
-16.08834670147907
 31
0.0
 11
102.5663799954972
 21
-16.08661777350058
 31
0.0
 11
102.6282729506694
 21
-16.08699981323383
 31
0.0
 11
102.6901120040955
 21
-16.08933274984734
 31
0.0
 11
102.7607491504576
 21
-16.09423136935105
 31
0.0
 11
102.8311293812857
 21
-16.10145795370298
 31
0.0
 11
102.9012023884138
 21
-16.11099175181211
 31
0.0
 11
102.9709178636757
 21
-16.12281201258742
 31
0.0
 11
103.0402254989052
 21
-16.13689798493792
 31
0.0
 11
103.1002560606845
 21
-16.15103672365314
 31
0.0
 11
103.1598110323862
 21
-16.16703084005957
 31
0.0
 11
103.218762985086
 21
-16.18502969612558
 31
0.0
 11
103.2769844898588
 21
-16.20518265381948
 31
0.0
 11
103.2782146554046
 21
-16.20563735417772
 31
0.0
 11
103.2794417618809
 21
-16.2061
 31
0.0
 11
103.280615646632
 21
-16.20655607766233
 31
0.0
 11
103.2817868396507
 21
-16.20701935535958
 31
0.0
 11
103.3219557998056
 21
-16.22348602926146
 31
0.0
 11
103.3616923575377
 21
-16.24114081319276
 31
0.0
 11
103.4006822168475
 21
-16.26033374904917
 31
0.0
 11
103.4386110817355
 21
-16.28141487872635
 31
0.0
 11
103.4751646562027
 21
-16.30473424412
 31
0.0
 11
103.5073747379636
 21
-16.32842114120129
 31
0.0
 11
103.5380603608976
 21
-16.35412018299257
 31
0.0
 11
103.567130767181
 21
-16.38164722748678
 31
0.0
 11
103.594495198991
 21
-16.41081813267689
 31
0.0
 11
103.6192182101732
 21
-16.44019886692117
 31
0.0
 11
103.6428202787792
 21
-16.4704769396086
 31
0.0
 11
103.665841761881
 21
-16.5012
 31
0.0
  0
CIRCLE
  5
930
330
1F
100
AcDbEntity
  8
0
  6
Continuous
 62
     7
100
AcDbCircle
 10
194.8653417618809
 20
13.2596
 30
0.0
 40
72.29999999999998
  0
CIRCLE
  5
931
330
1F
100
AcDbEntity
  8
0
  6
Continuous
 62
     7
100
AcDbCircle
 10
194.8653417618809
 20
13.2594
 30
0.0
 40
35.0
  0
CIRCLE
  5
932
330
1F
100
AcDbEntity
  8
0
  6
Continuous
 62
     7
100
AcDbCircle
 10
148.197141761881
 20
59.9286
 30
0.0
 40
4.5
  0
CIRCLE
  5
933
330
1F
100
AcDbEntity
  8
0
  6
Continuous
 62
     7
100
AcDbCircle
 10
148.196341761881
 20
-33.4098
 30
0.0
 40
4.5
  0
CIRCLE
  5
934
330
1F
100
AcDbEntity
  8
0
  6
Continuous
 62
     7
100
AcDbCircle
 10
241.534541761881
 20
-33.40999999999999
 30
0.0
 40
4.5
  0
CIRCLE
  5
935
330
1F
100
AcDbEntity
  8
0
  6
Continuous
 62
     7
100
AcDbCircle
 10
241.534541761881
 20
59.9281
 30
0.0
 40
4.5
  0
CIRCLE
  5
936
330
1F
100
AcDbEntity
  8
0
  6
Continuous
 62
     7
100
AcDbCircle
 10
96.56604176188102
 20
-43.418
 30
0.0
 40
2.149999999999999
  0
ARC
  5
937
330
1F
100
AcDbEntity
  8
0
  6
Continuous
 62
     7
100
AcDbCircle
 10
194.8651920964104
 20
13.2594
 30
0.0
 40
7.999960030525152
100
AcDbArc
 50
108.2100510374955
 51
71.78994896250441
  0
ARC
  5
938
330
1F
100
AcDbEntity
  8
0
  6
Continuous
 62
     7
100
AcDbCircle
 10
187.0640704837935
 20
-59.94031721556067
 30
0.0
 40
1.999982784645563
100
AcDbArc
 50
208.1249163883824
 51
269.9991771707336
  0
ARC
  5
939
330
1F
100
AcDbEntity
  8
0
  6
Continuous
 62
     7
100
AcDbCircle
 10
276.8967878475074
 20
-57.94027261966411
 30
0.0
 40
4.000027380699198
100
AcDbArc
 50
216.1518853291064
 51
270.0007722612289
  0
ARC
  5
93A
330
1F
100
AcDbEntity
  8
0
  6
Continuous
 62
     7
100
AcDbCircle
 10
138.4270338415666
 20
-46.6403040224921
 30
0.0
 40
10.00000402249524
100
AcDbArc
 50
89.99995461996062
 51
143.8493665065176
  0
ARC
  5
93B
330
1F
100
AcDbEntity
  8
0
  6
Continuous
 62
     7
100
AcDbCircle
 10
138.4271488545089
 20
-46.64034250317246
 30
0.0
 40
10.0000425037459
100
AcDbArc
 50
46.70487909578699
 51
90.00061359295276
  0
ARC
  5
93C
330
1F
100
AcDbEntity
  8
0
  6
Continuous
 62
     7
100
AcDbCircle
 10
251.3035496821953
 20
-46.6403040224921
 30
0.0
 40
10.00000402249525
100
AcDbArc
 50
36.15063349348217
 51
90.0000453800394
  0
ARC
  5
93D
330
1F
100
AcDbEntity
  8
0
  6
Continuous
 62
     7
100
AcDbCircle
 10
251.3035210603284
 20
-46.6403082162004
 30
0.0
 40
10.00000821622182
100
AcDbArc
 50
89.99988138893829
 51
133.2951988694409
  0
ARC
  5
93E
330
1F
100
AcDbEntity
  8
0
  6
Continuous
 62
     7
100
AcDbCircle
 10
225.8696765639899
 20
-58.64027907371736
 30
0.0
 40
6.000056611842212
100
AcDbArc
 50
31.08494423353189
 51
113.3253651173576
  0
ARC
  5
93F
330
1F
100
AcDbEntity
  8
0
  6
Continuous
 62
     7
100
AcDbCircle
 10
237.1243196903997
 20
-57.94028753453563
 30
0.0
 40
4.000012465525241
100
AcDbArc
 50
211.0861618643643
 51
270.0003161496951
  0
ARC
  5
940
330
1F
100
AcDbEntity
  8
0
  6
Continuous
 62
     7
100
AcDbCircle
 10
207.161717890067
 20
-60.01571715458644
 30
0.0
 40
1.999993657273885
100
AcDbArc
 50
99.52561876001785
 51
151.8773819677578
  0
ARC
  5
941
330
1F
100
AcDbEntity
  8
0
  6
Continuous
 62
     7
100
AcDbCircle
 10
202.6663866091077
 20
-59.94027311912454
 30
0.0
 40
2.000026881635883
100
AcDbArc
 50
270.0015799893333
 51
331.8743264515503
  0
ARC
  5
942
330
1F
100
AcDbEntity
  8
0
  6
Continuous
 62
     7
100
AcDbCircle
 10
182.5686503981748
 20
-60.01570620658275
 30
0.0
 40
2.000001933720794
100
AcDbArc
 50
28.12213569083272
 51
80.47107360399174
  0
ARC
  5
943
330
1F
100
AcDbEntity
  8
0
  6
Continuous
 62
     7
100
AcDbCircle
 10
112.8340375987272
 20
-57.94060211438047
 30
0.0
 40
3.999997885621709
100
AcDbArc
 50
270.0000596328163
 51
323.850103162557
  0
ARC
  5
944
330
1F
100
AcDbEntity
  8
0
  6
Continuous
 62
     7
100
AcDbCircle
 10
164.119942840121
 20
-61.84049947625361
 30
0.0
 40
9.200028654031383
100
AcDbArc
 50
82.90086736673364
 51
148.9147048642404
  0
ARC
  5
945
330
1F
100
AcDbEntity
  8
0
  6
Continuous
 62
     7
100
AcDbCircle
 10
152.865349298435
 20
-61.14049574384364
 30
0.0
 40
0.8000042561918483
100
AcDbArc
 50
269.9994602369557
 51
328.9104215935696
  0
ARC
  5
946
330
1F
100
AcDbEntity
  8
0
  6
Continuous
 62
     7
100
AcDbCircle
 10
194.8650740568808
 20
13.2594000013541
 30
0.0
 40
8.749995289736794
100
AcDbArc
 50
106.6004128825236
 51
73.39729528629631
  0
ARC
  5
947
330
1F
100
AcDbEntity
  8
0
  6
DASH_CENTER
 62
    30
100
AcDbCircle
 10
194.8652274776502
 20
13.25928546193277
 30
0.0
 40
65.99998219320835
100
AcDbArc
 50
306.2861650638536
 51
323.8409532321465
  0
ARC
  5
948
330
1F
100
AcDbEntity
  8
0
  6
Continuous
 62
     7
100
AcDbCircle
 10
194.8652917618811
 20
13.25935000000002
 30
0.0
 40
57.99995515399127
100
AcDbArc
 50
309.5263031975121
 51
320.4736968024886
  0
ARC
  5
949
330
1F
100
AcDbEntity
  8
0
  6
Continuous
 62
     7
100
AcDbCircle
 10
229.4146134309659
 20
-47.62024865399029
 30
0.0
 40
2.000028331506878
100
AcDbArc
 50
299.5746536742698
 51
0.0013938144057295
  0
ARC
  5
94A
330
1F
100
AcDbEntity
  8
0
  6
Continuous
 62
     7
100
AcDbCircle
 10
255.7447157354779
 20
-21.29021515675485
 30
0.0
 40
1.999984847215845
100
AcDbArc
 50
270.0036104178595
 51
330.4260718428661
  0
ARC
  5
94B
330
1F
100
AcDbEntity
  8
0
  6
Continuous
 62
     7
100
AcDbCircle
 10
240.3738902141684
 20
-24.29017716197603
 30
0.0
 40
0.9999771633046476
100
AcDbArc
 50
89.99704646617209
 51
140.4767195197124
  0
ARC
  5
94C
330
1F
100
AcDbEntity
  8
0
  6
Continuous
 62
     7
100
AcDbCircle
 10
232.4146189215118
 20
-32.24944845098114
 30
0.0
 40
0.9999771608045918
100
AcDbArc
 50
129.5232804242651
 51
179.9972238998619
  0
ARC
  5
94D
330
1F
100
AcDbEntity
  8
0
  6
Continuous
 62
     7
100
AcDbCircle
 10
255.7445157354778
 20
47.80901515675487
 30
0.0
 40
1.999984847215806
100
AcDbArc
 50
29.57392815713344
 51
89.99638958214033
  0
ARC
  5
94E
330
1F
100
AcDbEntity
  8
0
  6
Continuous
 62
     7
100
AcDbCircle
 10
232.4146189238569
 20
58.76794845228737
 30
0.0
 40
0.9999771633046476
100
AcDbArc
 50
179.9970464661724
 51
230.4767195197122
  0
ARC
  5
94F
330
1F
100
AcDbEntity
  8
0
  6
Continuous
 62
     7
100
AcDbCircle
 10
240.3738902128622
 20
50.80867715963083
 30
0.0
 40
0.99997716080459
100
AcDbArc
 50
219.5232804242656
 51
269.9972238998619
  0
ARC
  5
950
330
1F
100
AcDbEntity
  8
0
  6
Continuous
 62
     7
100
AcDbCircle
 10
194.8650417618809
 20
13.2594
 30
0.0
 40
58.00002554223574
100
AcDbArc
 50
39.5263098606169
 51
50.47369013938334
  0
ARC
  5
951
330
1F
100
AcDbEntity
  8
0
  6
DASH_CENTER
 62
    30
100
AcDbCircle
 10
194.8651063000711
 20
13.25933560483774
 30
0.0
 40
66.00005215324975
100
AcDbArc
 50
36.28617444136298
 51
53.8409438546362
  0
ARC
  5
952
330
1F
100
AcDbEntity
  8
0
  6
Continuous
 62
     7
100
AcDbCircle
 10
149.3567751311663
 20
-24.29021572863908
 30
0.0
 40
1.000015729195844
100
AcDbArc
 50
39.52432212496338
 51
90.00191188915179
  0
ARC
  5
953
330
1F
100
AcDbEntity
  8
0
  6
Continuous
 62
     7
100
AcDbCircle
 10
133.9863931086566
 20
-21.29017166790224
 30
0.0
 40
2.000028332756849
100
AcDbArc
 50
209.5746536929045
 51
269.998529044066
  0
ARC
  5
954
330
1F
100
AcDbEntity
  8
0
  6
Continuous
 62
     7
100
AcDbCircle
 10
160.3160700927961
 20
-47.62024865399029
 30
0.0
 40
2.00002833150688
100
AcDbArc
 50
179.9986061855941
 51
240.42534632573
  0
ARC
  5
955
330
1F
100
AcDbEntity
  8
0
  6
Continuous
 62
     7
100
AcDbCircle
 10
194.8653417618809
 20
13.2594
 30
0.0
 40
58.00002554223574
100
AcDbArc
 50
219.5263098606168
 51
230.4736901393833
  0
ARC
  5
956
330
1F
100
AcDbEntity
  8
0
  6
DASH_CENTER
 62
    30
100
AcDbCircle
 10
194.8654560461116
 20
13.25928546193285
 30
0.0
 40
65.99998219320835
100
AcDbArc
 50
216.1590467678534
 51
233.7138349361463
  0
ARC
  5
957
330
1F
100
AcDbEntity
  8
0
  6
DASH_CENTER
 62
    30
100
AcDbCircle
 10
194.8655273346221
 20
13.25938560471467
 30
0.0
 40
65.99998234825203
100
AcDbArc
 50
126.1590467886355
 51
143.7138349153634
  0
ARC
  5
958
330
1F
100
AcDbEntity
  8
0
  6
Continuous
 62
     7
100
AcDbCircle
 10
194.8655917618809
 20
13.25944999999993
 30
0.0
 40
57.99995515399128
100
AcDbArc
 50
129.5263031975119
 51
140.4736968024887
  0
ARC
  5
959
330
1F
100
AcDbEntity
  8
0
  6
Continuous
 62
     7
100
AcDbCircle
 10
149.3567751311663
 20
50.80871572863911
 30
0.0
 40
1.000015729195852
100
AcDbArc
 50
269.9980881108481
 51
320.4756778750365
  0
ARC
  5
95A
330
1F
100
AcDbEntity
  8
0
  6
Continuous
 62
     7
100
AcDbCircle
 10
157.3160645999049
 20
58.76794845228737
 30
0.0
 40
0.9999771633046499
100
AcDbArc
 50
309.5232804802877
 51
0.0029535338270788
  0
ARC
  5
95B
330
1F
100
AcDbEntity
  8
0
  6
Continuous
 62
     7
100
AcDbCircle
 10
160.3160512862697
 20
74.13881635640726
 30
0.0
 40
2.000009526137747
100
AcDbArc
 50
119.5776339018163
 51
179.9976037989886
  0
ARC
  5
95C
330
1F
100
AcDbEntity
  8
0
  6
Continuous
 62
     7
100
AcDbCircle
 10
133.9863931078907
 20
47.80867166908492
 30
0.0
 40
2.000028331506872
100
AcDbArc
 50
89.9986061855947
 51
150.4253463257301
  0
ARC
  5
95D
330
1F
100
AcDbEntity
  8
0
  6
Continuous
 62
     7
100
AcDbCircle
 10
157.3160646022502
 20
-32.24944845098117
 30
0.0
 40
0.999977160804592
100
AcDbArc
 50
0.0027761001383666
 51
50.47671957573491
  0
ARC
  5
95E
330
1F
100
AcDbEntity
  8
0
  6
Continuous
 62
     7
100
AcDbCircle
 10
119.9747448061062
 20
-48.67472735601125
 30
0.0
 40
1.60002560737083
100
AcDbArc
 50
143.8513183951896
 51
228.848381733475
  0
ARC
  5
95F
330
1F
100
AcDbEntity
  8
0
  6
Continuous
 62
     7
100
AcDbCircle
 10
123.2135110878715
 20
-44.24108608312463
 30
0.0
 40
1.599974034164375
100
AcDbArc
 50
58.85018746388154
 51
143.8517996015748
  0
ARC
  5
960
330
1F
100
AcDbEntity
  8
0
  6
Continuous
 62
     7
100
AcDbCircle
 10
149.1971417618809
 20
58.9286
 30
0.0
 40
0.5
100
AcDbArc
 50
90.0
 51
180.0
  0
ARC
  5
961
330
1F
100
AcDbEntity
  8
0
  6
Continuous
 62
     7
100
AcDbCircle
 10
147.197141761881
 20
58.9286
 30
0.0
 40
0.5
100
AcDbArc
 50
0.0
 51
90.0
  0
ARC
  5
962
330
1F
100
AcDbEntity
  8
0
  6
Continuous
 62
     7
100
AcDbCircle
 10
147.197141761881
 20
60.9286
 30
0.0
 40
0.5
100
AcDbArc
 50
270.0
 51
0.0
  0
ARC
  5
963
330
1F
100
AcDbEntity
  8
0
  6
Continuous
 62
     7
100
AcDbCircle
 10
149.1971417618809
 20
60.9286
 30
0.0
 40
0.5
100
AcDbArc
 50
180.0
 51
270.0
  0
ARC
  5
964
330
1F
100
AcDbEntity
  8
0
  6
Continuous
 62
     7
100
AcDbCircle
 10
149.196341761881
 20
-34.40979999999999
 30
0.0
 40
0.5
100
AcDbArc
 50
90.0
 51
180.0
  0
ARC
  5
965
330
1F
100
AcDbEntity
  8
0
  6
Continuous
 62
     7
100
AcDbCircle
 10
147.196341761881
 20
-34.40979999999999
 30
0.0
 40
0.5
100
AcDbArc
 50
0.0
 51
90.0
  0
ARC
  5
966
330
1F
100
AcDbEntity
  8
0
  6
Continuous
 62
     7
100
AcDbCircle
 10
147.196341761881
 20
-32.40979999999999
 30
0.0
 40
0.5
100
AcDbArc
 50
270.0
 51
0.0
  0
ARC
  5
967
330
1F
100
AcDbEntity
  8
0
  6
Continuous
 62
     7
100
AcDbCircle
 10
149.196341761881
 20
-32.40979999999999
 30
0.0
 40
0.5
100
AcDbArc
 50
180.0
 51
270.0
  0
ARC
  5
968
330
1F
100
AcDbEntity
  8
0
  6
Continuous
 62
     7
100
AcDbCircle
 10
242.534541761881
 20
-34.40999999999998
 30
0.0
 40
0.5
100
AcDbArc
 50
90.0
 51
180.0
  0
ARC
  5
969
330
1F
100
AcDbEntity
  8
0
  6
Continuous
 62
     7
100
AcDbCircle
 10
240.534541761881
 20
-34.40999999999998
 30
0.0
 40
0.5
100
AcDbArc
 50
0.0
 51
90.0
  0
ARC
  5
96A
330
1F
100
AcDbEntity
  8
0
  6
Continuous
 62
     7
100
AcDbCircle
 10
240.534541761881
 20
-32.40999999999999
 30
0.0
 40
0.5
100
AcDbArc
 50
270.0
 51
0.0
  0
ARC
  5
96B
330
1F
100
AcDbEntity
  8
0
  6
Continuous
 62
     7
100
AcDbCircle
 10
242.534541761881
 20
-32.40999999999999
 30
0.0
 40
0.5
100
AcDbArc
 50
180.0
 51
270.0
  0
ARC
  5
96C
330
1F
100
AcDbEntity
  8
0
  6
Continuous
 62
     7
100
AcDbCircle
 10
242.534541761881
 20
58.9281
 30
0.0
 40
0.5
100
AcDbArc
 50
90.0
 51
180.0
  0
ARC
  5
96D
330
1F
100
AcDbEntity
  8
0
  6
Continuous
 62
     7
100
AcDbCircle
 10
240.534541761881
 20
58.9281
 30
0.0
 40
0.5
100
AcDbArc
 50
0.0
 51
90.0
  0
ARC
  5
96E
330
1F
100
AcDbEntity
  8
0
  6
Continuous
 62
     7
100
AcDbCircle
 10
240.534541761881
 20
60.9281
 30
0.0
 40
0.5
100
AcDbArc
 50
270.0
 51
0.0
  0
ARC
  5
96F
330
1F
100
AcDbEntity
  8
0
  6
Continuous
 62
     7
100
AcDbCircle
 10
242.534541761881
 20
60.9281
 30
0.0
 40
0.5
100
AcDbArc
 50
180.0
 51
270.0
  0
ARC
  5
970
330
1F
100
AcDbEntity
  8
0
  6
Continuous
 62
     7
100
AcDbCircle
 10
253.625382691168
 20
-32.21279194477637
 30
0.0
 40
2.000015162007514
100
AcDbArc
 50
60.00160468236913
 51
142.2663710096865
  0
ARC
  5
971
330
1F
100
AcDbEntity
  8
0
  6
Continuous
 62
     7
100
AcDbCircle
 10
263.6253466016007
 20
-14.89221416196735
 30
0.0
 40
2.000032757175719
100
AcDbArc
 50
157.7343830587909
 51
240.0003816957009
  0
ARC
  5
972
330
1F
100
AcDbEntity
  8
0
  6
Continuous
 62
     7
100
AcDbCircle
 10
255.743990415105
 20
-21.29017166790224
 30
0.0
 40
2.000028332756853
100
AcDbArc
 50
270.001470955934
 51
330.4253463070955
  0
ARC
  5
973
330
1F
100
AcDbEntity
  8
0
  6
Continuous
 62
     7
100
AcDbCircle
 10
204.865341745632
 20
86.88340001860643
 30
0.0
 40
1.999999986250006
100
AcDbArc
 50
179.9971357440387
 51
262.2645099458446
  0
ARC
  5
974
330
1F
100
AcDbEntity
  8
0
  6
Continuous
 62
     7
100
AcDbCircle
 10
184.8653417781299
 20
86.88340001860645
 30
0.0
 40
1.999999986249999
100
AcDbArc
 50
277.7354900541536
 51
0.0028642559608616
  0
ARC
  5
975
330
1F
100
AcDbEntity
  8
0
  6
Continuous
 62
     7
100
AcDbCircle
 10
126.1050369221612
 20
-14.89221416196735
 30
0.0
 40
2.000032757175744
100
AcDbArc
 50
299.9996183042988
 51
22.26561694120848
  0
ARC
  5
976
330
1F
100
AcDbEntity
  8
0
  6
Continuous
 62
     7
100
AcDbCircle
 10
136.1050008325937
 20
-32.21279194477635
 30
0.0
 40
2.000015162007517
100
AcDbArc
 50
37.73362899031158
 51
119.998395317629
  0
ARC
  5
977
330
1F
100
AcDbEntity
  8
0
  6
Continuous
 62
     7
100
AcDbCircle
 10
194.8653417618809
 20
13.2594
 30
0.0
 40
80.99997572993466
100
AcDbArc
 50
90.00018973064518
 51
111.0023524526041
  0
ARC
  5
978
330
1F
100
AcDbEntity
  8
0
  6
Continuous
 62
     7
100
AcDbCircle
 10
194.8653472128293
 20
13.25939235270538
 30
0.0
 40
79.99998771315475
100
AcDbArc
 50
320.1717257759831
 51
110.790387544955
  0
ARC
  5
979
330
1F
100
AcDbEntity
  8
0
  6
Continuous
 62
     7
100
AcDbCircle
 10
192.1201912448739
 20
95.95905371387148
 30
0.0
 40
1.600046286925983
100
AcDbArc
 50
89.99819104526883
 51
174.9966547649748
  0
ARC
  5
97A
330
1F
100
AcDbEntity
  8
0
  6
Continuous
 62
     7
100
AcDbCircle
 10
197.6106379183043
 20
95.95910352189198
 30
0.0
 40
1.599996478112607
100
AcDbArc
 50
5.001710946642688
 51
89.99986236174917
  0
ARC
  5
97B
330
1F
100
AcDbEntity
  8
0
  6
Continuous
 62
     7
100
AcDbCircle
 10
124.6179836905476
 20
-30.46788168970135
 30
0.0
 40
1.600010265995958
100
AcDbArc
 50
210.0005448749961
 51
294.9985978989156
  0
ARC
  5
97C
330
1F
100
AcDbEntity
  8
0
  6
Continuous
 62
     7
100
AcDbCircle
 10
121.8728396739547
 20
-25.71300941820302
 30
0.0
 40
1.599958282239563
100
AcDbArc
 50
124.9999799879944
 51
210.0004730816564
  0
ARC
  5
97D
330
1F
100
AcDbEntity
  8
0
  6
Continuous
 62
     7
100
AcDbCircle
 10
267.8580307290555
 20
-25.71275023085183
 30
0.0
 40
1.599999239812745
100
AcDbArc
 50
329.9979263228921
 51
55.00047341051423
  0
ARC
  5
97E
330
1F
100
AcDbEntity
  8
0
  6
Continuous
 62
     7
100
AcDbCircle
 10
265.1126728464706
 20
-30.46769020031849
 30
0.0
 40
1.599942779894898
100
AcDbArc
 50
244.9973902002353
 51
329.9984117007686
  0
ARC
  5
97F
330
1F
100
AcDbEntity
  8
0
  6
Continuous
 62
     7
100
AcDbCircle
 10
194.8653986452638
 20
13.25927275414203
 30
0.0
 40
81.00002172071052
100
AcDbArc
 50
188.4305644538391
 51
219.7420879518556
  0
ARC
  5
980
330
1F
100
AcDbEntity
  8
0
  6
Continuous
 62
     7
100
AcDbCircle
 10
194.8653184603473
 20
13.25945481930376
 30
0.0
 40
80.00000126600907
100
AcDbArc
 50
186.228461486678
 51
219.8284176432653
  0
ARC
  5
981
330
1F
100
AcDbEntity
  8
0
  6
Continuous
 62
     7
100
AcDbCircle
 10
194.8653773534814
 20
13.25948649672654
 30
0.0
 40
80.00002977637725
100
AcDbArc
 50
139.2099847013832
 51
176.057725470799
  0
ARC
  5
982
330
1F
100
AcDbEntity
  8
0
  6
Continuous
 62
     7
100
AcDbCircle
 10
194.8653310711937
 20
13.25937412379508
 30
0.0
 40
81.00004869383857
100
AcDbArc
 50
138.9979262152079
 51
176.1063922756368
  0
ARC
  5
983
330
1F
100
AcDbEntity
  8
0
  6
Continuous
 62
     7
100
AcDbCircle
 10
194.865291761881
 20
13.25965
 30
0.0
 40
73.29996480862047
100
AcDbArc
 50
29.16602685869292
 51
60.833973141306
  0
ARC
  5
984
330
1F
100
AcDbEntity
  8
0
  6
Continuous
 62
     7
100
AcDbCircle
 10
120.998860516182
 20
5.244885328030508
 30
0.0
 40
1.999982907285211
100
AcDbArc
 50
186.1910226020216
 51
277.7350147763123
  0
ARC
  5
985
330
1F
100
AcDbEntity
  8
0
  6
Continuous
 62
     7
100
AcDbCircle
 10
120.998860516182
 20
21.2742146719695
 30
0.0
 40
1.999982907285208
100
AcDbArc
 50
82.26498522368762
 51
173.8089773979785
  0
ARC
  5
986
330
1F
100
AcDbEntity
  8
0
  6
Continuous
 62
     7
100
AcDbCircle
 10
194.8653417618809
 20
13.25955
 30
0.0
 40
76.29999570224431
100
AcDbArc
 50
173.8075536874451
 51
186.1924463125548
  0
ARC
  5
987
330
1F
100
AcDbEntity
  8
0
  6
Continuous
 62
     7
100
AcDbCircle
 10
108.165941761881
 20
3.259499999999998
 30
0.0
 40
4.5
100
AcDbArc
 50
90.0
 51
180.0
  0
ARC
  5
988
330
1F
100
AcDbEntity
  8
0
  6
Continuous
 62
     7
100
AcDbCircle
 10
108.165941761881
 20
3.259499999999998
 30
0.0
 40
15.5
100
AcDbArc
 50
90.0
 51
180.0
  0
ARC
  5
989
330
1F
100
AcDbEntity
  8
0
  6
Continuous
 62
     7
100
AcDbCircle
 10
108.165941761881
 20
3.259499999999998
 30
0.0
 40
13.2
100
AcDbArc
 50
90.0
 51
180.0
  0
ARC
  5
98A
330
1F
100
AcDbEntity
  8
0
  6
Continuous
 62
     7
100
AcDbCircle
 10
108.165941761881
 20
3.259499999999998
 30
0.0
 40
10.0
100
AcDbArc
 50
90.0
 51
180.0
  0
ARC
  5
98B
330
1F
100
AcDbEntity
  8
0
  6
Continuous
 62
     7
100
AcDbCircle
 10
108.165941761881
 20
3.259499999999998
 30
0.0
 40
6.799999999999998
100
AcDbArc
 50
90.0
 51
180.0
  0
ARC
  5
98C
330
1F
100
AcDbEntity
  8
0
  6
Continuous
 62
     7
100
AcDbCircle
 10
96.56604176188102
 20
-43.418
 30
0.0
 40
3.300036269497649
100
AcDbArc
 50
168.1493453387856
 51
11.85065466121421
  0
ARC
  5
98D
330
1F
100
AcDbEntity
  8
0
  6
Continuous
 62
     7
100
AcDbCircle
 10
172.1967603842696
 20
85.50752442892822
 30
0.0
 40
2.999997490035243
100
AcDbArc
 50
222.2197086262963
 51
252.7801018895586
  0
ARC
  5
98E
330
1F
100
AcDbEntity
  8
0
  6
Continuous
 62
     7
100
AcDbCircle
 10
141.809441761881
 20
89.0313
 30
0.0
 40
19.0000028192103
100
AcDbArc
 50
180.0
 51
210.0463175258343
  0
ARC
  5
98F
330
1F
100
AcDbEntity
  8
0
  6
Continuous
 62
     7
100
AcDbCircle
 10
134.7269493265138
 20
59.27117563072972
 30
0.0
 40
3.000021678979821
100
AcDbArc
 50
357.2205501837125
 51
37.26989959308292
  0
ARC
  5
990
330
1F
100
AcDbEntity
  8
0
  6
Continuous
 62
     7
100
AcDbCircle
 10
154.0957121783084
 20
76.27049073225989
 30
0.0
 40
1.599999746861134
100
AcDbArc
 50
40.00230253378562
 51
125.0021099018535
  0
ARC
  5
991
330
1F
100
AcDbEntity
  8
0
  6
Continuous
 62
     7
100
AcDbCircle
 10
149.5983396739545
 20
73.12159058179698
 30
0.0
 40
1.599958282239532
100
AcDbArc
 50
124.9999799879944
 51
210.0004730816569
  0
ARC
  5
992
330
1F
100
AcDbEntity
  8
0
  6
Continuous
 62
     7
100
AcDbCircle
 10
195.0656613322912
 20
12.97264368302665
 30
0.0
 40
73.64997272640609
100
AcDbArc
 50
108.8384312217611
 51
141.16115614147
  0
ARC
  5
993
330
1F
100
AcDbEntity
  8
0
  6
Continuous
 62
     7
100
AcDbCircle
 10
194.8650813748809
 20
13.25940000120774
 30
0.0
 40
8.399998478056611
100
AcDbArc
 50
107.313510911584
 51
72.68419725723522
  0
ARC
  5
995
330
1F
100
AcDbEntity
  8
0
  6
Continuous
 62
     7
100
AcDbCircle
 10
141.809441761881
 20
89.0313
 30
0.0
 40
19.0000028192103
100
AcDbArc
 50
90.0
 51
180.0
  0
ARC
  5
996
330
1F
100
AcDbEntity
  8
0
  6
Continuous
 62
     7
100
AcDbCircle
 10
141.8094743296333
 20
89.03128479783337
 30
0.0
 40
19.0000180214048
100
AcDbArc
 50
39.95489834180282
 51
90.0000982101563
  0
ARC
  5
997
330
1F
100
AcDbEntity
  8
0
  6
Continuous
 62
     7
100
AcDbCircle
 10
194.8653254467193
 20
13.25935485844511
 30
0.0
 40
80.99999204510881
100
AcDbArc
 50
320.2580030495831
 51
0.0000319311213219
  0
ARC
  5
998
330
1F
100
AcDbEntity
  8
0
  6
Continuous
 62
     7
100
AcDbCircle
 10
194.8653417618809
 20
13.2594
 30
0.0
 40
80.99997572993457
100
AcDbArc
 50
0.0
 51
90.00018973064518
  0
LINE
  5
999
330
1F
100
AcDbEntity
  8
0
  6
Continuous
 62
     7
100
AcDbLine
 10
192.3651920964104
 20
18.2594
 30
0.0
 11
192.3651920964104
 21
23.2594
 31
0.0
  0
LINE
  5
99A
330
1F
100
AcDbEntity
  8
0
  6
Continuous
 62
     7
100
AcDbLine
 10
197.3651920964103
 20
23.2594
 30
0.0
 11
197.3651920964103
 21
18.2594
 31
0.0
  0
LINE
  5
99B
330
1F
100
AcDbEntity
  8
0
  6
Continuous
 62
     7
100
AcDbLine
 10
197.3651920964103
 20
18.2594
 30
0.0
 11
192.3651920964104
 21
18.2594
 31
0.0
  0
LINE
  5
99C
330
1F
100
AcDbEntity
  8
0
  6
Continuous
 62
     7
100
AcDbLine
 10
197.3651920964103
 20
23.2594
 30
0.0
 11
192.3651920964104
 21
23.2594
 31
0.0
  0
LINE
  5
99D
330
1F
100
AcDbEntity
  8
0
  6
Continuous
 62
     7
100
AcDbLine
 10
111.365541761881
 20
-61.9406
 30
0.0
 11
112.834041761881
 21
-61.9406
 31
0.0
  0
LINE
  5
99E
330
1F
100
AcDbEntity
  8
0
  6
Continuous
 62
     7
100
AcDbLine
 10
152.865341761881
 20
-65.14050000000001
 30
0.0
 11
236.8653417618808
 21
-65.14029999999999
 31
0.0
  0
LINE
  5
99F
330
1F
100
AcDbEntity
  8
0
  6
Continuous
 62
     7
100
AcDbLine
 10
236.8653417618808
 20
-61.94030000000001
 30
0.0
 11
236.8653417618808
 21
-63.4403
 31
0.0
  0
LINE
  5
9A0
330
1F
100
AcDbEntity
  8
0
  6
Continuous
 62
     7
100
AcDbLine
 10
152.865341761881
 20
-66.6403
 30
0.0
 11
111.365541761881
 21
-66.6405
 31
0.0
  0
LINE
  5
9A1
330
1F
100
AcDbEntity
  8
0
  6
DASH_CENTER
 62
    30
100
AcDbLine
 10
194.8653417618809
 20
-88.99179999999999
 30
0.0
 11
194.8650417618809
 21
115.9677
 31
0.0
  0
LINE
  5
9A2
330
1F
100
AcDbEntity
  8
0
  6
Continuous
 62
     7
100
AcDbLine
 10
185.3001417618809
 20
-60.8832
 30
0.0
 11
184.3326417618809
 21
-59.07289999999999
 31
0.0
  0
LINE
  5
9A3
330
1F
100
AcDbEntity
  8
0
  6
Continuous
 62
     7
100
AcDbLine
 10
273.666841761881
 20
-60.29990000000001
 30
0.0
 11
259.3782417618809
 21
-40.7411
 31
0.0
  0
LINE
  5
9A4
330
1F
100
AcDbEntity
  8
0
  6
Continuous
 62
     7
100
AcDbLine
 10
116.063841761881
 20
-60.30019999999999
 30
0.0
 11
130.352341761881
 21
-40.7413
 31
0.0
  0
LINE
  5
9A5
330
1F
100
AcDbEntity
  8
0
  6
Continuous
 62
     7
100
AcDbLine
 10
276.8968417618809
 20
-61.94030000000001
 30
0.0
 11
278.3653417618809
 21
-61.94030000000001
 31
0.0
  0
LINE
  5
9A6
330
1F
100
AcDbEntity
  8
0
  6
Continuous
 62
     7
100
AcDbLine
 10
233.698841761881
 20
-60.0055
 30
0.0
 11
231.008141761881
 21
-55.5424
 31
0.0
  0
LINE
  5
9A7
330
1F
100
AcDbEntity
  8
0
  6
Continuous
 62
     7
100
AcDbLine
 10
204.4302417618809
 20
-60.8832
 30
0.0
 11
205.3980417618809
 21
-59.07289999999999
 31
0.0
  0
LINE
  5
9A8
330
1F
100
AcDbEntity
  8
0
  6
Continuous
 62
     7
100
AcDbLine
 10
278.3653417618809
 20
-61.94030000000001
 30
0.0
 11
111.365541761881
 21
-61.94030000000001
 31
0.0
  0
LINE
  5
9A9
330
1F
100
AcDbEntity
  8
0
  6
Continuous
 62
     7
100
AcDbLine
 10
187.0640417618808
 20
-61.94030000000001
 30
0.0
 11
202.6665417618809
 21
-61.94030000000001
 31
0.0
  0
LINE
  5
9AA
330
1F
100
AcDbEntity
  8
0
  6
DASH_CENTER
 62
    30
100
AcDbLine
 10
132.365341761881
 20
-54.1476
 30
0.0
 11
132.365341761881
 21
-79.402
 31
0.0
  0
LINE
  5
9AB
330
1F
100
AcDbEntity
  8
0
  6
Continuous
 62
     7
100
AcDbLine
 10
156.241041761881
 20
-57.09020000000001
 30
0.0
 11
153.550341761881
 21
-61.5536
 31
0.0
  0
LINE
  5
9AC
330
1F
100
AcDbEntity
  8
0
  6
Continuous
 62
     7
100
AcDbLine
 10
152.865341761881
 20
-63.4403
 30
0.0
 11
111.365341761881
 21
-63.4406
 31
0.0
  0
LINE
  5
9AD
330
1F
100
AcDbEntity
  8
0
  6
Continuous
 62
     7
100
AcDbLine
 10
152.865341761881
 20
-61.94030000000001
 30
0.0
 11
152.865341761881
 21
-63.4403
 31
0.0
  0
LINE
  5
9AE
330
1F
100
AcDbEntity
  8
0
  6
DASH_CENTER
 62
    30
100
AcDbLine
 10
130.535441761881
 20
-52.98989999999999
 30
0.0
 11
116.405141761881
 21
-42.66709999999998
 31
0.0
  0
LINE
  5
9AF
330
1F
100
AcDbEntity
  8
0
  6
DASH_CENTER
 62
    30
100
AcDbLine
 10
116.604541761881
 20
-31.92439999999999
 30
0.0
 11
132.860241761881
 21
-22.5392
 31
0.0
  0
LINE
  5
9B0
330
1F
100
AcDbEntity
  8
0
  6
Continuous
 62
     7
100
AcDbLine
 10
240.3738417618809
 20
-23.29019999999999
 30
0.0
 11
255.7449417618808
 21
-23.29019999999999
 31
0.0
  0
LINE
  5
9B1
330
1F
100
AcDbEntity
  8
0
  6
Continuous
 62
     7
100
AcDbLine
 10
231.414641761881
 20
-32.2494
 30
0.0
 11
231.414641761881
 21
-47.62019999999998
 31
0.0
  0
LINE
  5
9B2
330
1F
100
AcDbEntity
  8
0
  6
Continuous
 62
     7
100
AcDbLine
 10
231.414641761881
 20
58.76789999999999
 30
0.0
 11
231.414641761881
 21
74.13899999999998
 31
0.0
  0
LINE
  5
9B3
330
1F
100
AcDbEntity
  8
0
  6
Continuous
 62
     7
100
AcDbLine
 10
240.3738417618809
 20
49.8087
 30
0.0
 11
255.744741761881
 21
49.8087
 31
0.0
  0
LINE
  5
9B4
330
1F
100
AcDbEntity
  8
0
  6
Continuous
 62
     7
100
AcDbLine
 10
158.316041761881
 20
-32.2494
 30
0.0
 11
158.316041761881
 21
-47.62019999999998
 31
0.0
  0
LINE
  5
9B5
330
1F
100
AcDbEntity
  8
0
  6
Continuous
 62
     7
100
AcDbLine
 10
149.356741761881
 20
-23.29019999999999
 30
0.0
 11
133.986141761881
 21
-23.29019999999999
 31
0.0
  0
LINE
  5
9B6
330
1F
100
AcDbEntity
  8
0
  6
DASH_CENTER
 62
    30
100
AcDbLine
 10
273.1260417618809
 20
-31.92439999999999
 30
0.0
 11
256.870441761881
 21
-22.5392
 31
0.0
  0
LINE
  5
9B7
330
1F
100
AcDbEntity
  8
0
  6
Continuous
 62
     7
100
AcDbLine
 10
149.356741761881
 20
49.8087
 30
0.0
 11
133.9864417618809
 21
49.8087
 31
0.0
  0
LINE
  5
9B8
330
1F
100
AcDbEntity
  8
0
  6
Continuous
 62
     7
100
AcDbLine
 10
158.316041761881
 20
58.76789999999999
 30
0.0
 11
158.316041761881
 21
74.13899999999998
 31
0.0
  0
LINE
  5
9B9
330
1F
100
AcDbEntity
  8
0
  6
Continuous
 62
     7
100
AcDbLine
 10
125.621441761881
 20
-43.8273
 30
0.0
 11
120.312341761881
 21
-51.0946
 31
0.0
  0
LINE
  5
9BA
330
1F
100
AcDbEntity
  8
0
  6
Continuous
 62
     7
100
AcDbLine
 10
118.682741761881
 20
-47.7308
 30
0.0
 11
121.921441761881
 21
-43.2972
 31
0.0
  0
LINE
  5
9BB
330
1F
100
AcDbEntity
  8
0
  6
Continuous
 62
     7
100
AcDbLine
 10
125.621441761881
 20
-43.8273
 30
0.0
 11
124.041141761881
 21
-42.87189999999998
 31
0.0
  0
LINE
  5
9BC
330
1F
100
AcDbEntity
  8
0
  6
Continuous
 62
     7
100
AcDbLine
 10
120.312341761881
 20
-51.0946
 30
0.0
 11
118.921941761881
 21
-49.8793
 31
0.0
  0
LINE
  5
9BD
330
1F
100
AcDbEntity
  8
0
  6
DASH_CENTER
 62
    30
100
AcDbLine
 10
234.682641761881
 20
-26.55800000000001
 30
0.0
 11
248.3780417618809
 21
-40.2535
 31
0.0
  0
LINE
  5
9BE
330
1F
100
AcDbEntity
  8
0
  6
Continuous
 62
     7
100
AcDbLine
 10
127.531341761881
 20
-44.60309999999998
 30
0.0
 11
125.916541761881
 21
-43.42369999999998
 31
0.0
  0
LINE
  5
9BF
330
1F
100
AcDbEntity
  8
0
  6
Continuous
 62
     7
100
AcDbLine
 10
121.6321417618809
 20
-52.6781
 30
0.0
 11
120.017441761881
 21
-51.49840000000001
 31
0.0
  0
LINE
  5
9C0
330
1F
100
AcDbEntity
  8
0
  6
Continuous
 62
     7
100
AcDbLine
 10
125.916541761881
 20
-43.42349999999998
 30
0.0
 11
120.017441761881
 21
-51.49840000000001
 31
0.0
  0
LINE
  5
9C1
330
1F
100
AcDbEntity
  8
0
  6
Continuous
 62
     7
100
AcDbLine
 10
126.723941761881
 20
-44.0133
 30
0.0
 11
120.824741761881
 21
-52.08829999999998
 31
0.0
  0
LINE
  5
9C2
330
1F
100
AcDbEntity
  8
0
  6
Continuous
 62
     7
100
AcDbLine
 10
147.697141761881
 20
57.52839999999999
 30
0.0
 11
148.697141761881
 21
57.52839999999999
 31
0.0
  0
LINE
  5
9C3
330
1F
100
AcDbEntity
  8
0
  6
Continuous
 62
     7
100
AcDbLine
 10
147.697141761881
 20
62.3285
 30
0.0
 11
148.697141761881
 21
62.3285
 31
0.0
  0
LINE
  5
9C4
330
1F
100
AcDbEntity
  8
0
  6
Continuous
 62
     7
100
AcDbLine
 10
145.796941761881
 20
60.42860000000001
 30
0.0
 11
145.796941761881
 21
59.4286
 31
0.0
  0
LINE
  5
9C5
330
1F
100
AcDbEntity
  8
0
  6
Continuous
 62
     7
100
AcDbLine
 10
150.597041761881
 20
60.42860000000001
 30
0.0
 11
150.597041761881
 21
59.4286
 31
0.0
  0
LINE
  5
9C6
330
1F
100
AcDbEntity
  8
0
  6
Continuous
 62
     7
100
AcDbLine
 10
147.697141761881
 20
58.9286
 30
0.0
 11
147.697141761881
 21
57.52839999999999
 31
0.0
  0
LINE
  5
9C7
330
1F
100
AcDbEntity
  8
0
  6
Continuous
 62
     7
100
AcDbLine
 10
149.1971417618809
 20
59.4286
 30
0.0
 11
150.597041761881
 21
59.4286
 31
0.0
  0
LINE
  5
9C8
330
1F
100
AcDbEntity
  8
0
  6
Continuous
 62
     7
100
AcDbLine
 10
149.1971417618809
 20
60.42860000000001
 30
0.0
 11
150.597041761881
 21
60.42860000000001
 31
0.0
  0
LINE
  5
9C9
330
1F
100
AcDbEntity
  8
0
  6
Continuous
 62
     7
100
AcDbLine
 10
148.697141761881
 20
58.9286
 30
0.0
 11
148.697141761881
 21
57.52839999999999
 31
0.0
  0
LINE
  5
9CA
330
1F
100
AcDbEntity
  8
0
  6
Continuous
 62
     7
100
AcDbLine
 10
145.796941761881
 20
59.4286
 30
0.0
 11
147.197141761881
 21
59.4286
 31
0.0
  0
LINE
  5
9CB
330
1F
100
AcDbEntity
  8
0
  6
Continuous
 62
     7
100
AcDbLine
 10
145.796941761881
 20
60.42860000000001
 30
0.0
 11
147.197141761881
 21
60.42860000000001
 31
0.0
  0
LINE
  5
9CC
330
1F
100
AcDbEntity
  8
0
  6
Continuous
 62
     7
100
AcDbLine
 10
147.697141761881
 20
62.3285
 30
0.0
 11
147.697141761881
 21
60.9286
 31
0.0
  0
LINE
  5
9CD
330
1F
100
AcDbEntity
  8
0
  6
Continuous
 62
     7
100
AcDbLine
 10
148.697141761881
 20
62.3285
 30
0.0
 11
148.697141761881
 21
60.9286
 31
0.0
  0
LINE
  5
9CE
330
1F
100
AcDbEntity
  8
0
  6
Continuous
 62
     7
100
AcDbLine
 10
147.696341761881
 20
-35.80989999999999
 30
0.0
 11
148.696341761881
 21
-35.80989999999999
 31
0.0
  0
LINE
  5
9CF
330
1F
100
AcDbEntity
  8
0
  6
Continuous
 62
     7
100
AcDbLine
 10
147.696341761881
 20
-31.00989999999999
 30
0.0
 11
148.696341761881
 21
-31.00989999999999
 31
0.0
  0
LINE
  5
9D0
330
1F
100
AcDbEntity
  8
0
  6
Continuous
 62
     7
100
AcDbLine
 10
145.796241761881
 20
-32.90979999999999
 30
0.0
 11
145.796241761881
 21
-33.90979999999998
 31
0.0
  0
LINE
  5
9D1
330
1F
100
AcDbEntity
  8
0
  6
Continuous
 62
     7
100
AcDbLine
 10
150.596241761881
 20
-32.90979999999999
 30
0.0
 11
150.596241761881
 21
-33.90979999999998
 31
0.0
  0
LINE
  5
9D2
330
1F
100
AcDbEntity
  8
0
  6
Continuous
 62
     7
100
AcDbLine
 10
147.696341761881
 20
-34.40979999999999
 30
0.0
 11
147.696341761881
 21
-35.80989999999999
 31
0.0
  0
LINE
  5
9D3
330
1F
100
AcDbEntity
  8
0
  6
Continuous
 62
     7
100
AcDbLine
 10
149.196341761881
 20
-33.90979999999998
 30
0.0
 11
150.596241761881
 21
-33.90979999999998
 31
0.0
  0
LINE
  5
9D4
330
1F
100
AcDbEntity
  8
0
  6
Continuous
 62
     7
100
AcDbLine
 10
149.196341761881
 20
-32.90979999999999
 30
0.0
 11
150.596241761881
 21
-32.90979999999999
 31
0.0
  0
LINE
  5
9D5
330
1F
100
AcDbEntity
  8
0
  6
Continuous
 62
     7
100
AcDbLine
 10
148.696341761881
 20
-34.40979999999999
 30
0.0
 11
148.696341761881
 21
-35.80989999999999
 31
0.0
  0
LINE
  5
9D6
330
1F
100
AcDbEntity
  8
0
  6
Continuous
 62
     7
100
AcDbLine
 10
145.796241761881
 20
-33.90979999999998
 30
0.0
 11
147.196341761881
 21
-33.90979999999998
 31
0.0
  0
LINE
  5
9D7
330
1F
100
AcDbEntity
  8
0
  6
Continuous
 62
     7
100
AcDbLine
 10
145.796241761881
 20
-32.90979999999999
 30
0.0
 11
147.196341761881
 21
-32.90979999999999
 31
0.0
  0
LINE
  5
9D8
330
1F
100
AcDbEntity
  8
0
  6
Continuous
 62
     7
100
AcDbLine
 10
147.696341761881
 20
-31.00989999999999
 30
0.0
 11
147.696341761881
 21
-32.40979999999999
 31
0.0
  0
LINE
  5
9D9
330
1F
100
AcDbEntity
  8
0
  6
Continuous
 62
     7
100
AcDbLine
 10
148.696341761881
 20
-31.00989999999999
 30
0.0
 11
148.696341761881
 21
-32.40979999999999
 31
0.0
  0
LINE
  5
9DA
330
1F
100
AcDbEntity
  8
0
  6
Continuous
 62
     7
100
AcDbLine
 10
241.034541761881
 20
-35.8102
 30
0.0
 11
242.0345417618809
 21
-35.8102
 31
0.0
  0
LINE
  5
9DB
330
1F
100
AcDbEntity
  8
0
  6
Continuous
 62
     7
100
AcDbLine
 10
241.034541761881
 20
-31.0101
 30
0.0
 11
242.0345417618809
 21
-31.0101
 31
0.0
  0
LINE
  5
9DC
330
1F
100
AcDbEntity
  8
0
  6
Continuous
 62
     7
100
AcDbLine
 10
239.1343417618809
 20
-32.90999999999999
 30
0.0
 11
239.1343417618809
 21
-33.91
 31
0.0
  0
LINE
  5
9DD
330
1F
100
AcDbEntity
  8
0
  6
Continuous
 62
     7
100
AcDbLine
 10
243.9344417618809
 20
-32.90999999999999
 30
0.0
 11
243.9344417618809
 21
-33.91
 31
0.0
  0
LINE
  5
9DE
330
1F
100
AcDbEntity
  8
0
  6
Continuous
 62
     7
100
AcDbLine
 10
241.034541761881
 20
-34.40999999999998
 30
0.0
 11
241.034541761881
 21
-35.8102
 31
0.0
  0
LINE
  5
9DF
330
1F
100
AcDbEntity
  8
0
  6
Continuous
 62
     7
100
AcDbLine
 10
242.534541761881
 20
-33.91
 30
0.0
 11
243.9344417618809
 21
-33.91
 31
0.0
  0
LINE
  5
9E0
330
1F
100
AcDbEntity
  8
0
  6
Continuous
 62
     7
100
AcDbLine
 10
242.534541761881
 20
-32.90999999999999
 30
0.0
 11
243.9344417618809
 21
-32.90999999999999
 31
0.0
  0
LINE
  5
9E1
330
1F
100
AcDbEntity
  8
0
  6
Continuous
 62
     7
100
AcDbLine
 10
242.0345417618809
 20
-34.40999999999998
 30
0.0
 11
242.0345417618809
 21
-35.8102
 31
0.0
  0
LINE
  5
9E2
330
1F
100
AcDbEntity
  8
0
  6
Continuous
 62
     7
100
AcDbLine
 10
239.1343417618809
 20
-33.91
 30
0.0
 11
240.534541761881
 21
-33.91
 31
0.0
  0
LINE
  5
9E3
330
1F
100
AcDbEntity
  8
0
  6
Continuous
 62
     7
100
AcDbLine
 10
239.1343417618809
 20
-32.90999999999999
 30
0.0
 11
240.534541761881
 21
-32.90999999999999
 31
0.0
  0
LINE
  5
9E4
330
1F
100
AcDbEntity
  8
0
  6
Continuous
 62
     7
100
AcDbLine
 10
241.034541761881
 20
-31.0101
 30
0.0
 11
241.034541761881
 21
-32.40999999999999
 31
0.0
  0
LINE
  5
9E5
330
1F
100
AcDbEntity
  8
0
  6
Continuous
 62
     7
100
AcDbLine
 10
242.0345417618809
 20
-31.0101
 30
0.0
 11
242.0345417618809
 21
-32.40999999999999
 31
0.0
  0
LINE
  5
9E6
330
1F
100
AcDbEntity
  8
0
  6
Continuous
 62
     7
100
AcDbLine
 10
241.034541761881
 20
57.528
 30
0.0
 11
242.0345417618809
 21
57.528
 31
0.0
  0
LINE
  5
9E7
330
1F
100
AcDbEntity
  8
0
  6
Continuous
 62
     7
100
AcDbLine
 10
241.034541761881
 20
62.32800000000001
 30
0.0
 11
242.0345417618809
 21
62.32800000000001
 31
0.0
  0
LINE
  5
9E8
330
1F
100
AcDbEntity
  8
0
  6
Continuous
 62
     7
100
AcDbLine
 10
239.1343417618809
 20
60.4281
 30
0.0
 11
239.1343417618809
 21
59.4281
 31
0.0
  0
LINE
  5
9E9
330
1F
100
AcDbEntity
  8
0
  6
Continuous
 62
     7
100
AcDbLine
 10
243.9344417618809
 20
60.4281
 30
0.0
 11
243.9344417618809
 21
59.4281
 31
0.0
  0
LINE
  5
9EA
330
1F
100
AcDbEntity
  8
0
  6
Continuous
 62
     7
100
AcDbLine
 10
241.034541761881
 20
58.9281
 30
0.0
 11
241.034541761881
 21
57.528
 31
0.0
  0
LINE
  5
9EB
330
1F
100
AcDbEntity
  8
0
  6
Continuous
 62
     7
100
AcDbLine
 10
242.534541761881
 20
59.4281
 30
0.0
 11
243.9344417618809
 21
59.4281
 31
0.0
  0
LINE
  5
9EC
330
1F
100
AcDbEntity
  8
0
  6
Continuous
 62
     7
100
AcDbLine
 10
242.534541761881
 20
60.4281
 30
0.0
 11
243.9344417618809
 21
60.4281
 31
0.0
  0
LINE
  5
9ED
330
1F
100
AcDbEntity
  8
0
  6
Continuous
 62
     7
100
AcDbLine
 10
242.0345417618809
 20
58.9281
 30
0.0
 11
242.0345417618809
 21
57.528
 31
0.0
  0
LINE
  5
9EE
330
1F
100
AcDbEntity
  8
0
  6
Continuous
 62
     7
100
AcDbLine
 10
239.1343417618809
 20
59.4281
 30
0.0
 11
240.534541761881
 21
59.4281
 31
0.0
  0
LINE
  5
9EF
330
1F
100
AcDbEntity
  8
0
  6
Continuous
 62
     7
100
AcDbLine
 10
239.1343417618809
 20
60.4281
 30
0.0
 11
240.534541761881
 21
60.4281
 31
0.0
  0
LINE
  5
9F0
330
1F
100
AcDbEntity
  8
0
  6
Continuous
 62
     7
100
AcDbLine
 10
241.034541761881
 20
62.32800000000001
 30
0.0
 11
241.034541761881
 21
60.9281
 31
0.0
  0
LINE
  5
9F1
330
1F
100
AcDbEntity
  8
0
  6
Continuous
 62
     7
100
AcDbLine
 10
242.0345417618809
 20
62.32800000000001
 30
0.0
 11
242.0345417618809
 21
60.9281
 31
0.0
  0
LINE
  5
9F2
330
1F
100
AcDbEntity
  8
0
  6
Continuous
 62
     7
100
AcDbLine
 10
259.7996417618809
 20
-33.4688
 30
0.0
 11
254.625241761881
 21
-30.48099999999999
 31
0.0
  0
LINE
  5
9F3
330
1F
100
AcDbEntity
  8
0
  6
Continuous
 62
     7
100
AcDbLine
 10
267.799641761881
 20
-19.6122
 30
0.0
 11
262.6250417618809
 21
-16.6245
 31
0.0
  0
LINE
  5
9F4
330
1F
100
AcDbEntity
  8
0
  6
Continuous
 62
     7
100
AcDbLine
 10
186.8653417618808
 20
92.8584
 30
0.0
 11
186.8653417618808
 21
86.8834
 31
0.0
  0
LINE
  5
9F5
330
1F
100
AcDbEntity
  8
0
  6
Continuous
 62
     7
100
AcDbLine
 10
202.865341761881
 20
86.8834
 30
0.0
 11
202.865341761881
 21
92.8584
 31
0.0
  0
LINE
  5
9F6
330
1F
100
AcDbEntity
  8
0
  6
Continuous
 62
     7
100
AcDbLine
 10
129.930841761881
 20
-33.4686
 30
0.0
 11
135.105241761881
 21
-30.48109999999999
 31
0.0
  0
LINE
  5
9F7
330
1F
100
AcDbEntity
  8
0
  6
Continuous
 62
     7
100
AcDbLine
 10
121.930841761881
 20
-19.61249999999998
 30
0.0
 11
127.105341761881
 21
-16.6246
 31
0.0
  0
LINE
  5
9F8
330
1F
100
AcDbEntity
  8
0
  6
Continuous
 62
     7
100
AcDbLine
 10
199.3653417618808
 20
94.25920000000001
 30
0.0
 11
190.3653417618809
 21
94.25920000000001
 31
0.0
  0
LINE
  5
9F9
330
1F
100
AcDbEntity
  8
0
  6
Continuous
 62
     7
100
AcDbLine
 10
192.1202417618809
 20
97.55920000000001
 30
0.0
 11
197.610641761881
 21
97.55920000000001
 31
0.0
  0
LINE
  5
9FA
330
1F
100
AcDbEntity
  8
0
  6
Continuous
 62
     7
100
AcDbLine
 10
199.3653417618808
 20
94.25920000000001
 30
0.0
 11
199.2044417618808
 21
96.09850000000001
 31
0.0
  0
LINE
  5
9FB
330
1F
100
AcDbEntity
  8
0
  6
Continuous
 62
     7
100
AcDbLine
 10
190.3653417618809
 20
94.25920000000001
 30
0.0
 11
190.5264417618809
 21
96.09850000000001
 31
0.0
  0
LINE
  5
9FC
330
1F
100
AcDbEntity
  8
0
  6
DASH_CENTER
 62
    30
100
AcDbLine
 10
141.572041761881
 20
66.55339999999999
 30
0.0
 11
155.115941761881
 21
53.00930000000001
 31
0.0
  0
LINE
  5
9FD
330
1F
100
AcDbEntity
  8
0
  6
Continuous
 62
     7
100
AcDbLine
 10
122.467641761881
 20
-23.34309999999998
 30
0.0
 11
126.967641761881
 21
-31.1376
 31
0.0
  0
LINE
  5
9FE
330
1F
100
AcDbEntity
  8
0
  6
Continuous
 62
     7
100
AcDbLine
 10
123.232241761881
 20
-31.26789999999999
 30
0.0
 11
120.487141761881
 21
-26.5131
 31
0.0
  0
LINE
  5
9FF
330
1F
100
AcDbEntity
  8
0
  6
Continuous
 62
     7
100
AcDbLine
 10
122.467641761881
 20
-23.34309999999998
 30
0.0
 11
120.9554417618809
 21
-24.4022
 31
0.0
  0
LINE
  5
A00
330
1F
100
AcDbEntity
  8
0
  6
Continuous
 62
     7
100
AcDbLine
 10
126.967641761881
 20
-31.1376
 30
0.0
 11
125.294241761881
 21
-31.9176
 31
0.0
  0
LINE
  5
A01
330
1F
100
AcDbEntity
  8
0
  6
DASH_CENTER
 62
    30
100
AcDbLine
 10
154.601341761881
 20
-27.0045
 30
0.0
 11
140.966541761881
 21
-40.6393
 31
0.0
  0
LINE
  5
A02
330
1F
100
AcDbEntity
  8
0
  6
DASH_CENTER
 62
    30
100
AcDbLine
 10
234.6833417618809
 20
53.0777
 30
0.0
 11
248.651541761881
 21
67.0459
 31
0.0
  0
LINE
  5
A03
330
1F
100
AcDbEntity
  8
0
  6
Continuous
 62
     7
100
AcDbLine
 10
262.7630417618809
 20
-31.1376
 30
0.0
 11
267.2632417618809
 21
-23.34309999999998
 31
0.0
  0
LINE
  5
A04
330
1F
100
AcDbEntity
  8
0
  6
Continuous
 62
     7
100
AcDbLine
 10
269.2437417618809
 20
-26.5131
 30
0.0
 11
266.4983417618809
 21
-31.2677
 31
0.0
  0
LINE
  5
A05
330
1F
100
AcDbEntity
  8
0
  6
Continuous
 62
     7
100
AcDbLine
 10
262.7630417618809
 20
-31.1376
 30
0.0
 11
264.4363417618809
 21
-31.9176
 31
0.0
  0
LINE
  5
A06
330
1F
100
AcDbEntity
  8
0
  6
Continuous
 62
     7
100
AcDbLine
 10
267.2632417618809
 20
-23.34309999999998
 30
0.0
 11
268.7754417618809
 21
-24.4022
 31
0.0
  0
LINE
  5
A07
330
1F
100
AcDbEntity
  8
0
  6
Continuous
 62
     7
100
AcDbLine
 10
229.852041761881
 20
76.53060000000002
 30
0.0
 11
230.5874417618809
 21
77.26600000000002
 31
0.0
  0
LINE
  5
A08
330
1F
100
AcDbEntity
  8
0
  6
Continuous
 62
     7
100
AcDbLine
 10
258.1362417618809
 20
48.2464
 30
0.0
 11
258.8716417618809
 21
48.98179999999999
 31
0.0
  0
LINE
  5
A09
330
1F
100
AcDbEntity
  8
0
  6
Continuous
 62
     7
100
AcDbLine
 10
121.268041761881
 20
3.2629
 30
0.0
 11
123.223141761881
 21
3.528599999999998
 31
0.0
  0
LINE
  5
A0A
330
1F
100
AcDbEntity
  8
0
  6
Continuous
 62
     7
100
AcDbLine
 10
123.223141761881
 20
22.9905
 30
0.0
 11
121.268041761881
 21
23.2559
 31
0.0
  0
LINE
  5
A0B
330
1F
100
AcDbEntity
  8
0
  6
Continuous
 62
     7
100
AcDbLine
 10
94.96594176188098
 20
-22.6975
 30
0.0
 11
94.96594176188098
 21
-32.3181
 31
0.0
  0
LINE
  5
A0C
330
1F
100
AcDbEntity
  8
0
  6
Continuous
 62
     7
100
AcDbLine
 10
104.889741761881
 20
-16.5012
 30
0.0
 11
109.420741761881
 21
7.7595
 31
0.0
  0
LINE
  5
A0D
330
1F
100
AcDbEntity
  8
0
  6
Continuous
 62
     7
100
AcDbLine
 10
111.400441761881
 20
-16.5012
 30
0.0
 11
115.931341761881
 21
7.7595
 31
0.0
  0
LINE
  5
A0E
330
1F
100
AcDbEntity
  8
0
  6
Continuous
 62
     7
100
AcDbLine
 10
108.165941761881
 20
7.7595
 30
0.0
 11
118.5654417618809
 21
7.7595
 31
0.0
  0
LINE
  5
A0F
330
1F
100
AcDbEntity
  8
0
  6
Continuous
 62
     7
100
AcDbLine
 10
103.665841761881
 20
-16.5012
 30
0.0
 11
103.665841761881
 21
3.259499999999998
 31
0.0
  0
LINE
  5
A10
330
1F
100
AcDbEntity
  8
0
  6
Continuous
 62
     7
100
AcDbLine
 10
98.165941761881
 20
-22.64839999999999
 30
0.0
 11
98.165941761881
 21
-32.3181
 31
0.0
  0
LINE
  5
A11
330
1F
100
AcDbEntity
  8
0
  6
Continuous
 62
     7
100
AcDbLine
 10
108.165941761881
 20
18.75949999999998
 30
0.0
 11
118.594741761881
 21
18.75949999999998
 31
0.0
  0
LINE
  5
A12
330
1F
100
AcDbEntity
  8
0
  6
Continuous
 62
     7
100
AcDbLine
 10
92.665941761881
 20
3.259499999999998
 30
0.0
 11
92.665941761881
 21
-16.5012
 31
0.0
  0
LINE
  5
A13
330
1F
100
AcDbEntity
  8
0
  6
Continuous
 62
     7
100
AcDbLine
 10
118.5654417618809
 20
13.25949999999999
 30
0.0
 11
108.165941761881
 21
13.25949999999999
 31
0.0
  0
LINE
  5
A14
330
1F
100
AcDbEntity
  8
0
  6
Continuous
 62
     7
100
AcDbLine
 10
108.165941761881
 20
10.05959999999999
 30
0.0
 11
118.5654417618809
 21
10.05959999999999
 31
0.0
  0
LINE
  5
A15
330
1F
100
AcDbEntity
  8
0
  6
Continuous
 62
     7
100
AcDbLine
 10
98.165941761881
 20
-16.5012
 30
0.0
 11
98.165941761881
 21
3.259499999999998
 31
0.0
  0
LINE
  5
A16
330
1F
100
AcDbEntity
  8
0
  6
Continuous
 62
     7
100
AcDbLine
 10
94.96594176188098
 20
3.259499999999998
 30
0.0
 11
94.96594176188098
 21
-16.5012
 31
0.0
  0
LINE
  5
A17
330
1F
100
AcDbEntity
  8
0
  6
Continuous
 62
     7
100
AcDbLine
 10
118.594741761881
 20
16.4595
 30
0.0
 11
108.165941761881
 21
16.4595
 31
0.0
  0
LINE
  5
A18
330
1F
100
AcDbEntity
  8
0
  6
Continuous
 62
     7
100
AcDbLine
 10
101.365941761881
 20
-16.5012
 30
0.0
 11
101.365941761881
 21
3.259499999999998
 31
0.0
  0
LINE
  5
A19
330
1F
100
AcDbEntity
  8
0
  6
Continuous
 62
     7
100
AcDbLine
 10
112.676041761881
 20
7.7595
 30
0.0
 11
108.145041761881
 21
-16.5012
 31
0.0
  0
LINE
  5
A1A
330
1F
100
AcDbEntity
  8
0
  6
DASH_CENTER
 62
    30
100
AcDbLine
 10
96.56604176188102
 20
-51.376
 30
0.0
 11
96.56604176188102
 21
-36.863
 31
0.0
  0
LINE
  5
A1B
330
1F
100
AcDbEntity
  8
0
  6
Continuous
 62
     7
100
AcDbLine
 10
98.61584176188102
 20
-32.3181
 30
0.0
 11
94.515941761881
 21
-32.3181
 31
0.0
  0
LINE
  5
A1C
330
1F
100
AcDbEntity
  8
0
  6
Continuous
 62
     7
100
AcDbLine
 10
94.515941761881
 20
-37.1182
 30
0.0
 11
98.61584176188102
 21
-37.1182
 31
0.0
  0
LINE
  5
A1D
330
1F
100
AcDbEntity
  8
0
  6
Continuous
 62
     7
100
AcDbLine
 10
98.61584176188102
 20
-32.3181
 30
0.0
 11
98.61584176188102
 21
-37.1182
 31
0.0
  0
LINE
  5
A1E
330
1F
100
AcDbEntity
  8
0
  6
Continuous
 62
     7
100
AcDbLine
 10
94.515941761881
 20
-32.3181
 30
0.0
 11
94.515941761881
 21
-37.1182
 31
0.0
  0
LINE
  5
A1F
330
1F
100
AcDbEntity
  8
0
  6
Continuous
 62
     7
100
AcDbLine
 10
98.61584176188102
 20
-37.1182
 30
0.0
 11
99.79554176188102
 21
-42.74049999999999
 31
0.0
  0
LINE
  5
A20
330
1F
100
AcDbEntity
  8
0
  6
Continuous
 62
     7
100
AcDbLine
 10
94.515941761881
 20
-37.1182
 30
0.0
 11
93.336341761881
 21
-42.74049999999999
 31
0.0
  0
LINE
  5
A21
330
1F
100
AcDbEntity
  8
0
  6
DASH_CENTER
 62
    30
100
AcDbLine
 10
103.821841761881
 20
-43.418
 30
0.0
 11
87.94764176188099
 21
-43.418
 31
0.0
  0
LINE
  5
A22
330
1F
100
AcDbEntity
  8
0
  6
Continuous
 62
     7
100
AcDbLine
 10
125.362241761881
 20
79.5181
 30
0.0
 11
137.115041761881
 21
61.0869
 31
0.0
  0
LINE
  5
A23
330
1F
100
AcDbEntity
  8
0
  6
Continuous
 62
     7
100
AcDbLine
 10
156.373941761881
 20
101.2324
 30
0.0
 11
169.9752417618809
 21
83.49169999999999
 31
0.0
  0
LINE
  5
A24
330
1F
100
AcDbEntity
  8
0
  6
Continuous
 62
     7
100
AcDbLine
 10
171.762041761881
 20
81.9949
 30
0.0
 11
171.308741761881
 21
82.64230000000003
 31
0.0
  0
LINE
  5
A25
330
1F
100
AcDbEntity
  8
0
  6
Continuous
 62
     7
100
AcDbLine
 10
138.1902417618809
 20
58.4592
 30
0.0
 11
137.723441761881
 21
59.1257
 31
0.0
  0
LINE
  5
A26
330
1F
100
AcDbEntity
  8
0
  6
DASH_CENTER
 62
    30
100
AcDbLine
 10
158.320241761881
 20
65.4514
 30
0.0
 11
128.1374417618809
 21
108.5569
 31
0.0
  0
LINE
  5
A27
330
1F
100
AcDbEntity
  8
0
  6
Continuous
 62
     7
100
AcDbLine
 10
149.135841761881
 20
70.72239999999998
 30
0.0
 11
148.2126417618809
 21
72.3215
 31
0.0
  0
LINE
  5
A28
330
1F
100
AcDbEntity
  8
0
  6
Continuous
 62
     7
100
AcDbLine
 10
156.508241761881
 20
75.8845
 30
0.0
 11
155.321441761881
 21
77.2991
 31
0.0
  0
LINE
  5
A29
330
1F
100
AcDbEntity
  8
0
  6
Continuous
 62
     7
100
AcDbLine
 10
148.680541761881
 20
74.43210000000002
 30
0.0
 11
153.177941761881
 21
77.5813
 31
0.0
  0
LINE
  5
A2A
330
1F
100
AcDbEntity
  8
0
  6
DASH_CENTER
 62
    30
100
AcDbLine
 10
257.3653417618809
 20
-53.37950000000001
 30
0.0
 11
257.3653417618809
 21
-79.3043
 31
0.0
  0
LINE
  5
A2B
330
1F
100
AcDbEntity
  8
0
  6
Continuous
 62
     7
100
AcDbLine
 10
236.8653417618808
 20
-65.14029999999999
 30
0.0
 11
236.8653417618808
 21
-66.6403
 31
0.0
  0
LINE
  5
A2C
330
1F
100
AcDbEntity
  8
0
  6
Continuous
 62
     7
100
AcDbLine
 10
236.8653417618808
 20
-63.4403
 30
0.0
 11
278.3653417618809
 21
-63.4403
 31
0.0
  0
LINE
  5
A2D
330
1F
100
AcDbEntity
  8
0
  6
Continuous
 62
     7
100
AcDbLine
 10
278.3653417618809
 20
-66.6403
 30
0.0
 11
236.8653417618808
 21
-66.6403
 31
0.0
  0
LINE
  5
A2E
330
1F
100
AcDbEntity
  8
0
  6
Continuous
 62
     7
100
AcDbLine
 10
111.365541761881
 20
-61.9406
 30
0.0
 11
111.365541761881
 21
-66.6405
 31
0.0
  0
LINE
  5
A2F
330
1F
100
AcDbEntity
  8
0
  6
Continuous
 62
     7
100
AcDbLine
 10
278.3653417618809
 20
-61.94030000000001
 30
0.0
 11
278.3653417618809
 21
-66.6403
 31
0.0
  0
LINE
  5
A30
330
1F
100
AcDbEntity
  8
0
  6
Continuous
 62
     7
100
AcDbLine
 10
152.865341761881
 20
-65.14050000000001
 30
0.0
 11
152.865341761881
 21
-66.6405
 31
0.0
  0
LINE
  5
A31
330
1F
100
AcDbEntity
  8
0
  6
DASH_CENTER
 62
    30
100
AcDbLine
 10
288.152641761881
 20
13.2594
 30
0.0
 11
87.17549152556467
 21
13.2594
 31
0.0
  0
POINT
  5
A32
330
1F
100
AcDbEntity
  8
0
 62
     7
100
AcDbPoint
 10
191.0714999999999
 20
94.25920000000001
 30
0.0
  0
SPLINE
  5
A3E
330
1F
100
AcDbEntity
  8
0
  6
Continuous
 62
    54
100
AcDbSpline
210
0.0
220
0.0
230
1.0
 70
     8
 71
     3
 72
   183
 73
   179
 74
   177
 42
0.0000000001
 43
0.0000000001
 44
0.00000001
 40
0.0
 40
0.0
 40
0.0
 40
0.0
 40
0.4369934573624797
 40
0.8739853094877885
 40
1.311020931825871
 40
1.751486390440211
 40
2.191927592427075
 40
2.632332063573042
 40
3.007513181089726
 40
3.382708623809897
 40
3.757896624497176
 40
4.106622279607115
 40
4.455423207672218
 40
4.804291094710412
 40
5.153218016193507
 40
5.430331689349635
 40
5.707420097284804
 40
5.984471386837133
 40
6.261527529438212
 40
6.538688285093546
 40
6.810566510918549
 40
7.082400352770141
 40
7.354014318852582
 40
7.625376788908191
 40
7.631771678051365
 40
7.638166549126321
 40
7.644508509749932
 40
7.650850418657122
 40
7.901573619520435
 40
8.152405634143558
 40
8.403522497093149
 40
8.6548798322574
 40
8.906264308963645
 40
9.229251899935649
 40
9.551887168109225
 40
9.874311228283371
 40
10.19682848087231
 40
10.48385692730779
 40
10.77104455089946
 40
11.05810979336538
 40
11.34491450305501
 40
11.35244085041287
 40
11.35996714852603
 40
11.36750770345032
 40
11.37504823578886
 40
11.70135778718079
 40
12.02785713319069
 40
12.35470115694086
 40
12.68181075927285
 40
13.0089133720988
 40
13.45388763165541
 40
13.89844604939025
 40
14.34284536666161
 40
14.7872385149464
 40
15.49811627468999
 40
16.20906105807319
 40
16.21747601417815
 40
16.22589096035658
 40
16.23429494193519
 40
16.24269893393689
 40
16.6394570148814
 40
17.03620791024945
 40
17.43299312061759
 40
17.83002779033957
 40
18.12571310049771
 40
18.42145951102606
 40
18.71706623354786
 40
19.01248481130775
 40
19.30784298318043
 40
19.61996065247763
 40
19.9322475484144
 40
20.24456594526327
 40
20.55676274097356
 40
20.84241342957095
 40
21.12809617459413
 40
21.41395753327798
 40
21.70002644663439
 40
21.98622577463602
 40
22.27238372160964
 40
22.66548176057464
 40
23.05829013079873
 40
23.45097948897982
 40
23.84362845340109
 40
24.23623094927083
 40
24.68773454626117
 40
25.13921838515852
 40
25.59078185597872
 40
26.04247662251941
 40
26.51306541446601
 40
26.98366359188325
 40
27.45419672096717
 40
27.92466881260729
 40
28.39516873289095
 40
28.83394324124056
 40
29.27284937341394
 40
29.71183797631038
 40
30.150856435333
 40
30.5898504016249
 40
31.02876551663865
 40
31.45022332098118
 40
31.8716445163037
 40
32.29306918829852
 40
32.7144925478876
 40
33.1358676452441
 40
33.55710805932188
 40
34.06110652254336
 40
34.56503058575639
 40
35.06905978612905
 40
35.5732684518403
 40
36.07764124353916
 40
36.58208873440119
 40
37.08646289932957
 40
38.03034242590108
 40
38.97375317378213
 40
39.91707287379259
 40
40.86066405985794
 40
41.46350350790615
 40
42.06638651629561
 40
42.66914417651485
 40
43.2717030838653
 40
43.87411351069135
 40
44.40817146381795
 40
44.94236291003199
 40
45.47672029648778
 40
46.01121285686462
 40
46.54575448714743
 40
47.08021155502375
 40
47.65672573406439
 40
48.23307795207319
 40
48.8093708951639
 40
49.38573974319339
 40
49.96242457210909
 40
50.3445772992202
 40
50.72681787338663
 40
51.10897302920892
 40
51.49093602999846
 40
51.8726766376505
 40
52.25425123493168
 40
52.65317058774907
 40
53.05225920536352
 40
53.45161582601292
 40
53.85125094728179
 40
54.25109564127208
 40
54.65101028980688
 40
55.05079312008659
 40
55.61062089319953
 40
56.17003254948002
 40
56.72926692384312
 40
57.28847590617692
 40
57.84774633027883
 40
58.57970570269689
 40
59.31164311519705
 40
60.04345233123265
 40
60.62086069036156
 40
61.19834221168821
 40
61.77599533061704
 40
62.35395802469831
 40
62.81743302414096
 40
63.28079648341329
 40
63.74373016652011
 40
64.20604755488487
 40
64.48603606002361
 40
64.76616720974679
 40
65.04692208293544
 40
65.32889963468257
 40
65.46746000385756
 40
65.60597157353368
 40
65.74409657885081
 40
65.88176326483635
 40
66.01925321963617
 40
66.15728635415639
 40
66.2802321172653
 40
66.40322317215498
 40
66.5254173080995
 40
66.64665036423253
 40
66.7576103675143
 40
66.86913700104572
 40
66.98068546017911
 40
66.98068546017911
 40
66.98068546017911
 40
66.98068546017911
 10
235.0362
 20
-155.9884999999999
 30
0.0
 10
234.9706696812214
 20
-156.1185920678052
 30
0.0
 10
234.8396092909948
 20
-156.3787757288617
 30
0.0
 10
234.6456203004578
 20
-156.7703740967939
 30
0.0
 10
234.4563685470281
 20
-157.1655817059961
 30
0.0
 10
234.2746040148226
 20
-157.565573472343
 30
0.0
 10
234.1030231532365
 20
-157.9712824211421
 30
0.0
 10
233.9526232431915
 20
-158.3621123862917
 30
0.0
 10
233.8235336884221
 20
-158.7375452290064
 30
0.0
 10
233.7144207849668
 20
-159.096608550228
 30
0.0
 10
233.621669414777
 20
-159.451150528076
 30
0.0
 10
233.5452883143152
 20
-159.8005625282985
 30
0.0
 10
233.4841532927053
 20
-160.144051378153
 30
0.0
 10
233.4364644864181
 20
-160.4897306376199
 30
0.0
 10
233.4046566813351
 20
-160.8132254854913
 30
0.0
 10
233.3857394875681
 20
-161.1137220711626
 30
0.0
 10
233.3774361405792
 20
-161.390735641571
 30
0.0
 10
233.3787636623078
 20
-161.6678563393009
 30
0.0
 10
233.3902434627362
 20
-161.9447732577488
 30
0.0
 10
233.4122515528546
 20
-162.2193289930277
 30
0.0
 10
233.4450256336798
 20
-162.4910605982681
 30
0.0
 10
233.4891912960027
 20
-162.7593180326153
 30
0.0
 10
233.5458404907488
 20
-163.0250513690453
 30
0.0
 10
233.5930844956119
 20
-163.2020807859212
 30
0.0
 10
233.6200620451313
 20
-163.2928749218716
 30
0.0
 10
233.621891792091
 20
-163.2989840428647
 30
0.0
 10
233.6237351754908
 20
-163.3050706120193
 30
0.0
 10
233.6493692753968
 20
-163.3890475883783
 30
0.0
 10
233.7031342439806
 20
-163.549665817478
 30
0.0
 10
233.7931861996511
 20
-163.7839032048187
 30
0.0
 10
233.8916263037821
 20
-164.0149515335628
 30
0.0
 10
233.9964591476277
 20
-164.2433502586705
 30
0.0
 10
234.1161186912642
 20
-164.4912339033209
 30
0.0
 10
234.2496028647414
 20
-164.758789751467
 30
0.0
 10
234.3939885946358
 20
-165.0473667780002
 30
0.0
 10
234.5347148646126
 20
-165.3375901477985
 30
0.0
 10
234.6629563197681
 20
-165.6206077709312
 30
0.0
 10
234.7761159203721
 20
-165.8973463869545
 30
0.0
 10
234.8744424883421
 20
-166.167162049591
 30
0.0
 10
234.9611865055744
 20
-166.4408527061013
 30
0.0
 10
235.0111004985037
 20
-166.6282076886236
 30
0.0
 10
235.0344637234908
 20
-166.7260766837586
 30
0.0
 10
235.0362027016911
 20
-166.7334042341134
 30
0.0
 10
235.0379331094021
 20
-166.7407386703237
 30
0.0
 10
235.0639258109349
 20
-166.8515271315554
 30
0.0
 10
235.1086492705769
 20
-167.0671541028981
 30
0.0
 10
235.1607282774027
 20
-167.3896119138976
 30
0.0
 10
235.2005420355865
 20
-167.7140634527319
 30
0.0
 10
235.2300549021
 20
-168.0397922606524
 30
0.0
 10
235.2537833287564
 20
-168.4054473448049
 30
0.0
 10
235.2707258901447
 20
-168.810680184733
 30
0.0
 10
235.2793914259827
 20
-169.2552691152409
 30
0.0
 10
235.2800645515969
 20
-169.6997372377212
 30
0.0
 10
235.2736015206597
 20
-170.2329331069752
 30
0.0
 10
235.2585539210967
 20
-170.8548342243979
 30
0.0
 10
235.2447707648043
 20
-171.3313794892164
 30
0.0
 10
235.2384195370874
 20
-171.5738879048773
 30
0.0
 10
235.2381999706278
 20
-171.5822963331702
 30
0.0
 10
235.237981256257
 20
-171.5907011279341
 30
0.0
 10
235.2344045448986
 20
-171.7285100665467
 30
0.0
 10
235.2277706586901
 20
-171.9957334251244
 30
0.0
 10
235.2219764137041
 20
-172.3924687849403
 30
0.0
 10
235.2234139163531
 20
-172.7893538063789
 30
0.0
 10
235.2342578146817
 20
-173.1524194431194
 30
0.0
 10
235.2538976154456
 20
-173.4813633823037
 30
0.0
 10
235.2804127183885
 20
-173.775904128686
 30
0.0
 10
235.3172148203767
 20
-174.0692643810139
 30
0.0
 10
235.3656955718469
 20
-174.3608104029766
 30
0.0
 10
235.4283999251052
 20
-174.6552882053591
 30
0.0
 10
235.50761635191
 20
-174.9516152240724
 30
0.0
 10
235.6039155702474
 20
-175.2487817161297
 30
0.0
 10
235.7154620342436
 20
-175.540593941636
 30
0.0
 10
235.8382937684404
 20
-175.8181560952653
 30
0.0
 10
235.9706659710502
 20
-176.0813547565096
 30
0.0
 10
236.1101359608801
 20
-176.3308316593702
 30
0.0
 10
236.2596136656483
 20
-176.5745922302468
 30
0.0
 10
236.4180719642992
 20
-176.8128050838168
 30
0.0
 10
236.5844862295714
 20
-177.0456392270887
 30
0.0
 10
236.7794887841477
 20
-177.301700963651
 30
0.0
 10
237.0051018766485
 20
-177.5789365463632
 30
0.0
 10
237.2636353430633
 20
-177.8748443584663
 30
0.0
 10
237.5315682239087
 20
-178.1620521122432
 30
0.0
 10
237.8080006419644
 20
-178.4409790820103
 30
0.0
 10
238.1062684785284
 20
-178.7256309630936
 30
0.0
 10
238.4267948728946
 20
-179.0151492491862
 30
0.0
 10
238.7702538414532
 20
-179.3083283897222
 30
0.0
 10
239.1214629982344
 20
-179.5922716293174
 30
0.0
 10
239.484811108912
 20
-179.8710845901377
 30
0.0
 10
239.8600305631077
 20
-180.1446296487898
 30
0.0
 10
240.2476620204653
 20
-180.411535463641
 30
0.0
 10
240.6428068139236
 20
-180.6671307860394
 30
0.0
 10
241.0456144255408
 20
-180.9104244477603
 30
0.0
 10
241.4469502024435
 20
-181.1352227544755
 30
0.0
 10
241.846245218034
 20
-181.3415921751838
 30
0.0
 10
242.2424978093041
 20
-181.530469136808
 30
0.0
 10
242.6446849513654
 20
-181.7065576897092
 30
0.0
 10
243.0523351599748
 20
-181.8696791396527
 30
0.0
 10
243.4649765104116
 20
-182.0196542910623
 30
0.0
 10
243.8766500779137
 20
-182.1545068034886
 30
0.0
 10
244.2867340905772
 20
-182.2746812497064
 30
0.0
 10
244.6945460478135
 20
-182.3811991204888
 30
0.0
 10
245.1051943539028
 20
-182.4761242399127
 30
0.0
 10
245.5182420069514
 20
-182.5598946718976
 30
0.0
 10
245.9332525588672
 20
-182.6329481520707
 30
0.0
 10
246.3771538341912
 20
-182.6998469372705
 30
0.0
 10
246.8499564650755
 20
-182.7586582139244
 30
0.0
 10
247.3515283704152
 20
-182.8083646600989
 30
0.0
 10
247.85412264413
 20
-182.8471450930201
 30
0.0
 10
248.3574894000684
 20
-182.8765956154347
 30
0.0
 10
248.8613804735448
 20
-182.8983114652555
 30
0.0
 10
249.3655474691593
 20
-182.9138864788248
 30
0.0
 10
250.0162977375719
 20
-182.9281192300802
 30
0.0
 10
250.813457841262
 20
-182.9388506106855
 30
0.0
 10
251.756969331843
 20
-182.9458586783441
 30
0.0
 10
252.7003904373468
 20
-182.9518408816822
 30
0.0
 10
253.5302699083552
 20
-182.9603090112925
 30
0.0
 10
254.2466055102104
 20
-182.9727839514673
 30
0.0
 10
254.8492264087498
 20
-182.9890235395864
 30
0.0
 10
255.4514918984764
 20
-183.0133630387868
 30
0.0
 10
256.0530982731565
 20
-183.0481596192891
 30
0.0
 10
256.6310175721629
 20
-183.0939721804786
 30
0.0
 10
257.184999362212
 20
-183.1512054955718
 30
0.0
 10
257.7151875995744
 20
-183.2168305504074
 30
0.0
 10
258.2442455767478
 20
-183.2920086978436
 30
0.0
 10
258.7721580046056
 20
-183.3755589610513
 30
0.0
 10
259.2989100854917
 20
-183.4663010893712
 30
0.0
 10
259.838360053272
 20
-183.5656089876981
 30
0.0
 10
260.3905003835477
 20
-183.6727839801277
 30
0.0
 10
260.9559286652175
 20
-183.7846365704178
 30
0.0
 10
261.5216359925955
 20
-183.8948389401654
 30
0.0
 10
262.0884709051103
 20
-183.9997530999349
 30
0.0
 10
262.5931065994776
 20
-184.0849065352035
 30
0.0
 10
263.0352207647423
 20
-184.1511191849605
 30
0.0
 10
263.4141458984113
 20
-184.2010890235988
 30
0.0
 10
263.7939548491504
 20
-184.2433212136489
 30
0.0
 10
264.1744854463145
 20
-184.2767006362786
 30
0.0
 10
264.5555743490314
 20
-184.3001108013001
 30
0.0
 10
264.9428458640293
 20
-184.3126208050553
 30
0.0
 10
265.3361106440171
 20
-184.312455331699
 30
0.0
 10
265.7350945436566
 20
-184.2999958222137
 30
0.0
 10
266.1337990601766
 20
-184.2762975325324
 30
0.0
 10
266.5320109877523
 20
-184.2424116342068
 30
0.0
 10
266.929518736732
 20
-184.1993884057325
 30
0.0
 10
267.3261105883085
 20
-184.1482768933548
 30
0.0
 10
267.7744838977729
 20
-184.0823461233155
 30
0.0
 10
268.2740307369135
 20
-183.9994642586065
 30
0.0
 10
268.8242690414406
 20
-183.8980028906808
 30
0.0
 10
269.3727872864154
 20
-183.7887154056051
 30
0.0
 10
269.9200519272469
 20
-183.6735790552225
 30
0.0
 10
270.5227416391037
 20
-183.5423286645424
 30
0.0
 10
271.181111905323
 20
-183.3962159328184
 30
0.0
 10
271.8963626856133
 20
-183.2409536861557
 30
0.0
 10
272.5632289950283
 20
-183.1057806249557
 30
0.0
 10
273.1820621128408
 20
-182.9934941565545
 30
0.0
 10
273.7522092508567
 20
-182.9013095192235
 30
0.0
 10
274.3242991199764
 20
-182.8207005202045
 30
0.0
 10
274.8602520285746
 20
-182.7568656228095
 30
0.0
 10
275.3594636813756
 20
-182.7076580519255
 30
0.0
 10
275.8214076897487
 20
-182.6722250877564
 30
0.0
 10
276.2837296408275
 20
-182.6485616779052
 30
0.0
 10
276.6854490946197
 20
-182.639746303908
 30
0.0
 10
277.0262832255925
 20
-182.6413184962338
 30
0.0
 10
277.3064881471211
 20
-182.6495940656972
 30
0.0
 10
277.5869970676331
 20
-182.6662188493505
 30
0.0
 10
277.8197955605324
 20
-182.6880421015206
 30
0.0
 10
278.0047729724074
 20
-182.7107462989832
 30
0.0
 10
278.1415611597436
 20
-182.7320302631673
 30
0.0
 10
278.2769617894398
 20
-182.7595296402481
 30
0.0
 10
278.4101701748611
 20
-182.7950569417607
 30
0.0
 10
278.5403694470389
 20
-182.8404414839943
 30
0.0
 10
278.6615870698527
 20
-182.8952446624303
 30
0.0
 10
278.7728135990802
 20
-182.958945295833
 30
0.0
 10
278.8728608300652
 20
-183.0304070924866
 30
0.0
 10
278.96366160435
 20
-183.1125427289302
 30
0.0
 10
279.0402195120598
 20
-183.2031007357816
 30
0.0
 10
279.1006508398045
 20
-183.3007811197101
 30
0.0
 10
279.1502782075048
 20
-183.400532486773
 30
0.0
 10
279.180425081769
 20
-183.4685086139054
 30
0.0
 10
279.1954999999999
 20
-183.5024999999999
 30
0.0
 11
235.0362
 21
-155.9884999999999
 31
0.0
 11
234.8400437023212
 21
-156.3789945534215
 31
0.0
 11
234.6464995471553
 21
-156.77078855421
 31
0.0
 11
234.4581809077955
 21
-157.1651693669853
 31
0.0
 11
234.2763755400498
 21
-157.5663633708161
 31
0.0
 11
234.105245763121
 21
-157.9721996088032
 31
0.0
 11
233.9475088540606
 21
-158.383387115815
 31
0.0
 11
233.8256862704624
 21
-158.7382393797255
 31
0.0
 11
233.7167749630375
 21
-159.0972796942871
 31
0.0
 11
233.622
 21
-159.4603
 31
0.0
 11
233.5475216314363
 21
-159.8009795492014
 31
0.0
 11
233.4863995677868
 21
-160.1443833652008
 31
0.0
 11
233.4387240157863
 21
-160.4899782789785
 31
0.0
 11
233.4045851821698
 21
-160.8372311215143
 31
0.0
 11
233.3872572382313
 21
-161.1138025051617
 31
0.0
 11
233.3790410579761
 21
-161.3907690739675
 31
0.0
 11
233.3804554322261
 21
-161.6678167533109
 31
0.0
 11
233.3920191518036
 21
-161.9446314685704
 31
0.0
 11
233.414251007531
 21
-162.2208991451251
 31
0.0
 11
233.4469638024745
 21
-162.4908021698715
 31
0.0
 11
233.4912910643442
 21
-162.7589974932386
 31
0.0
 11
233.5480960364566
 21
-163.0246049889215
 31
0.0
 11
233.6182419621295
 21
-163.2867445306156
 31
0.0
 11
233.6200642817285
 21
-163.2928742743675
 31
0.0
 11
233.6219
 21
-163.299
 31
0.0
 11
233.623737392826
 21
-163.3050699631124
 31
0.0
 11
233.6255880516846
 21
-163.3111358406588
 31
0.0
 11
233.7048504632913
 21
-163.5490004946307
 31
0.0
 11
233.794535224776
 21
-163.783251093714
 31
0.0
 11
233.8926470910196
 21
-164.0144084873061
 31
0.0
 11
233.9971908169028
 21
-164.2429935248046
 31
0.0
 11
234.1061711573063
 21
-164.4695270556069
 31
0.0
 11
234.2497103974776
 21
-164.7588667703224
 31
0.0
 11
234.393421481422
 21
-165.0477277068709
 31
0.0
 11
234.5334376893823
 21
-165.338163131905
 31
0.0
 11
234.6658923016011
 21
-165.6322263120775
 31
0.0
 11
234.7743701558615
 21
-165.8979665690984
 31
0.0
 11
234.8725287533017
 21
-166.1678584379873
 31
0.0
 11
234.9590746807223
 21
-166.4415667788857
 31
0.0
 11
235.0327145249243
 21
-166.7187564519363
 31
0.0
 11
235.034462114867
 21
-166.726077096303
 31
0.0
 11
235.0362
 21
-166.7333999999998
 31
0.0
 11
235.0379315904449
 21
-166.7407390437453
 31
0.0
 11
235.0396540377116
 21
-166.7480802155431
 31
0.0
 11
235.1062605499546
 21
-167.0675195616805
 31
0.0
 11
235.1586617385399
 21
-167.3897864361625
 31
0.0
 11
235.1988119727145
 21
-167.7141550144328
 31
0.0
 11
235.2286656217248
 21
-168.0398994719334
 31
0.0
 11
235.2501770548172
 21
-168.366293984108
 31
0.0
 11
235.2690779372244
 21
-168.810866642212
 31
0.0
 11
235.2780604584836
 21
-169.2553343025716
 31
0.0
 11
235.2790546358903
 21
-169.6997325077985
 31
0.0
 11
235.2739904867406
 21
-170.1440968005054
 31
0.0
 11
235.2579950942712
 21
-170.8547945820405
 31
0.0
 11
235.2386399348834
 21
-171.5654758486783
 31
0.0
 11
235.2384196434413
 21
-171.5738879208318
 31
0.0
 11
235.2381999999999
 21
-171.5823
 31
0.0
 11
235.2379813505784
 21
-171.5907011367559
 31
0.0
 11
235.2377632754503
 21
-171.5991022988654
 31
0.0
 11
235.228446017983
 21
-171.9957509639038
 31
0.0
 11
235.2231817201646
 21
-172.3924669329645
 31
0.0
 11
235.2251481384258
 21
-172.7892472705896
 31
0.0
 11
235.2375230291975
 21
-173.18608904132
 31
0.0
 11
235.2553780366616
 21
-173.4812347702863
 31
0.0
 11
235.2821340300068
 21
-173.7757683950828
 31
0.0
 11
235.3191733338301
 21
-174.0690454387604
 31
0.0
 11
235.3678782727294
 21
-174.3604214243695
 31
0.0
 11
235.429631171302
 21
-174.6492518749615
 31
0.0
 11
235.5102037165186
 21
-174.9507904370474
 31
0.0
 11
235.606452211369
 21
-175.2478751599743
 31
0.0
 11
235.7179573933603
 21
-175.5396102716543
 31
0.0
 11
235.8443
 21
-175.8251
 31
0.0
 11
235.9725011096025
 21
-176.0803661187643
 31
0.0
 11
236.1117618993278
 21
-176.3298076214217
 31
0.0
 11
236.261057766738
 21
-176.5735851026706
 31
0.0
 11
236.419364109396
 21
-176.8118591572094
 31
0.0
 11
236.5856563248645
 21
-177.0447903797364
 31
0.0
 11
236.7589098107063
 21
-177.2725393649499
 31
0.0
 11
237.0069147030384
 21
-177.5775305806116
 31
0.0
 11
237.2652450471643
 21
-177.8734424746559
 31
0.0
 11
237.5330020271514
 21
-178.1606899841543
 31
0.0
 11
237.8092868270671
 21
-178.439688046179
 31
0.0
 11
238.093200630979
 21
-178.7108515978017
 31
0.0
 11
238.4281907048244
 21
-179.0135678817096
 31
0.0
 11
238.7715168778608
 21
-179.306765418732
 31
0.0
 11
239.1226097697116
 21
-179.5907431458388
 31
0.0
 11
239.4808999999999
 21
-179.8658
 31
0.0
 11
239.8612509361415
 21
-180.1429046309673
 31
0.0
 11
240.248937699157
 21
-180.4096659819751
 31
0.0
 11
240.6441057862862
 21
-180.6650942664306
 31
0.0
 11
241.0469006947674
 21
-180.908199697741
 31
0.0
 11
241.45746792184
 21
-181.137992489314
 31
0.0
 11
241.8472541968284
 21
-181.3394614174964
 31
0.0
 11
242.2434496062825
 21
-181.5283205989014
 31
0.0
 11
242.6455818157978
 21
-181.7043906973175
 31
0.0
 11
243.0531784909705
 21
-181.8674923765316
 31
0.0
 11
243.4657672973963
 21
-182.0174463003318
 31
0.0
 11
243.8828759006717
 21
-182.1540731325056
 31
0.0
 11
244.287299797615
 21
-182.272681700614
 31
0.0
 11
244.695019496164
 21
-182.3792672122316
 31
0.0
 11
245.1055971809977
 21
-182.4742657326689
 31
0.0
 11
245.5185950367953
 21
-182.5581133272359
 31
0.0
 11
245.9335752482363
 21
-182.6312460612428
 31
0.0
 11
246.3500999999999
 21
-182.6940999999999
 31
0.0
 11
246.8502112136678
 21
-182.7565757943927
 31
0.0
 11
247.351652204928
 21
-182.8065397189514
 31
0.0
 11
247.8541668283193
 21
-182.8455844124561
 31
0.0
 11
248.3574989383807
 21
-182.8753025136865
 31
0.0
 11
248.8613923896505
 21
-182.8972866614234
 31
0.0
 11
249.3655910366678
 21
-182.9131294944468
 31
0.0
 11
249.8698387339711
 21
-182.9244236515364
 31
0.0
 11
250.813622002922
 21
-182.937903333409
 31
0.0
 11
251.7570006317108
 21
-182.9456880520645
 31
0.0
 11
252.7002961133803
 21
-182.9524475315795
 31
0.0
 11
253.6438299409728
 21
-182.9628514960309
 31
0.0
 11
254.2465710314785
 21
-182.9737408433009
 31
0.0
 11
254.8492245041225
 21
-182.9903755557939
 31
0.0
 11
255.4514744374162
 21
-183.0151104450488
 31
0.0
 11
256.0530049098715
 21
-183.0503003226044
 31
0.0
 11
256.6535
 21
-183.0982999999999
 31
0.0
 11
257.1847505855478
 21
-183.1529874081994
 31
0.0
 11
257.7149204531405
 21
-183.2184122709788
 31
0.0
 11
258.2439908428443
 21
-183.2933945299808
 31
0.0
 11
258.7719429947262
 21
-183.3767541268484
 31
0.0
 11
259.2987581488519
 21
-183.4673110032248
 31
0.0
 11
259.824417545288
 21
-183.5638851007531
 31
0.0
 11
260.3904863641603
 21
-183.6731311116859
 31
0.0
 11
260.9560024765666
 21
-183.7843669232925
 31
0.0
 11
261.5217808903041
 21
-183.8939495075725
 31
0.0
 11
262.0886366131703
 21
-183.9982358365249
 31
0.0
 11
262.6573846529615
 21
-184.0935828821493
 31
0.0
 11
263.0353487204503
 21
-184.1500086786819
 31
0.0
 11
263.4143319458173
 21
-184.199803973819
 31
0.0
 11
263.794166507759
 21
-184.2418547605398
 31
0.0
 11
264.1746845849723
 21
-184.2750470318243
 31
0.0
 11
264.5557183561538
 21
-184.2982667806509
 31
0.0
 11
264.9370999999999
 21
-184.3103999999999
 31
0.0
 11
265.3360193527078
 21
-184.3104082464875
 31
0.0
 11
265.7349190089589
 21
-184.2981286320655
 31
0.0
 11
266.1335824643399
 21
-184.2746092830968
 31
0.0
 11
266.5317932144366
 21
-184.2408983259434
 31
0.0
 11
266.929334754836
 21
-184.1980438869678
 31
0.0
 11
267.3259905811239
 21
-184.1470940925328
 31
0.0
 11
267.7215441888864
 21
-184.0890970690004
 31
0.0
 11
268.2738763119701
 21
-183.9977933928058
 31
0.0
 11
268.8240741888211
 21
-183.8966810918073
 31
0.0
 11
269.3725943411956
 21
-183.7877374007362
 31
0.0
 11
269.9198932908485
 21
-183.672939554323
 31
0.0
 11
270.4664275595359
 21
-183.5542647872988
 31
0.0
 11
271.1812413402634
 21
-183.3967662743759
 31
0.0
 11
271.8967559776217
 21
-183.2425872247316
 31
0.0
 11
272.6141999999999
 21
-183.0982999999999
 31
0.0
 11
273.182350846655
 21
-182.995319280927
 31
0.0
 11
273.7524460071738
 21
-182.9032518312883
 31
0.0
 11
274.3244637625179
 21
-182.8227607558489
 31
0.0
 11
274.8983823936494
 21
-182.754509159373
 31
0.0
 11
275.3596495602286
 21
-182.7093242501176
 31
0.0
 11
275.821677850641
 21
-182.6741738004241
 31
0.0
 11
276.2840212865655
 21
-182.6508041179313
 31
0.0
 11
276.7462338896804
 21
-182.6409615102788
 31
0.0
 11
277.0262182742935
 21
-182.6424804913313
 31
0.0
 11
277.3062207367857
 21
-182.6509706002938
 31
0.0
 11
277.5864713033054
 21
-182.667790786679
 31
0.0
 11
277.8672
 21
-182.6942999999999
 31
0.0
 11
278.0046903929296
 21
-182.7114862651924
 31
0.0
 11
278.1415055224395
 21
-182.7330981882008
 31
0.0
 11
278.2768005049041
 21
-182.7609151749065
 31
0.0
 11
278.4097304566973
 21
-182.7967166311909
 31
0.0
 11
278.5394504941938
 21
-182.8422819629359
 31
0.0
 11
278.6651157337676
 21
-182.8993905760228
 31
0.0
 11
278.7717000433843
 21
-182.9606722659313
 31
0.0
 11
278.8715989075391
 21
-183.0324149757649
 31
0.0
 11
278.9619505874134
 21
-183.1146827134904
 31
0.0
 11
279.0398933441887
 21
-183.2075394870749
 31
0.0
 11
279.0990434271154
 21
-183.3014191432679
 31
0.0
 11
279.1495262912616
 21
-183.4008659630621
 31
0.0
 11
279.1954999999999
 21
-183.5024999999999
 31
0.0
  0
ARC
  5
A3F
330
1F
100
AcDbEntity
  8
0
  6
Continuous
 62
    30
100
AcDbCircle
 10
17.71612833579681
 20
13.2581724925288
 30
0.0
 40
8.000027509313651
100
AcDbArc
 50
89.99877054993843
 51
108.2085977846723
  0
ARC
  5
A40
330
1F
100
AcDbEntity
  8
0
  6
Continuous
 62
     7
100
AcDbCircle
 10
17.71629999999969
 20
13.25820000000067
 30
0.0
 40
8.000055022310393
100
AcDbArc
 50
0.0
 51
71.79017277372131
  0
ARC
  5
A41
330
1F
100
AcDbEntity
  8
0
  6
Continuous
 62
     7
100
AcDbCircle
 10
17.71629999999969
 20
13.25820000000067
 30
0.0
 40
8.000055022310839
100
AcDbArc
 50
108.2098272262785
 51
180.0
  0
ARC
  5
A42
330
1F
100
AcDbEntity
  8
0
  6
Continuous
 62
     7
100
AcDbCircle
 10
17.71629999999969
 20
13.25820000000067
 30
0.0
 40
8.000055022311247
100
AcDbArc
 50
180.0
 51
0.0
  0
ARC
  5
A43
330
1F
100
AcDbEntity
  8
0
  6
Continuous
 62
     7
100
AcDbCircle
 10
266.6956
 20
-168.4884999999999
 30
0.0
 40
5.0
100
AcDbArc
 50
270.0
 51
0.0
  0
ARC
  5
A44
330
1F
100
AcDbEntity
  8
0
  6
Continuous
 62
     7
100
AcDbCircle
 10
249.6955
 20
-168.4884999999999
 30
0.0
 40
5.0
100
AcDbArc
 50
90.0
 51
180.0
  0
ARC
  5
A45
330
1F
100
AcDbEntity
  8
0
  6
Continuous
 62
     7
100
AcDbCircle
 10
249.6955
 20
-168.4884999999999
 30
0.0
 40
5.0
100
AcDbArc
 50
180.0
 51
270.0
  0
ARC
  5
A46
330
1F
100
AcDbEntity
  8
0
  6
Continuous
 62
     7
100
AcDbCircle
 10
269.1956
 20
-165.9884999999999
 30
0.0
 40
10.0
100
AcDbArc
 50
0.0
 51
90.0
  0
ARC
  5
A47
330
1F
100
AcDbEntity
  8
0
  6
Continuous
 62
     7
100
AcDbCircle
 10
266.6956
 20
-168.4884999999999
 30
0.0
 40
5.0
100
AcDbArc
 50
0.0
 51
90.0
  0
ARC
  5
A48
330
1F
100
AcDbEntity
  8
0
  6
Continuous
 62
     7
100
AcDbCircle
 10
248.6956
 20
-168.4883
 30
0.0
 40
11.0
100
AcDbArc
 50
180.0
 51
270.0
  0
LINE
  5
A49
330
1F
100
AcDbEntity
  8
0
  6
Continuous
 62
     7
100
AcDbLine
 10
15.2162999999997
 20
18.25820000000067
 30
0.0
 11
15.2162999999997
 21
23.25820000000067
 31
0.0
  0
LINE
  5
A4A
330
1F
100
AcDbEntity
  8
0
  6
Continuous
 62
     7
100
AcDbLine
 10
20.21629999999969
 20
23.25820000000067
 30
0.0
 11
20.21629999999969
 21
18.25820000000067
 31
0.0
  0
LINE
  5
A4B
330
1F
100
AcDbEntity
  8
0
  6
Continuous
 62
     7
100
AcDbLine
 10
20.21629999999969
 20
18.25820000000067
 30
0.0
 11
17.71629999999969
 21
18.25820000000067
 31
0.0
  0
LINE
  5
A4C
330
1F
100
AcDbEntity
  8
0
  6
Continuous
 62
     7
100
AcDbLine
 10
20.21629999999969
 20
23.25820000000067
 30
0.0
 11
15.2162999999997
 21
23.25820000000067
 31
0.0
  0
LINE
  5
A4E
330
1F
100
AcDbEntity
  8
0
  6
DASH_CENTER
 62
    30
100
AcDbLine
 10
6.516299999999888
 20
13.25820000000067
 30
0.0
 11
28.91629999999945
 21
13.25820000000067
 31
0.0
  0
LINE
  5
A50
330
1F
100
AcDbEntity
  8
0
  6
DASH_CENTER
 62
    30
100
AcDbLine
 10
17.71629999999969
 20
26.24128287350004
 30
0.0
 11
17.71629999999969
 21
2.058200000000848
 31
0.0
  0
LINE
  5
A51
330
1F
100
AcDbEntity
  8
0
  6
Continuous
 62
     7
100
AcDbLine
 10
17.71629999999969
 20
18.25820000000067
 30
0.0
 11
15.2162999999997
 21
18.25820000000067
 31
0.0
  0
LINE
  5
A5A
330
1F
100
AcDbEntity
  8
0
  6
Continuous
 62
     7
100
AcDbLine
 10
279.1956
 20
-165.9884999999999
 30
0.0
 11
279.1956
 21
-183.5023999999999
 31
0.0
  0
LINE
  5
A5B
330
1F
100
AcDbEntity
  8
0
  6
DASH_CENTER
 62
    30
100
AcDbLine
 10
274.7628999999999
 20
-168.4884999999999
 30
0.0
 11
238.9
 21
-168.4884999999999
 31
0.0
  0
LINE
  5
A5C
330
1F
100
AcDbEntity
  8
0
  6
Continuous
 62
     7
100
AcDbLine
 10
235.0362
 20
-155.9884999999999
 30
0.0
 11
269.1956
 21
-155.9884999999999
 31
0.0
  0
LINE
  5
A5D
330
1F
100
AcDbEntity
  8
0
  6
Continuous
 62
     7
100
AcDbLine
 10
248.6956
 20
-179.4884999999999
 30
0.0
 11
279.1956
 21
-179.4884999999999
 31
0.0
  0
LINE
  5
A5E
330
1F
100
AcDbEntity
  8
0
  6
DASH_CENTER
 62
    30
100
AcDbLine
 10
258.1952999999999
 20
-158.6057999999999
 30
0.0
 11
258.1952999999999
 21
-178.194
 31
0.0
  0
LINE
  5
A5F
330
1F
100
AcDbEntity
  8
0
  6
Continuous
 62
     7
100
AcDbLine
 10
237.6956
 20
-155.9884999999999
 30
0.0
 11
237.6956
 21
-168.4884999999999
 31
0.0
  0
LINE
  5
A60
330
1F
100
AcDbEntity
  8
0
  6
Continuous
 62
     7
100
AcDbLine
 10
249.6955
 20
-163.4884999999998
 30
0.0
 11
266.6956
 21
-163.4884999999998
 31
0.0
  0
LINE
  5
A61
330
1F
100
AcDbEntity
  8
0
  6
Continuous
 62
     7
100
AcDbLine
 10
266.6956
 20
-173.4885
 30
0.0
 11
249.6955
 21
-173.4885
 31
0.0
  0
MTEXT
  5
AC4
330
1F
100
AcDbEntity
  8
0
100
AcDbMText
 10
-35.52057772416992
 20
-139.6567413750202
 30
0.0
 40
8.0
 41
123.0894259729354
 71
     1
 72
     1
  1
AEC-FBF 4P 0.4kW
 73
     1
 44
1.0
  0
VIEWPORT
  5
71
330
55
100
AcDbEntity
 67
     1
  8
0
100
AcDbViewport
 10
133.3499908447265
 20
101.5999970436096
 30
0.0
 40
381.3957395593833
 41
218.2856291881582
 68
     1
 69
     1
 12
133.3499908447265
 22
101.5999970436096
 13
0.0
 23
0.0
 14
10.0
 24
10.0
 15
10.0
 25
10.0
 16
0.0
 26
0.0
 36
1.0
 17
0.0
 27
0.0
 37
0.0
 42
50.0
 43
0.0
 44
0.0
 45
218.2856291881582
 50
0.0
 51
0.0
 72
   100
 90
    32800
  1

281
     0
 71
     1
 74
     0
110
0.0
120
0.0
130
0.0
111
1.0
121
0.0
131
0.0
112
0.0
122
1.0
132
0.0
 79
     0
146
0.0
  0
VIEWPORT
  5
73
330
55
100
AcDbEntity
 67
     1
  8
0
100
AcDbViewport
 10
133.3499939441679
 20
101.5999939441679
 30
0.0
 40
213.3599903106689
 41
162.5599903106689
 68
     2
 69
     2
 12
210.0
 22
148.5
 13
0.0
 23
0.0
 14
10.0
 24
10.0
 15
10.0
 25
10.0
 16
0.0
 26
0.0
 36
1.0
 17
0.0
 27
0.0
 37
0.0
 42
50.0
 43
0.0
 44
0.0
 45
324.0677920111345
 50
0.0
 51
0.0
 72
   100
 90
    32864
  1

281
     0
 71
     1
 74
     0
110
0.0
120
0.0
130
0.0
111
1.0
121
0.0
131
0.0
112
0.0
122
1.0
132
0.0
 79
     0
146
0.0
  0
ENDSEC
  0
SECTION
  2
OBJECTS
  0
DICTIONARY
  5
C
330
0
100
AcDbDictionary
281
     1
  3
ACAD_GROUP
350
D
  3
ACAD_LAYOUT
350
1A
  3
ACAD_MLINESTYLE
350
17
  3
ACAD_PLOTSETTINGS
350
19
  3
ACAD_PLOTSTYLENAME
350
E
  3
AcDbVariableDictionary
350
5E
  0
DICTIONARY
  5
D
102
{ACAD_REACTORS
330
C
102
}
330
C
100
AcDbDictionary
281
     1
  0
DICTIONARY
  5
1A
102
{ACAD_REACTORS
330
C
102
}
330
C
100
AcDbDictionary
281
     1
  3
Model
350
22
  3
ﾚｲｱｳﾄ1
350
51
  3
ﾚｲｱｳﾄ2
350
56
  0
DICTIONARY
  5
17
102
{ACAD_REACTORS
330
C
102
}
330
C
100
AcDbDictionary
281
     1
  3
Standard
350
18
  0
DICTIONARY
  5
19
102
{ACAD_REACTORS
330
C
102
}
330
C
100
AcDbDictionary
281
     1
  0
ACDBDICTIONARYWDFLT
  5
E
102
{ACAD_REACTORS
330
C
102
}
330
C
100
AcDbDictionary
281
     1
  3
Normal
350
F
100
AcDbDictionaryWithDefault
340
F
  0
DICTIONARY
  5
5E
102
{ACAD_REACTORS
330
C
102
}
330
C
100
AcDbDictionary
281
     1
  3
DIMASSOC
350
5F
  3
HIDETEXT
350
63
  0
LAYOUT
  5
22
102
{ACAD_REACTORS
330
1A
102
}
330
1A
100
AcDbPlotSettings
  1

  2
none_device
  4
ANSI_A_(8.50_x_11.00_Inches)
  6

 40
6.349999904632567
 41
19.04999923706053
 42
6.350006103515625
 43
19.04998779296875
 44
215.8999938964842
 45
279.3999938964843
 46
0.0
 47
0.0
 48
0.0
 49
0.0
140
0.0
141
0.0
142
1.0
143
78.436453180766
 70
 11952
 72
     0
 73
     1
 74
     0
  7

 75
     0
147
0.0127491741332998
148
0.0
149
0.0
100
AcDbLayout
  1
Model
 70
     1
 71
     0
 10
0.0
 20
0.0
 11
12.0
 21
9.0
 12
0.0
 22
0.0
 32
0.0
 14
0.0
 24
0.0
 34
0.0
 15
0.0
 25
0.0
 35
0.0
146
0.0
 13
0.0
 23
0.0
 33
0.0
 16
1.0
 26
0.0
 36
0.0
 17
0.0
 27
1.0
 37
0.0
 76
     0
330
1F
  0
LAYOUT
  5
51
102
{ACAD_REACTORS
330
1A
102
}
330
1A
100
AcDbPlotSettings
  1

  2
none_device
  4
Letter_(8.50_x_11.00_Inches)
  6

 40
6.349999904632567
 41
6.349999904632567
 42
6.350006103515625
 43
6.350006103515625
 44
215.8999938964842
 45
279.3999938964843
 46
0.0
 47
0.0
 48
0.0
 49
0.0
140
0.0
141
0.0
142
1.0
143
1.0
 70
   688
 72
     1
 73
     1
 74
     5
  7

 75
    16
147
1.0
148
0.0
149
0.0
100
AcDbLayout
  1
ﾚｲｱｳﾄ1
 70
     1
 71
     1
 10
-6.350006103515625
 20
-6.349999904632567
 11
273.0499877929687
 21
209.5499939918517
 12
0.0
 22
0.0
 32
0.0
 14
26.66076962115562
 24
20.31135699206657
 34
-0.0015258207003583
 15
240.039213369355
 25
182.8886381005154
 35
0.0000000349246037
146
0.0
 13
0.0
 23
0.0
 33
0.0
 16
1.0
 26
0.0
 36
0.0
 17
0.0
 27
1.0
 37
0.0
 76
     0
330
50
331
6B
  0
LAYOUT
  5
56
102
{ACAD_REACTORS
330
1A
102
}
330
1A
100
AcDbPlotSettings
  1

  2
none_device
  4
Letter_(8.50_x_11.00_Inches)
  6

 40
6.349999904632567
 41
6.349999904632567
 42
6.350006103515625
 43
6.350006103515625
 44
215.8999938964842
 45
279.3999938964843
 46
0.0
 47
0.0
 48
0.0
 49
0.0
140
0.0
141
0.0
142
1.0
143
1.0
 70
   688
 72
     1
 73
     1
 74
     5
  7

 75
    16
147
1.0
148
0.0
149
0.0
100
AcDbLayout
  1
ﾚｲｱｳﾄ2
 70
     1
 71
     2
 10
-6.350006103515625
 20
-6.349999904632567
 11
273.0499877929687
 21
209.5499939918517
 12
0.0
 22
0.0
 32
0.0
 14
26.66076962115562
 24
20.31135699206657
 34
-0.0015258207003583
 15
240.039213369355
 25
182.8886381005154
 35
0.0000000349246037
146
0.0
 13
0.0
 23
0.0
 33
0.0
 16
1.0
 26
0.0
 36
0.0
 17
0.0
 27
1.0
 37
0.0
 76
     0
330
55
331
71
  0
MLINESTYLE
  5
18
102
{ACAD_REACTORS
330
17
102
}
330
17
100
AcDbMlineStyle
  2
STANDARD
 70
     0
  3

 62
   256
 51
90.0
 52
90.0
 71
     2
 49
0.5
 62
   256
  6
BYLAYER
 49
-0.5
 62
   256
  6
BYLAYER
  0
ACDBPLACEHOLDER
  5
F
102
{ACAD_REACTORS
330
E
102
}
330
E
  0
DICTIONARYVAR
  5
5F
102
{ACAD_REACTORS
330
5E
102
}
330
5E
100
DictionaryVariables
280
     0
  1
2
  0
DICTIONARYVAR
  5
63
102
{ACAD_REACTORS
330
5E
102
}
330
5E
100
DictionaryVariables
280
     0
  1
1
  0
ENDSEC
  0
EOF
