  0
SECTION
  2
HEADER
  9
$ACADVER
  1
AC1015
  9
$ACADMAINTVER
 70
    14
  9
$DWGCODEPAGE
  3
ANSI_932
  9
$INSBASE
 10
0.0
 20
0.0
 30
0.0
  9
$EXTMIN
 10
-314.0897804529483
 20
-127.0991022015599
 30
-0.0000000349181948
  9
$EXTMAX
 10
240.348776918287
 20
109.065208040169
 30
0.0000000814935747
  9
$LIMMIN
 10
0.0
 20
0.0
  9
$LIMMAX
 10
12.0
 20
9.0
  9
$ORTHOMODE
 70
     0
  9
$REGENMODE
 70
     1
  9
$FILLMODE
 70
     1
  9
$QTEXTMODE
 70
     0
  9
$MIRRTEXT
 70
     1
  9
$LTSCALE
 40
1.0
  9
$ATTMODE
 70
     1
  9
$TEXTSIZE
 40
0.2
  9
$TRACEWID
 40
0.05
  9
$TEXTSTYLE
  7
CONVERTER_16
  9
$CLAYER
  8
0
  9
$CELTYPE
  6
ByLayer
  9
$CECOLOR
 62
     7
  9
$CELTSCALE
 40
1.0
  9
$DISPSILH
 70
     0
  9
$DIMSCALE
 40
1.0
  9
$DIMASZ
 40
0.18
  9
$DIMEXO
 40
0.0625
  9
$DIMDLI
 40
0.38
  9
$DIMRND
 40
0.0
  9
$DIMDLE
 40
0.0
  9
$DIMEXE
 40
0.18
  9
$DIMTP
 40
0.0
  9
$DIMTM
 40
0.0
  9
$DIMTXT
 40
0.18
  9
$DIMCEN
 40
0.09
  9
$DIMTSZ
 40
0.0
  9
$DIMTOL
 70
     0
  9
$DIMLIM
 70
     0
  9
$DIMTIH
 70
     1
  9
$DIMTOH
 70
     1
  9
$DIMSE1
 70
     0
  9
$DIMSE2
 70
     0
  9
$DIMTAD
 70
     0
  9
$DIMZIN
 70
     0
  9
$DIMBLK
  1

  9
$DIMASO
 70
     1
  9
$DIMSHO
 70
     1
  9
$DIMPOST
  1

  9
$DIMAPOST
  1

  9
$DIMALT
 70
     0
  9
$DIMALTD
 70
     2
  9
$DIMALTF
 40
25.4
  9
$DIMLFAC
 40
1.0
  9
$DIMTOFL
 70
     0
  9
$DIMTVP
 40
0.0
  9
$DIMTIX
 70
     0
  9
$DIMSOXD
 70
     0
  9
$DIMSAH
 70
     0
  9
$DIMBLK1
  1

  9
$DIMBLK2
  1

  9
$DIMSTYLE
  2
Standard
  9
$DIMCLRD
 70
     0
  9
$DIMCLRE
 70
     0
  9
$DIMCLRT
 70
     0
  9
$DIMTFAC
 40
1.0
  9
$DIMGAP
 40
0.09
  9
$DIMJUST
 70
     0
  9
$DIMSD1
 70
     0
  9
$DIMSD2
 70
     0
  9
$DIMTOLJ
 70
     1
  9
$DIMTZIN
 70
     0
  9
$DIMALTZ
 70
     0
  9
$DIMALTTZ
 70
     0
  9
$DIMUPT
 70
     0
  9
$DIMDEC
 70
     4
  9
$DIMTDEC
 70
     4
  9
$DIMALTU
 70
     2
  9
$DIMALTTD
 70
     2
  9
$DIMTXSTY
  7
Standard
  9
$DIMAUNIT
 70
     0
  9
$DIMADEC
 70
     0
  9
$DIMALTRND
 40
0.0
  9
$DIMAZIN
 70
     0
  9
$DIMDSEP
 70
    46
  9
$DIMATFIT
 70
     3
  9
$DIMFRAC
 70
     0
  9
$DIMLDRBLK
  1

  9
$DIMLUNIT
 70
     2
  9
$DIMLWD
 70
    -2
  9
$DIMLWE
 70
    -2
  9
$DIMTMOVE
 70
     0
  9
$LUNITS
 70
     2
  9
$LUPREC
 70
     4
  9
$SKETCHINC
 40
0.1
  9
$FILLETRAD
 40
0.5
  9
$AUNITS
 70
     0
  9
$AUPREC
 70
     0
  9
$MENU
  1
.
  9
$ELEVATION
 40
0.0
  9
$PELEVATION
 40
0.0
  9
$THICKNESS
 40
0.0
  9
$LIMCHECK
 70
     0
  9
$CHAMFERA
 40
0.5
  9
$CHAMFERB
 40
0.5
  9
$CHAMFERC
 40
1.0
  9
$CHAMFERD
 40
0.0
  9
$SKPOLY
 70
     0
  9
$TDCREATE
 40
2455092.496547118
  9
$TDUCREATE
 40
2455092.121547118
  9
$TDUPDATE
 40
2456044.432623877
  9
$TDUUPDATE
 40
2456044.057623877
  9
$TDINDWG
 40
0.1379289699
  9
$TDUSRTIMER
 40
0.1379275231
  9
$USRTIMER
 70
     1
  9
$ANGBASE
 50
0.0
  9
$ANGDIR
 70
     0
  9
$PDMODE
 70
     0
  9
$PDSIZE
 40
0.0
  9
$PLINEWID
 40
0.0
  9
$SPLFRAME
 70
     0
  9
$SPLINETYPE
 70
     6
  9
$SPLINESEGS
 70
     8
  9
$HANDSEED
  5
1710
  9
$SURFTAB1
 70
     6
  9
$SURFTAB2
 70
     6
  9
$SURFTYPE
 70
     6
  9
$SURFU
 70
     6
  9
$SURFV
 70
     6
  9
$UCSBASE
  2

  9
$UCSNAME
  2

  9
$UCSORG
 10
0.0
 20
0.0
 30
0.0
  9
$UCSXDIR
 10
1.0
 20
0.0
 30
0.0
  9
$UCSYDIR
 10
0.0
 20
1.0
 30
0.0
  9
$UCSORTHOREF
  2

  9
$UCSORTHOVIEW
 70
     0
  9
$UCSORGTOP
 10
0.0
 20
0.0
 30
0.0
  9
$UCSORGBOTTOM
 10
0.0
 20
0.0
 30
0.0
  9
$UCSORGLEFT
 10
0.0
 20
0.0
 30
0.0
  9
$UCSORGRIGHT
 10
0.0
 20
0.0
 30
0.0
  9
$UCSORGFRONT
 10
0.0
 20
0.0
 30
0.0
  9
$UCSORGBACK
 10
0.0
 20
0.0
 30
0.0
  9
$PUCSBASE
  2

  9
$PUCSNAME
  2

  9
$PUCSORG
 10
0.0
 20
0.0
 30
0.0
  9
$PUCSXDIR
 10
1.0
 20
0.0
 30
0.0
  9
$PUCSYDIR
 10
0.0
 20
1.0
 30
0.0
  9
$PUCSORTHOREF
  2

  9
$PUCSORTHOVIEW
 70
     0
  9
$PUCSORGTOP
 10
0.0
 20
0.0
 30
0.0
  9
$PUCSORGBOTTOM
 10
0.0
 20
0.0
 30
0.0
  9
$PUCSORGLEFT
 10
0.0
 20
0.0
 30
0.0
  9
$PUCSORGRIGHT
 10
0.0
 20
0.0
 30
0.0
  9
$PUCSORGFRONT
 10
0.0
 20
0.0
 30
0.0
  9
$PUCSORGBACK
 10
0.0
 20
0.0
 30
0.0
  9
$USERI1
 70
     0
  9
$USERI2
 70
     0
  9
$USERI3
 70
     0
  9
$USERI4
 70
     0
  9
$USERI5
 70
     0
  9
$USERR1
 40
14.0
  9
$USERR2
 40
0.0
  9
$USERR3
 40
0.0
  9
$USERR4
 40
0.0
  9
$USERR5
 40
0.0
  9
$WORLDVIEW
 70
     1
  9
$SHADEDGE
 70
     3
  9
$SHADEDIF
 70
    70
  9
$TILEMODE
 70
     1
  9
$MAXACTVP
 70
    64
  9
$PINSBASE
 10
0.0
 20
0.0
 30
0.0
  9
$PLIMCHECK
 70
     0
  9
$PEXTMIN
 10
1.000000000000000E+20
 20
1.000000000000000E+20
 30
1.000000000000000E+20
  9
$PEXTMAX
 10
-1.000000000000000E+20
 20
-1.000000000000000E+20
 30
-1.000000000000000E+20
  9
$PLIMMIN
 10
0.0
 20
0.0
  9
$PLIMMAX
 10
12.0
 20
9.0
  9
$UNITMODE
 70
     0
  9
$VISRETAIN
 70
     1
  9
$PLINEGEN
 70
     0
  9
$PSLTSCALE
 70
     1
  9
$TREEDEPTH
 70
  3020
  9
$CMLSTYLE
  2
Standard
  9
$CMLJUST
 70
     0
  9
$CMLSCALE
 40
1.0
  9
$PROXYGRAPHICS
 70
     1
  9
$MEASUREMENT
 70
     1
  9
$CELWEIGHT
370
    -1
  9
$ENDCAPS
280
     0
  9
$JOINSTYLE
280
     0
  9
$LWDISPLAY
290
     0
  9
$INSUNITS
 70
     1
  9
$HYPERLINKBASE
  1

  9
$STYLESHEET
  1
P社図面.CTB
  9
$XEDIT
290
     1
  9
$CEPSNTYPE
380
     0
  9
$PSTYLEMODE
290
     1
  9
$FINGERPRINTGUID
  2
{379A0107-A4A5-415E-959C-F2A278E07B2D}
  9
$VERSIONGUID
  2
{9554FE65-624C-4B07-97BD-D0158FFC4E12}
  9
$EXTNAMES
290
     1
  9
$PSVPSCALE
 40
0.0
  9
$OLESTARTUP
290
     0
  0
ENDSEC
  0
SECTION
  2
CLASSES
  0
CLASS
  1
ACDBDICTIONARYWDFLT
  2
AcDbDictionaryWithDefault
  3
AutoCAD 2000
 90
        0
280
     0
281
     0
  0
CLASS
  1

  2
exOdDbCircle
  3

 90
    32768
280
     0
281
     1
  0
CLASS
  1

  2
exOdDbSpline
  3

 90
    32768
280
     0
281
     1
  0
CLASS
  1

  2
exOdDbPolyline
  3

 90
    32768
280
     0
281
     1
  0
CLASS
  1
ACDBPLACEHOLDER
  2
AcDbPlaceHolder
  3
AutoCAD 2000
 90
        0
280
     0
281
     0
  0
CLASS
  1
LAYOUT
  2
AcDbLayout
  3
AutoCAD 2000
 90
        0
280
     0
281
     0
  0
CLASS
  1
DICTIONARYVAR
  2
AcDbDictionaryVar
  3
AutoCAD 2000
 90
        0
280
     0
281
     0
  0
ENDSEC
  0
SECTION
  2
TABLES
  0
TABLE
  2
VPORT
  5
8
330
0
100
AcDbSymbolTable
 70
     4
  0
VPORT
  5
170F
330
8
100
AcDbSymbolTableRecord
100
AcDbViewportTableRecord
  2
*Active
 70
     0
 10
0.0
 20
0.0
 11
1.0
 21
1.0
 12
-36.87050176733066
 22
-9.016947080695445
 13
0.0
 23
0.0
 14
0.5
 24
0.5
 15
0.5
 25
0.5
 16
0.0
 26
0.0
 36
1.0
 17
0.0
 27
0.0
 37
0.0
 40
282.4184024149845
 41
1.97051597051597
 42
50.0
 43
0.0
 44
0.0
 50
0.0
 51
0.0
 71
     0
 72
   100
 73
     1
 74
     3
 75
     0
 76
     0
 77
     0
 78
     0
281
     0
 65
     1
110
0.0
120
0.0
130
0.0
111
1.0
121
0.0
131
0.0
112
0.0
122
1.0
132
0.0
 79
     0
146
0.0
  0
ENDTAB
  0
TABLE
  2
LTYPE
  5
5
330
0
100
AcDbSymbolTable
 70
     4
  0
LTYPE
  5
14
330
5
100
AcDbSymbolTableRecord
100
AcDbLinetypeTableRecord
  2
ByBlock
 70
     0
  3

 72
    65
 73
     0
 40
0.0
  0
LTYPE
  5
15
330
5
100
AcDbSymbolTableRecord
100
AcDbLinetypeTableRecord
  2
ByLayer
 70
     0
  3

 72
    65
 73
     0
 40
0.0
  0
LTYPE
  5
16
330
5
100
AcDbSymbolTableRecord
100
AcDbLinetypeTableRecord
  2
Continuous
 70
     0
  3
Solid line
 72
    65
 73
     0
 40
0.0
  0
LTYPE
  5
2A
330
5
100
AcDbSymbolTableRecord
100
AcDbLinetypeTableRecord
  2
DASHED
 70
     0
  3
Dashed
 72
    65
 73
     2
 40
15.0
 49
7.0
 74
     0
 49
-8.0
 74
     0
  0
LTYPE
  5
2E
330
5
100
AcDbSymbolTableRecord
100
AcDbLinetypeTableRecord
  2
DASH_CENTER
 70
     0
  3
Dash_Center
 72
    65
 73
     4
 40
14.0
 49
11.0
 74
     0
 49
-1.0
 74
     0
 49
1.0
 74
     0
 49
-1.0
 74
     0
  0
LTYPE
  5
2F
330
5
100
AcDbSymbolTableRecord
100
AcDbLinetypeTableRecord
  2
PHANTOM
 70
     0
  3
Phantom
 72
    65
 73
     6
 40
13.0
 49
10.0
 74
     0
 49
-1.0
 74
     0
 49
0.0
 74
     0
 49
-1.0
 74
     0
 49
0.0
 74
     0
 49
-1.0
 74
     0
  0
ENDTAB
  0
TABLE
  2
LAYER
  5
2
330
0
100
AcDbSymbolTable
 70
     2
  0
LAYER
  5
10
330
2
100
AcDbSymbolTableRecord
100
AcDbLayerTableRecord
  2
0
 70
     0
 62
     7
  6
Continuous
370
    -3
390
F
  0
LAYER
  5
D8D
330
2
100
AcDbSymbolTableRecord
100
AcDbLayerTableRecord
  2
Defpoints
 70
     0
 62
     7
  6
Continuous
290
     0
370
    -3
390
F
  0
ENDTAB
  0
TABLE
  2
STYLE
  5
3
330
0
100
AcDbSymbolTable
 70
    24
  0
STYLE
  5
11
330
3
100
AcDbSymbolTableRecord
100
AcDbTextStyleTableRecord
  2
Standard
 70
     0
 40
0.0
 41
1.0
 50
0.0
 71
     0
 42
0.2
  3
txt
  4

  0
STYLE
  5
B0
330
3
100
AcDbSymbolTableRecord
100
AcDbTextStyleTableRecord
  2
CONVERTER_1
 70
     0
 40
0.0
 41
0.89
 50
0.0
 71
     0
 42
0.2
  3
txt.shx
  4

  0
STYLE
  5
B3
330
3
100
AcDbSymbolTableRecord
100
AcDbTextStyleTableRecord
  2
CONVERTER_2
 70
     0
 40
0.0
 41
0.6230000000000003
 50
0.0
 71
     0
 42
0.2
  3
txt.shx
  4

  0
STYLE
  5
BC
330
3
100
AcDbSymbolTableRecord
100
AcDbTextStyleTableRecord
  2
CONVERTER_3
 70
     0
 40
0.0
 41
0.89
 50
0.0
 71
     0
 42
0.2
  3
txt.shx
  4
bigfont.shx
  0
STYLE
  5
BE
330
3
100
AcDbSymbolTableRecord
100
AcDbTextStyleTableRecord
  2
CONVERTER_4
 70
     0
 40
0.0
 41
1.68111111111111
 50
0.0
 71
     0
 42
0.2
  3
txt.shx
  4
bigfont.shx
  0
STYLE
  5
C0
330
3
100
AcDbSymbolTableRecord
100
AcDbTextStyleTableRecord
  2
CONVERTER_5
 70
     0
 40
0.0
 41
1.62688172043011
 50
0.0
 71
     0
 42
0.2
  3
txt.shx
  4
bigfont.shx
  0
STYLE
  5
C3
330
3
100
AcDbSymbolTableRecord
100
AcDbTextStyleTableRecord
  2
CONVERTER_6
 70
     0
 40
0.0
 41
1.008666666666669
 50
0.0
 71
     0
 42
0.2
  3
txt.shx
  4
bigfont.shx
  0
STYLE
  5
C5
330
3
100
AcDbSymbolTableRecord
100
AcDbTextStyleTableRecord
  2
CONVERTER_7
 70
     0
 40
0.0
 41
0.9761290322580599
 50
0.0
 71
     0
 42
0.2
  3
txt.shx
  4
bigfont.shx
  0
STYLE
  5
CA
330
3
100
AcDbSymbolTableRecord
100
AcDbTextStyleTableRecord
  2
CONVERTER_8
 70
     0
 40
0.0
 41
0.73514
 50
0.0
 71
     0
 42
0.2
  3
simplex.shx
  4
bigfont.shx
  0
STYLE
  5
D0
330
3
100
AcDbSymbolTableRecord
100
AcDbTextStyleTableRecord
  2
CONVERTER_9
 70
     0
 40
0.0
 41
0.945625
 50
0.0
 71
     0
 42
0.2
  3
txt.shx
  4
bigfont.shx
  0
STYLE
  5
D6
330
3
100
AcDbSymbolTableRecord
100
AcDbTextStyleTableRecord
  2
CONVERTER_10
 70
     0
 40
0.0
 41
1.080714285714289
 50
0.0
 71
     0
 42
0.2
  3
txt.shx
  4
bigfont.shx
  0
STYLE
  5
D9
330
3
100
AcDbSymbolTableRecord
100
AcDbTextStyleTableRecord
  2
CONVERTER_11
 70
     0
 40
0.0
 41
0.7120000000000001
 50
0.0
 71
     0
 42
0.2
  3
simplex.shx
  4
bigfont.shx
  0
STYLE
  5
DB
330
3
100
AcDbSymbolTableRecord
100
AcDbTextStyleTableRecord
  2
CONVERTER_12
 70
     0
 40
0.0
 41
1.87368421052632
 50
0.0
 71
     0
 42
0.2
  3
txt.shx
  4

  0
STYLE
  5
E7
330
3
100
AcDbSymbolTableRecord
100
AcDbTextStyleTableRecord
  2
CONVERTER_14
 70
     0
 40
0.0
 41
0.7758974358974399
 50
0.0
 71
     0
 42
0.2
  3
txt.shx
  4
bigfont.shx
  0
STYLE
  5
E9
330
3
100
AcDbSymbolTableRecord
100
AcDbTextStyleTableRecord
  2
CONVERTER_15
 70
     0
 40
0.0
 41
0.8009999999999999
 50
0.0
 71
     0
 42
0.2
  3
simplex.shx
  4
bigfont.shx
  0
STYLE
  5
EB
330
3
100
AcDbSymbolTableRecord
100
AcDbTextStyleTableRecord
  2
CONVERTER_16
 70
     0
 40
0.0
 41
0.8009999999999999
 50
0.0
 71
     0
 42
0.2
  3
simplex.shx
  4
bigfont.shx
  0
STYLE
  5
EE
330
3
100
AcDbSymbolTableRecord
100
AcDbTextStyleTableRecord
  2
CONVERTER_17
 70
     0
 40
0.0
 41
1.0235
 50
0.0
 71
     0
 42
0.2
  3
simplex.shx
  4
bigfont.shx
  0
STYLE
  5
49A
330
3
100
AcDbSymbolTableRecord
100
AcDbTextStyleTableRecord
  2
CONVERTER_19
 70
     0
 40
0.0
 41
0.7565
 50
0.0
 71
     0
 42
0.2
  3
simplex.shx
  4
bigfont.shx
  0
STYLE
  5
4A0
330
3
100
AcDbSymbolTableRecord
100
AcDbTextStyleTableRecord
  2
CONVERTER_20
 70
     0
 40
0.0
 41
0.6721678321678301
 50
0.0
 71
     0
 42
0.2
  3
simplex.shx
  4
bigfont.shx
  0
STYLE
  5
4A2
330
3
100
AcDbSymbolTableRecord
100
AcDbTextStyleTableRecord
  2
CONVERTER_21
 70
     0
 40
0.0
 41
0.77095541401274
 50
0.0
 71
     0
 42
0.2
  3
txt.shx
  4
bigfont.shx
  0
STYLE
  5
4A4
330
3
100
AcDbSymbolTableRecord
100
AcDbTextStyleTableRecord
  2
CONVERTER_22
 70
     0
 40
0.0
 41
0.61981853492747
 50
0.0
 71
     0
 42
0.2
  3
simplex.shx
  4
bigfont.shx
  0
STYLE
  5
4AE
330
3
100
AcDbSymbolTableRecord
100
AcDbTextStyleTableRecord
  2
CONVERTER_23
 70
     0
 40
0.0
 41
0.7120000000000001
 50
0.0
 71
     0
 42
0.2
  3
simplex.shx
  4
bigfont.shx
  0
STYLE
  5
620
330
3
100
AcDbSymbolTableRecord
100
AcDbTextStyleTableRecord
  2
CONVERTER_24
 70
     0
 40
0.0
 41
0.7565
 50
0.0
 71
     0
 42
0.2
  3
simplex.shx
  4
bigfont.shx
  0
STYLE
  5
13E5
330
3
100
AcDbSymbolTableRecord
100
AcDbTextStyleTableRecord
  2
社名
 70
     0
 40
2.5
 41
0.8
 50
0.0
 71
     0
 42
2.5
  3
swissk.ttf
  4

1001
ACAD
1000
Swis721 Blk BT
1071
       34
  0
ENDTAB
  0
TABLE
  2
VIEW
  5
6
330
0
100
AcDbSymbolTable
 70
     0
  0
ENDTAB
  0
TABLE
  2
UCS
  5
7
330
0
100
AcDbSymbolTable
 70
     0
  0
ENDTAB
  0
TABLE
  2
APPID
  5
9
330
0
100
AcDbSymbolTable
 70
     1
  0
APPID
  5
12
330
9
100
AcDbSymbolTableRecord
100
AcDbRegAppTableRecord
  2
ACAD
 70
     0
  0
ENDTAB
  0
TABLE
  2
DIMSTYLE
  5
A
330
0
100
AcDbSymbolTable
 70
     1
100
AcDbDimStyleTable
 71
     1
340
27
  0
DIMSTYLE
105
27
330
A
100
AcDbSymbolTableRecord
100
AcDbDimStyleTableRecord
  2
Standard
 70
     0
340
11
  0
ENDTAB
  0
TABLE
  2
BLOCK_RECORD
  5
1
330
0
100
AcDbSymbolTable
 70
     3
  0
BLOCK_RECORD
  5
1F
330
1
100
AcDbSymbolTableRecord
100
AcDbBlockTableRecord
  2
*Model_Space
340
22
  0
BLOCK_RECORD
  5
1B
330
1
100
AcDbSymbolTableRecord
100
AcDbBlockTableRecord
  2
*Paper_Space
340
1E
  0
BLOCK_RECORD
  5
23
330
1
100
AcDbSymbolTableRecord
100
AcDbBlockTableRecord
  2
*Paper_Space0
340
26
  0
BLOCK_RECORD
  5
4B2
330
1
100
AcDbSymbolTableRecord
100
AcDbBlockTableRecord
  2
_Open30
340
0
102
{BLKREFS
331
111C
331
111D
331
1123
331
1124
331
112A
331
112B
331
1131
331
1132
331
1138
331
1139
331
113F
331
1140
331
1146
331
1147
331
114D
331
114E
331
1154
331
1155
331
115B
331
115C
331
1162
331
1163
331
1169
331
116A
331
1389
331
138A
331
1390
331
1391
331
1397
331
1398
331
139E
331
139F
331
13A5
331
13A6
331
13AC
331
13AD
331
13B3
331
13B4
331
13BA
331
13BB
331
13C2
331
13C3
331
13C9
331
13CA
331
13D1
331
13D2
331
13D9
331
13DA
331
13E2
331
13E3
102
}
  0
BLOCK_RECORD
  5
933
330
1
100
AcDbSymbolTableRecord
100
AcDbBlockTableRecord
  2
*D2
340
0
102
{BLKREFS
331
93A
331
1003
102
}
  0
ENDTAB
  0
ENDSEC
  0
SECTION
  2
BLOCKS
  0
BLOCK
  5
20
330
1F
100
AcDbEntity
  8
0
100
AcDbBlockBegin
  2
*Model_Space
 70
     0
 10
0.0
 20
0.0
 30
0.0
  3
*Model_Space
  1

  0
ENDBLK
  5
21
330
1F
100
AcDbEntity
  8
0
100
AcDbBlockEnd
  0
BLOCK
  5
1C
330
1B
100
AcDbEntity
 67
     1
  8
0
100
AcDbBlockBegin
  2
*Paper_Space
 70
     0
 10
0.0
 20
0.0
 30
0.0
  3
*Paper_Space
  1

  0
ENDBLK
  5
1D
330
1B
100
AcDbEntity
 67
     1
  8
0
100
AcDbBlockEnd
  0
BLOCK
  5
24
330
23
100
AcDbEntity
  8
0
100
AcDbBlockBegin
  2
*Paper_Space0
 70
     0
 10
0.0
 20
0.0
 30
0.0
  3
*Paper_Space0
  1

  0
ENDBLK
  5
25
330
23
100
AcDbEntity
  8
0
100
AcDbBlockEnd
  0
BLOCK
  5
4B3
330
4B2
100
AcDbEntity
  8
0
100
AcDbBlockBegin
  2
_Open30
 70
     0
 10
0.0
 20
0.0
 30
0.0
  3
_Open30
  1

  0
LINE
  5
4B5
330
4B2
100
AcDbEntity
  8
0
  6
ByBlock
 62
     0
370
    -2
100
AcDbLine
 10
-1.0
 20
0.267949
 30
0.0
 11
0.0
 21
0.0
 31
0.0
  0
LINE
  5
4B6
330
4B2
100
AcDbEntity
  8
0
  6
ByBlock
 62
     0
370
    -2
100
AcDbLine
 10
0.0
 20
0.0
 30
0.0
 11
-1.0
 21
-0.267949
 31
0.0
  0
LINE
  5
4B7
330
4B2
100
AcDbEntity
  8
0
  6
ByBlock
 62
     0
370
    -2
100
AcDbLine
 10
0.0
 20
0.0
 30
0.0
 11
-1.0
 21
0.0
 31
0.0
  0
ENDBLK
  5
4B4
330
4B2
100
AcDbEntity
  8
0
100
AcDbBlockEnd
  0
BLOCK
  5
938
330
933
100
AcDbEntity
  8
0
100
AcDbBlockBegin
  2
*D2
 70
     1
 10
0.0
 20
0.0
 30
0.0
  3
*D2
  1

  0
LINE
  5
934
330
933
100
AcDbEntity
  8
0
  6
Continuous
 62
    54
100
AcDbLine
 10
-122.7423660721808
 20
4.122473751992669
 30
0.0
 11
-138.0110245933783
 21
22.34937984492567
 31
0.0
  0
LINE
  5
935
330
933
100
AcDbEntity
  8
0
 62
    54
100
AcDbLine
 10
-138.0110245933783
 20
22.34937984492567
 30
0.0
 11
-134.6207851468259
 21
19.97135023816462
 31
0.0
  0
LINE
  5
936
330
933
100
AcDbEntity
  8
0
 62
    54
100
AcDbLine
 10
-138.0110245933783
 20
22.34937984492567
 30
0.0
 11
-136.2640059111323
 21
18.59482607124291
 31
0.0
  0
MTEXT
  5
937
330
933
100
AcDbEntity
  8
0
 62
     2
100
AcDbMText
 10
-131.3551257288879
 20
16.89552604668551
 30
0.0
 40
5.0
 41
0.0
 71
     7
 72
     1
  1
\C2;R\C2;0.6
  7
CONVERTER_23
 11
0.6421572660998051
 21
-0.7665729225554632
 31
0.0
 73
     1
 44
0.6002400960384203
1001
ACAD
1000
MTEXTBEGIN
1070
    73
1070
     1
1070
    44
1040
0.6002400960384203
1070
    74
1070
     0
1000
MTEXTEND
  0
ENDBLK
  5
939
330
933
100
AcDbEntity
  8
0
100
AcDbBlockEnd
  0
ENDSEC
  0
SECTION
  2
ENTITIES
  0
MTEXT
  5
9A6
330
1F
100
AcDbEntity
  8
0
 62
     2
100
AcDbMText
 10
205.5000000000005
 20
-240.9997577209245
 30
0.0
 40
6.0
 41
0.0
 71
     5
 72
     1
  1
 
  7
CONVERTER_1
 73
     1
 44
1.32052821128451
1001
ACAD
1000
MTEXTBEGIN
1070
    73
1070
     1
1070
    44
1040
1.32052821128451
1070
    74
1070
     0
1000
MTEXTEND
  0
MTEXT
  5
9A7
330
1F
100
AcDbEntity
  8
0
 62
     2
100
AcDbMText
 10
209.5000000000005
 20
-267.9996999999996
 30
0.0
 40
6.0
 41
0.0
 71
     5
 72
     1
  1
 
  7
CONVERTER_1
 73
     1
 44
1.32052821128451
1001
ACAD
1000
MTEXTBEGIN
1070
    73
1070
     1
1070
    44
1040
1.32052821128451
1070
    74
1070
     0
1000
MTEXTEND
  0
MTEXT
  5
9A8
330
1F
100
AcDbEntity
  8
0
 62
     2
100
AcDbMText
 10
88.50020000000002
 20
-279.9996999999998
 30
0.0
 40
4.0
 41
0.0
 71
     5
 72
     1
  1
 
  7
CONVERTER_2
 73
     1
 44
1.32052821128451
1001
ACAD
1000
MTEXTBEGIN
1070
    73
1070
     1
1070
    44
1040
1.32052821128451
1070
    74
1070
     0
1000
MTEXTEND
  0
MTEXT
  5
9A9
330
1F
100
AcDbEntity
  8
0
 62
     2
100
AcDbMText
 10
49.50020000000002
 20
-279.9996999999998
 30
0.0
 40
4.0
 41
0.0
 71
     5
 72
     1
  1
 
  7
CONVERTER_2
 73
     1
 44
1.32052821128451
1001
ACAD
1000
MTEXTBEGIN
1070
    73
1070
     1
1070
    44
1040
1.32052821128451
1070
    74
1070
     0
1000
MTEXTEND
  0
MTEXT
  5
9AA
330
1F
100
AcDbEntity
  8
0
 62
     2
100
AcDbMText
 10
127.5002
 20
-279.9996999999998
 30
0.0
 40
4.0
 41
0.0
 71
     5
 72
     1
  1
 
  7
CONVERTER_2
 73
     1
 44
1.32052821128451
1001
ACAD
1000
MTEXTBEGIN
1070
    73
1070
     1
1070
    44
1040
1.32052821128451
1070
    74
1070
     0
1000
MTEXTEND
  0
MTEXT
  5
9AB
330
1F
100
AcDbEntity
  8
0
 62
     2
100
AcDbMText
 10
166.5002
 20
-279.9996999999998
 30
0.0
 40
4.0
 41
0.0
 71
     5
 72
     1
  1
 
  7
CONVERTER_2
 73
     1
 44
1.32052821128451
1001
ACAD
1000
MTEXTBEGIN
1070
    73
1070
     1
1070
    44
1040
1.32052821128451
1070
    74
1070
     0
1000
MTEXTEND
  0
MTEXT
  5
9AC
330
1F
100
AcDbEntity
  8
0
 62
     2
100
AcDbMText
 10
205.5000000000005
 20
-279.9996999999998
 30
0.0
 40
4.0
 41
0.0
 71
     5
 72
     1
  1
 
  7
CONVERTER_2
 73
     1
 44
1.32052821128451
1001
ACAD
1000
MTEXTBEGIN
1070
    73
1070
     1
1070
    44
1040
1.32052821128451
1070
    74
1070
     0
1000
MTEXTEND
  0
MTEXT
  5
9AD
330
1F
100
AcDbEntity
  8
0
 62
     2
100
AcDbMText
 10
92.50020000000002
 20
-267.9996999999996
 30
0.0
 40
6.0
 41
0.0
 71
     5
 72
     1
  1
 
  7
CONVERTER_1
 73
     1
 44
1.32052821128451
1001
ACAD
1000
MTEXTBEGIN
1070
    73
1070
     1
1070
    44
1040
1.32052821128451
1070
    74
1070
     0
1000
MTEXTEND
  0
MTEXT
  5
9AE
330
1F
100
AcDbEntity
  8
0
 62
     2
100
AcDbMText
 10
170.5002
 20
-267.9996999999996
 30
0.0
 40
6.0
 41
0.0
 71
     5
 72
     1
  1
 
  7
CONVERTER_1
 73
     1
 44
1.32052821128451
1001
ACAD
1000
MTEXTBEGIN
1070
    73
1070
     1
1070
    44
1040
1.32052821128451
1070
    74
1070
     0
1000
MTEXTEND
  0
MTEXT
  5
9AF
330
1F
100
AcDbEntity
  8
0
 62
     2
100
AcDbMText
 10
131.5002
 20
-267.9996999999996
 30
0.0
 40
6.0
 41
0.0
 71
     5
 72
     1
  1
 
  7
CONVERTER_1
 73
     1
 44
1.32052821128451
1001
ACAD
1000
MTEXTBEGIN
1070
    73
1070
     1
1070
    44
1040
1.32052821128451
1070
    74
1070
     0
1000
MTEXTEND
  0
MTEXT
  5
9B8
330
1F
100
AcDbEntity
  8
0
 62
     2
100
AcDbMText
 10
205.5000000000005
 20
-255.4997860470252
 30
0.0
 40
4.0
 41
0.0
 71
     5
 72
     1
  1
 
  7
CONVERTER_2
 73
     1
 44
1.32052821128451
1001
ACAD
1000
MTEXTBEGIN
1070
    73
1070
     1
1070
    44
1040
1.32052821128451
1070
    74
1070
     0
1000
MTEXTEND
  0
LINE
  5
A16
330
1F
100
AcDbEntity
  8
0
  6
Continuous
 62
     7
100
AcDbLine
 10
236.1266999999999
 20
-115.524943856346
 30
0.0
 11
236.1266999999999
 21
-127.079643856346
 31
0.0
  0
LINE
  5
A17
330
1F
100
AcDbEntity
  8
0
  6
Continuous
 62
     7
100
AcDbLine
 10
197.9234999999999
 20
-105.524743856346
 30
0.0
 11
226.1269999999999
 21
-105.524743856346
 31
0.0
  0
LINE
  5
A18
330
1F
100
AcDbEntity
  8
0
  6
Continuous
 62
     7
100
AcDbLine
 10
207.1266999999999
 20
-112.024743856346
 30
0.0
 11
227.1266999999999
 21
-112.024743856346
 31
0.0
  0
LINE
  5
A19
330
1F
100
AcDbEntity
  8
0
  6
Continuous
 62
     7
100
AcDbLine
 10
207.1266999999999
 20
-119.024743856346
 30
0.0
 11
227.1266999999999
 21
-119.024743856346
 31
0.0
  0
LINE
  5
A1A
330
1F
100
AcDbEntity
  8
0
  6
DASH_CENTER
 62
    30
100
AcDbLine
 10
233.6939999999998
 20
-115.524743856346
 30
0.0
 11
197.8310999999998
 21
-115.524743856346
 31
0.0
  0
LINE
  5
A1B
330
1F
100
AcDbEntity
  8
0
  6
DASH_CENTER
 62
    30
100
AcDbLine
 10
217.1266999999999
 20
-107.9277438563459
 30
0.0
 11
217.1266999999999
 21
-123.550343856346
 31
0.0
  0
LINE
  5
A24
330
1F
100
AcDbEntity
  8
0
  6
DASH_CENTER
 62
    30
100
AcDbLine
 10
-57.27399999999999
 20
29.48949999999999
 30
0.0
 11
-27.3329
 21
29.48949999999999
 31
0.0
  0
LINE
  5
A25
330
1F
100
AcDbEntity
  8
0
  6
DASH_CENTER
 62
    30
100
AcDbLine
 10
-42.17139999999999
 20
15.228
 30
0.0
 11
-42.17139999999999
 21
45.11619999999999
 31
0.0
  0
LINE
  5
A26
330
1F
100
AcDbEntity
  8
0
  6
Continuous
 62
     7
100
AcDbLine
 10
-45.77689999999999
 20
35.4895
 30
0.0
 11
-38.56580000000001
 21
35.4895
 31
0.0
  0
ARC
  5
A84
330
1F
100
AcDbEntity
  8
0
  6
Continuous
 62
     7
100
AcDbCircle
 10
226.1267999992499
 20
-115.5249438555959
 30
0.0
 40
10.00000000125
100
AcDbArc
 50
359.9994270379077
 51
89.99885408011282
  0
ARC
  5
A85
330
1F
100
AcDbEntity
  8
0
  6
Continuous
 62
     7
100
AcDbCircle
 10
227.1266999999999
 20
-115.524743856346
 30
0.0
 40
3.5
100
AcDbArc
 50
0.0
 51
90.0
  0
ARC
  5
A86
330
1F
100
AcDbEntity
  8
0
  6
Continuous
 62
     7
100
AcDbCircle
 10
207.1266999999999
 20
-115.524743856346
 30
0.0
 40
3.5
100
AcDbArc
 50
180.0
 51
270.0
  0
ARC
  5
A87
330
1F
100
AcDbEntity
  8
0
  6
Continuous
 62
     7
100
AcDbCircle
 10
207.1266999999999
 20
-115.524743856346
 30
0.0
 40
3.5
100
AcDbArc
 50
90.0
 51
180.0
  0
ARC
  5
A88
330
1F
100
AcDbEntity
  8
0
  6
Continuous
 62
     7
100
AcDbCircle
 10
227.1266999999999
 20
-115.524743856346
 30
0.0
 40
3.5
100
AcDbArc
 50
270.0
 51
0.0
  0
ARC
  5
A89
330
1F
100
AcDbEntity
  8
0
  6
Continuous
 62
     7
100
AcDbCircle
 10
-42.17139999999999
 20
29.48949999999999
 30
0.0
 40
7.0
100
AcDbArc
 50
90.0
 51
180.0
  0
ARC
  5
A8A
330
1F
100
AcDbEntity
  8
0
  6
Continuous
 62
     7
100
AcDbCircle
 10
-42.17139999999999
 20
29.48949999999999
 30
0.0
 40
7.0
100
AcDbArc
 50
180.0
 51
0.0
  0
ARC
  5
A8B
330
1F
100
AcDbEntity
  8
0
  6
Continuous
 62
     7
100
AcDbCircle
 10
-42.17139999999999
 20
29.48949999999999
 30
0.0
 40
7.0
100
AcDbArc
 50
0.0
 51
90.0
  0
SPLINE
  5
A8C
330
1F
100
AcDbEntity
  8
0
  6
Continuous
 62
   171
100
AcDbSpline
210
0.0
220
0.0
230
1.0
 70
     8
 71
     3
 72
   141
 73
   137
 74
   135
 42
0.0000000001
 43
0.0000000001
 44
0.00000001
 40
0.0
 40
0.0
 40
0.0
 40
0.0
 40
0.2626125161823235
 40
0.5252228790195952
 40
0.7878464591891622
 40
1.07542921139164
 40
1.36303893562595
 40
1.650586455380338
 40
1.931165282863602
 40
2.211797626546718
 40
2.492417408208353
 40
2.793856542357231
 40
3.095315193603691
 40
3.396870092291162
 40
3.698453104994404
 40
4.131418529955919
 40
4.564259973367067
 40
4.997080933284085
 40
5.50445359420721
 40
6.011844806006743
 40
6.017628364944835
 40
6.023411839693538
 40
6.029171960217809
 40
6.034932166439853
 40
6.392576910707052
 40
6.75021602344339
 40
7.107826245749422
 40
7.458796872713544
 40
7.809809685116228
 40
8.160821563462423
 40
8.662227116871825
 40
9.163628983591303
 40
9.665919277724146
 40
10.16822144071868
 40
10.67054226382943
 40
11.53510815917524
 40
12.39963748637507
 40
13.15105770130984
 40
13.90251703048344
 40
14.34346679373551
 40
14.78439846922896
 40
15.22536137688112
 40
15.66657503540907
 40
15.94508047160046
 40
16.22364927806474
 40
16.50215097842282
 40
16.78054790371537
 40
17.05890898628467
 40
17.33742349337267
 40
17.6054224178846
 40
17.87352579062926
 40
18.1415196808847
 40
18.40932588340343
 40
18.67701855589133
 40
18.95182906174744
 40
19.22692454128438
 40
19.50235006104482
 40
19.77804231259239
 40
20.05384282385777
 40
20.32951074656482
 40
20.62907942416943
 40
20.92840838949409
 40
21.22767877605657
 40
21.52697229608226
 40
21.82627915750311
 40
22.12550609997335
 40
22.45491321713244
 40
22.78418303749342
 40
23.11339747323128
 40
23.44256122682795
 40
23.77160768556223
 40
24.13291210312647
 40
24.49421107821465
 40
24.85566401552106
 40
25.21730498995916
 40
25.5790585469356
 40
25.94075542282214
 40
26.51611048164426
 40
27.09110753068761
 40
27.66599167868627
 40
28.24087567217833
 40
29.19441049232375
 40
30.14800121116469
 40
30.86904779222592
 40
31.59008797323938
 40
32.31113225610991
 40
32.81964674292856
 40
33.32816846793454
 40
33.83668642089225
 40
34.34523503110652
 40
34.88755404933541
 40
35.42982412797156
 40
35.97194336581195
 40
36.45461996748458
 40
36.93737583313747
 40
37.42026446898236
 40
37.90322437297477
 40
38.41319592300119
 40
38.92307072243119
 40
39.43285149892922
 40
39.9426345105429
 40
40.41608034128048
 40
40.88960490008332
 40
41.3631141624604
 40
41.8365389559038
 40
42.35234823986036
 40
42.86820102955328
 40
43.38417795159319
 40
43.90025588781675
 40
44.41632816206053
 40
45.3051718866648
 40
46.19380548251815
 40
47.08243250329308
 40
47.7606154085845
 40
48.43880298397815
 40
49.11698889313424
 40
49.61226925270267
 40
50.10756572267599
 40
50.6028699334081
 40
51.09822222922115
 40
51.47005624087505
 40
51.8418719681848
 40
52.2136207661801
 40
52.58531193007563
 40
52.88707496939924
 40
53.18886451953934
 40
53.49077831561868
 40
53.67849192877617
 40
53.86617029495411
 40
54.05376404367144
 40
54.24136539490315
 40
54.41161617801359
 40
54.58184211119145
 40
54.75192934514431
 40
54.92296917397216
 40
55.09405670022773
 40
55.09405670022773
 40
55.09405670022773
 40
55.09405670022773
 10
197.9233999999998
 20
-105.524743856346
 30
0.0
 10
197.9061612422
 20
-105.6105674055368
 30
0.0
 10
197.8716838757034
 20
-105.782213801728
 30
0.0
 10
197.8229851474278
 20
-106.0402861734878
 30
0.0
 10
197.7786780752063
 20
-106.3076133751133
 30
0.0
 10
197.7425776023106
 20
-106.5846137823104
 30
0.0
 10
197.7168264617993
 20
-106.8711208336164
 30
0.0
 10
197.7037742506237
 20
-107.1561719572076
 30
0.0
 10
197.7042133348274
 20
-107.4391888282204
 30
0.0
 10
197.7166692217949
 20
-107.7195999292638
 30
0.0
 10
197.7406332679395
 20
-108.006230125909
 30
0.0
 10
197.7759188168576
 20
-108.2986760858645
 30
0.0
 10
197.8215002787712
 20
-108.5967350247707
 30
0.0
 10
197.8746204133214
 20
-108.8935764473038
 30
0.0
 10
197.9419107378777
 20
-109.2323387045201
 30
0.0
 10
198.0236357611546
 20
-109.612807963653
 30
0.0
 10
198.1205362835345
 20
-110.0347092323851
 30
0.0
 10
198.227464969434
 20
-110.4797261074163
 30
0.0
 10
198.3432135676056
 20
-110.9481674067
 30
0.0
 10
198.4255618924094
 20
-111.278232283261
 30
0.0
 10
198.4672312678909
 20
-111.4461246279221
 30
0.0
 10
198.4686042362063
 20
-111.4517348170319
 30
0.0
 10
198.469938966113
 20
-111.4573462243201
 30
0.0
 10
198.4980338176867
 20
-111.5771511230362
 30
0.0
 10
198.5537984097615
 20
-111.8109409944583
 30
0.0
 10
198.6358614447201
 20
-112.159031176151
 30
0.0
 10
198.7130028039373
 20
-112.5059867745098
 30
0.0
 10
198.7818374737863
 20
-112.852444149605
 30
0.0
 10
198.8427551041437
 20
-113.1981422782937
 30
0.0
 10
198.904070006574
 20
-113.594600622926
 30
0.0
 10
198.9620418993196
 20
-114.042190710571
 30
0.0
 10
199.0151172457593
 20
-114.5411048336505
 30
0.0
 10
199.0598914276814
 20
-115.0411189007362
 30
0.0
 10
199.0988150416107
 20
-115.5419198126091
 30
0.0
 10
199.1428792266869
 20
-116.1634241509723
 30
0.0
 10
199.1936300354979
 20
-116.905495626675
 30
0.0
 10
199.2514380545953
 20
-117.7303130513862
 30
0.0
 10
199.3114153777136
 20
-118.5171737718179
 30
0.0
 10
199.3667293663824
 20
-119.1627657583138
 30
0.0
 10
199.4188461353122
 20
-119.7047213817246
 30
0.0
 10
199.4672037942387
 20
-120.1430318666096
 30
0.0
 10
199.5244809979734
 20
-120.5803715509752
 30
0.0
 10
199.5849448858692
 20
-120.9625749684843
 30
0.0
 10
199.645747594666
 20
-121.2897624144401
 30
0.0
 10
199.7033558242028
 20
-121.5622986186509
 30
0.0
 10
199.7686891923146
 20
-121.833059658161
 30
0.0
 10
199.8427421234644
 20
-122.1015076466835
 30
0.0
 10
199.9265103172112
 20
-122.3671026708426
 30
0.0
 10
200.0197522446454
 20
-122.6258564270674
 30
0.0
 10
200.1228284157126
 20
-122.8771653538383
 30
0.0
 10
200.235780829135
 20
-123.1203450705061
 30
0.0
 10
200.3604784908096
 20
-123.3576611239717
 30
0.0
 10
200.4974036987698
 20
-123.5879981592593
 30
0.0
 10
200.6483477420032
 20
-123.8121754016896
 30
0.0
 10
200.8141318301026
 20
-124.0286987258263
 30
0.0
 10
200.9940674187506
 20
-124.2370070528654
 30
0.0
 10
201.1856770087115
 20
-124.4350246123891
 30
0.0
 10
201.3878989644254
 20
-124.6225208264694
 30
0.0
 10
201.5996758938322
 20
-124.7992659830364
 30
0.0
 10
201.8264343279282
 20
-124.9699105471711
 30
0.0
 10
202.0681143454097
 20
-125.1331708383238
 30
0.0
 10
202.324513546165
 20
-125.2879834943857
 30
0.0
 10
202.5880407638485
 20
-125.4301096800335
 30
0.0
 10
202.8578543200999
 20
-125.5598647035662
 30
0.0
 10
203.1331152604197
 20
-125.6775643641103
 30
0.0
 10
203.4224706716528
 20
-125.7871156923052
 30
0.0
 10
203.7256942615622
 20
-125.8874837258689
 30
0.0
 10
204.0425017904219
 20
-125.9776564455463
 30
0.0
 10
204.3626059507926
 20
-126.054940026877
 30
0.0
 10
204.6853664296858
 20
-126.119830816074
 30
0.0
 10
205.0208398976951
 20
-126.17457170097
 30
0.0
 10
205.3687292066112
 20
-126.2183257033663
 30
0.0
 10
205.7286667273714
 20
-126.2509821632812
 30
0.0
 10
206.0895393623157
 20
-126.2725227325898
 30
0.0
 10
206.4510021574819
 20
-126.2842792091672
 30
0.0
 10
206.8127124321118
 20
-126.2875817202663
 30
0.0
 10
207.2456446070024
 20
-126.2830054535677
 30
0.0
 10
207.7494617528457
 20
-126.2671851697428
 30
0.0
 10
208.3237865854576
 20
-126.2371443229324
 30
0.0
 10
208.8973830648675
 20
-126.1978689864955
 30
0.0
 10
209.5962680904031
 20
-126.1420479822574
 30
0.0
 10
210.4203729930594
 20
-126.0689823420374
 30
0.0
 10
211.2931791303016
 20
-125.9934402724825
 30
0.0
 10
212.0896298331105
 20
-125.9351148391639
 30
0.0
 10
212.8094545033775
 20
-125.8927236692784
 30
0.0
 10
213.4591304437515
 20
-125.8656454221915
 30
0.0
 10
214.0383364621401
 20
-125.8514189602532
 30
0.0
 10
214.5468589076918
 20
-125.8469815611944
 30
0.0
 10
215.0553973291695
 20
-125.8514583029416
 30
0.0
 10
215.5750225125686
 20
-125.8660293414343
 30
0.0
 10
216.1054625244176
 20
-125.8923911356439
 30
0.0
 10
216.6462730945793
 20
-125.9324499895421
 30
0.0
 10
217.1660773222653
 20
-125.9847192231328
 30
0.0
 10
217.6645908505014
 20
-126.0483657068937
 30
0.0
 10
218.1422634030899
 20
-126.1184862419923
 30
0.0
 10
218.6191180285963
 20
-126.1944951834198
 30
0.0
 10
219.104462682122
 20
-126.2747794695962
 30
0.0
 10
219.5987306313663
 20
-126.3562407467834
 30
0.0
 10
220.1023125142445
 20
-126.4361456900406
 30
0.0
 10
220.6067172150934
 20
-126.5103151254384
 30
0.0
 10
221.1002691625525
 20
-126.5744625698825
 30
0.0
 10
221.583065011083
 20
-126.6267682763575
 30
0.0
 10
222.0548194151508
 20
-126.667737964347
 30
0.0
 10
222.5273589324318
 20
-126.698285069796
 30
0.0
 10
223.0145617348752
 20
-126.7186025045017
 30
0.0
 10
223.5162365634253
 20
-126.7270862409351
 30
0.0
 10
224.0321438545425
 20
-126.7243378994567
 30
0.0
 10
224.547989357059
 20
-126.7119783183258
 30
0.0
 10
225.0636546017056
 20
-126.6918652551336
 30
0.0
 10
225.7031810552833
 20
-126.6595894136058
 30
0.0
 10
226.4662870414971
 20
-126.6128784344292
 30
0.0
 10
227.3528136860332
 20
-126.5506674043408
 30
0.0
 10
228.169034401355
 20
-126.4898788715905
 30
0.0
 10
228.9153188475064
 20
-126.4345410019227
 30
0.0
 10
229.5919497347509
 20
-126.3885339213405
 30
0.0
 10
230.2082283157169
 20
-126.3540391312657
 30
0.0
 10
230.7640445406915
 20
-126.3315182055885
 30
0.0
 10
231.2591975112189
 20
-126.3188641684605
 30
0.0
 10
231.7545224667063
 20
-126.3145725006838
 30
0.0
 10
232.2086934623103
 20
-126.3191896999019
 30
0.0
 10
232.6215465125118
 20
-126.3308944753343
 30
0.0
 10
232.9929688115581
 20
-126.348151381653
 30
0.0
 10
233.3639150037533
 20
-126.3730538160596
 30
0.0
 10
233.7109359759432
 20
-126.4044288698727
 30
0.0
 10
234.033954903636
 20
-126.4412251242672
 30
0.0
 10
234.332941257715
 20
-126.4827552913203
 30
0.0
 10
234.5931457117793
 20
-126.5264515853814
 30
0.0
 10
234.814767128323
 20
-126.569621130817
 30
0.0
 10
234.9979546662108
 20
-126.6104937920631
 30
0.0
 10
235.1796040810717
 20
-126.6576441773138
 30
0.0
 10
235.3535864796983
 20
-126.7106557643895
 30
0.0
 10
235.5194479431616
 20
-126.7697993458521
 30
0.0
 10
235.6767951531932
 20
-126.8348462844082
 30
0.0
 10
235.8305991913558
 20
-126.9085596593541
 30
0.0
 10
235.9798982150206
 20
-126.9915411540048
 30
0.0
 10
236.0776948577765
 20
-127.0502069001413
 30
0.0
 10
236.1265999999999
 20
-127.0795438563459
 30
0.0
 11
197.9233999999998
 21
-105.524743856346
 31
0.0
 11
197.8721867438585
 21
-105.7823143138839
 31
0.0
 11
197.8239447161792
 21
-106.0404555734548
 31
0.0
 11
197.7814703846935
 21
-106.2996216906631
 31
0.0
 11
197.7444825723129
 21
-106.5848159071761
 31
0.0
 11
197.718923734419
 21
-106.8712877191866
 31
0.0
 11
197.7059630775493
 21
-107.1585430014711
 31
0.0
 11
197.7062162936614
 21
-107.439121714187
 31
0.0
 11
197.7184910462462
 21
-107.7194854823903
 31
0.0
 11
197.7416999999999
 21
-107.9991438563459
 31
0.0
 11
197.7774943928539
 21
-108.2984502426059
 31
0.0
 11
197.8227501654849
 21
-108.5964925773886
 31
0.0
 11
197.8755570308265
 21
-108.8933878313164
 31
0.0
 11
197.9340047018113
 21
-109.1892529750108
 31
0.0
 11
198.0246427926552
 21
-109.6126249103844
 31
0.0
 11
198.1212433638528
 21
-110.0345491272766
 31
0.0
 11
198.2220739466719
 21
-110.4554614423422
 31
0.0
 11
198.3433974163173
 21
-110.9481151065862
 31
0.0
 11
198.4658380954052
 21
-111.4405114124973
 31
0.0
 11
198.4672282265592
 21
-111.4461254208147
 31
0.0
 11
198.4685999999998
 21
-111.451743856346
 31
0.0
 11
198.4699359958645
 21
-111.4573469004765
 31
0.0
 11
198.471254199026
 21
-111.462954245318
 31
0.0
 11
198.5536466495607
 21
-111.810979025032
 31
0.0
 11
198.6351238144188
 21
-112.159213438417
 31
0.0
 11
198.7121499671024
 21
-112.5084297653668
 31
0.0
 11
198.7805868476693
 21
-112.8526633698905
 31
0.0
 11
198.8415438780084
 21
-113.1983427517488
 31
0.0
 11
198.8952324463534
 21
-113.5452243979743
 31
0.0
 11
198.9601474240212
 21
-114.0424100523259
 31
0.0
 11
199.0136999999999
 21
-114.5409438563459
 31
0.0
 11
199.0589114682036
 21
-115.0411952560154
 31
0.0
 11
199.0982479578299
 21
-115.5419547827641
 31
0.0
 11
199.1341864237734
 21
-116.042988350545
 31
0.0
 11
199.1938734148554
 21
-116.9054914812427
 31
0.0
 11
199.2550128434763
 21
-117.7678562113226
 31
0.0
 11
199.3125871754409
 21
-118.5170674869488
 31
0.0
 11
199.3771999999998
 21
-119.2657438563459
 31
0.0
 11
199.4198714408199
 21
-119.7046240698159
 31
0.0
 11
199.468687228863
 21
-120.1428452025981
 31
0.0
 11
199.5264106033702
 21
-120.5800137031661
 31
0.0
 11
199.5958048035822
 21
-121.0157360199935
 31
0.0
 11
199.6468628274389
 21
-121.2895212572934
 31
0.0
 11
199.7046497416312
 21
-121.5620304359654
 31
0.0
 11
199.7701540521581
 21
-121.832719154579
 31
0.0
 11
199.8443642650185
 21
-122.101043011704
 31
0.0
 11
199.9282688862123
 21
-122.3664576059105
 31
0.0
 11
200.0228564217381
 21
-122.6284185357679
 31
0.0
 11
200.1246825099405
 21
-122.8763194661729
 31
0.0
 11
200.2377596517633
 21
-123.1194099400155
 31
0.0
 11
200.3625581073107
 21
-123.3565724807134
 31
0.0
 11
200.4995481366879
 21
-123.5866896116844
 31
0.0
 11
200.6491999999998
 21
-123.8086438563459
 31
0.0
 11
200.8161679227932
 21
-124.0269155377545
 31
0.0
 11
200.9959057966998
 21
-124.2351745581299
 31
0.0
 11
201.1873544300304
 21
-124.4331812190218
 31
0.0
 11
201.3894546310954
 21
-124.6206958219801
 31
0.0
 11
201.601147208206
 21
-124.7974786685545
 31
0.0
 11
201.8213729696721
 21
-124.9632900602946
 31
0.0
 11
202.0695480856664
 21
-125.1310711809426
 31
0.0
 11
202.3257316034752
 21
-125.2858866670213
 31
0.0
 11
202.5890826657708
 21
-125.4280449671884
 31
0.0
 11
202.8587604152263
 21
-125.5578545301022
 31
0.0
 11
203.1339239945135
 21
-125.6756238044203
 31
0.0
 11
203.4137325463055
 21
-125.7816612388006
 31
0.0
 11
203.7264199945842
 21
-125.8852740207281
 31
0.0
 11
204.0430821347002
 21
-125.9755164922773
 31
0.0
 11
204.363077296046
 21
-126.0528808346173
 31
0.0
 11
204.6857638080148
 21
-126.1178592289171
 31
0.0
 11
205.0104999999998
 21
-126.170943856346
 31
0.0
 11
205.368952317407
 21
-126.2162518948478
 31
0.0
 11
205.7287527415854
 21
-126.2491244398355
 31
0.0
 11
206.0895498788749
 21
-126.2708879795601
 31
0.0
 11
206.4509923356154
 21
-126.2828690022733
 31
0.0
 11
206.8127287181474
 21
-126.286393996226
 31
0.0
 11
207.1744076328107
 21
-126.2827894496698
 31
0.0
 11
207.7494931954985
 21
-126.2651815140241
 31
0.0
 11
208.3237288902452
 21
-126.2356015651555
 31
0.0
 11
208.8973011372231
 21
-126.1967858312899
 31
0.0
 11
209.4703963566048
 21
-126.1514705406529
 31
0.0
 11
210.4203853927677
 21
-126.0693152939133
 31
0.0
 11
211.3705999999999
 21
-125.989143856346
 31
0.0
 11
212.0897460906054
 21
-125.9368268180549
 31
0.0
 11
212.8095595097056
 21
-125.8947841685239
 31
0.0
 11
213.5299926725013
 21
-125.8651039418335
 31
0.0
 11
214.0383573300972
 21
-125.8527605940598
 31
0.0
 11
214.5468609308889
 21
-125.8484672498456
 31
0.0
 11
215.0553578907832
 21
-125.8530878856576
 31
0.0
 11
215.5637026256868
 21
-125.8674864779621
 31
0.0
 11
216.1053443107714
 21
-125.8945826497101
 31
0.0
 11
216.646119428743
 21
-125.9348208153581
 31
0.0
 11
217.1854999999998
 21
-125.9892438563459
 31
0.0
 11
217.6643555738498
 21
-126.0498577259925
 31
0.0
 11
218.1420677752877
 21
-126.1194585766648
 31
0.0
 11
218.6190178629469
 21
-126.1949572422236
 31
0.0
 11
219.0955870954607
 21
-126.2732645565291
 31
0.0
 11
219.5988445808958
 21
-126.3557441611231
 31
0.0
 11
220.1024909802042
 21
-126.4351961311395
 31
0.0
 11
220.6069147573119
 21
-126.5089056498979
 31
0.0
 11
221.1125043761448
 21
-126.574157900718
 31
0.0
 11
221.583202282639
 21
-126.6250935016771
 31
0.0
 11
222.0549565235684
 21
-126.6660012507397
 31
0.0
 11
222.5274835967494
 21
-126.6964838136983
 31
0.0
 11
223.0004999999998
 21
-126.7161438563459
 31
0.0
 11
223.5162302273596
 21
-126.7251743584557
 31
0.0
 11
224.032077258312
 21
-126.7227368901473
 31
0.0
 11
224.5479134682775
 21
-126.7106874701935
 31
0.0
 11
225.0636112326762
 21
-126.6908821173678
 31
0.0
 11
225.5790429269283
 21
-126.6651768504433
 31
0.0
 11
226.4662677398378
 21
-126.6115550457448
 31
0.0
 11
227.3527692760185
 21
-126.5500351805634
 31
0.0
 11
228.2389928963972
 21
-126.4847230340379
 31
0.0
 11
228.9153675424939
 21
-126.4352317117546
 31
0.0
 11
229.5920373572571
 21
-126.3898847270375
 31
0.0
 11
230.2691999999998
 21
-126.3526438563459
 31
0.0
 11
230.7640807220785
 21
-126.3327515117584
 31
0.0
 11
231.2592195968458
 21
-126.3202580038913
 31
0.0
 11
231.7545065807819
 21
-126.3161270741953
 31
0.0
 11
232.2498316303683
 21
-126.3213224641212
 31
0.0
 11
232.6215118787202
 21
-126.3320147566944
 31
0.0
 11
232.9929196538332
 21
-126.3494273833359
 31
0.0
 11
233.3638230264137
 21
-126.3744844565375
 31
0.0
 11
233.7339900671686
 21
-126.4081100887905
 31
0.0
 11
234.0337926549338
 21
-126.4424516115917
 31
0.0
 11
234.3326862308503
 21
-126.4841596774358
 31
0.0
 11
234.6303999999998
 21
-126.534343856346
 31
0.0
 11
234.8146073972208
 21
-126.5704552856144
 31
0.0
 11
234.9977318014863
 21
-126.6115481272881
 31
0.0
 11
235.1792503396104
 21
-126.6589024809568
 31
0.0
 11
235.3586401384082
 21
-126.7137984462095
 31
0.0
 11
235.5189533000765
 21
-126.7711135339561
 31
0.0
 11
235.6762074126533
 21
-126.8362903115675
 31
0.0
 11
235.8295238754324
 21
-126.9099362845976
 31
0.0
 11
235.9794029969003
 21
-126.9923430325018
 31
0.0
 11
236.1265999999999
 21
-127.0795438563459
 31
0.0
  0
LINE
  5
DFD
330
1F
100
AcDbEntity
  8
0
  6
DASH_CENTER
 62
    30
100
AcDbLine
 10
-228.2258
 20
106.3568999999999
 30
0.0
 11
-228.2258
 21
-64.93649999999999
 31
0.0
  0
LINE
  5
DFE
330
1F
100
AcDbEntity
  8
0
  6
DASH_CENTER
 62
    30
100
AcDbLine
 10
-96.9932
 20
29.48949999999999
 30
0.0
 11
-314.0803
 21
29.48949999999999
 31
0.0
  0
LINE
  5
DFF
330
1F
100
AcDbEntity
  8
0
  6
DASH_CENTER
 62
    30
100
AcDbLine
 10
-183.2259999999999
 20
-44.8293
 30
0.0
 11
-183.2259999999999
 21
-36.0649
 31
0.0
  0
LINE
  5
E00
330
1F
100
AcDbEntity
  8
0
  6
Continuous
 62
     7
100
AcDbLine
 10
-283.2256
 20
-38.3101
 30
0.0
 11
-283.2256
 21
-41.50999999999998
 31
0.0
  0
LINE
  5
E01
330
1F
100
AcDbEntity
  8
0
  6
Continuous
 62
     7
100
AcDbLine
 10
-203.2258999999998
 20
-40.51029999999999
 30
0.0
 11
-203.2258999999998
 21
-41.5103
 31
0.0
  0
LINE
  5
E02
330
1F
100
AcDbEntity
  8
0
  6
Continuous
 62
     7
100
AcDbLine
 10
-173.2258999999999
 20
-38.3101
 30
0.0
 11
-173.2258999999999
 21
-41.5103
 31
0.0
  0
LINE
  5
E03
330
1F
100
AcDbEntity
  8
0
  6
Continuous
 62
     7
100
AcDbLine
 10
-253.2255999999999
 20
-40.51029999999999
 30
0.0
 11
-253.2255999999999
 21
-41.5103
 31
0.0
  0
LINE
  5
E04
330
1F
100
AcDbEntity
  8
0
  6
DASH_CENTER
 62
    30
100
AcDbLine
 10
-273.2256
 20
-44.8293
 30
0.0
 11
-273.2256
 21
-36.0649
 31
0.0
  0
LINE
  5
E05
330
1F
100
AcDbEntity
  8
0
  6
Continuous
 62
     7
100
AcDbLine
 10
-108.2258
 20
23.4893
 30
0.0
 11
-108.2258
 21
35.4895
 31
0.0
  0
LINE
  5
E06
330
1F
100
AcDbEntity
  8
0
  6
Continuous
 62
     7
100
AcDbLine
 10
-135.2257999999999
 20
35.4895
 30
0.0
 11
-135.2257999999999
 21
36.4895
 31
0.0
  0
LINE
  5
E07
330
1F
100
AcDbEntity
  8
0
  6
Continuous
 62
     7
100
AcDbLine
 10
-138.2257999999999
 20
36.8895
 30
0.0
 11
-138.2257999999999
 21
22.0895
 31
0.0
  0
LINE
  5
E08
330
1F
100
AcDbEntity
  8
0
  6
Continuous
 62
     7
100
AcDbLine
 10
-299.7253
 20
42.2236
 30
0.0
 11
-299.7253
 21
16.75609999999998
 31
0.0
  0
LINE
  5
E09
330
1F
100
AcDbEntity
  8
0
  6
Continuous
 62
     7
100
AcDbLine
 10
-140.7257999999998
 20
16.75609999999998
 30
0.0
 11
-140.7257999999998
 21
42.2229
 31
0.0
  0
LINE
  5
E0A
330
1F
100
AcDbEntity
  8
0
  6
Continuous
 62
     7
100
AcDbLine
 10
-287.8711
 20
-6.211199999999998
 30
0.0
 11
-289.0801
 21
-5.7529
 31
0.0
  0
LINE
  5
E0B
330
1F
100
AcDbEntity
  8
0
  6
Continuous
 62
     7
100
AcDbLine
 10
-289.7256
 20
-11.06249999999999
 30
0.0
 11
-289.7256
 21
70.0412
 31
0.0
  0
LINE
  5
E0C
330
1F
100
AcDbEntity
  8
0
  6
Continuous
 62
     7
100
AcDbLine
 10
-289.7256
 20
-25.0107
 30
0.0
 11
-289.7256
 21
-16.2256
 31
0.0
  0
LINE
  5
E0D
330
1F
100
AcDbEntity
  8
0
  6
Continuous
 62
     7
100
AcDbLine
 10
-295.7256
 20
10.24
 30
0.0
 11
-289.7256
 21
10.24
 31
0.0
  0
LINE
  5
E0E
330
1F
100
AcDbEntity
  8
0
  6
Continuous
 62
     7
100
AcDbLine
 10
-298.2255999999998
 20
46.23899999999999
 30
0.0
 11
-298.2255999999998
 21
12.74
 31
0.0
  0
LINE
  5
E0F
330
1F
100
AcDbEntity
  8
0
  6
Continuous
 62
     7
100
AcDbLine
 10
-287.2258
 20
-17.144
 30
0.0
 11
-288.6392
 21
-17.02049999999999
 31
0.0
  0
LINE
  5
E10
330
1F
100
AcDbEntity
  8
0
  6
Continuous
 62
     7
100
AcDbLine
 10
-287.2258
 20
-10.14399999999999
 30
0.0
 11
-288.6392
 21
-10.2678
 31
0.0
  0
LINE
  5
E11
330
1F
100
AcDbEntity
  8
0
  6
Continuous
 62
     7
100
AcDbLine
 10
-289.8258999999999
 20
-15.7253
 30
0.0
 11
-289.8258999999999
 21
-11.56299999999998
 31
0.0
  0
LINE
  5
E12
330
1F
100
AcDbEntity
  8
0
  6
Continuous
 62
     7
100
AcDbLine
 10
-287.2258
 20
-36.01069999999999
 30
0.0
 11
-285.2256
 21
-36.01069999999999
 31
0.0
  0
LINE
  5
E13
330
1F
100
AcDbEntity
  8
0
  6
Continuous
 62
     7
100
AcDbLine
 10
-287.2258
 20
-36.01069999999999
 30
0.0
 11
-287.2258
 21
94.98969999999999
 31
0.0
  0
LINE
  5
E14
330
1F
100
AcDbEntity
  8
0
  6
Continuous
 62
     7
100
AcDbLine
 10
-152.5803999999999
 20
-6.211199999999998
 30
0.0
 11
-151.3712999999999
 21
-5.7529
 31
0.0
  0
LINE
  5
E15
330
1F
100
AcDbEntity
  8
0
  6
Continuous
 62
     7
100
AcDbLine
 10
-150.7258
 20
-9.593799999999999
 30
0.0
 11
-150.7258
 21
68.5728
 31
0.0
  0
LINE
  5
E16
330
1F
100
AcDbEntity
  8
0
  6
Continuous
 62
     7
100
AcDbLine
 10
-153.2257999999998
 20
-36.0105
 30
0.0
 11
-153.2256999999999
 21
94.9895
 31
0.0
  0
LINE
  5
E17
330
1F
100
AcDbEntity
  8
0
  6
Continuous
 62
     7
100
AcDbLine
 10
-150.7258
 20
-25.0095
 30
0.0
 11
-150.7258
 21
-17.6931
 31
0.0
  0
LINE
  5
E18
330
1F
100
AcDbEntity
  8
0
  6
Continuous
 62
     7
100
AcDbLine
 10
-144.7257999999999
 20
10.2405
 30
0.0
 11
-150.7258
 21
10.2405
 31
0.0
  0
LINE
  5
E19
330
1F
100
AcDbEntity
  8
0
  6
Continuous
 62
     7
100
AcDbLine
 10
-142.2258
 20
46.2385
 30
0.0
 11
-142.2258
 21
12.7405
 31
0.0
  0
LINE
  5
E1A
330
1F
100
AcDbEntity
  8
0
  6
Continuous
 62
     7
100
AcDbLine
 10
-147.2255999999999
 20
-11.9937
 30
0.0
 11
-147.5757
 21
-11.6438
 31
0.0
  0
LINE
  5
E1B
330
1F
100
AcDbEntity
  8
0
  6
Continuous
 62
     7
100
AcDbLine
 10
-147.2255999999999
 20
-15.2937
 30
0.0
 11
-147.5757
 21
-15.64359999999999
 31
0.0
  0
LINE
  5
E1C
330
1F
100
AcDbEntity
  8
0
  6
Continuous
 62
     7
100
AcDbLine
 10
-147.2255999999999
 20
-15.2937
 30
0.0
 11
-147.2255999999999
 21
-11.9937
 31
0.0
  0
LINE
  5
E1D
330
1F
100
AcDbEntity
  8
0
  6
Continuous
 62
     7
100
AcDbLine
 10
-147.5757
 20
-11.6438
 30
0.0
 11
-147.5757
 21
-15.64359999999999
 31
0.0
  0
LINE
  5
E1E
330
1F
100
AcDbEntity
  8
0
  6
Continuous
 62
    40
100
AcDbLine
 10
-147.2255999999999
 20
-15.2937
 30
0.0
 11
-150.0258
 21
-15.2937
 31
0.0
  0
LINE
  5
E1F
330
1F
100
AcDbEntity
  8
0
  6
Continuous
 62
     7
100
AcDbLine
 10
-150.0258
 20
-15.64359999999999
 30
0.0
 11
-147.5757
 21
-15.64359999999999
 31
0.0
  0
LINE
  5
E20
330
1F
100
AcDbEntity
  8
0
  6
Continuous
 62
    40
100
AcDbLine
 10
-147.2255999999999
 20
-11.9937
 30
0.0
 11
-150.0258
 21
-11.9937
 31
0.0
  0
LINE
  5
E21
330
1F
100
AcDbEntity
  8
0
  6
Continuous
 62
     7
100
AcDbLine
 10
-147.5757
 20
-11.6438
 30
0.0
 11
-150.0258
 21
-11.6438
 31
0.0
  0
LINE
  5
E22
330
1F
100
AcDbEntity
  8
0
  6
Continuous
 62
     7
100
AcDbLine
 10
-153.2257999999998
 20
-17.1436
 30
0.0
 11
-152.9082999999999
 21
-17.69359999999998
 31
0.0
  0
LINE
  5
E23
330
1F
100
AcDbEntity
  8
0
  6
Continuous
 62
     7
100
AcDbLine
 10
-150.0258
 20
-17.1436
 30
0.0
 11
-150.3434
 21
-17.69359999999998
 31
0.0
  0
LINE
  5
E24
330
1F
100
AcDbEntity
  8
0
  6
Continuous
 62
     7
100
AcDbLine
 10
-153.2257999999998
 20
-10.14359999999999
 30
0.0
 11
-152.9082999999999
 21
-9.593799999999999
 31
0.0
  0
LINE
  5
E25
330
1F
100
AcDbEntity
  8
0
  6
Continuous
 62
     7
100
AcDbLine
 10
-150.3434
 20
-15.6643
 30
0.0
 11
-153.2257999999998
 21
-15.6643
 31
0.0
  0
LINE
  5
E26
330
1F
100
AcDbEntity
  8
0
  6
Continuous
 62
     7
100
AcDbLine
 10
-150.0258
 20
-17.1436
 30
0.0
 11
-150.0258
 21
-10.14359999999999
 31
0.0
  0
LINE
  5
E27
330
1F
100
AcDbEntity
  8
0
  6
Continuous
 62
     7
100
AcDbLine
 10
-150.3434
 20
-9.593799999999999
 30
0.0
 11
-152.9082999999999
 21
-9.593799999999999
 31
0.0
  0
LINE
  5
E28
330
1F
100
AcDbEntity
  8
0
  6
Continuous
 62
     7
100
AcDbLine
 10
-153.2257999999998
 20
-10.14359999999999
 30
0.0
 11
-153.2257999999998
 21
-17.1436
 31
0.0
  0
LINE
  5
E29
330
1F
100
AcDbEntity
  8
0
  6
Continuous
 62
     7
100
AcDbLine
 10
-152.9082999999999
 20
-17.69359999999998
 30
0.0
 11
-150.3434
 21
-17.69359999999998
 31
0.0
  0
LINE
  5
E2A
330
1F
100
AcDbEntity
  8
0
  6
Continuous
 62
     7
100
AcDbLine
 10
-150.0258
 20
-10.14359999999999
 30
0.0
 11
-150.3434
 21
-9.593799999999999
 31
0.0
  0
LINE
  5
E2B
330
1F
100
AcDbEntity
  8
0
  6
Continuous
 62
     7
100
AcDbLine
 10
-150.3434
 20
-11.62299999999999
 30
0.0
 11
-153.2257999999998
 21
-11.62299999999999
 31
0.0
  0
LINE
  5
E2C
330
1F
100
AcDbEntity
  8
0
  6
DASH_CENTER
 62
    30
100
AcDbLine
 10
-142.7988
 20
-13.6436
 30
0.0
 11
-158.9272
 21
-13.6436
 31
0.0
  0
LINE
  5
E2D
330
1F
100
AcDbEntity
  8
0
  6
DASH_CENTER
 62
    30
100
AcDbLine
 10
-142.7988
 20
72.62260000000002
 30
0.0
 11
-158.9272
 21
72.62260000000002
 31
0.0
  0
LINE
  5
E2E
330
1F
100
AcDbEntity
  8
0
  6
Continuous
 62
     7
100
AcDbLine
 10
-153.2257999999998
 20
-36.0105
 30
0.0
 11
-155.2259
 21
-36.0105
 31
0.0
  0
LINE
  5
E2F
330
1F
100
AcDbEntity
  8
0
  6
Continuous
 62
     7
100
AcDbLine
 10
-150.0258
 20
69.1226
 30
0.0
 11
-150.3434
 21
68.5728
 31
0.0
  0
LINE
  5
E30
330
1F
100
AcDbEntity
  8
0
  6
Continuous
 62
     7
100
AcDbLine
 10
-150.3434
 20
70.60209999999995
 30
0.0
 11
-153.2257999999998
 21
70.60209999999995
 31
0.0
  0
LINE
  5
E31
330
1F
100
AcDbEntity
  8
0
  6
Continuous
 62
     7
100
AcDbLine
 10
-153.2257999999998
 20
94.9895
 30
0.0
 11
-155.2259
 21
94.9895
 31
0.0
  0
LINE
  5
E32
330
1F
100
AcDbEntity
  8
0
  6
Continuous
 62
     7
100
AcDbLine
 10
-152.9082999999999
 20
76.6726
 30
0.0
 11
-150.3434
 21
76.6726
 31
0.0
  0
LINE
  5
E3F
330
1F
100
AcDbEntity
  8
0
  6
Continuous
 62
     7
100
AcDbLine
 10
-227.0592
 20
-28.384
 30
0.0
 11
-227.8722999999998
 21
-27.5709
 31
0.0
  0
LINE
  5
E40
330
1F
100
AcDbEntity
  8
0
  6
Continuous
 62
     7
100
AcDbLine
 10
-226.3521
 20
-27.67689999999999
 30
0.0
 11
-227.1652
 21
-26.8638
 31
0.0
  0
LINE
  5
E41
330
1F
100
AcDbEntity
  8
0
  6
Continuous
 62
     7
100
AcDbLine
 10
-229.2864999999999
 20
-26.1567
 30
0.0
 11
-230.0997999999999
 21
-25.3434
 31
0.0
  0
LINE
  5
E42
330
1F
100
AcDbEntity
  8
0
  6
Continuous
 62
     7
100
AcDbLine
 10
-228.5794
 20
-25.4496
 30
0.0
 11
-229.3927
 21
-24.6363
 31
0.0
  0
LINE
  5
E43
330
1F
100
AcDbEntity
  8
0
  6
Continuous
 62
     7
100
AcDbLine
 10
-226.3521
 20
-25.34359999999999
 30
0.0
 11
-227.1652
 21
-26.1567
 31
0.0
  0
LINE
  5
E44
330
1F
100
AcDbEntity
  8
0
  6
Continuous
 62
     7
100
AcDbLine
 10
-227.0592
 20
-24.6365
 30
0.0
 11
-227.8722999999998
 21
-25.4496
 31
0.0
  0
LINE
  5
E45
330
1F
100
AcDbEntity
  8
0
  6
Continuous
 62
     7
100
AcDbLine
 10
-228.5794
 20
-27.5709
 30
0.0
 11
-229.3925
 21
-28.384
 31
0.0
  0
LINE
  5
E46
330
1F
100
AcDbEntity
  8
0
  6
Continuous
 62
     7
100
AcDbLine
 10
-229.2864999999999
 20
-26.8638
 30
0.0
 11
-230.0996
 21
-27.67689999999999
 31
0.0
  0
LINE
  5
E47
330
1F
100
AcDbEntity
  8
0
  6
Continuous
 62
     7
100
AcDbLine
 10
-229.3925
 20
-28.384
 30
0.0
 11
-230.0996
 21
-27.67689999999999
 31
0.0
  0
LINE
  5
E48
330
1F
100
AcDbEntity
  8
0
  6
Continuous
 62
     7
100
AcDbLine
 10
-226.3521
 20
-25.34359999999999
 30
0.0
 11
-227.0592
 21
-24.6365
 31
0.0
  0
LINE
  5
E49
330
1F
100
AcDbEntity
  8
0
  6
Continuous
 62
     7
100
AcDbLine
 10
-226.3521
 20
-27.67689999999999
 30
0.0
 11
-227.0592
 21
-28.384
 31
0.0
  0
LINE
  5
E4A
330
1F
100
AcDbEntity
  8
0
  6
Continuous
 62
     7
100
AcDbLine
 10
-229.3927
 20
-24.6363
 30
0.0
 11
-230.0997999999999
 21
-25.3434
 31
0.0
  0
LINE
  5
E4B
330
1F
100
AcDbEntity
  8
0
  6
DASH_CENTER
 62
    30
100
AcDbLine
 10
-218.9208
 20
-26.5103
 30
0.0
 11
-237.5898999999999
 21
-26.5103
 31
0.0
  0
LINE
  5
E4C
330
1F
100
AcDbEntity
  8
0
  6
DASHED
 62
   171
100
AcDbLine
 10
-251.7257999999999
 20
59.5251
 30
0.0
 11
-188.7257999999999
 21
59.5251
 31
0.0
  0
LINE
  5
E4D
330
1F
100
AcDbEntity
  8
0
  6
DASHED
 62
   171
100
AcDbLine
 10
-251.7257999999999
 20
87.80929999999996
 30
0.0
 11
-188.7257999999999
 21
87.80929999999996
 31
0.0
  0
LINE
  5
E4E
330
1F
100
AcDbEntity
  8
0
  6
Continuous
 62
     7
100
AcDbLine
 10
-277.9206999999999
 20
95.0894
 30
0.0
 11
-155.2257999999999
 21
95.08929999999999
 31
0.0
  0
LINE
  5
E4F
330
1F
100
AcDbEntity
  8
0
  6
Continuous
 62
     7
100
AcDbLine
 10
-285.2257999999998
 20
95.0894
 30
0.0
 11
-277.9206999999999
 21
95.0894
 31
0.0
  0
LINE
  5
E50
330
1F
100
AcDbEntity
  8
0
  6
Continuous
 62
     7
100
AcDbLine
 10
-285.2257999999998
 20
-36.1106
 30
0.0
 11
-278.1956
 21
-36.1106
 31
0.0
  0
LINE
  5
E51
330
1F
100
AcDbEntity
  8
0
  6
Continuous
 62
     7
100
AcDbLine
 10
-155.2257999999999
 20
-36.1106
 30
0.0
 11
-155.2257999999999
 21
95.0894
 31
0.0
  0
LINE
  5
E52
330
1F
100
AcDbEntity
  8
0
  6
DASHED
 62
   171
100
AcDbLine
 10
-251.7257999999999
 20
87.80929999999996
 30
0.0
 11
-251.7257999999999
 21
59.5251
 31
0.0
  0
LINE
  5
E53
330
1F
100
AcDbEntity
  8
0
  6
DASHED
 62
   171
100
AcDbLine
 10
-188.7257999999999
 20
87.80929999999996
 30
0.0
 11
-188.7257999999999
 21
59.5251
 31
0.0
  0
LINE
  5
E54
330
1F
100
AcDbEntity
  8
0
  6
Continuous
 62
     7
100
AcDbLine
 10
-135.2257999999999
 20
35.4895
 30
0.0
 11
-108.2258
 21
35.4895
 31
0.0
  0
LINE
  5
E55
330
1F
100
AcDbEntity
  8
0
  6
Continuous
 62
     7
100
AcDbLine
 10
-109.2258
 20
22.4895
 30
0.0
 11
-137.6257999999999
 21
22.4895
 31
0.0
  0
LINE
  5
E56
330
1F
100
AcDbEntity
  8
0
  6
Continuous
 62
     7
100
AcDbLine
 10
-137.6257999999999
 20
36.4895
 30
0.0
 11
-135.2257999999999
 21
36.4895
 31
0.0
  0
LINE
  5
E57
330
1F
100
AcDbEntity
  8
0
  6
Continuous
 62
     7
100
AcDbLine
 10
-153.2257999999998
 20
69.1226
 30
0.0
 11
-153.2257999999998
 21
76.12260000000002
 31
0.0
  0
LINE
  5
E58
330
1F
100
AcDbEntity
  8
0
  6
Continuous
 62
     7
100
AcDbLine
 10
-150.3434
 20
68.5728
 30
0.0
 11
-152.9082999999999
 21
68.5728
 31
0.0
  0
LINE
  5
E59
330
1F
100
AcDbEntity
  8
0
  6
Continuous
 62
     7
100
AcDbLine
 10
-150.0258
 20
76.12260000000002
 30
0.0
 11
-150.0258
 21
69.1226
 31
0.0
  0
LINE
  5
E5A
330
1F
100
AcDbEntity
  8
0
  6
Continuous
 62
     7
100
AcDbLine
 10
-150.3434
 20
74.6433
 30
0.0
 11
-153.2257999999998
 21
74.6433
 31
0.0
  0
LINE
  5
E5B
330
1F
100
AcDbEntity
  8
0
  6
Continuous
 62
     7
100
AcDbLine
 10
-153.2257999999998
 20
69.1226
 30
0.0
 11
-152.9082999999999
 21
68.5728
 31
0.0
  0
LINE
  5
E5C
330
1F
100
AcDbEntity
  8
0
  6
Continuous
 62
     7
100
AcDbLine
 10
-150.0258
 20
76.12260000000002
 30
0.0
 11
-150.3434
 21
76.6726
 31
0.0
  0
LINE
  5
E5D
330
1F
100
AcDbEntity
  8
0
  6
Continuous
 62
     7
100
AcDbLine
 10
-153.2257999999998
 20
76.12260000000002
 30
0.0
 11
-152.9082999999999
 21
76.6726
 31
0.0
  0
LINE
  5
E5E
330
1F
100
AcDbEntity
  8
0
  6
Continuous
 62
     7
100
AcDbLine
 10
-147.5757
 20
70.6228
 30
0.0
 11
-150.0258
 21
70.6228
 31
0.0
  0
LINE
  5
E5F
330
1F
100
AcDbEntity
  8
0
  6
Continuous
 62
    40
100
AcDbLine
 10
-147.2255999999999
 20
70.9727
 30
0.0
 11
-150.0258
 21
70.9727
 31
0.0
  0
LINE
  5
E60
330
1F
100
AcDbEntity
  8
0
  6
Continuous
 62
     7
100
AcDbLine
 10
-150.0258
 20
74.62260000000002
 30
0.0
 11
-147.5757
 21
74.62260000000002
 31
0.0
  0
LINE
  5
E61
330
1F
100
AcDbEntity
  8
0
  6
Continuous
 62
    40
100
AcDbLine
 10
-147.2255999999999
 20
74.2727
 30
0.0
 11
-150.0258
 21
74.2727
 31
0.0
  0
LINE
  5
E62
330
1F
100
AcDbEntity
  8
0
  6
Continuous
 62
     7
100
AcDbLine
 10
-147.5757
 20
70.6228
 30
0.0
 11
-147.5757
 21
74.62260000000002
 31
0.0
  0
LINE
  5
E63
330
1F
100
AcDbEntity
  8
0
  6
Continuous
 62
     7
100
AcDbLine
 10
-147.2255999999999
 20
74.2727
 30
0.0
 11
-147.2255999999999
 21
70.9727
 31
0.0
  0
LINE
  5
E64
330
1F
100
AcDbEntity
  8
0
  6
Continuous
 62
     7
100
AcDbLine
 10
-147.2255999999999
 20
74.2727
 30
0.0
 11
-147.5757
 21
74.62260000000002
 31
0.0
  0
LINE
  5
E65
330
1F
100
AcDbEntity
  8
0
  6
Continuous
 62
     7
100
AcDbLine
 10
-147.2255999999999
 20
70.9727
 30
0.0
 11
-147.5757
 21
70.6228
 31
0.0
  0
LINE
  5
E66
330
1F
100
AcDbEntity
  8
0
  6
Continuous
 62
     7
100
AcDbLine
 10
-287.2258
 20
94.98969999999999
 30
0.0
 11
-285.2256
 21
94.98969999999999
 31
0.0
  0
LINE
  5
E67
330
1F
100
AcDbEntity
  8
0
  6
Continuous
 62
     7
100
AcDbLine
 10
-144.7257999999999
 20
48.7385
 30
0.0
 11
-150.7258
 21
48.7385
 31
0.0
  0
LINE
  5
E68
330
1F
100
AcDbEntity
  8
0
  6
Continuous
 62
     7
100
AcDbLine
 10
-289.8258999999999
 20
74.7043
 30
0.0
 11
-289.8258999999999
 21
70.542
 31
0.0
  0
LINE
  5
E69
330
1F
100
AcDbEntity
  8
0
  6
DASH_CENTER
 62
    30
100
AcDbLine
 10
-280.2201999999999
 20
-13.6443
 30
0.0
 11
-295.0749999999998
 21
-13.6443
 31
0.0
  0
LINE
  5
E6A
330
1F
100
AcDbEntity
  8
0
  6
Continuous
 62
     7
100
AcDbLine
 10
-287.2258
 20
69.123
 30
0.0
 11
-288.6392
 21
69.24679999999999
 31
0.0
  0
LINE
  5
E6B
330
1F
100
AcDbEntity
  8
0
  6
Continuous
 62
     7
100
AcDbLine
 10
-109.2258
 20
22.4895
 30
0.0
 11
-108.2258
 21
23.4893
 31
0.0
  0
LINE
  5
E6C
330
1F
100
AcDbEntity
  8
0
  6
Continuous
 62
     7
100
AcDbLine
 10
-287.2258
 20
76.12300000000002
 30
0.0
 11
-288.6392
 21
75.99949999999998
 31
0.0
  0
LINE
  5
E6D
330
1F
100
AcDbEntity
  8
0
  6
Continuous
 62
     7
100
AcDbLine
 10
-295.7256
 20
48.73899999999999
 30
0.0
 11
-289.7256
 21
48.73899999999999
 31
0.0
  0
LINE
  5
E6E
330
1F
100
AcDbEntity
  8
0
  6
Continuous
 62
     7
100
AcDbLine
 10
-289.7256
 20
83.9897
 30
0.0
 11
-289.7256
 21
75.20459999999999
 31
0.0
  0
LINE
  5
E6F
330
1F
100
AcDbEntity
  8
0
  6
Continuous
 62
     7
100
AcDbLine
 10
-287.8711
 20
65.19020000000001
 30
0.0
 11
-289.0801
 21
64.73189999999999
 31
0.0
  0
LINE
  5
E70
330
1F
100
AcDbEntity
  8
0
  6
Continuous
 62
     7
100
AcDbLine
 10
-270.7256
 20
31.2395
 30
0.0
 11
-270.7256
 21
11.30509999999999
 31
0.0
  0
LINE
  5
E71
330
1F
100
AcDbEntity
  8
0
  6
Continuous
 62
     7
100
AcDbLine
 10
-262.6116
 20
12.2665
 30
0.0
 11
-267.7255999999999
 21
25.8861
 31
0.0
  0
LINE
  5
E72
330
1F
100
AcDbEntity
  8
0
  6
Continuous
 62
     7
100
AcDbLine
 10
-272.3521
 20
30.08399999999999
 30
0.0
 11
-278.6478999999999
 21
13.3211
 31
0.0
  0
LINE
  5
E73
330
1F
100
AcDbEntity
  8
0
  6
Continuous
 62
     7
100
AcDbLine
 10
-267.7255999999999
 20
31.2395
 30
0.0
 11
-267.7255999999999
 21
11.30509999999999
 31
0.0
  0
LINE
  5
E74
330
1F
100
AcDbEntity
  8
0
  6
Continuous
 62
     7
100
AcDbLine
 10
-275.8396
 20
12.2665
 30
0.0
 11
-270.7256
 21
25.8861
 31
0.0
  0
LINE
  5
E75
330
1F
100
AcDbEntity
  8
0
  6
Continuous
 62
     7
100
AcDbLine
 10
-266.0991
 20
30.08399999999999
 30
0.0
 11
-259.8031999999999
 21
13.3211
 31
0.0
  0
LINE
  5
E76
330
1F
100
AcDbEntity
  8
0
  6
Continuous
 62
     7
100
AcDbLine
 10
-266.2260999999999
 20
-19.26
 30
0.0
 11
-255.9177
 21
-19.26
 31
0.0
  0
LINE
  5
E77
330
1F
100
AcDbEntity
  8
0
  6
Continuous
 62
     7
100
AcDbLine
 10
-245.2263
 20
-6.5601
 30
0.0
 11
-266.2262999999999
 21
-6.5601
 31
0.0
  0
LINE
  5
E78
330
1F
100
AcDbEntity
  8
0
  6
Continuous
 62
     7
100
AcDbLine
 10
-169.2264999999999
 20
-2.759999999999998
 30
0.0
 11
-169.2264999999999
 21
-5.759999999999998
 31
0.0
  0
LINE
  5
E79
330
1F
100
AcDbEntity
  8
0
  6
Continuous
 62
     7
100
AcDbLine
 10
-171.2264999999999
 20
-7.759999999999998
 30
0.0
 11
-192.2264999999999
 21
-7.759999999999998
 31
0.0
  0
LINE
  5
E7A
330
1F
100
AcDbEntity
  8
0
  6
Continuous
 62
     7
100
AcDbLine
 10
-171.2264999999999
 20
-6.5601
 30
0.0
 11
-192.2264999999999
 21
-6.5601
 31
0.0
  0
LINE
  5
E7B
330
1F
100
AcDbEntity
  8
0
  6
Continuous
 62
     7
100
AcDbLine
 10
-171.2264999999999
 20
-17.76
 30
0.0
 11
-192.2264999999999
 21
-17.76
 31
0.0
  0
LINE
  5
E7C
330
1F
100
AcDbEntity
  8
0
  6
Continuous
 62
     7
100
AcDbLine
 10
-171.2264999999999
 20
-19.26
 30
0.0
 11
-192.2264999999999
 21
-19.26
 31
0.0
  0
LINE
  5
E7D
330
1F
100
AcDbEntity
  8
0
  6
Continuous
 62
     7
100
AcDbLine
 10
-171.2264999999999
 20
-0.76
 30
0.0
 11
-192.2264999999999
 21
-0.76
 31
0.0
  0
LINE
  5
E7E
330
1F
100
AcDbEntity
  8
0
  6
Continuous
 62
     7
100
AcDbLine
 10
-171.2264999999999
 20
7.24
 30
0.0
 11
-192.2264999999999
 21
7.24
 31
0.0
  0
LINE
  5
E7F
330
1F
100
AcDbEntity
  8
0
  6
Continuous
 62
     7
100
AcDbLine
 10
-245.2263
 20
-7.759999999999998
 30
0.0
 11
-266.2262999999999
 21
-7.759999999999998
 31
0.0
  0
LINE
  5
E80
330
1F
100
AcDbEntity
  8
0
  6
Continuous
 62
     7
100
AcDbLine
 10
-243.2263
 20
-2.759999999999998
 30
0.0
 11
-243.2263
 21
-5.759999999999998
 31
0.0
  0
LINE
  5
E81
330
1F
100
AcDbEntity
  8
0
  6
Continuous
 62
     7
100
AcDbLine
 10
-268.2262999999999
 20
-2.759999999999998
 30
0.0
 11
-268.2262999999999
 21
-5.759999999999998
 31
0.0
  0
LINE
  5
E82
330
1F
100
AcDbEntity
  8
0
  6
Continuous
 62
     7
100
AcDbLine
 10
-266.2260999999999
 20
-17.76
 30
0.0
 11
-254.7852
 21
-17.76
 31
0.0
  0
LINE
  5
E83
330
1F
100
AcDbEntity
  8
0
  6
Continuous
 62
     7
100
AcDbLine
 10
-268.2262999999999
 20
-17.26
 30
0.0
 11
-268.2262999999999
 21
-15.76
 31
0.0
  0
LINE
  5
E84
330
1F
100
AcDbEntity
  8
0
  6
Continuous
 62
     7
100
AcDbLine
 10
-245.2263
 20
-0.76
 30
0.0
 11
-266.2262999999999
 21
-0.76
 31
0.0
  0
LINE
  5
E85
330
1F
100
AcDbEntity
  8
0
  6
Continuous
 62
     7
100
AcDbLine
 10
-169.2264999999999
 20
28.2397
 30
0.0
 11
-169.2264999999999
 21
24.23999999999999
 31
0.0
  0
LINE
  5
E86
330
1F
100
AcDbEntity
  8
0
  6
Continuous
 62
     7
100
AcDbLine
 10
-194.2264999999999
 20
28.23999999999999
 30
0.0
 11
-194.2264999999999
 21
24.23999999999999
 31
0.0
  0
LINE
  5
E87
330
1F
100
AcDbEntity
  8
0
  6
Continuous
 62
     7
100
AcDbLine
 10
-171.2264999999999
 20
-13.76
 30
0.0
 11
-192.2264999999999
 21
-13.76
 31
0.0
  0
LINE
  5
E88
330
1F
100
AcDbEntity
  8
0
  6
Continuous
 62
     7
100
AcDbLine
 10
-194.2264999999999
 20
12.24
 30
0.0
 11
-194.2264999999999
 21
8.24
 31
0.0
  0
LINE
  5
E89
330
1F
100
AcDbEntity
  8
0
  6
Continuous
 62
     7
100
AcDbLine
 10
-169.2264999999999
 20
12.24
 30
0.0
 11
-169.2264999999999
 21
8.24
 31
0.0
  0
LINE
  5
E8A
330
1F
100
AcDbEntity
  8
0
  6
Continuous
 62
     7
100
AcDbLine
 10
-194.2264999999999
 20
-15.76
 30
0.0
 11
-194.2264999999999
 21
-17.26
 31
0.0
  0
LINE
  5
E8B
330
1F
100
AcDbEntity
  8
0
  6
Continuous
 62
     7
100
AcDbLine
 10
-194.2264999999999
 20
-2.759999999999998
 30
0.0
 11
-194.2264999999999
 21
-5.759999999999998
 31
0.0
  0
LINE
  5
E8C
330
1F
100
AcDbEntity
  8
0
  6
Continuous
 62
     7
100
AcDbLine
 10
-171.2264999999999
 20
6.24
 30
0.0
 11
-192.2264999999999
 21
6.24
 31
0.0
  0
LINE
  5
E8D
330
1F
100
AcDbEntity
  8
0
  6
Continuous
 62
     7
100
AcDbLine
 10
-192.2264999999999
 20
30.24
 30
0.0
 11
-171.2264999999999
 21
30.24
 31
0.0
  0
LINE
  5
E8E
330
1F
100
AcDbEntity
  8
0
  6
Continuous
 62
     7
100
AcDbLine
 10
-192.2264999999999
 20
22.23999999999999
 30
0.0
 11
-171.2264999999999
 21
22.23999999999999
 31
0.0
  0
LINE
  5
E8F
330
1F
100
AcDbEntity
  8
0
  6
Continuous
 62
     7
100
AcDbLine
 10
-192.2264999999999
 20
14.24
 30
0.0
 11
-171.2264999999999
 21
14.24
 31
0.0
  0
LINE
  5
E90
330
1F
100
AcDbEntity
  8
0
  6
Continuous
 62
     7
100
AcDbLine
 10
-169.2264999999999
 20
-17.26
 30
0.0
 11
-169.2264999999999
 21
-15.76
 31
0.0
  0
LINE
  5
E91
330
1F
100
AcDbEntity
  8
0
  6
Continuous
 62
     7
100
AcDbLine
 10
-245.2263
 20
-13.76
 30
0.0
 11
-266.2262999999999
 21
-13.76
 31
0.0
  0
LINE
  5
E92
330
1F
100
AcDbEntity
  8
0
  6
Continuous
 62
     7
100
AcDbLine
 10
-255.7255999999999
 20
-38.3101
 30
0.0
 11
-280.301
 21
-38.3101
 31
0.0
  0
LINE
  5
E93
330
1F
100
AcDbEntity
  8
0
  6
Continuous
 62
     7
100
AcDbLine
 10
-257.3285999999999
 20
-23.2595
 30
0.0
 11
-258.8947999999999
 21
-35.68529999999999
 31
0.0
  0
LINE
  5
E94
330
1F
100
AcDbEntity
  8
0
  6
Continuous
 62
     7
100
AcDbLine
 10
-199.1230999999999
 20
-23.25979999999999
 30
0.0
 11
-197.5567
 21
-35.68529999999999
 31
0.0
  0
LINE
  5
E95
330
1F
100
AcDbEntity
  8
0
  6
Continuous
 62
     7
100
AcDbLine
 10
-209.0444999999998
 20
-14.5103
 30
0.0
 11
-247.407
 21
-14.51
 31
0.0
  0
LINE
  5
E96
330
1F
100
AcDbEntity
  8
0
  6
Continuous
 62
     7
100
AcDbLine
 10
-283.2256
 20
-41.50999999999998
 30
0.0
 11
-253.2255999999999
 21
-41.50999999999998
 31
0.0
  0
LINE
  5
E97
330
1F
100
AcDbEntity
  8
0
  6
Continuous
 62
     7
100
AcDbLine
 10
-203.2258999999998
 20
-41.5103
 30
0.0
 11
-173.2258999999999
 21
-41.5103
 31
0.0
  0
LINE
  5
E98
330
1F
100
AcDbEntity
  8
0
  6
Continuous
 62
     7
100
AcDbLine
 10
-280.301
 20
-38.3101
 30
0.0
 11
-283.2256
 21
-38.3101
 31
0.0
  0
LINE
  5
E99
330
1F
100
AcDbEntity
  8
0
  6
Continuous
 62
     7
100
AcDbLine
 10
-178.8031
 20
-33.8389
 30
0.0
 11
-178.0947999999999
 21
-36.77859999999999
 31
0.0
  0
LINE
  5
E9A
330
1F
100
AcDbEntity
  8
0
  6
Continuous
 62
     7
100
AcDbLine
 10
-228.2255999999999
 20
-37.31009999999999
 30
0.0
 11
-254.7255999999999
 21
-37.31009999999999
 31
0.0
  0
LINE
  5
E9B
330
1F
100
AcDbEntity
  8
0
  6
Continuous
 62
     7
100
AcDbLine
 10
-190.7951999999999
 20
-30.01
 30
0.0
 11
-183.6641999999999
 21
-30.01
 31
0.0
  0
LINE
  5
E9C
330
1F
100
AcDbEntity
  8
0
  6
Continuous
 62
     7
100
AcDbLine
 10
-265.6562
 20
-30.01
 30
0.0
 11
-272.7870999999999
 21
-30.01
 31
0.0
  0
LINE
  5
E9D
330
1F
100
AcDbEntity
  8
0
  6
Continuous
 62
     7
100
AcDbLine
 10
-228.2258
 20
-40.51
 30
0.0
 11
-253.2255999999999
 21
-40.51029999999999
 31
0.0
  0
LINE
  5
E9E
330
1F
100
AcDbEntity
  8
0
  6
Continuous
 62
     7
100
AcDbLine
 10
-200.7258999999999
 20
-38.3101
 30
0.0
 11
-173.2258999999999
 21
-38.3101
 31
0.0
  0
LINE
  5
E9F
330
1F
100
AcDbEntity
  8
0
  6
Continuous
 62
     7
100
AcDbLine
 10
-201.7259
 20
-37.31009999999999
 30
0.0
 11
-228.2258
 21
-37.31009999999999
 31
0.0
  0
LINE
  5
EA0
330
1F
100
AcDbEntity
  8
0
  6
Continuous
 62
     7
100
AcDbLine
 10
-228.2258
 20
-40.51
 30
0.0
 11
-203.2258999999998
 21
-40.51029999999999
 31
0.0
  0
LINE
  5
EA1
330
1F
100
AcDbEntity
  8
0
  6
Continuous
 62
     7
100
AcDbLine
 10
-277.6481999999999
 20
-33.8389
 30
0.0
 11
-278.3567
 21
-36.77859999999999
 31
0.0
  0
LINE
  5
EA2
330
1F
100
AcDbEntity
  8
0
  6
Continuous
 62
     7
100
AcDbLine
 10
-150.7258
 20
83.98850000000001
 30
0.0
 11
-150.7258
 21
76.6721
 31
0.0
  0
LINE
  5
EA3
330
1F
100
AcDbEntity
  8
0
  6
Continuous
 62
     7
100
AcDbLine
 10
-152.5803999999999
 20
65.19020000000001
 30
0.0
 11
-151.3712999999999
 21
64.73189999999999
 31
0.0
  0
LINE
  5
EA4
330
1F
100
AcDbEntity
  8
0
  6
Continuous
 62
     7
100
AcDbLine
 10
-178.2556999999999
 20
-36.1106
 30
0.0
 11
-155.2257999999999
 21
-36.1106
 31
0.0
  0
LINE
  5
EA5
330
1F
100
AcDbEntity
  8
0
  6
DASH_CENTER
 62
    30
100
AcDbLine
 10
-280.5115
 20
72.62300000000002
 30
0.0
 11
-294.2013999999998
 21
72.62300000000002
 31
0.0
  0
LINE
  5
EA6
330
1F
100
AcDbEntity
  8
0
  6
Continuous
 62
     7
100
AcDbLine
 10
-109.2258
 20
22.4895
 30
0.0
 11
-109.2258
 21
35.4895
 31
0.0
  0
LINE
  5
EA7
330
1F
100
AcDbEntity
  8
0
  6
Continuous
 62
     7
100
AcDbLine
 10
-214.0976999999999
 20
-40.5105
 30
0.0
 11
-250.7147999999999
 21
-40.5105
 31
0.0
  0
LINE
  5
EA8
330
1F
100
AcDbEntity
  8
0
  6
Continuous
 62
     7
100
AcDbLine
 10
-138.2257999999999
 20
36.8895
 30
0.0
 11
-140.7257999999998
 21
36.8895
 31
0.0
  0
LINE
  5
EA9
330
1F
100
AcDbEntity
  8
0
  6
Continuous
 62
     7
100
AcDbLine
 10
-140.7257999999998
 20
22.0895
 30
0.0
 11
-138.2257999999999
 21
22.0895
 31
0.0
  0
LINE
  5
EAA
330
1F
100
AcDbEntity
  8
0
  6
Continuous
 62
     7
100
AcDbLine
 10
-285.2257999999998
 20
95.0894
 30
0.0
 11
-285.2257999999998
 21
-36.1106
 31
0.0
  0
ARC
  5
EAB
330
1F
100
AcDbEntity
  8
0
  6
Continuous
 62
     7
100
AcDbCircle
 10
-137.6257332942766
 20
21.88937645972205
 30
0.0
 40
0.6000235439858479
100
AcDbArc
 50
90.00636967743529
 51
160.51706144098
  0
ARC
  5
EAC
330
1F
100
AcDbEntity
  8
0
  6
Continuous
 62
     7
100
AcDbCircle
 10
-288.2256028212008
 20
-7.14649591502702
 30
0.0
 40
1.000002864983563
100
AcDbArc
 50
0.01695463381518
 51
69.24321309630342
  0
ARC
  5
EAD
330
1F
100
AcDbEntity
  8
0
  6
Continuous
 62
     7
100
AcDbCircle
 10
-288.7256084602218
 20
-4.81808774355845
 30
0.0
 40
0.999991539853304
100
AcDbArc
 50
180.0007022483138
 51
249.2314032922798
  0
ARC
  5
EAE
330
1F
100
AcDbEntity
  8
0
  6
Continuous
 62
     7
100
AcDbCircle
 10
-295.7256
 20
12.74
 30
0.0
 40
2.5
100
AcDbArc
 50
180.0
 51
270.0
  0
ARC
  5
EAF
330
1F
100
AcDbEntity
  8
0
  6
Continuous
 62
     7
100
AcDbCircle
 10
-296.4257846359208
 20
16.75587166966225
 30
0.0
 40
3.300015364200836
100
AcDbArc
 50
179.9995081208399
 51
236.9441241819771
  0
ARC
  5
EB0
330
1F
100
AcDbEntity
  8
0
  6
Continuous
 62
     7
100
AcDbCircle
 10
-288.5258767509108
 20
-15.72532537279444
 30
0.0
 40
1.30002324933661
100
AcDbArc
 50
179.9988817476637
 51
264.9991701575229
  0
ARC
  5
EB1
330
1F
100
AcDbEntity
  8
0
  6
Continuous
 62
     7
100
AcDbCircle
 10
-288.5258767509108
 20
-11.56297462720556
 30
0.0
 40
1.300023249336613
100
AcDbArc
 50
95.00082984247713
 51
180.0011182523363
  0
ARC
  5
EB2
330
1F
100
AcDbEntity
  8
0
  6
Continuous
 62
     7
100
AcDbCircle
 10
-288.2256348486133
 20
-28.71894830696082
 30
0.0
 40
1.00003484994942
100
AcDbArc
 50
359.9970383102383
 51
67.97434107408941
  0
ARC
  5
EB3
330
1F
100
AcDbEntity
  8
0
  6
Continuous
 62
     7
100
AcDbCircle
 10
-286.7257881493165
 20
-25.01071757756585
 30
0.0
 40
3.000011850735001
100
AcDbArc
 50
179.999664294547
 51
247.9755345712891
  0
ARC
  5
EB4
330
1F
100
AcDbEntity
  8
0
  6
Continuous
 62
     7
100
AcDbCircle
 10
-152.2258971787992
 20
-7.14649591502703
 30
0.0
 40
1.000002864983569
100
AcDbArc
 50
110.7567869036963
 51
179.983045366184
  0
ARC
  5
EB5
330
1F
100
AcDbEntity
  8
0
  6
Continuous
 62
     7
100
AcDbCircle
 10
-151.725773810375
 20
-4.818062064602058
 30
0.0
 40
0.9999738110945768
100
AcDbArc
 50
290.7617677322992
 51
359.9978264048791
  0
ARC
  5
EB6
330
1F
100
AcDbEntity
  8
0
  6
Continuous
 62
     7
100
AcDbCircle
 10
-144.025815364079
 20
16.75607166966224
 30
0.0
 40
3.300015364200806
100
AcDbArc
 50
303.0558758180224
 51
0.00049187916008
  0
ARC
  5
EB7
330
1F
100
AcDbEntity
  8
0
  6
Continuous
 62
     7
100
AcDbCircle
 10
-144.7257999999999
 20
12.7405
 30
0.0
 40
2.5
100
AcDbArc
 50
270.0
 51
0.0
  0
ARC
  5
EB8
330
1F
100
AcDbEntity
  8
0
  6
Continuous
 62
     7
100
AcDbCircle
 10
-152.2257651513865
 20
-28.71774830696082
 30
0.0
 40
1.000034849949444
100
AcDbArc
 50
112.0256589259122
 51
180.0029616897617
  0
ARC
  5
EB9
330
1F
100
AcDbEntity
  8
0
  6
Continuous
 62
     7
100
AcDbCircle
 10
-153.7257931016157
 20
-25.00948976849448
 30
0.0
 40
2.999993101633357
100
AcDbArc
 50
292.0221638197972
 51
359.999804592189
  0
ARC
  5
EBA
330
1F
100
AcDbEntity
  8
0
  6
Continuous
 62
     7
100
AcDbCircle
 10
-156.6142
 20
-13.64375
 30
0.0
 40
6.58835056766867
100
AcDbArc
 50
342.1385907380358
 51
17.86140926196423
  0
ARC
  5
EBB
330
1F
100
AcDbEntity
  8
0
  6
Continuous
 62
     7
100
AcDbCircle
 10
-156.6141858478147
 20
-17.68517186270737
 30
0.0
 40
6.588374475895839
100
AcDbArc
 50
4.419347634236578
 51
17.86245570944057
  0
ARC
  5
EBC
330
1F
100
AcDbEntity
  8
0
  6
Continuous
 62
     7
100
AcDbCircle
 10
-156.6141858478147
 20
-9.60222813729263
 30
0.0
 40
6.588374475895837
100
AcDbArc
 50
342.1375442905595
 51
355.5806523657635
  0
ARC
  5
EBD
330
1F
100
AcDbEntity
  8
0
  6
Continuous
 62
     7
100
AcDbCircle
 10
-286.7257881493165
 20
83.98971757756584
 30
0.0
 40
3.000011850735018
100
AcDbArc
 50
112.024465428711
 51
180.0003357054528
  0
ARC
  5
EBE
330
1F
100
AcDbEntity
  8
0
  6
Continuous
 62
     7
100
AcDbCircle
 10
-270.975126508201
 20
29.48948474391965
 30
0.0
 40
1.500015139611791
100
AcDbArc
 50
80.4243714418042
 51
159.4184653411214
  0
ARC
  5
EBF
330
1F
100
AcDbEntity
  8
0
  6
Continuous
 62
     7
100
AcDbCircle
 10
-269.2255481588878
 20
29.48950000068641
 30
0.0
 40
13.49998675507915
100
AcDbArc
 50
304.0181826552923
 51
235.9833346112953
  0
ARC
  5
EC0
330
1F
100
AcDbEntity
  8
0
  6
Continuous
 62
     7
100
AcDbCircle
 10
-228.22585
 20
-27.9245
 30
0.0
 40
0.5000305615659773
100
AcDbArc
 50
45.00405117580654
 51
134.9959488241958
  0
ARC
  5
EC1
330
1F
100
AcDbEntity
  8
0
  6
Continuous
 62
     7
100
AcDbCircle
 10
-226.8116
 20
-26.51025
 30
0.0
 40
0.5000305615659899
100
AcDbArc
 50
135.0040511758054
 51
224.9959488241946
  0
ARC
  5
EC2
330
1F
100
AcDbEntity
  8
0
  6
Continuous
 62
     7
100
AcDbCircle
 10
-228.22585
 20
-25.0961
 30
0.0
 40
0.4999598508880581
100
AcDbArc
 50
224.9959482512246
 51
315.004051748773
  0
ARC
  5
EC3
330
1F
100
AcDbEntity
  8
0
  6
Continuous
 62
     7
100
AcDbCircle
 10
-229.6399999999999
 20
-26.51025
 30
0.0
 40
0.499959850888048
100
AcDbArc
 50
314.9959482512252
 51
45.00405174877445
  0
ARC
  5
EC4
330
1F
100
AcDbEntity
  8
0
  6
Continuous
 62
     7
100
AcDbCircle
 10
-137.62575281162
 20
37.0894373518282
 30
0.0
 40
0.6000373536837384
100
AcDbArc
 50
199.4636147997988
 51
269.995494122168
  0
ARC
  5
EC5
330
1F
100
AcDbEntity
  8
0
  6
Continuous
 62
     7
100
AcDbCircle
 10
-269.2255824037506
 20
29.4894991776769
 30
0.0
 40
3.249982403750823
100
AcDbArc
 50
0.00001449719946
 51
174.648687332447
  0
ARC
  5
EC6
330
1F
100
AcDbEntity
  8
0
  6
Continuous
 62
     7
100
AcDbCircle
 10
-156.6141858478147
 20
68.58122813729261
 30
0.0
 40
6.588374475895811
100
AcDbArc
 50
4.419347634236659
 51
17.86245570944069
  0
ARC
  5
EC7
330
1F
100
AcDbEntity
  8
0
  6
Continuous
 62
     7
100
AcDbCircle
 10
-156.6141858478147
 20
76.66417186270738
 30
0.0
 40
6.58837447589584
100
AcDbArc
 50
342.1375442905593
 51
355.5806523657634
  0
ARC
  5
EC8
330
1F
100
AcDbEntity
  8
0
  6
Continuous
 62
     7
100
AcDbCircle
 10
-156.6142
 20
72.62274999999998
 30
0.0
 40
6.588350567668669
100
AcDbArc
 50
342.1385907380358
 51
17.86140926196426
  0
ARC
  5
EC9
330
1F
100
AcDbEntity
  8
0
  6
Continuous
 62
     7
100
AcDbCircle
 10
-153.7257931016157
 20
83.98848976849448
 30
0.0
 40
2.999993101633346
100
AcDbArc
 50
0.00019540781092
 51
67.97783618020274
  0
ARC
  5
ECA
330
1F
100
AcDbEntity
  8
0
  6
Continuous
 62
     7
100
AcDbCircle
 10
-152.225811500423
 20
87.69681705742771
 30
0.0
 40
0.9999884997222526
100
AcDbArc
 50
180.0009773298566
 51
247.9761314183674
  0
ARC
  5
ECB
330
1F
100
AcDbEntity
  8
0
  6
Continuous
 62
     7
100
AcDbCircle
 10
-288.2256348486133
 20
87.69794830696081
 30
0.0
 40
1.000034849949424
100
AcDbArc
 50
292.0256589259108
 51
0.00296168976194
  0
ARC
  5
ECC
330
1F
100
AcDbEntity
  8
0
  6
Continuous
 62
     7
100
AcDbCircle
 10
-288.5258767509108
 20
70.54197462720556
 30
0.0
 40
1.30002324933661
100
AcDbArc
 50
179.9988817476636
 51
264.9991701575229
  0
ARC
  5
ECD
330
1F
100
AcDbEntity
  8
0
  6
Continuous
 62
     7
100
AcDbCircle
 10
-288.5258767509108
 20
74.70432537279444
 30
0.0
 40
1.3000232493366
100
AcDbArc
 50
95.0008298424772
 51
180.0011182523364
  0
ARC
  5
ECE
330
1F
100
AcDbEntity
  8
0
  6
Continuous
 62
     7
100
AcDbCircle
 10
-296.4257846359208
 20
42.22312833033774
 30
0.0
 40
3.300015364200794
100
AcDbArc
 50
123.0558758180219
 51
180.0004918791598
  0
ARC
  5
ECF
330
1F
100
AcDbEntity
  8
0
  6
Continuous
 62
     7
100
AcDbCircle
 10
-295.7256
 20
46.23899999999999
 30
0.0
 40
2.5
100
AcDbArc
 50
90.0
 51
180.0
  0
ARC
  5
ED0
330
1F
100
AcDbEntity
  8
0
  6
Continuous
 62
     7
100
AcDbCircle
 10
-288.7256084602218
 20
63.79708774355846
 30
0.0
 40
0.9999915398533115
100
AcDbArc
 50
110.7685967077202
 51
179.9992977516861
  0
ARC
  5
ED1
330
1F
100
AcDbEntity
  8
0
  6
Continuous
 62
     7
100
AcDbCircle
 10
-288.2256028212008
 20
66.12549591502703
 30
0.0
 40
1.000002864983562
100
AcDbArc
 50
290.7567869036965
 51
359.9830453661851
  0
ARC
  5
ED2
330
1F
100
AcDbEntity
  8
0
  6
Continuous
 62
     7
100
AcDbCircle
 10
-245.2266078293515
 20
-15.75999623753784
 30
0.0
 40
1.999996261227638
100
AcDbArc
 50
38.6747957651066
 51
89.99118132214922
  0
ARC
  5
ED3
330
1F
100
AcDbEntity
  8
0
  6
Continuous
 62
    54
100
AcDbCircle
 10
-276.0849985645596
 20
13.74629946100708
 30
0.0
 40
1.500025329785365
100
AcDbArc
 50
219.4191625344773
 51
279.4195710913401
  0
ARC
  5
ED4
330
1F
100
AcDbEntity
  8
0
  6
Continuous
 62
     7
100
AcDbCircle
 10
-269.2255999999999
 20
31.2395
 30
0.0
 40
1.5
100
AcDbArc
 50
0.0
 51
180.0
  0
ARC
  5
ED5
330
1F
100
AcDbEntity
  8
0
  6
Continuous
 62
    54
100
AcDbCircle
 10
-278.4026014354405
 20
11.84120053899291
 30
0.0
 40
1.500025329785348
100
AcDbArc
 50
39.41916253447656
 51
99.41957109133813
  0
ARC
  5
ED6
330
1F
100
AcDbEntity
  8
0
  6
Continuous
 62
    54
100
AcDbCircle
 10
-268.4755999999999
 20
12.6042
 30
0.0
 40
1.500053602375595
100
AcDbArc
 50
240.0011820522606
 51
299.9988179477392
  0
ARC
  5
ED7
330
1F
100
AcDbEntity
  8
0
  6
Continuous
 62
    54
100
AcDbCircle
 10
-269.9755999999999
 20
10.00609999999999
 30
0.0
 40
1.499966999636991
100
AcDbArc
 50
59.99927221917261
 51
120.0007277808274
  0
ARC
  5
ED8
330
1F
100
AcDbEntity
  8
0
  6
Continuous
 62
    54
100
AcDbCircle
 10
-262.3662014354404
 20
13.74629946100708
 30
0.0
 40
1.50002532978536
100
AcDbArc
 50
260.5804289086598
 51
320.5808374655213
  0
ARC
  5
ED9
330
1F
100
AcDbEntity
  8
0
  6
Continuous
 62
     7
100
AcDbCircle
 10
-267.476073491799
 20
29.48948474391965
 30
0.0
 40
1.500015139611758
100
AcDbArc
 50
20.58153465887857
 51
99.57562855819585
  0
ARC
  5
EDA
330
1F
100
AcDbEntity
  8
0
  6
Continuous
 62
    54
100
AcDbCircle
 10
-260.0485985645595
 20
11.84120053899291
 30
0.0
 40
1.500025329785348
100
AcDbArc
 50
80.58042890865978
 51
140.5808374655232
  0
ARC
  5
EDB
330
1F
100
AcDbEntity
  8
0
  6
Continuous
 62
     7
100
AcDbCircle
 10
-269.2255507517008
 20
29.48948792951017
 30
0.0
 40
13.49998566008233
100
AcDbArc
 50
248.8367648433485
 51
263.6204126683018
  0
ARC
  5
EDC
330
1F
100
AcDbEntity
  8
0
  6
Continuous
 62
     7
100
AcDbCircle
 10
-266.2262999999999
 20
-15.76
 30
0.0
 40
2.0
100
AcDbArc
 50
180.0
 51
270.0
  0
ARC
  5
EDD
330
1F
100
AcDbEntity
  8
0
  6
Continuous
 62
     7
100
AcDbCircle
 10
-245.2263
 20
-2.759999999999998
 30
0.0
 40
2.0
100
AcDbArc
 50
0.0
 51
90.0
  0
ARC
  5
EDE
330
1F
100
AcDbEntity
  8
0
  6
Continuous
 62
     7
100
AcDbCircle
 10
-266.2262999999999
 20
-4.5601
 30
0.0
 40
2.0
100
AcDbArc
 50
180.0
 51
270.0
  0
ARC
  5
EDF
330
1F
100
AcDbEntity
  8
0
  6
Continuous
 62
     7
100
AcDbCircle
 10
-245.2263
 20
-5.759999999999998
 30
0.0
 40
2.0
100
AcDbArc
 50
270.0
 51
0.0
  0
ARC
  5
EE0
330
1F
100
AcDbEntity
  8
0
  6
Continuous
 62
     7
100
AcDbCircle
 10
-171.2264999999999
 20
-5.759999999999998
 30
0.0
 40
2.0
100
AcDbArc
 50
270.0
 51
0.0
  0
ARC
  5
EE1
330
1F
100
AcDbEntity
  8
0
  6
Continuous
 62
     7
100
AcDbCircle
 10
-171.2264999999999
 20
-15.75999999999998
 30
0.0
 40
2.0
100
AcDbArc
 50
359.9999999999993
 51
90.0
  0
ARC
  5
EE2
330
1F
100
AcDbEntity
  8
0
  6
Continuous
 62
     7
100
AcDbCircle
 10
-171.2265041543294
 20
28.23971183449148
 30
0.0
 40
2.000004157456348
100
AcDbArc
 50
359.996796184475
 51
38.68899782903535
  0
ARC
  5
EE3
330
1F
100
AcDbEntity
  8
0
  6
PHANTOM
 62
     7
100
AcDbCircle
 10
-192.2265410314094
 20
28.23998028978603
 30
0.0
 40
2.000019710634862
100
AcDbArc
 50
89.99882454829023
 51
141.317541306337
  0
ARC
  5
EE4
330
1F
100
AcDbEntity
  8
0
  6
Continuous
 62
     7
100
AcDbCircle
 10
-192.226480290521
 20
28.24005615876131
 30
0.0
 40
2.000019710267308
100
AcDbArc
 50
141.3203255173153
 51
180.0016088141481
  0
ARC
  5
EE5
330
1F
100
AcDbEntity
  8
0
  6
PHANTOM
 62
     7
100
AcDbCircle
 10
-171.2264913466925
 20
28.23969584379607
 30
0.0
 40
2.000004156222626
100
AcDbArc
 50
38.6895847516314
 51
90.00024789848339
  0
ARC
  5
EE6
330
1F
100
AcDbEntity
  8
0
  6
Continuous
 62
     7
100
AcDbCircle
 10
-266.2262999999999
 20
-17.26
 30
0.0
 40
2.0
100
AcDbArc
 50
180.0
 51
270.0
  0
ARC
  5
EE7
330
1F
100
AcDbEntity
  8
0
  6
Continuous
 62
     7
100
AcDbCircle
 10
-245.2263
 20
-4.5601
 30
0.0
 40
2.0
100
AcDbArc
 50
270.0
 51
0.0
  0
ARC
  5
EE8
330
1F
100
AcDbEntity
  8
0
  6
Continuous
 62
     7
100
AcDbCircle
 10
-266.2262999999999
 20
-2.759999999999998
 30
0.0
 40
2.0
100
AcDbArc
 50
90.0
 51
180.0
  0
ARC
  5
EE9
330
1F
100
AcDbEntity
  8
0
  6
Continuous
 62
     7
100
AcDbCircle
 10
-192.2264999999999
 20
24.23999999999999
 30
0.0
 40
2.0
100
AcDbArc
 50
180.0
 51
270.0
  0
ARC
  5
EEA
330
1F
100
AcDbEntity
  8
0
  6
Continuous
 62
     7
100
AcDbCircle
 10
-171.2264999999999
 20
24.23999999999999
 30
0.0
 40
2.0
100
AcDbArc
 50
270.0
 51
0.0
  0
ARC
  5
EEB
330
1F
100
AcDbEntity
  8
0
  6
Continuous
 62
     7
100
AcDbCircle
 10
-171.2264999999999
 20
12.24
 30
0.0
 40
2.0
100
AcDbArc
 50
0.0
 51
90.0
  0
ARC
  5
EEC
330
1F
100
AcDbEntity
  8
0
  6
Continuous
 62
     7
100
AcDbCircle
 10
-171.2264999999999
 20
8.24
 30
0.0
 40
2.0
100
AcDbArc
 50
270.0
 51
0.0
  0
ARC
  5
EED
330
1F
100
AcDbEntity
  8
0
  6
Continuous
 62
     7
100
AcDbCircle
 10
-192.2264999999999
 20
8.24
 30
0.0
 40
2.0
100
AcDbArc
 50
180.0
 51
270.0
  0
ARC
  5
EEE
330
1F
100
AcDbEntity
  8
0
  6
Continuous
 62
     7
100
AcDbCircle
 10
-192.2264999999999
 20
12.24
 30
0.0
 40
2.0
100
AcDbArc
 50
90.0
 51
180.0
  0
ARC
  5
EEF
330
1F
100
AcDbEntity
  8
0
  6
Continuous
 62
     7
100
AcDbCircle
 10
-192.2264999999999
 20
-2.759999999999998
 30
0.0
 40
2.0
100
AcDbArc
 50
90.0
 51
180.0
  0
ARC
  5
EF0
330
1F
100
AcDbEntity
  8
0
  6
Continuous
 62
     7
100
AcDbCircle
 10
-171.2264999999999
 20
-2.759999999999998
 30
0.0
 40
2.0
100
AcDbArc
 50
0.0
 51
90.0
  0
ARC
  5
EF1
330
1F
100
AcDbEntity
  8
0
  6
Continuous
 62
     7
100
AcDbCircle
 10
-171.2264999999999
 20
-17.26000000000003
 30
0.0
 40
1.999999999999971
100
AcDbArc
 50
269.9999999999984
 51
0.0000000000008142
  0
ARC
  5
EF2
330
1F
100
AcDbEntity
  8
0
  6
Continuous
 62
     7
100
AcDbCircle
 10
-192.2264999999999
 20
-17.26
 30
0.0
 40
2.0
100
AcDbArc
 50
180.0
 51
270.0
  0
ARC
  5
EF3
330
1F
100
AcDbEntity
  8
0
  6
Continuous
 62
     7
100
AcDbCircle
 10
-192.2264999999999
 20
-4.5601
 30
0.0
 40
2.0
100
AcDbArc
 50
180.0
 51
270.0
  0
ARC
  5
EF4
330
1F
100
AcDbEntity
  8
0
  6
Continuous
 62
     7
100
AcDbCircle
 10
-192.2264999999999
 20
9.24
 30
0.0
 40
2.0
100
AcDbArc
 50
180.0
 51
270.0
  0
ARC
  5
EF5
330
1F
100
AcDbEntity
  8
0
  6
Continuous
 62
     7
100
AcDbCircle
 10
-171.2264999999999
 20
-15.76000000000002
 30
0.0
 40
1.999999999999974
100
AcDbArc
 50
270.0
 51
0.0000000000007633
  0
ARC
  5
EF6
330
1F
100
AcDbEntity
  8
0
  6
Continuous
 62
     7
100
AcDbCircle
 10
-171.2264999999999
 20
-4.5601
 30
0.0
 40
2.0
100
AcDbArc
 50
270.0
 51
0.0
  0
ARC
  5
EF7
330
1F
100
AcDbEntity
  8
0
  6
Continuous
 62
     7
100
AcDbCircle
 10
-192.2264999999999
 20
-15.76
 30
0.0
 40
2.0
100
AcDbArc
 50
180.0
 51
270.0
  0
ARC
  5
EF8
330
1F
100
AcDbEntity
  8
0
  6
Continuous
 62
     7
100
AcDbCircle
 10
-171.2264999999999
 20
9.24
 30
0.0
 40
2.0
100
AcDbArc
 50
270.0
 51
0.0
  0
ARC
  5
EF9
330
1F
100
AcDbEntity
  8
0
  6
Continuous
 62
     7
100
AcDbCircle
 10
-266.2262999999999
 20
-5.759999999999998
 30
0.0
 40
2.0
100
AcDbArc
 50
180.0
 51
270.0
  0
ARC
  5
EFA
330
1F
100
AcDbEntity
  8
0
  6
Continuous
 62
     7
100
AcDbCircle
 10
-266.2262999999999
 20
-15.76
 30
0.0
 40
2.0
100
AcDbArc
 50
90.0
 51
180.0
  0
ARC
  5
EFB
330
1F
100
AcDbEntity
  8
0
  6
Continuous
 62
     7
100
AcDbCircle
 10
-192.2264999999999
 20
-5.759999999999998
 30
0.0
 40
2.0
100
AcDbArc
 50
180.0
 51
270.0
  0
ARC
  5
EFC
330
1F
100
AcDbEntity
  8
0
  6
Continuous
 62
     7
100
AcDbCircle
 10
-192.2264999999999
 20
-15.76
 30
0.0
 40
2.0
100
AcDbArc
 50
90.0
 51
180.0
  0
ARC
  5
EFD
330
1F
100
AcDbEntity
  8
0
  6
Continuous
 62
     7
100
AcDbCircle
 10
-269.2256718443847
 20
29.48948238968361
 30
0.0
 40
13.49998266534177
100
AcDbArc
 50
276.3796852512364
 51
291.1656184740321
  0
ARC
  5
EFE
330
1F
100
AcDbEntity
  8
0
  6
Continuous
 62
     7
100
AcDbCircle
 10
-255.7255999999999
 20
-37.8101
 30
0.0
 40
0.5
100
AcDbArc
 50
270.0
 51
0.0
  0
ARC
  5
EFF
330
1F
100
AcDbEntity
  8
0
  6
Continuous
 62
     7
100
AcDbCircle
 10
-194.5803746746173
 20
-35.31012233371338
 30
0.0
 40
2.999977666393504
100
AcDbArc
 50
187.1842295597079
 51
269.9995163172181
  0
ARC
  5
F00
330
1F
100
AcDbEntity
  8
0
  6
Continuous
 62
     7
100
AcDbCircle
 10
-176.1504674245
 20
-36.31012565798096
 30
0.0
 40
1.999974343155558
100
AcDbArc
 50
193.5468379896519
 51
270.0019315944234
  0
ARC
  5
F01
330
1F
100
AcDbEntity
  8
0
  6
Continuous
 62
     7
100
AcDbCircle
 10
-189.1082403023078
 20
-15.1052254581211
 30
0.0
 40
15.00003727097993
100
AcDbArc
 50
230.2656436949831
 51
263.5426433195489
  0
ARC
  5
F02
330
1F
100
AcDbEntity
  8
0
  6
Continuous
 62
     7
100
AcDbCircle
 10
-183.6642580141085
 20
-35.00995430290921
 30
0.0
 40
4.999954303245786
100
AcDbArc
 50
13.54641515055089
 51
89.9993352012096
  0
ARC
  5
F03
330
1F
100
AcDbEntity
  8
0
  6
Continuous
 62
     7
100
AcDbCircle
 10
-254.7255999999999
 20
-37.8101
 30
0.0
 40
0.5
100
AcDbArc
 50
90.0
 51
180.0
  0
ARC
  5
F04
330
1F
100
AcDbEntity
  8
0
  6
Continuous
 62
     7
100
AcDbCircle
 10
-247.4070046098407
 20
-24.51000406524622
 30
0.0
 40
10.00000406524728
100
AcDbArc
 50
89.999973587569
 51
172.8157587418019
  0
ARC
  5
F05
330
1F
100
AcDbEntity
  8
0
  6
Continuous
 62
     7
100
AcDbCircle
 10
-267.3431623749479
 20
-15.10526924578226
 30
0.0
 40
15.00000530896038
100
AcDbArc
 50
276.4577652006523
 51
309.7344710844608
  0
ARC
  5
F06
330
1F
100
AcDbEntity
  8
0
  6
Continuous
 62
     7
100
AcDbCircle
 10
-209.0444953901593
 20
-24.51030406524622
 30
0.0
 40
10.0000040652473
100
AcDbArc
 50
7.18424125819815
 51
90.00002641243099
  0
ARC
  5
F07
330
1F
100
AcDbEntity
  8
0
  6
Continuous
 62
     7
100
AcDbCircle
 10
-261.8711253253827
 20
-35.31012233371338
 30
0.0
 40
2.999977666393513
100
AcDbArc
 50
270.0004836827817
 51
352.815770440292
  0
ARC
  5
F08
330
1F
100
AcDbEntity
  8
0
  6
Continuous
 62
     7
100
AcDbCircle
 10
-280.3010325755
 20
-36.31012565798096
 30
0.0
 40
1.999974343155575
100
AcDbArc
 50
269.9980684055756
 51
346.4531620103473
  0
ARC
  5
F09
330
1F
100
AcDbEntity
  8
0
  6
Continuous
 62
     7
100
AcDbCircle
 10
-272.7871036975944
 20
-35.01000291249557
 30
0.0
 40
5.000002912496938
100
AcDbArc
 50
89.99995762871305
 51
166.453146091131
  0
ARC
  5
F0A
330
1F
100
AcDbEntity
  8
0
  6
Continuous
 62
     7
100
AcDbCircle
 10
-144.7257999999999
 20
46.2385
 30
0.0
 40
2.5
100
AcDbArc
 50
0.0
 51
90.0
  0
ARC
  5
F0B
330
1F
100
AcDbEntity
  8
0
  6
Continuous
 62
     7
100
AcDbCircle
 10
-144.025815364079
 20
42.22292833033775
 30
0.0
 40
3.300015364200806
100
AcDbArc
 50
359.9995081208398
 51
56.9441241819775
  0
ARC
  5
F0C
330
1F
100
AcDbEntity
  8
0
  6
Continuous
 62
     7
100
AcDbCircle
 10
-151.725773810375
 20
63.79706206460205
 30
0.0
 40
0.9999738110945624
100
AcDbArc
 50
0.00217359512078
 51
69.23823226770078
  0
ARC
  5
F0D
330
1F
100
AcDbEntity
  8
0
  6
Continuous
 62
     7
100
AcDbCircle
 10
-152.2258971787992
 20
66.12549591502703
 30
0.0
 40
1.000002864983563
100
AcDbArc
 50
180.0169546338155
 51
249.2432130963038
  0
ARC
  5
F0E
330
1F
100
AcDbEntity
  8
0
  6
Continuous
 62
     7
100
AcDbCircle
 10
-201.7258000049999
 20
-37.810099995001
 30
0.0
 40
0.500000005000004
100
AcDbArc
 50
359.9999994271572
 51
90.01145858290653
  0
ARC
  5
F0F
330
1F
100
AcDbEntity
  8
0
  6
Continuous
 62
     7
100
AcDbCircle
 10
-200.7257999949999
 20
-37.810100005001
 30
0.0
 40
0.500000005000004
100
AcDbArc
 50
179.9999994269269
 51
269.9885402711769
  0
CIRCLE
  5
F10
330
1F
100
AcDbEntity
  8
0
  6
Continuous
 62
     7
100
AcDbCircle
 10
-228.2258
 20
-26.5103
 30
0.0
 40
5.0
  0
CIRCLE
  5
F11
330
1F
100
AcDbEntity
  8
0
  6
Continuous
 62
     7
100
AcDbCircle
 10
-228.2258
 20
-26.5103
 30
0.0
 40
3.5
  0
LINE
  5
116C
330
1F
100
AcDbEntity
  8
0
  6
DASH_CENTER
 62
    30
100
AcDbLine
 10
161.1266999999999
 20
-64.5908
 30
0.0
 11
161.1266999999999
 21
109.0637
 31
0.0
  0
LINE
  5
116D
330
1F
100
AcDbEntity
  8
0
  6
DASH_CENTER
 62
    30
100
AcDbLine
 10
95.11889999999999
 20
29.4892
 30
0.0
 11
237.7110999999999
 21
29.4892
 31
0.0
  0
LINE
  5
116E
330
1F
100
AcDbEntity
  8
0
  6
DASH_CENTER
 62
    30
100
AcDbLine
 10
105.1266999999999
 20
-33.9805
 30
0.0
 11
105.1266999999999
 21
-45.1107
 31
0.0
  0
LINE
  5
116F
330
1F
100
AcDbEntity
  8
0
  6
Continuous
 62
     7
100
AcDbLine
 10
131.1642999999999
 20
33.9893
 30
0.0
 11
119.4854
 21
33.9893
 31
0.0
  0
LINE
  5
1170
330
1F
100
AcDbEntity
  8
0
  6
Continuous
 62
     7
100
AcDbLine
 10
133.2385999999999
 20
34.9893
 30
0.0
 11
119.4854
 21
34.9893
 31
0.0
  0
LINE
  5
1171
330
1F
100
AcDbEntity
  8
0
  6
Continuous
 62
     7
100
AcDbLine
 10
119.4854
 20
24.9893
 30
0.0
 11
131.1642999999999
 21
24.9893
 31
0.0
  0
LINE
  5
1172
330
1F
100
AcDbEntity
  8
0
  6
Continuous
 62
     7
100
AcDbLine
 10
133.2385999999999
 20
23.9893
 30
0.0
 11
119.4854
 21
23.9893
 31
0.0
  0
LINE
  5
1173
330
1F
100
AcDbEntity
  8
0
  6
Continuous
 62
     7
100
AcDbLine
 10
165.6268
 20
59.4517
 30
0.0
 11
165.6268
 21
71.13039999999998
 31
0.0
  0
LINE
  5
1174
330
1F
100
AcDbEntity
  8
0
  6
Continuous
 62
     7
100
AcDbLine
 10
166.6268
 20
57.3772
 30
0.0
 11
166.6268
 21
71.13039999999998
 31
0.0
  0
LINE
  5
1175
330
1F
100
AcDbEntity
  8
0
  6
Continuous
 62
     7
100
AcDbLine
 10
156.6267999999999
 20
71.1306
 30
0.0
 11
156.6267999999999
 21
59.4517
 31
0.0
  0
LINE
  5
1176
330
1F
100
AcDbEntity
  8
0
  6
Continuous
 62
     7
100
AcDbLine
 10
155.6268
 20
57.3772
 30
0.0
 11
155.6268
 21
71.1306
 31
0.0
  0
LINE
  5
1177
330
1F
100
AcDbEntity
  8
0
  6
Continuous
 62
     7
100
AcDbLine
 10
191.0892
 20
24.989
 30
0.0
 11
202.768
 21
24.989
 31
0.0
  0
LINE
  5
1178
330
1F
100
AcDbEntity
  8
0
  6
Continuous
 62
     7
100
AcDbLine
 10
189.0149
 20
23.989
 30
0.0
 11
202.768
 21
23.989
 31
0.0
  0
LINE
  5
1179
330
1F
100
AcDbEntity
  8
0
  6
Continuous
 62
     7
100
AcDbLine
 10
202.7681
 20
33.98900000000001
 30
0.0
 11
191.0892
 21
33.98900000000001
 31
0.0
  0
LINE
  5
117A
330
1F
100
AcDbEntity
  8
0
  6
Continuous
 62
     7
100
AcDbLine
 10
189.0148
 20
34.98900000000001
 30
0.0
 11
202.768
 21
34.98900000000001
 31
0.0
  0
LINE
  5
117B
330
1F
100
AcDbEntity
  8
0
  6
Continuous
 62
     7
100
AcDbLine
 10
133.4182999999999
 20
37.9893
 30
0.0
 11
128.0699
 21
37.9893
 31
0.0
  0
LINE
  5
117C
330
1F
100
AcDbEntity
  8
0
  6
Continuous
 62
     7
100
AcDbLine
 10
152.6267999999999
 20
62.5461
 30
0.0
 11
152.6267999999999
 21
57.1978
 31
0.0
  0
LINE
  5
117D
330
1F
100
AcDbEntity
  8
0
  6
Continuous
 62
     7
100
AcDbLine
 10
169.6268
 20
57.1975
 30
0.0
 11
169.6268
 21
62.5459
 31
0.0
  0
LINE
  5
117E
330
1F
100
AcDbEntity
  8
0
  6
Continuous
 62
     7
100
AcDbLine
 10
188.8351999999999
 20
37.98900000000001
 30
0.0
 11
194.1836999999999
 21
37.98900000000001
 31
0.0
  0
LINE
  5
117F
330
1F
100
AcDbEntity
  8
0
  6
Continuous
 62
     7
100
AcDbLine
 10
194.1836
 20
20.98899999999998
 30
0.0
 11
188.8351
 21
20.98899999999998
 31
0.0
  0
LINE
  5
1180
330
1F
100
AcDbEntity
  8
0
  6
Continuous
 62
     7
100
AcDbLine
 10
169.6266999999999
 20
1.780799999999999
 30
0.0
 11
169.6266999999999
 21
-3.567899999999998
 31
0.0
  0
LINE
  5
1181
330
1F
100
AcDbEntity
  8
0
  6
Continuous
 62
     7
100
AcDbLine
 10
165.6266999999999
 20
-12.1521
 30
0.0
 11
165.6266999999999
 21
-0.4734
 31
0.0
  0
LINE
  5
1182
330
1F
100
AcDbEntity
  8
0
  6
Continuous
 62
     7
100
AcDbLine
 10
156.6267
 20
-0.4734
 30
0.0
 11
156.6267
 21
-12.1521
 31
0.0
  0
LINE
  5
1183
330
1F
100
AcDbEntity
  8
0
  6
Continuous
 62
     7
100
AcDbLine
 10
155.6267
 20
1.601099999999999
 30
0.0
 11
155.6267
 21
-12.1521
 31
0.0
  0
LINE
  5
1184
330
1F
100
AcDbEntity
  8
0
  6
Continuous
 62
     7
100
AcDbLine
 10
166.6266999999999
 20
1.601099999999999
 30
0.0
 11
166.6266999999999
 21
-12.1521
 31
0.0
  0
LINE
  5
1185
330
1F
100
AcDbEntity
  8
0
  6
Continuous
 62
     7
100
AcDbLine
 10
128.0697999999999
 20
20.9893
 30
0.0
 11
133.4182
 21
20.9893
 31
0.0
  0
LINE
  5
1186
330
1F
100
AcDbEntity
  8
0
  6
Continuous
 62
     7
100
AcDbLine
 10
152.6266999999999
 20
-3.5676
 30
0.0
 11
152.6266999999999
 21
1.780799999999999
 31
0.0
  0
LINE
  5
1187
330
1F
100
AcDbEntity
  8
0
  6
Continuous
 62
     7
100
AcDbLine
 10
164.7323
 20
35.4893
 30
0.0
 11
157.5210999999999
 21
35.4893
 31
0.0
  0
LINE
  5
1188
330
1F
100
AcDbEntity
  8
0
  6
Continuous
 62
     7
100
AcDbLine
 10
89.69799999999997
 20
-36.2805
 30
0.0
 11
99.10809999999999
 21
-19.3042
 31
0.0
  0
LINE
  5
1189
330
1F
100
AcDbEntity
  8
0
  6
Continuous
 62
     7
100
AcDbLine
 10
195.7132
 20
-36.8586
 30
0.0
 11
194.7795
 21
-33.5803
 31
0.0
  0
LINE
  5
118A
330
1F
100
AcDbEntity
  8
0
  6
DASH_CENTER
 62
    30
100
AcDbLine
 10
89.66410000000001
 20
-23.3621
 30
0.0
 11
98.3223
 21
-28.3606
 31
0.0
  0
LINE
  5
118B
330
1F
100
AcDbEntity
  8
0
  6
Continuous
 62
     7
100
AcDbLine
 10
126.5403
 20
-36.8586
 30
0.0
 11
127.4739
 21
-33.5803
 31
0.0
  0
LINE
  5
118C
330
1F
100
AcDbEntity
  8
0
  6
Continuous
 62
     7
100
AcDbLine
 10
191.1267
 20
-40.5107
 30
0.0
 11
131.1266999999999
 21
-40.5107
 31
0.0
  0
LINE
  5
118D
330
1F
100
AcDbEntity
  8
0
  6
Continuous
 62
     7
100
AcDbLine
 10
232.5553999999999
 20
-36.2805
 30
0.0
 11
223.1453
 21
-19.3042
 31
0.0
  0
LINE
  5
118E
330
1F
100
AcDbEntity
  8
0
  6
Continuous
 62
     7
100
AcDbLine
 10
236.1264999999999
 20
-37.3108
 30
0.0
 11
234.3046999999998
 21
-37.3108
 31
0.0
  0
LINE
  5
118F
330
1F
100
AcDbEntity
  8
0
  6
Continuous
 62
     7
100
AcDbLine
 10
193.6516
 20
-38.3108
 30
0.0
 11
236.1264999999999
 21
-38.3108
 31
0.0
  0
LINE
  5
1190
330
1F
100
AcDbEntity
  8
0
  6
Continuous
 62
     7
100
AcDbLine
 10
191.1267
 20
-40.5107
 30
0.0
 11
191.1267
 21
-41.51069999999999
 31
0.0
  0
LINE
  5
1191
330
1F
100
AcDbEntity
  8
0
  6
Continuous
 62
     7
100
AcDbLine
 10
236.1264999999999
 20
-37.3108
 30
0.0
 11
236.1264999999999
 21
-41.51069999999999
 31
0.0
  0
LINE
  5
1192
330
1F
100
AcDbEntity
  8
0
  6
Continuous
 62
     7
100
AcDbLine
 10
192.6516
 20
-37.3108
 30
0.0
 11
129.6017999999999
 21
-37.3108
 31
0.0
  0
LINE
  5
1193
330
1F
100
AcDbEntity
  8
0
  6
Continuous
 62
     7
100
AcDbLine
 10
191.1267
 20
-41.51069999999999
 30
0.0
 11
236.1264999999999
 21
-41.51069999999999
 31
0.0
  0
LINE
  5
1194
330
1F
100
AcDbEntity
  8
0
  6
Continuous
 62
     7
100
AcDbLine
 10
169.3972
 20
-37.1008
 30
0.0
 11
171.6001
 21
-35.39159999999998
 31
0.0
  0
LINE
  5
1195
330
1F
100
AcDbEntity
  8
0
  6
DASH_CENTER
 62
    30
100
AcDbLine
 10
217.1266999999999
 20
-33.9805
 30
0.0
 11
217.1266999999999
 21
-45.1107
 31
0.0
  0
LINE
  5
1196
330
1F
100
AcDbEntity
  8
0
  6
Continuous
 62
     7
100
AcDbLine
 10
128.6018
 20
-38.3108
 30
0.0
 11
86.12690000000002
 21
-38.3108
 31
0.0
  0
LINE
  5
1197
330
1F
100
AcDbEntity
  8
0
  6
Continuous
 62
     7
100
AcDbLine
 10
86.12690000000002
 20
-37.3108
 30
0.0
 11
87.94870000000001
 21
-37.3108
 31
0.0
  0
LINE
  5
1198
330
1F
100
AcDbEntity
  8
0
  6
Continuous
 62
     7
100
AcDbLine
 10
152.8561999999999
 20
-37.1008
 30
0.0
 11
150.6533
 21
-35.39159999999998
 31
0.0
  0
LINE
  5
1199
330
1F
100
AcDbEntity
  8
0
  6
Continuous
 62
     7
100
AcDbLine
 10
131.1266999999999
 20
-41.51069999999999
 30
0.0
 11
86.12690000000002
 21
-41.51069999999999
 31
0.0
  0
LINE
  5
119A
330
1F
100
AcDbEntity
  8
0
  6
Continuous
 62
     7
100
AcDbLine
 10
86.12690000000002
 20
-37.3108
 30
0.0
 11
86.12690000000002
 21
-41.51069999999999
 31
0.0
  0
LINE
  5
119B
330
1F
100
AcDbEntity
  8
0
  6
Continuous
 62
     7
100
AcDbLine
 10
131.1266999999999
 20
-40.5107
 30
0.0
 11
131.1266999999999
 21
-41.51069999999999
 31
0.0
  0
LINE
  5
119C
330
1F
100
AcDbEntity
  8
0
  6
Continuous
 62
     7
100
AcDbLine
 10
84.04340000000003
 20
29.489
 30
0.0
 11
93.0264
 21
29.489
 31
0.0
  0
LINE
  5
119D
330
1F
100
AcDbEntity
  8
0
  6
Continuous
 62
     7
100
AcDbLine
 10
93.0925
 20
26.489
 30
0.0
 11
84.04340000000003
 21
26.489
 31
0.0
  0
LINE
  5
119E
330
1F
100
AcDbEntity
  8
0
  6
Continuous
 62
     7
100
AcDbLine
 10
72.04339999999998
 20
6.783199999999999
 30
0.0
 11
72.04339999999998
 21
17.489
 31
0.0
  0
LINE
  5
119F
330
1F
100
AcDbEntity
  8
0
  6
Continuous
 62
     7
100
AcDbLine
 10
75.04339999999998
 20
5.7031
 30
0.0
 11
75.04339999999998
 21
17.489
 31
0.0
  0
LINE
  5
11A0
330
1F
100
AcDbEntity
  8
0
  6
Continuous
 62
     7
100
AcDbLine
 10
69.04339999999999
 20
6.243199999999997
 30
0.0
 11
69.04339999999999
 21
17.489
 31
0.0
  0
LINE
  5
11A1
330
1F
100
AcDbEntity
  8
0
  6
Continuous
 62
     7
100
AcDbLine
 10
78.04339999999998
 20
6.243199999999997
 30
0.0
 11
78.04339999999998
 21
17.489
 31
0.0
  0
LINE
  5
11A2
330
1F
100
AcDbEntity
  8
0
  6
Continuous
 62
     7
100
AcDbLine
 10
96.1114
 20
-23.05979999999999
 30
0.0
 11
95.18219999999999
 21
-22.6462
 31
0.0
  0
LINE
  5
11A3
330
1F
100
AcDbEntity
  8
0
  6
Continuous
 62
     7
100
AcDbLine
 10
92.7177
 20
-29.1824
 30
0.0
 11
91.8745
 21
-28.61349999999999
 31
0.0
  0
LINE
  5
11A4
330
1F
100
AcDbEntity
  8
0
  6
Continuous
 62
     7
100
AcDbLine
 10
91.99049999999999
 20
-30.49409999999999
 30
0.0
 11
92.69020000000001
 21
-30.8821
 31
0.0
  0
LINE
  5
11A5
330
1F
100
AcDbEntity
  8
0
  6
Continuous
 62
     7
100
AcDbLine
 10
96.83860000000001
 20
-21.748
 30
0.0
 11
97.5383
 21
-22.1357
 31
0.0
  0
LINE
  5
11A6
330
1F
100
AcDbEntity
  8
0
  6
Continuous
 62
     7
100
AcDbLine
 10
91.99049999999999
 20
-30.49409999999999
 30
0.0
 11
96.83860000000001
 21
-21.748
 31
0.0
  0
LINE
  5
11A7
330
1F
100
AcDbEntity
  8
0
  6
Continuous
 62
     7
100
AcDbLine
 10
91.4644
 20
-26.90549999999999
 30
0.0
 11
93.51649999999999
 21
-23.20339999999999
 31
0.0
  0
LINE
  5
11A8
330
1F
100
AcDbEntity
  8
0
  6
Continuous
 62
     7
100
AcDbLine
 10
203.2118
 20
76.5342
 30
0.0
 11
207.1176
 21
75.48
 31
0.0
  0
LINE
  5
11A9
330
1F
100
AcDbEntity
  8
0
  6
Continuous
 62
     7
100
AcDbLine
 10
207.1176
 20
75.48
 30
0.0
 11
208.1637
 21
71.5762
 31
0.0
  0
LINE
  5
11AA
330
1F
100
AcDbEntity
  8
0
  6
Continuous
 62
     7
100
AcDbLine
 10
200.3560999999999
 20
73.6682
 30
0.0
 11
203.2118
 21
76.5342
 31
0.0
  0
LINE
  5
11AB
330
1F
100
AcDbEntity
  8
0
  6
Continuous
 62
     7
100
AcDbLine
 10
201.4021999999999
 20
69.7644
 30
0.0
 11
200.3560999999999
 21
73.6682
 31
0.0
  0
LINE
  5
11AC
330
1F
100
AcDbEntity
  8
0
  6
Continuous
 62
     7
100
AcDbLine
 10
205.3081999999998
 20
68.7102
 30
0.0
 11
201.4021999999999
 21
69.7644
 31
0.0
  0
LINE
  5
11AD
330
1F
100
AcDbEntity
  8
0
  6
Continuous
 62
     7
100
AcDbLine
 10
208.1637
 20
71.5762
 30
0.0
 11
205.3081999999998
 21
68.7102
 31
0.0
  0
LINE
  5
11AE
330
1F
100
AcDbEntity
  8
0
  6
Continuous
 62
     7
100
AcDbLine
 10
208.1716
 20
-12.5964
 30
0.0
 11
207.1172999999999
 21
-16.5022
 31
0.0
  0
LINE
  5
11AF
330
1F
100
AcDbEntity
  8
0
  6
Continuous
 62
     7
100
AcDbLine
 10
207.1172999999999
 20
-16.5022
 30
0.0
 11
203.2136
 21
-17.5483
 31
0.0
  0
LINE
  5
11B0
330
1F
100
AcDbEntity
  8
0
  6
Continuous
 62
     7
100
AcDbLine
 10
205.3056
 20
-9.7407
 30
0.0
 11
208.1716
 21
-12.5964
 31
0.0
  0
LINE
  5
11B1
330
1F
100
AcDbEntity
  8
0
  6
Continuous
 62
     7
100
AcDbLine
 10
201.4019
 20
-10.78689999999999
 30
0.0
 11
205.3056
 21
-9.7407
 31
0.0
  0
LINE
  5
11B2
330
1F
100
AcDbEntity
  8
0
  6
Continuous
 62
     7
100
AcDbLine
 10
200.3476
 20
-14.69289999999999
 30
0.0
 11
201.4019
 21
-10.78689999999999
 31
0.0
  0
LINE
  5
11B3
330
1F
100
AcDbEntity
  8
0
  6
Continuous
 62
     7
100
AcDbLine
 10
203.2136
 20
-17.5483
 30
0.0
 11
200.3476
 21
-14.69289999999999
 31
0.0
  0
LINE
  5
11B4
330
1F
100
AcDbEntity
  8
0
  6
Continuous
 62
     7
100
AcDbLine
 10
119.0409
 20
-17.5562
 30
0.0
 11
115.1351
 21
-16.50199999999999
 31
0.0
  0
LINE
  5
11B5
330
1F
100
AcDbEntity
  8
0
  6
Continuous
 62
     7
100
AcDbLine
 10
115.1351
 20
-16.50199999999999
 30
0.0
 11
114.0889999999999
 21
-12.5981
 31
0.0
  0
LINE
  5
11B6
330
1F
100
AcDbEntity
  8
0
  6
Continuous
 62
     7
100
AcDbLine
 10
121.8965999999999
 20
-14.6902
 30
0.0
 11
119.0409
 21
-17.5562
 31
0.0
  0
LINE
  5
11B7
330
1F
100
AcDbEntity
  8
0
  6
Continuous
 62
     7
100
AcDbLine
 10
120.8504
 20
-10.78659999999999
 30
0.0
 11
121.8965999999999
 21
-14.6902
 31
0.0
  0
LINE
  5
11B8
330
1F
100
AcDbEntity
  8
0
  6
Continuous
 62
     7
100
AcDbLine
 10
116.9444
 20
-9.7322
 30
0.0
 11
120.8504
 21
-10.78659999999999
 31
0.0
  0
LINE
  5
11B9
330
1F
100
AcDbEntity
  8
0
  6
Continuous
 62
     7
100
AcDbLine
 10
114.0889999999999
 20
-12.5981
 30
0.0
 11
116.9444
 21
-9.7322
 31
0.0
  0
LINE
  5
11BA
330
1F
100
AcDbEntity
  8
0
  6
Continuous
 62
     7
100
AcDbLine
 10
96.4179
 20
16.1465
 30
0.0
 11
96.87789999999999
 21
16.2412
 31
0.0
  0
LINE
  5
11BB
330
1F
100
AcDbEntity
  8
0
  6
Continuous
 62
     7
100
AcDbLine
 10
96.87789999999999
 20
42.7366
 30
0.0
 11
96.4179
 21
42.8315
 31
0.0
  0
LINE
  5
11BC
330
1F
100
AcDbEntity
  8
0
  6
Continuous
 62
     7
100
AcDbLine
 10
93.0924
 20
32.48900000000001
 30
0.0
 11
84.04340000000003
 21
32.48900000000001
 31
0.0
  0
LINE
  5
11BD
330
1F
100
AcDbEntity
  8
0
  6
Continuous
 62
     7
100
AcDbLine
 10
114.0811
 20
71.5745
 30
0.0
 11
115.1353
 21
75.4802
 31
0.0
  0
LINE
  5
11BE
330
1F
100
AcDbEntity
  8
0
  6
Continuous
 62
     7
100
AcDbLine
 10
115.1353
 20
75.4802
 30
0.0
 11
119.0390999999999
 21
76.52639999999998
 31
0.0
  0
LINE
  5
11BF
330
1F
100
AcDbEntity
  8
0
  6
Continuous
 62
     7
100
AcDbLine
 10
116.9471
 20
68.7188
 30
0.0
 11
114.0811
 21
71.5745
 31
0.0
  0
LINE
  5
11C0
330
1F
100
AcDbEntity
  8
0
  6
Continuous
 62
     7
100
AcDbLine
 10
120.8508
 20
69.7649
 30
0.0
 11
116.9471
 21
68.7188
 31
0.0
  0
LINE
  5
11C1
330
1F
100
AcDbEntity
  8
0
  6
Continuous
 62
     7
100
AcDbLine
 10
121.9051
 20
73.67090000000001
 30
0.0
 11
120.8508
 21
69.7649
 31
0.0
  0
LINE
  5
11C2
330
1F
100
AcDbEntity
  8
0
  6
Continuous
 62
     7
100
AcDbLine
 10
119.0390999999999
 20
76.52639999999998
 30
0.0
 11
121.9051
 21
73.67090000000001
 31
0.0
  0
LINE
  5
11C3
330
1F
100
AcDbEntity
  8
0
  6
DASH_CENTER
 62
    30
100
AcDbLine
 10
122.2447
 20
-9.392799999999999
 30
0.0
 11
112.9790999999999
 21
-18.6584
 31
0.0
  0
LINE
  5
11C4
330
1F
100
AcDbEntity
  8
0
  6
DASH_CENTER
 62
    30
100
AcDbLine
 10
122.2447
 20
68.3711
 30
0.0
 11
112.9790999999999
 21
77.63670000000002
 31
0.0
  0
LINE
  5
11C5
330
1F
100
AcDbEntity
  8
0
  6
DASH_CENTER
 62
    30
100
AcDbLine
 10
200.0084
 20
68.3711
 30
0.0
 11
209.274
 21
77.63670000000002
 31
0.0
  0
LINE
  5
11C6
330
1F
100
AcDbEntity
  8
0
  6
DASH_CENTER
 62
    30
100
AcDbLine
 10
200.0083
 20
-9.392799999999999
 30
0.0
 11
209.274
 21
-18.6584
 31
0.0
  0
LINE
  5
11C7
330
1F
100
AcDbEntity
  8
0
  6
Continuous
 62
     7
100
AcDbLine
 10
130.0612
 20
-23.2981
 30
0.0
 11
128.9025
 21
-26.0955
 31
0.0
  0
LINE
  5
11C8
330
1F
100
AcDbEntity
  8
0
  6
Continuous
 62
     7
100
AcDbLine
 10
145.7670999999999
 20
-29.80349999999999
 30
0.0
 11
144.6083999999999
 21
-32.6011
 31
0.0
  0
LINE
  5
11C9
330
1F
100
AcDbEntity
  8
0
  6
Continuous
 62
     7
100
AcDbLine
 10
101.8339
 20
14.12959999999999
 30
0.0
 11
99.0365
 21
12.9709
 31
0.0
  0
LINE
  5
11CA
330
1F
100
AcDbEntity
  8
0
  6
Continuous
 62
     7
100
AcDbLine
 10
108.3395
 20
-1.5762
 30
0.0
 11
105.542
 21
-2.7351
 31
0.0
  0
LINE
  5
11CB
330
1F
100
AcDbEntity
  8
0
  6
Continuous
 62
     7
100
AcDbLine
 10
108.3395
 20
60.55469999999999
 30
0.0
 11
105.5421
 21
61.7134
 31
0.0
  0
LINE
  5
11CC
330
1F
100
AcDbEntity
  8
0
  6
Continuous
 62
     7
100
AcDbLine
 10
101.834
 20
44.8489
 30
0.0
 11
99.03640000000001
 21
46.0076
 31
0.0
  0
LINE
  5
11CD
330
1F
100
AcDbEntity
  8
0
  6
Continuous
 62
     7
100
AcDbLine
 10
145.7672
 20
88.78200000000004
 30
0.0
 11
144.6083999999999
 21
91.5793
 31
0.0
  0
LINE
  5
11CE
330
1F
100
AcDbEntity
  8
0
  6
Continuous
 62
     7
100
AcDbLine
 10
130.0612
 20
82.27639999999999
 30
0.0
 11
128.9025
 21
85.074
 31
0.0
  0
LINE
  5
11CF
330
1F
100
AcDbEntity
  8
0
  6
Continuous
 62
     7
100
AcDbLine
 10
192.1917999999999
 20
82.27639999999999
 30
0.0
 11
193.3505999999999
 21
85.074
 31
0.0
  0
LINE
  5
11D0
330
1F
100
AcDbEntity
  8
0
  6
Continuous
 62
     7
100
AcDbLine
 10
176.4858999999999
 20
88.78200000000004
 30
0.0
 11
177.6447
 21
91.5793
 31
0.0
  0
LINE
  5
11D1
330
1F
100
AcDbEntity
  8
0
  6
Continuous
 62
     7
100
AcDbLine
 10
220.4190999999999
 20
44.8489
 30
0.0
 11
223.2165999999998
 21
46.0076
 31
0.0
  0
LINE
  5
11D2
330
1F
100
AcDbEntity
  8
0
  6
Continuous
 62
     7
100
AcDbLine
 10
213.9135
 20
60.55469999999999
 30
0.0
 11
216.711
 21
61.7134
 31
0.0
  0
LINE
  5
11D3
330
1F
100
AcDbEntity
  8
0
  6
Continuous
 62
     7
100
AcDbLine
 10
213.9135
 20
-1.5762
 30
0.0
 11
216.711
 21
-2.7351
 31
0.0
  0
LINE
  5
11D4
330
1F
100
AcDbEntity
  8
0
  6
Continuous
 62
     7
100
AcDbLine
 10
220.4190999999999
 20
14.12959999999999
 30
0.0
 11
223.2165999999998
 21
12.9709
 31
0.0
  0
LINE
  5
11D5
330
1F
100
AcDbEntity
  8
0
  6
Continuous
 62
     7
100
AcDbLine
 10
176.4858999999999
 20
-29.80349999999999
 30
0.0
 11
177.6447
 21
-32.6011
 31
0.0
  0
LINE
  5
11D6
330
1F
100
AcDbEntity
  8
0
  6
Continuous
 62
     7
100
AcDbLine
 10
192.1917999999999
 20
-23.2981
 30
0.0
 11
193.3505999999999
 21
-26.0955
 31
0.0
  0
LINE
  5
11D7
330
1F
100
AcDbEntity
  8
0
  6
Continuous
 62
     7
100
AcDbLine
 10
220.0985
 20
60.0054
 30
0.0
 11
219.388
 21
59.6377
 31
0.0
  0
LINE
  5
11D8
330
1F
100
AcDbEntity
  8
0
  6
Continuous
 62
     7
100
AcDbLine
 10
191.275
 20
87.7505
 30
0.0
 11
191.6426999999999
 21
88.46120000000002
 31
0.0
  0
LINE
  5
11D9
330
1F
100
AcDbEntity
  8
0
  6
Continuous
 62
     7
100
AcDbLine
 10
69.04339999999999
 20
-22.984
 30
0.0
 11
69.04339999999999
 21
-2.6425
 31
0.0
  0
LINE
  5
11DA
330
1F
100
AcDbEntity
  8
0
  6
DASH_CENTER
 62
    30
100
AcDbLine
 10
77.79900000000002
 20
-34.08379999999999
 30
0.0
 11
61.9249
 21
-34.08379999999999
 31
0.0
  0
LINE
  5
11DB
330
1F
100
AcDbEntity
  8
0
  6
Continuous
 62
     7
100
AcDbLine
 10
68.4932
 20
-27.784
 30
0.0
 11
67.3135
 21
-33.4064
 31
0.0
  0
LINE
  5
11DC
330
1F
100
AcDbEntity
  8
0
  6
Continuous
 62
     7
100
AcDbLine
 10
72.593
 20
-27.784
 30
0.0
 11
73.7727
 21
-33.4064
 31
0.0
  0
LINE
  5
11DD
330
1F
100
AcDbEntity
  8
0
  6
Continuous
 62
     7
100
AcDbLine
 10
68.4932
 20
-22.984
 30
0.0
 11
68.4932
 21
-27.784
 31
0.0
  0
LINE
  5
11DE
330
1F
100
AcDbEntity
  8
0
  6
Continuous
 62
     7
100
AcDbLine
 10
72.593
 20
-22.984
 30
0.0
 11
72.593
 21
-27.784
 31
0.0
  0
LINE
  5
11DF
330
1F
100
AcDbEntity
  8
0
  6
Continuous
 62
     7
100
AcDbLine
 10
68.4932
 20
-27.784
 30
0.0
 11
72.593
 21
-27.784
 31
0.0
  0
LINE
  5
11E0
330
1F
100
AcDbEntity
  8
0
  6
Continuous
 62
     7
100
AcDbLine
 10
72.593
 20
-22.984
 30
0.0
 11
68.4932
 21
-22.984
 31
0.0
  0
LINE
  5
11E1
330
1F
100
AcDbEntity
  8
0
  6
DASH_CENTER
 62
    30
100
AcDbLine
 10
70.5432
 20
-42.04189999999999
 30
0.0
 11
70.5432
 21
-27.5289
 31
0.0
  0
LINE
  5
11E2
330
1F
100
AcDbEntity
  8
0
  6
Continuous
 62
     7
100
AcDbLine
 10
72.04310000000003
 20
-22.984
 30
0.0
 11
72.04310000000003
 21
-2.570399999999998
 31
0.0
  0
LINE
  5
11E3
330
1F
100
AcDbEntity
  8
0
  6
Continuous
 62
    30
100
AcDbLine
 10
95.11889999999999
 20
29.4892
 30
0.0
 11
85.25601891507969
 21
29.4892
 31
0.0
  0
ARC
  5
11E4
330
1F
100
AcDbEntity
  8
0
  6
Continuous
 62
     7
100
AcDbCircle
 10
119.4852950771684
 20
20.98929397101762
 30
0.0
 40
3.000006030817167
100
AcDbArc
 50
89.99799612555319
 51
191.5368180026334
  0
ARC
  5
11E5
330
1F
100
AcDbEntity
  8
0
  6
Continuous
 62
     7
100
AcDbCircle
 10
119.4853950765214
 20
37.98930602997978
 30
0.0
 40
3.000006029983841
100
AcDbArc
 50
168.4631820135598
 51
270.0000940313239
  0
ARC
  5
11E6
330
1F
100
AcDbEntity
  8
0
  6
Continuous
 62
     7
100
AcDbCircle
 10
202.7679049227645
 20
37.98900602931058
 30
0.0
 40
3.000006030817186
100
AcDbArc
 50
270.0018158377884
 51
11.53681799623599
  0
ARC
  5
11E7
330
1F
100
AcDbEntity
  8
0
  6
Continuous
 62
     7
100
AcDbCircle
 10
202.7679049227645
 20
20.98899397068942
 30
0.0
 40
3.00000603081718
100
AcDbArc
 50
348.4631820037642
 51
89.99818416221101
  0
ARC
  5
11E8
330
1F
100
AcDbEntity
  8
0
  6
Continuous
 62
     7
100
AcDbCircle
 10
133.2385893962035
 20
26.98928840325104
 30
0.0
 40
2.999988403269785
100
AcDbArc
 50
270.0002025183774
 51
5.121662596737229
  0
ARC
  5
11E9
330
1F
100
AcDbEntity
  8
0
  6
Continuous
 62
     7
100
AcDbCircle
 10
131.1642749868594
 20
27.98927370372764
 30
0.0
 40
2.999973703831915
100
AcDbArc
 50
270.0004777199819
 51
2.864599713378403
  0
ARC
  5
11EA
330
1F
100
AcDbEntity
  8
0
  6
Continuous
 62
     7
100
AcDbCircle
 10
161.1266999999999
 20
29.4893
 30
0.0
 40
26.99997115628088
100
AcDbArc
 50
177.1340129531515
 51
182.8659870468483
  0
ARC
  5
11EB
330
1F
100
AcDbEntity
  8
0
  6
Continuous
 62
     7
100
AcDbCircle
 10
161.1266999999999
 20
29.4893
 30
0.0
 40
24.99994500833953
100
AcDbArc
 50
174.87757121766
 51
185.1224287823398
  0
ARC
  5
11EC
330
1F
100
AcDbEntity
  8
0
  6
Continuous
 62
     7
100
AcDbCircle
 10
131.1642797443134
 20
30.98932129612126
 30
0.0
 40
2.999978703947111
100
AcDbArc
 50
357.1316761502523
 51
89.99961314213509
  0
ARC
  5
11ED
330
1F
100
AcDbEntity
  8
0
  6
Continuous
 62
     7
100
AcDbCircle
 10
133.2385934783795
 20
31.98930713253114
 30
0.0
 40
2.999992867475956
100
AcDbArc
 50
354.8765131249115
 51
89.99987544593054
  0
ARC
  5
11EE
330
1F
100
AcDbEntity
  8
0
  6
Continuous
 62
     7
100
AcDbCircle
 10
152.6266939700199
 20
-12.15210492347851
 30
0.0
 40
3.000006029983828
100
AcDbArc
 50
258.4631820135601
 51
0.0000940313241524
  0
ARC
  5
11EF
330
1F
100
AcDbEntity
  8
0
  6
Continuous
 62
     7
100
AcDbCircle
 10
169.6267060299798
 20
-12.15210492347852
 30
0.0
 40
3.00000602998381
100
AcDbArc
 50
179.9999059686755
 51
281.5368179864403
  0
ARC
  5
11F0
330
1F
100
AcDbEntity
  8
0
  6
Continuous
 62
     7
100
AcDbCircle
 10
169.6267080399731
 20
-12.15210656463801
 30
0.0
 40
4.000008039978482
100
AcDbArc
 50
179.9999059686754
 51
281.5368179864396
  0
ARC
  5
11F1
330
1F
100
AcDbEntity
  8
0
  6
Continuous
 62
     7
100
AcDbCircle
 10
152.6266919600268
 20
-12.15210656463798
 30
0.0
 40
4.000008039978474
100
AcDbArc
 50
258.4631820135604
 51
0.000094031323618
  0
ARC
  5
11F2
330
1F
100
AcDbEntity
  8
0
  6
Continuous
 62
     7
100
AcDbCircle
 10
158.6267884032509
 20
57.37721060379644
 30
0.0
 40
2.999988403269761
100
AcDbArc
 50
180.0002025183768
 51
275.1216625967376
  0
ARC
  5
11F3
330
1F
100
AcDbEntity
  8
0
  6
Continuous
 62
     7
100
AcDbCircle
 10
159.6268261403993
 20
59.45167513508606
 30
0.0
 40
3.000026140502498
100
AcDbArc
 50
179.999525119262
 51
272.8654591236069
  0
ARC
  5
11F4
330
1F
100
AcDbEntity
  8
0
  6
Continuous
 62
     7
100
AcDbCircle
 10
161.1267499999998
 20
29.4893
 30
0.0
 40
26.99996865632439
100
AcDbArc
 50
87.13411892385755
 51
92.86588107614248
  0
ARC
  5
11F5
330
1F
100
AcDbEntity
  8
0
  6
Continuous
 62
     7
100
AcDbCircle
 10
161.1267499999998
 20
29.4893
 30
0.0
 40
24.99994947259895
100
AcDbArc
 50
84.87745708352736
 51
95.1225429164727
  0
ARC
  5
11F6
330
1F
100
AcDbEntity
  8
0
  6
Continuous
 62
     7
100
AcDbCircle
 10
162.6267713588541
 20
59.45167275722507
 30
0.0
 40
3.000028641269537
100
AcDbArc
 50
267.1326788535428
 51
0.00052029370775
  0
ARC
  5
11F7
330
1F
100
AcDbEntity
  8
0
  6
Continuous
 62
     7
100
AcDbCircle
 10
163.6268071325311
 20
57.37720652162032
 30
0.0
 40
2.999992867475949
100
AcDbArc
 50
264.8765131249116
 51
359.9998754459306
  0
ARC
  5
11F8
330
1F
100
AcDbEntity
  8
0
  6
Continuous
 62
     7
100
AcDbCircle
 10
169.6268080399731
 20
71.13040656463798
 30
0.0
 40
4.000008039978461
100
AcDbArc
 50
78.46318201356048
 51
180.0000940313237
  0
ARC
  5
11F9
330
1F
100
AcDbEntity
  8
0
  6
Continuous
 62
     7
100
AcDbCircle
 10
152.6267919600269
 20
71.13060656463803
 30
0.0
 40
4.000008039978426
100
AcDbArc
 50
359.9999059686758
 51
101.5368179864404
  0
ARC
  5
11FA
330
1F
100
AcDbEntity
  8
0
  6
Continuous
 62
     7
100
AcDbCircle
 10
152.6267939700201
 20
71.13060492347853
 30
0.0
 40
3.000006029983838
100
AcDbArc
 50
359.9999059686755
 51
101.5368179864395
  0
ARC
  5
11FB
330
1F
100
AcDbEntity
  8
0
  6
Continuous
 62
     7
100
AcDbCircle
 10
169.6268060299798
 20
71.13040492347852
 30
0.0
 40
3.000006029983837
100
AcDbArc
 50
78.4631820135603
 51
180.000094031324
  0
ARC
  5
11FC
330
1F
100
AcDbEntity
  8
0
  6
Continuous
 62
     7
100
AcDbCircle
 10
189.0148650675163
 20
31.98896179639551
 30
0.0
 40
3.000038204310113
100
AcDbArc
 50
90.00124268219812
 51
185.1206224329166
  0
ARC
  5
11FD
330
1F
100
AcDbEntity
  8
0
  6
Continuous
 62
     7
100
AcDbCircle
 10
191.0891751350859
 20
30.98897385960055
 30
0.0
 40
3.000026140502491
100
AcDbArc
 50
89.99952511926178
 51
182.8654591236068
  0
ARC
  5
11FE
330
1F
100
AcDbEntity
  8
0
  6
Continuous
 62
     7
100
AcDbCircle
 10
161.1266999999999
 20
29.48925
 30
0.0
 40
26.99996865632437
100
AcDbArc
 50
357.1341189238573
 51
2.86588107614249
  0
ARC
  5
11FF
330
1F
100
AcDbEntity
  8
0
  6
Continuous
 62
     7
100
AcDbCircle
 10
161.1266999999999
 20
29.48925
 30
0.0
 40
25.00004907320185
100
AcDbArc
 50
354.8774775463722
 51
5.122522453627596
  0
ARC
  5
1200
330
1F
100
AcDbEntity
  8
0
  6
Continuous
 62
     7
100
AcDbCircle
 10
191.0891751350859
 20
27.98902614039951
 30
0.0
 40
3.000026140502511
100
AcDbArc
 50
177.1345408763943
 51
270.0004748807383
  0
ARC
  5
1201
330
1F
100
AcDbEntity
  8
0
  6
Continuous
 62
     7
100
AcDbCircle
 10
189.0148609859794
 20
26.98904266721914
 30
0.0
 40
3.000042667472762
100
AcDbArc
 50
174.8775533070836
 51
270.0007451023089
  0
ARC
  5
1202
330
1F
100
AcDbEntity
  8
0
  6
Continuous
 62
     7
100
AcDbCircle
 10
133.4183482781297
 20
40.98933223304332
 30
0.0
 40
3.000032233431793
100
AcDbArc
 50
269.9990779655469
 51
337.4592785218993
  0
ARC
  5
1203
330
1F
100
AcDbEntity
  8
0
  6
Continuous
 62
     7
100
AcDbCircle
 10
128.0698806431922
 20
40.9893272279613
 30
0.0
 40
3.000027228023752
100
AcDbArc
 50
160.8189304118663
 51
270.0003696844398
  0
ARC
  5
1204
330
1F
100
AcDbEntity
  8
0
  6
Continuous
 62
     7
100
AcDbCircle
 10
161.1265733267178
 20
29.48927332683179
 30
0.0
 40
37.99993966894653
100
AcDbArc
 50
109.1817369172882
 51
160.8180182776002
  0
ARC
  5
1205
330
1F
100
AcDbEntity
  8
0
  6
Continuous
 62
     7
100
AcDbCircle
 10
161.1267499999998
 20
29.48934999999999
 30
0.0
 40
33.49997916156073
100
AcDbArc
 50
112.151040491412
 51
157.8489595085879
  0
ARC
  5
1206
330
1F
100
AcDbEntity
  8
0
  6
Continuous
 62
     7
100
AcDbCircle
 10
161.1266
 20
29.48929999999982
 30
0.0
 40
26.99998770851594
100
AcDbArc
 50
112.5400915313979
 51
157.459908468602
  0
ARC
  5
1207
330
1F
100
AcDbEntity
  8
0
  6
Continuous
 62
     7
100
AcDbCircle
 10
149.6267677661806
 20
57.19775172245043
 30
0.0
 40
3.000032234265157
100
AcDbArc
 50
292.540721487541
 51
359.9990121845751
  0
ARC
  5
1208
330
1F
100
AcDbEntity
  8
0
  6
Continuous
 62
     7
100
AcDbCircle
 10
149.6267727720386
 20
62.54611935680773
 30
0.0
 40
3.000027228023728
100
AcDbArc
 50
359.9996303155593
 51
109.1810695881345
  0
ARC
  5
1209
330
1F
100
AcDbEntity
  8
0
  6
Continuous
 62
     7
100
AcDbCircle
 10
172.626786053123
 20
57.19752088865226
 30
0.0
 40
2.999986053195803
100
AcDbArc
 50
180.0003989457259
 51
247.4598673821585
  0
ARC
  5
120A
330
1F
100
AcDbEntity
  8
0
  6
Continuous
 62
     7
100
AcDbCircle
 10
172.6268272279613
 20
62.5461193568077
 30
0.0
 40
3.000027228023752
100
AcDbArc
 50
70.81893041186545
 51
180.00036968444
  0
ARC
  5
120B
330
1F
100
AcDbEntity
  8
0
  6
Continuous
 62
     7
100
AcDbCircle
 10
161.1268233266181
 20
29.48927667328218
 30
0.0
 40
38.0000033214987
100
AcDbArc
 50
19.18178335054815
 51
70.81797184434035
  0
ARC
  5
120C
330
1F
100
AcDbEntity
  8
0
  6
Continuous
 62
     7
100
AcDbCircle
 10
161.1267499999998
 20
29.48924999999988
 30
0.0
 40
33.49997916156082
100
AcDbArc
 50
22.1510404914122
 51
67.84895950858786
  0
ARC
  5
120D
330
1F
100
AcDbEntity
  8
0
  6
Continuous
 62
     7
100
AcDbCircle
 10
161.1267290505014
 20
29.48937095047126
 30
0.0
 40
26.99998770851451
100
AcDbArc
 50
22.53969876040833
 51
67.45951569872797
  0
ARC
  5
120E
330
1F
100
AcDbEntity
  8
0
  6
Continuous
 62
     7
100
AcDbCircle
 10
188.835220888652
 20
40.98898605312299
 30
0.0
 40
2.999986053195677
100
AcDbArc
 50
202.5401326178406
 51
269.9996010542753
  0
ARC
  5
120F
330
1F
100
AcDbEntity
  8
0
  6
Continuous
 62
     7
100
AcDbCircle
 10
194.1836857842333
 20
40.98898000360651
 30
0.0
 40
2.999980004833013
100
AcDbArc
 50
269.9983616309069
 51
19.18233827278852
  0
ARC
  5
1210
330
1F
100
AcDbEntity
  8
0
  6
Continuous
 62
     7
100
AcDbCircle
 10
188.8351208886523
 20
17.98901394687691
 30
0.0
 40
2.99998605319581
100
AcDbArc
 50
90.00039894572523
 51
157.4598673821583
  0
ARC
  5
1211
330
1F
100
AcDbEntity
  8
0
  6
Continuous
 62
     7
100
AcDbCircle
 10
194.1835857849907
 20
17.98901999603398
 30
0.0
 40
2.999980003999691
100
AcDbArc
 50
340.8176617289436
 51
89.9997285115106
  0
ARC
  5
1212
330
1F
100
AcDbEntity
  8
0
  6
Continuous
 62
     7
100
AcDbCircle
 10
161.1268
 20
29.48899999999996
 30
0.0
 40
37.99995609734299
100
AcDbArc
 50
289.1819305235888
 51
340.8180694764108
  0
ARC
  5
1213
330
1F
100
AcDbEntity
  8
0
  6
Continuous
 62
     7
100
AcDbCircle
 10
161.1267999999999
 20
29.48900000000003
 30
0.0
 40
26.99998770851577
100
AcDbArc
 50
292.5400915313978
 51
337.4599084686021
  0
ARC
  5
1214
330
1F
100
AcDbEntity
  8
0
  6
Continuous
 62
     7
100
AcDbCircle
 10
172.626686053123
 20
1.780779111347755
 30
0.0
 40
2.999986053195772
100
AcDbArc
 50
112.5401326178411
 51
179.9996010542741
  0
ARC
  5
1215
330
1F
100
AcDbEntity
  8
0
  6
Continuous
 62
     7
100
AcDbCircle
 10
172.6266800036064
 20
-3.567885784233388
 30
0.0
 40
2.999980004833064
100
AcDbArc
 50
179.998361630906
 51
289.182338272788
  0
ARC
  5
1216
330
1F
100
AcDbEntity
  8
0
  6
Continuous
 62
     7
100
AcDbCircle
 10
117.5057662507174
 20
-1.486083739750218
 30
0.0
 40
4.99997478729609
100
AcDbArc
 50
215.379266902332
 51
273.1716247510149
  0
ARC
  5
1217
330
1F
100
AcDbEntity
  8
0
  6
Continuous
 62
     7
100
AcDbCircle
 10
189.3756002897806
 20
17.98899956916675
 30
0.0
 40
3.000000430833256
100
AcDbArc
 50
337.8499711087564
 51
90.00000553440402
  0
ARC
  5
1218
330
1F
100
AcDbEntity
  8
0
  6
Continuous
 62
     7
100
AcDbCircle
 10
172.6266541206475
 20
1.240230857587701
 30
0.0
 40
2.99995412080633
100
AcDbArc
 50
180.0005893455266
 51
292.1513438916418
  0
ARC
  5
1219
330
1F
100
AcDbEntity
  8
0
  6
Continuous
 62
     7
100
AcDbCircle
 10
149.626727026187
 20
1.240218176863949
 30
0.0
 40
2.999972973868126
100
AcDbArc
 50
247.847129375985
 51
359.9996528443428
  0
ARC
  5
121A
330
1F
100
AcDbEntity
  8
0
  6
Continuous
 62
     7
100
AcDbCircle
 10
132.8777870303617
 20
17.98928071684668
 30
0.0
 40
3.000019283181356
100
AcDbArc
 50
89.99975229974603
 51
202.1515556170284
  0
ARC
  5
121B
330
1F
100
AcDbEntity
  8
0
  6
Continuous
 62
     7
100
AcDbCircle
 10
132.8778308575877
 20
40.98925412064763
 30
0.0
 40
2.999954120806353
100
AcDbArc
 50
157.8486561083583
 51
269.999410654473
  0
ARC
  5
121C
330
1F
100
AcDbEntity
  8
0
  6
Continuous
 62
     7
100
AcDbCircle
 10
149.6267807168466
 20
57.73801296963831
 30
0.0
 40
3.000019283181368
100
AcDbArc
 50
359.9997522997463
 51
112.1515556170281
  0
ARC
  5
121D
330
1F
100
AcDbEntity
  8
0
  6
Continuous
 62
     7
100
AcDbCircle
 10
161.126674352327
 20
29.48932564781411
 30
0.0
 40
46.49999097052267
100
AcDbArc
 50
11.53680329226743
 51
78.46288068462469
  0
ARC
  5
121E
330
1F
100
AcDbEntity
  8
0
  6
Continuous
 62
     7
100
AcDbCircle
 10
172.6268004308332
 20
57.73800028978076
 30
0.0
 40
3.000000430833247
100
AcDbArc
 50
67.84997110875598
 51
180.0000055344039
  0
ARC
  5
121F
330
1F
100
AcDbEntity
  8
0
  6
Continuous
 62
     7
100
AcDbCircle
 10
163.6267071325309
 20
1.601093478379659
 30
0.0
 40
2.999992867475935
100
AcDbArc
 50
0.0001245540697498
 51
95.12348687508888
  0
ARC
  5
1220
330
1F
100
AcDbEntity
  8
0
  6
Continuous
 62
     7
100
AcDbCircle
 10
159.6267261403994
 20
-0.4733751350860234
 30
0.0
 40
3.000026140502487
100
AcDbArc
 50
87.13454087639425
 51
180.000474880738
  0
ARC
  5
1221
330
1F
100
AcDbEntity
  8
0
  6
Continuous
 62
     7
100
AcDbCircle
 10
158.6266928674689
 20
1.601093478379651
 30
0.0
 40
2.999992867475981
100
AcDbArc
 50
84.87651312491165
 51
179.99987544593
  0
ARC
  5
1222
330
1F
100
AcDbEntity
  8
0
  6
Continuous
 62
     7
100
AcDbCircle
 10
128.0697806431921
 20
17.98927277203869
 30
0.0
 40
3.000027228023758
100
AcDbArc
 50
89.99963031556022
 51
199.1810695881338
  0
ARC
  5
1223
330
1F
100
AcDbEntity
  8
0
  6
Continuous
 62
     7
100
AcDbCircle
 10
161.1266656693191
 20
29.48933433049392
 30
0.0
 40
33.50002547122365
100
AcDbArc
 50
202.1511639734958
 51
247.8491474783929
  0
ARC
  5
1224
330
1F
100
AcDbEntity
  8
0
  6
Continuous
 62
     7
100
AcDbCircle
 10
161.1265999999999
 20
29.48899999999991
 30
0.0
 40
26.99998770851562
100
AcDbArc
 50
202.5400915313976
 51
247.4599084686023
  0
ARC
  5
1225
330
1F
100
AcDbEntity
  8
0
  6
Continuous
 62
     7
100
AcDbCircle
 10
161.12669999995
 20
29.48928876213829
 30
0.0
 40
58.49999563756287
100
AcDbArc
 50
144.6211862946053
 51
215.3783062154889
  0
ARC
  5
1226
330
1F
100
AcDbEntity
  8
0
  6
Continuous
 62
     7
100
AcDbCircle
 10
161.1266999998099
 20
29.48926834977164
 30
0.0
 40
57.50000627577357
100
AcDbArc
 50
144.6210714448766
 51
215.378240134573
  0
ARC
  5
1227
330
1F
100
AcDbEntity
  8
0
  6
Continuous
 62
     7
100
AcDbCircle
 10
161.126618349813
 20
29.48930000048202
 30
0.0
 40
58.49995487043853
100
AcDbArc
 50
54.62107335979199
 51
125.3782499870006
  0
ARC
  5
1228
330
1F
100
AcDbEntity
  8
0
  6
Continuous
 62
     7
100
AcDbCircle
 10
161.1266887622366
 20
29.48930000005071
 30
0.0
 40
57.4999365593986
100
AcDbArc
 50
54.62116927356613
 51
125.3783144102456
  0
ARC
  5
1229
330
1F
100
AcDbEntity
  8
0
  6
Continuous
 62
     7
100
AcDbCircle
 10
161.1266999998916
 20
29.48928165018704
 30
0.0
 40
58.49995487091989
100
AcDbArc
 50
324.6210733601266
 51
35.37824998666572
  0
ARC
  5
122A
330
1F
100
AcDbEntity
  8
0
  6
Continuous
 62
     7
100
AcDbCircle
 10
161.1266999998254
 20
29.48926123744596
 30
0.0
 40
57.49996550841137
100
AcDbArc
 50
324.6211286516318
 51
35.37835503295531
  0
ARC
  5
122B
330
1F
100
AcDbEntity
  8
0
  6
Continuous
 62
     7
100
AcDbCircle
 10
117.5059914282887
 20
60.46464405107192
 30
0.0
 40
3.999982853050881
100
AcDbArc
 50
86.82835509260048
 51
144.6221176295049
  0
ARC
  5
122C
330
1F
100
AcDbEntity
  8
0
  6
Continuous
 62
     7
100
AcDbCircle
 10
117.5058714088335
 20
60.46458622522346
 30
0.0
 40
4.999977553848878
100
AcDbArc
 50
86.82728852505935
 51
144.6207905424125
  0
ARC
  5
122D
330
1F
100
AcDbEntity
  8
0
  6
Continuous
 62
     7
100
AcDbCircle
 10
118.1699473746795
 20
72.44604737411783
 30
0.0
 40
8.000008334402677
100
AcDbArc
 50
266.8274378671284
 51
3.171882503913121
  0
ARC
  5
122E
330
1F
100
AcDbEntity
  8
0
  6
Continuous
 62
     7
100
AcDbCircle
 10
118.1699473751101
 20
72.44604737446791
 30
0.0
 40
6.999972632125873
100
AcDbArc
 50
266.8278859496737
 51
3.171337321645371
  0
ARC
  5
122F
330
1F
100
AcDbEntity
  8
0
  6
Continuous
 62
     7
100
AcDbCircle
 10
130.1515398935746
 20
73.11018280431024
 30
0.0
 40
3.999970930088341
100
AcDbArc
 50
125.3794783927987
 51
183.1727193141369
  0
ARC
  5
1230
330
1F
100
AcDbEntity
  8
0
  6
Continuous
 62
     7
100
AcDbCircle
 10
130.1514877729057
 20
73.11007462243998
 30
0.0
 40
4.999948605156523
100
AcDbArc
 50
125.3776741302529
 51
183.1721104714846
  0
ARC
  5
1231
330
1F
100
AcDbEntity
  8
0
  6
Continuous
 62
     7
100
AcDbCircle
 10
192.1020992084605
 20
73.10990164294263
 30
0.0
 40
3.999932930687318
100
AcDbArc
 50
356.8269802518035
 51
54.62082204126065
  0
ARC
  5
1232
330
1F
100
AcDbEntity
  8
0
  6
Continuous
 62
     7
100
AcDbCircle
 10
192.1020862252233
 20
73.10992859116629
 30
0.0
 40
4.999977553849028
100
AcDbArc
 50
356.8272885250606
 51
54.62079054241164
  0
ARC
  5
1233
330
1F
100
AcDbEntity
  8
0
  6
Continuous
 62
     7
100
AcDbCircle
 10
204.0836
 20
72.446
 30
0.0
 40
7.999958411141915
100
AcDbArc
 50
176.827757867363
 51
273.1722421326366
  0
ARC
  5
1234
330
1F
100
AcDbEntity
  8
0
  6
Continuous
 62
     7
100
AcDbCircle
 10
204.08355
 20
72.44604999999999
 30
0.0
 40
6.999975398885365
100
AcDbArc
 50
176.827865686682
 51
273.1721343133179
  0
ARC
  5
1235
330
1F
100
AcDbEntity
  8
0
  6
Continuous
 62
     7
100
AcDbCircle
 10
204.7477016429426
 20
60.4643992084609
 30
0.0
 40
3.999932930687247
100
AcDbArc
 50
35.37917795873804
 51
93.17301974819647
  0
ARC
  5
1236
330
1F
100
AcDbEntity
  8
0
  6
Continuous
 62
     7
100
AcDbCircle
 10
204.74767462244
 20
60.46441222709429
 30
0.0
 40
4.999948605156466
100
AcDbArc
 50
35.37767413025266
 51
93.17211047148488
  0
ARC
  5
1237
330
1F
100
AcDbEntity
  8
0
  6
Continuous
 62
     7
100
AcDbCircle
 10
204.7474137284254
 20
-1.48614156770857
 30
0.0
 40
3.999980086304096
100
AcDbArc
 50
266.8297135165353
 51
324.6220458607641
  0
ARC
  5
1238
330
1F
100
AcDbEntity
  8
0
  6
Continuous
 62
     7
100
AcDbCircle
 10
204.7475285911663
 20
-1.486086225223439
 30
0.0
 40
4.999977553848886
100
AcDbArc
 50
266.82728852506
 51
324.6207905424128
  0
ARC
  5
1239
330
1F
100
AcDbEntity
  8
0
  6
Continuous
 62
     7
100
AcDbCircle
 10
204.08355
 20
-13.46775
 30
0.0
 40
8.000005567810564
100
AcDbArc
 50
86.82813523338991
 51
183.1718647666099
  0
ARC
  5
123A
330
1F
100
AcDbEntity
  8
0
  6
Continuous
 62
     7
100
AcDbCircle
 10
204.083502625532
 20
-13.46779737450349
 30
0.0
 40
7.000025322453199
100
AcDbArc
 50
86.82749997420643
 51
183.1717233076421
  0
ARC
  5
123B
330
1F
100
AcDbEntity
  8
0
  6
Continuous
 62
     7
100
AcDbCircle
 10
192.1018601064255
 20
-14.13188280431023
 30
0.0
 40
3.999970930088353
100
AcDbArc
 50
305.3794783927987
 51
3.17271931413683
  0
ARC
  5
123C
330
1F
100
AcDbEntity
  8
0
  6
Continuous
 62
     7
100
AcDbCircle
 10
192.1018731237465
 20
-14.13185578216067
 30
0.0
 40
4.999986606098672
100
AcDbArc
 50
305.3779144891624
 51
3.171870112575048
  0
ARC
  5
123D
330
1F
100
AcDbEntity
  8
0
  6
Continuous
 62
     7
100
AcDbCircle
 10
119.4853934353619
 20
20.98929196002692
 30
0.0
 40
4.000008039978461
100
AcDbArc
 50
89.99990596867657
 51
191.5368179864395
  0
ARC
  5
123E
330
1F
100
AcDbEntity
  8
0
  6
Continuous
 62
     7
100
AcDbCircle
 10
149.6266727720386
 20
-3.567619356807716
 30
0.0
 40
3.000027228023733
100
AcDbArc
 50
250.8189304118665
 51
0.0003696844403553
  0
ARC
  5
123F
330
1F
100
AcDbEntity
  8
0
  6
Continuous
 62
     7
100
AcDbCircle
 10
162.6266738596004
 20
-0.4733751350860649
 30
0.0
 40
3.000026140502582
100
AcDbArc
 50
359.9995251192623
 51
92.86545912360514
  0
ARC
  5
1240
330
1F
100
AcDbEntity
  8
0
  6
Continuous
 62
     7
100
AcDbCircle
 10
161.1266908251141
 20
29.48930000002755
 30
0.0
 40
57.50000627517284
100
AcDbArc
 50
234.6212435501397
 51
305.3784122395851
  0
ARC
  5
1241
330
1F
100
AcDbEntity
  8
0
  6
Continuous
 62
     7
100
AcDbCircle
 10
161.1266908251808
 20
29.48930000002707
 30
0.0
 40
58.50006535333884
100
AcDbArc
 50
234.6212593014245
 51
305.378402372471
  0
ARC
  5
1242
330
1F
100
AcDbEntity
  8
0
  6
Continuous
 62
     7
100
AcDbCircle
 10
130.1513689326264
 20
-14.13153551909222
 30
0.0
 40
5.000027476912204
100
AcDbArc
 50
176.8283883937948
 51
234.6218270044675
  0
ARC
  5
1243
330
1F
100
AcDbEntity
  8
0
  6
Continuous
 62
     7
100
AcDbCircle
 10
118.1697552511713
 20
-13.46775525010974
 30
0.0
 40
8.000005567872749
100
AcDbArc
 50
356.8274555963948
 51
93.17118513762713
  0
ARC
  5
1244
330
1F
100
AcDbEntity
  8
0
  6
Continuous
 62
     7
100
AcDbCircle
 10
117.5058102687435
 20
-1.48610494758431
 30
0.0
 40
4.000020854304397
100
AcDbArc
 50
215.3781828149596
 51
273.1713444629348
  0
ARC
  5
1245
330
1F
100
AcDbEntity
  8
0
  6
Continuous
 62
     7
100
AcDbCircle
 10
118.1697999999999
 20
-13.4678
 30
0.0
 40
7.000022555677946
100
AcDbArc
 50
356.8282969603254
 51
93.17170303967456
  0
ARC
  5
1246
330
1F
100
AcDbEntity
  8
0
  6
Continuous
 62
     7
100
AcDbCircle
 10
130.151421054942
 20
-14.13164370227484
 30
0.0
 40
4.000049803145794
100
AcDbArc
 50
176.8279042576664
 51
234.6198980353981
  0
ARC
  5
1247
330
1F
100
AcDbEntity
  8
0
  6
Continuous
 62
     7
100
AcDbCircle
 10
161.12665
 20
29.4893
 30
0.0
 40
25.00004907320183
100
AcDbArc
 50
264.8774775463724
 51
275.1225224536276
  0
ARC
  5
1248
330
1F
100
AcDbEntity
  8
0
  6
Continuous
 62
     7
100
AcDbCircle
 10
119.4853934353619
 20
37.98930803997306
 30
0.0
 40
4.000008039978466
100
AcDbArc
 50
168.46318201356
 51
270.0000940313239
  0
ARC
  5
1249
330
1F
100
AcDbEntity
  8
0
  6
Continuous
 62
     7
100
AcDbCircle
 10
161.1267343306804
 20
29.48933433049401
 30
0.0
 40
33.50002547122377
100
AcDbArc
 50
292.150852521607
 51
337.8488360265041
  0
ARC
  5
124A
330
1F
100
AcDbEntity
  8
0
  6
Continuous
 62
     7
100
AcDbCircle
 10
161.1265233265041
 20
29.4890766731682
 30
0.0
 40
38.00000332122667
100
AcDbArc
 50
199.1820281554612
 51
250.8182166496502
  0
ARC
  5
124B
330
1F
100
AcDbEntity
  8
0
  6
Continuous
 62
     7
100
AcDbCircle
 10
161.1267628237666
 20
29.48923717605628
 30
0.0
 40
45.50003594017378
100
AcDbArc
 50
191.5368690524904
 51
258.4629694633821
  0
ARC
  5
124C
330
1F
100
AcDbEntity
  8
0
  6
Continuous
 62
     7
100
AcDbCircle
 10
133.4182195712257
 20
17.98928693203222
 30
0.0
 40
3.000013069045953
100
AcDbArc
 50
22.53840929332614
 51
89.99846393025547
  0
ARC
  5
124D
330
1F
100
AcDbEntity
  8
0
  6
Continuous
 62
     7
100
AcDbCircle
 10
161.1266999999999
 20
29.4893
 30
0.0
 40
27.00007103120286
100
AcDbArc
 50
267.1340235634644
 51
272.8659764365354
  0
ARC
  5
124E
330
1F
100
AcDbEntity
  8
0
  6
Continuous
 62
     7
100
AcDbCircle
 10
161.12665
 20
29.48924999999995
 30
0.0
 40
46.5000499602419
100
AcDbArc
 50
281.5370093457851
 51
348.4629906542147
  0
ARC
  5
124F
330
1F
100
AcDbEntity
  8
0
  6
Continuous
 62
     7
100
AcDbCircle
 10
202.7680665651179
 20
37.98895904992626
 30
0.0
 40
3.999959050065998
100
AcDbArc
 50
270.0004789243101
 51
11.53767743511486
  0
ARC
  5
1250
330
1F
100
AcDbEntity
  8
0
  6
Continuous
 62
     7
100
AcDbCircle
 10
202.7679065640942
 20
20.98899196048781
 30
0.0
 40
4.000008040603431
100
AcDbArc
 50
348.4631820086495
 51
89.99866163192594
  0
ARC
  5
1251
330
1F
100
AcDbEntity
  8
0
  6
Continuous
 62
     7
100
AcDbCircle
 10
149.626713946877
 20
1.780779111347768
 30
0.0
 40
2.999986053195775
100
AcDbArc
 50
0.0003989457255531
 51
67.45986738215875
  0
ARC
  5
1252
330
1F
100
AcDbEntity
  8
0
  6
Continuous
 62
     7
100
AcDbCircle
 10
189.3756129696383
 20
40.9890192831533
 30
0.0
 40
3.000019283181356
100
AcDbArc
 50
269.9997522997465
 51
22.15155561702821
  0
ARC
  5
1253
330
1F
100
AcDbEntity
  8
0
  6
Continuous
 62
     7
100
AcDbCircle
 10
161.1266743523257
 20
29.48932564781878
 30
0.0
 40
45.49998695053314
100
AcDbArc
 50
11.53680090268796
 51
78.46287612860226
  0
ARC
  5
1254
330
1F
100
AcDbEntity
  8
0
  6
Continuous
 62
     7
100
AcDbCircle
 10
161.1266999999999
 20
29.48929999999998
 30
0.0
 40
46.4999909704292
100
AcDbArc
 50
191.5369613038892
 51
258.4630386961106
  0
ARC
  5
1255
330
1F
100
AcDbEntity
  8
0
  6
Continuous
 62
     7
100
AcDbCircle
 10
161.1266500000001
 20
29.48924999999994
 30
0.0
 40
45.50004594025145
100
AcDbArc
 50
281.5370114848771
 51
348.4629885151228
  0
ARC
  5
1256
330
1F
100
AcDbEntity
  8
0
  6
Continuous
 62
     7
100
AcDbCircle
 10
161.1266871761969
 20
29.48928717623342
 30
0.0
 40
45.49997695048497
100
AcDbArc
 50
101.5368199547055
 51
168.463018561167
  0
ARC
  5
1257
330
1F
100
AcDbEntity
  8
0
  6
Continuous
 62
     7
100
AcDbCircle
 10
161.126687176197
 20
29.4892871762326
 30
0.0
 40
46.49998097047645
100
AcDbArc
 50
101.5368219345567
 51
168.463020054107
  0
ARC
  5
1258
330
1F
100
AcDbEntity
  8
0
  6
Continuous
 62
     7
100
AcDbCircle
 10
107.8542485209972
 20
-24.15229309524603
 30
0.0
 40
9.99999501212866
100
AcDbArc
 50
45.19747341516236
 51
151.0006596057684
  0
ARC
  5
1259
330
1F
100
AcDbEntity
  8
0
  6
Continuous
 62
     7
100
AcDbCircle
 10
129.601800005
 20
-37.81079999499901
 30
0.0
 40
0.5000000050000084
100
AcDbArc
 50
90.01145972882307
 51
180.0000005730714
  0
ARC
  5
125A
330
1F
100
AcDbEntity
  8
0
  6
Continuous
 62
     7
100
AcDbCircle
 10
150.0402537591748
 20
-36.18157970167583
 30
0.0
 40
0.9999468098102827
100
AcDbArc
 50
52.18754159574913
 51
80.41241469023162
  0
ARC
  5
125B
330
1F
100
AcDbEntity
  8
0
  6
Continuous
 62
     7
100
AcDbCircle
 10
87.94890396614906
 20
-35.3107976641572
 30
0.0
 40
2.000002346243328
100
AcDbArc
 50
269.9941568070924
 51
330.9973154644162
  0
ARC
  5
125C
330
1F
100
AcDbEntity
  8
0
  6
Continuous
 62
     7
100
AcDbCircle
 10
153.4692956286365
 20
-36.31083276021807
 30
0.0
 40
0.9999672443545023
100
AcDbArc
 50
232.1848682264853
 51
269.9945207032384
  0
ARC
  5
125D
330
1F
100
AcDbEntity
  8
0
  6
Continuous
 62
     7
100
AcDbCircle
 10
193.651600005
 20
-37.81080000499901
 30
0.0
 40
0.500000005000004
100
AcDbArc
 50
179.9999994271558
 51
270.0114585829064
  0
ARC
  5
125E
330
1F
100
AcDbEntity
  8
0
  6
Continuous
 62
     7
100
AcDbCircle
 10
168.7841043713634
 20
-36.31083276021807
 30
0.0
 40
0.9999672443544987
100
AcDbArc
 50
270.0054792967615
 51
307.8151317735146
  0
ARC
  5
125F
330
1F
100
AcDbEntity
  8
0
  6
Continuous
 62
     7
100
AcDbCircle
 10
128.6017999949999
 20
-37.81080000499901
 30
0.0
 40
0.5000000049999909
100
AcDbArc
 50
269.9885414170935
 51
0.00000057284425
  0
ARC
  5
1260
330
1F
100
AcDbEntity
  8
0
  6
Continuous
 62
     7
100
AcDbCircle
 10
234.3045960273745
 20
-35.31079766020926
 30
0.0
 40
2.000002342493314
100
AcDbArc
 50
209.0026847244565
 51
270.0029785928226
  0
ARC
  5
1261
330
1F
100
AcDbEntity
  8
0
  6
Continuous
 62
     7
100
AcDbCircle
 10
172.213146240825
 20
-36.18157970167583
 30
0.0
 40
0.9999468098102843
100
AcDbArc
 50
99.58758530976837
 51
127.8124584042509
  0
ARC
  5
1262
330
1F
100
AcDbEntity
  8
0
  6
Continuous
 62
     7
100
AcDbCircle
 10
192.651599995
 20
-37.81079999499901
 30
0.0
 40
0.500000005000004
100
AcDbArc
 50
359.9999994269286
 51
89.98854027117692
  0
ARC
  5
1263
330
1F
100
AcDbEntity
  8
0
  6
Continuous
 62
     7
100
AcDbCircle
 10
214.3991514790028
 20
-24.15229309524602
 30
0.0
 40
9.999995012128671
100
AcDbArc
 50
28.99934039423146
 51
134.8025265848374
  0
ARC
  5
1264
330
1F
100
AcDbEntity
  8
0
  6
Continuous
 62
     7
100
AcDbCircle
 10
189.970665487214
 20
-34.94968390971564
 30
0.0
 40
5.000010166344683
100
AcDbArc
 50
15.89505571271118
 51
114.1139228566972
  0
ARC
  5
1265
330
1F
100
AcDbEntity
  8
0
  6
Continuous
 62
     7
100
AcDbCircle
 10
197.6367104159804
 20
-36.31080786383517
 30
0.0
 40
1.999992136191945
100
AcDbArc
 50
195.8963019922932
 51
269.9997016029645
  0
ARC
  5
1266
330
1F
100
AcDbEntity
  8
0
  6
Continuous
 62
     7
100
AcDbCircle
 10
132.282734512786
 20
-34.94968390971564
 30
0.0
 40
5.000010166344665
100
AcDbArc
 50
65.8860771433026
 51
164.1049442872888
  0
ARC
  5
1267
330
1F
100
AcDbEntity
  8
0
  6
Continuous
 62
     7
100
AcDbCircle
 10
124.6167532795233
 20
-36.31075977722829
 30
0.0
 40
2.000040223481371
100
AcDbArc
 50
269.9984736847881
 51
344.1026579948148
  0
ARC
  5
1268
330
1F
100
AcDbEntity
  8
0
  6
Continuous
 62
     7
100
AcDbCircle
 10
84.04340000000003
 20
17.489
 30
0.0
 40
15.0
100
AcDbArc
 50
90.0
 51
180.0
  0
ARC
  5
1269
330
1F
100
AcDbEntity
  8
0
  6
Continuous
 62
     7
100
AcDbCircle
 10
84.04340000000003
 20
17.489
 30
0.0
 40
12.0
100
AcDbArc
 50
90.0
 51
180.0
  0
ARC
  5
126A
330
1F
100
AcDbEntity
  8
0
  6
Continuous
 62
     7
100
AcDbCircle
 10
84.04340000000003
 20
17.489
 30
0.0
 40
9.0
100
AcDbArc
 50
90.0
 51
180.0
  0
ARC
  5
126B
330
1F
100
AcDbEntity
  8
0
  6
Continuous
 62
     7
100
AcDbCircle
 10
87.04340000000001
 20
17.489
 30
0.0
 40
9.0
100
AcDbArc
 50
90.0
 51
180.0
  0
ARC
  5
126C
330
1F
100
AcDbEntity
  8
0
  6
Continuous
 62
    30
100
AcDbCircle
 10
75.79339999999998
 20
10.1404
 30
0.0
 40
4.49998760109403
100
AcDbArc
 50
239.9999088547051
 51
300.0000911452946
  0
ARC
  5
126D
330
1F
100
AcDbEntity
  8
0
  6
Continuous
 62
    30
100
AcDbCircle
 10
71.29339999999998
 20
2.3462
 30
0.0
 40
4.49998760109403
100
AcDbArc
 50
59.99990885470523
 51
120.0000911452947
  0
ARC
  5
126E
330
1F
100
AcDbEntity
  8
0
  6
Continuous
 62
     7
100
AcDbCircle
 10
92.60140766982159
 20
-27.53563194356331
 30
0.0
 40
1.299991824559207
100
AcDbArc
 50
151.000836466969
 51
236.0020484994693
  0
ARC
  5
126F
330
1F
100
AcDbEntity
  8
0
  6
Continuous
 62
     7
100
AcDbCircle
 10
94.65352757632039
 20
-23.83369077257714
 30
0.0
 40
1.299989276553614
100
AcDbArc
 50
65.99907613789375
 51
151.0028488812586
  0
ARC
  5
1270
330
1F
100
AcDbEntity
  8
0
  6
Continuous
 62
     7
100
AcDbCircle
 10
161.1263500005738
 20
29.48895000057397
 30
0.0
 40
66.40002601597541
100
AcDbArc
 50
27.47007094703615
 51
62.52992905296383
  0
ARC
  5
1271
330
1F
100
AcDbEntity
  8
0
  6
Continuous
 62
     7
100
AcDbCircle
 10
96.0139615844368
 20
18.10522612277712
 30
0.0
 40
2.000041505279789
100
AcDbArc
 50
189.9163082494345
 51
281.6518914195949
  0
ARC
  5
1272
330
1F
100
AcDbEntity
  8
0
  6
Continuous
 62
     7
100
AcDbCircle
 10
96.01395166146318
 20
40.87276713158668
 30
0.0
 40
2.000050116017856
100
AcDbArc
 50
78.34786920160522
 51
170.0806305216824
  0
ARC
  5
1273
330
1F
100
AcDbEntity
  8
0
  6
Continuous
 62
     7
100
AcDbCircle
 10
161.1262999999999
 20
29.489
 30
0.0
 40
68.09991971360904
100
AcDbArc
 50
170.0830531145209
 51
189.916946885479
  0
ARC
  5
1274
330
1F
100
AcDbEntity
  8
0
  6
Continuous
 62
     7
100
AcDbCircle
 10
161.1267263858113
 20
29.48928907063367
 30
0.0
 40
61.25001891472511
100
AcDbArc
 50
239.5230220097989
 51
255.4769579951051
  0
ARC
  5
1275
330
1F
100
AcDbEntity
  8
0
  6
Continuous
 62
     7
100
AcDbCircle
 10
161.1269071236154
 20
29.48921420577445
 30
0.0
 40
64.25004432500212
100
AcDbArc
 50
239.8975054994561
 51
255.1021097042531
  0
ARC
  5
1276
330
1F
100
AcDbEntity
  8
0
  6
Continuous
 62
     7
100
AcDbCircle
 10
161.1266401731915
 20
29.48944443332054
 30
0.0
 40
61.25000118253518
100
AcDbArc
 50
194.5231603732963
 51
210.4772244229944
  0
ARC
  5
1277
330
1F
100
AcDbEntity
  8
0
  6
Continuous
 62
     7
100
AcDbCircle
 10
161.126716792323
 20
29.4892594597659
 30
0.0
 40
64.25000886080153
100
AcDbArc
 50
194.8977624479645
 51
210.1022575471313
  0
ARC
  5
1278
330
1F
100
AcDbEntity
  8
0
  6
Continuous
 62
     7
100
AcDbCircle
 10
161.126723646064
 20
29.48935708698369
 30
0.0
 40
61.25000637629505
100
AcDbArc
 50
149.5231057093327
 51
165.477132249768
  0
ARC
  5
1279
330
1F
100
AcDbEntity
  8
0
  6
Continuous
 62
     7
100
AcDbCircle
 10
161.1266814369717
 20
29.4892551849074
 30
0.0
 40
64.24997092880779
100
AcDbArc
 50
149.897737938117
 51
165.1022420667872
  0
ARC
  5
127A
330
1F
100
AcDbEntity
  8
0
  6
Continuous
 62
     7
100
AcDbCircle
 10
161.126522202338
 20
29.48922635422969
 30
0.0
 40
61.24995278008763
100
AcDbArc
 50
104.5228607245668
 51
120.4769013163322
  0
ARC
  5
127B
330
1F
100
AcDbEntity
  8
0
  6
Continuous
 62
     7
100
AcDbCircle
 10
161.1269615390779
 20
29.48940833475189
 30
0.0
 40
64.24996560364728
100
AcDbArc
 50
104.8980514639102
 51
120.102591289381
  0
ARC
  5
127C
330
1F
100
AcDbEntity
  8
0
  6
DASH_CENTER
 62
    30
100
AcDbCircle
 10
161.1267097138104
 20
29.48930970477242
 30
0.0
 40
60.99996136826489
100
AcDbArc
 50
129.68595931234
 51
140.260706087456
  0
ARC
  5
127D
330
1F
100
AcDbEntity
  8
0
  6
DASH_CENTER
 62
    30
100
AcDbCircle
 10
161.126840248641
 20
29.48915962074574
 30
0.0
 40
61.00003167975103
100
AcDbArc
 50
219.6859654241729
 51
230.2606999756233
  0
ARC
  5
127E
330
1F
100
AcDbEntity
  8
0
  6
DASH_CENTER
 62
    30
100
AcDbCircle
 10
161.1262097048157
 20
29.48920962072404
 30
0.0
 40
61.00010212232174
100
AcDbArc
 50
309.7393061475897
 51
320.3140284526138
  0
ARC
  5
127F
330
1F
100
AcDbEntity
  8
0
  6
DASH_CENTER
 62
    30
100
AcDbCircle
 10
161.1263403327327
 20
29.4892597047941
 30
0.0
 40
61.00003174529297
100
AcDbArc
 50
39.73930003007397
 51
50.31403457012988
  0
ARC
  5
1280
330
1F
100
AcDbEntity
  8
0
  6
Continuous
 62
     7
100
AcDbCircle
 10
161.1262135870624
 20
29.48933579375065
 30
0.0
 40
64.24999068152657
100
AcDbArc
 50
59.89749911464388
 51
75.10211608906526
  0
ARC
  5
1281
330
1F
100
AcDbEntity
  8
0
  6
Continuous
 62
     7
100
AcDbCircle
 10
161.1265631531475
 20
29.48919099903743
 30
0.0
 40
61.24999067794925
100
AcDbArc
 50
59.52310365151472
 51
75.47713430758626
  0
ARC
  5
1282
330
1F
100
AcDbEntity
  8
0
  6
Continuous
 62
     7
100
AcDbCircle
 10
161.1262960237226
 20
29.48930959963896
 30
0.0
 40
64.25004965009673
100
AcDbArc
 50
14.89759676633215
 51
30.10216527456701
  0
ARC
  5
1283
330
1F
100
AcDbEntity
  8
0
  6
Continuous
 62
     7
100
AcDbCircle
 10
161.1262763539358
 20
29.48935708698373
 30
0.0
 40
61.25000637629505
100
AcDbArc
 50
14.52286775023197
 51
30.47689429066704
  0
ARC
  5
1284
330
1F
100
AcDbEntity
  8
0
  6
Continuous
 62
     7
100
AcDbCircle
 10
161.1264229798094
 20
29.48959689481363
 30
0.0
 40
64.25005717932655
100
AcDbArc
 50
329.897419610181
 51
345.1019376365278
  0
ARC
  5
1285
330
1F
100
AcDbEntity
  8
0
  6
Continuous
 62
     7
100
AcDbCircle
 10
161.1262409987438
 20
29.48915755753038
 30
0.0
 40
61.2500442741573
100
AcDbArc
 50
329.5231106771713
 51
345.4771272819296
  0
ARC
  5
1286
330
1F
100
AcDbEntity
  8
0
  6
Continuous
 62
     7
100
AcDbCircle
 10
161.1260031051861
 20
29.48917702019055
 30
0.0
 40
64.25005717932653
100
AcDbArc
 50
284.8980623634723
 51
300.1025803898188
  0
ARC
  5
1287
330
1F
100
AcDbEntity
  8
0
  6
Continuous
 62
     7
100
AcDbCircle
 10
161.1264424424696
 20
29.48935900125623
 30
0.0
 40
61.25004427415728
100
AcDbArc
 50
284.5228727180701
 51
300.4768893228288
  0
ARC
  5
1288
330
1F
100
AcDbEntity
  8
0
  6
Continuous
 62
     7
100
AcDbCircle
 10
70.54325
 20
-34.08379999999999
 30
0.0
 40
3.299966800211776
100
AcDbArc
 50
168.1508663061885
 51
11.84913369381126
  0
ARC
  5
1289
330
1F
100
AcDbEntity
  8
0
  6
Continuous
 62
     7
100
AcDbCircle
 10
161.1266999999999
 20
29.4893
 30
0.0
 40
65.59999999999999
100
AcDbArc
 50
90.0
 51
180.0000873411273
  0
ARC
  5
128A
330
1F
100
AcDbEntity
  8
0
  6
Continuous
 62
     7
100
AcDbCircle
 10
161.1266999999999
 20
29.4893
 30
0.0
 40
65.59999999999998
100
AcDbArc
 50
180.0000873411273
 51
0.0
  0
ARC
  5
128B
330
1F
100
AcDbEntity
  8
0
  6
Continuous
 62
     7
100
AcDbCircle
 10
161.1267000000919
 20
29.4893000000921
 30
0.0
 40
65.5999999999079
100
AcDbArc
 50
359.9999999999196
 51
90.00000000008043
  0
CIRCLE
  5
128C
330
1F
100
AcDbEntity
  8
0
  6
Continuous
 62
     7
100
AcDbCircle
 10
161.1266
 20
29.4893
 30
0.0
 40
7.75
  0
CIRCLE
  5
128D
330
1F
100
AcDbEntity
  8
0
  6
Continuous
 62
     7
100
AcDbCircle
 10
161.1266
 20
29.4893
 30
0.0
 40
15.5
  0
CIRCLE
  5
128E
330
1F
100
AcDbEntity
  8
0
  6
Continuous
 62
     7
100
AcDbCircle
 10
161.1266999999999
 20
29.4893
 30
0.0
 40
19.25
  0
CIRCLE
  5
128F
330
1F
100
AcDbEntity
  8
0
  6
Continuous
 62
     7
100
AcDbCircle
 10
161.1266999999999
 20
29.4893
 30
0.0
 40
7.400000000000003
  0
CIRCLE
  5
1290
330
1F
100
AcDbEntity
  8
0
  6
Continuous
 62
     7
100
AcDbCircle
 10
161.1266999999999
 20
29.4893
 30
0.0
 40
7.0
  0
CIRCLE
  5
1291
330
1F
100
AcDbEntity
  8
0
  6
Continuous
 62
    30
100
AcDbCircle
 10
204.2597499999998
 20
72.62245
 30
0.0
 40
1.599999999999994
  0
CIRCLE
  5
1292
330
1F
100
AcDbEntity
  8
0
  6
Continuous
 62
     7
100
AcDbCircle
 10
204.2597499999998
 20
72.62245
 30
0.0
 40
2.0
  0
CIRCLE
  5
1293
330
1F
100
AcDbEntity
  8
0
  6
Continuous
 62
     7
100
AcDbCircle
 10
204.2597499999998
 20
72.62245
 30
0.0
 40
3.5
  0
CIRCLE
  5
1294
330
1F
100
AcDbEntity
  8
0
  6
Continuous
 62
    30
100
AcDbCircle
 10
204.2596
 20
-13.6445
 30
0.0
 40
1.599999999999994
  0
CIRCLE
  5
1295
330
1F
100
AcDbEntity
  8
0
  6
Continuous
 62
     7
100
AcDbCircle
 10
204.2596
 20
-13.6445
 30
0.0
 40
2.0
  0
CIRCLE
  5
1296
330
1F
100
AcDbEntity
  8
0
  6
Continuous
 62
     7
100
AcDbCircle
 10
204.2596
 20
-13.6445
 30
0.0
 40
3.5
  0
CIRCLE
  5
1297
330
1F
100
AcDbEntity
  8
0
  6
Continuous
 62
    30
100
AcDbCircle
 10
117.9928
 20
-13.6443
 30
0.0
 40
1.6
  0
CIRCLE
  5
1298
330
1F
100
AcDbEntity
  8
0
  6
Continuous
 62
     7
100
AcDbCircle
 10
117.9928
 20
-13.6443
 30
0.0
 40
2.0
  0
CIRCLE
  5
1299
330
1F
100
AcDbEntity
  8
0
  6
Continuous
 62
     7
100
AcDbCircle
 10
117.9928
 20
-13.6443
 30
0.0
 40
3.5
  0
CIRCLE
  5
129A
330
1F
100
AcDbEntity
  8
0
  6
Continuous
 62
    30
100
AcDbCircle
 10
117.9930636690625
 20
72.62263633066836
 30
0.0
 40
1.600000000000008
  0
CIRCLE
  5
129B
330
1F
100
AcDbEntity
  8
0
  6
Continuous
 62
     7
100
AcDbCircle
 10
117.9930636690625
 20
72.62263633066836
 30
0.0
 40
2.0
  0
CIRCLE
  5
129C
330
1F
100
AcDbEntity
  8
0
  6
Continuous
 62
     7
100
AcDbCircle
 10
117.9930636690625
 20
72.62263633066836
 30
0.0
 40
3.5
  0
CIRCLE
  5
129D
330
1F
100
AcDbEntity
  8
0
  6
Continuous
 62
     7
100
AcDbCircle
 10
70.5432
 20
-34.08379999999999
 30
0.0
 40
2.150000000000006
  0
SPLINE
  5
129E
330
1F
100
AcDbEntity
  8
0
  6
Continuous
 62
    30
100
AcDbSpline
210
0.0
220
0.0
230
1.0
 70
     8
 71
     3
 72
    25
 73
    21
 74
    19
 42
0.0000000001
 43
0.0000000001
 44
0.00000001
 40
0.0
 40
0.0
 40
0.0
 40
0.0
 40
0.3268172640940472
 40
0.6536256573301036
 40
0.9569495868641922
 40
1.260335096765869
 40
1.352322701441101
 40
1.444228692959045
 40
1.684367801899142
 40
1.925528948746677
 40
2.115790485070174
 40
2.304339388077326
 40
2.359453368548592
 40
2.414494698056271
 40
2.581637289009126
 40
2.751194212432765
 40
2.941202659146657
 40
3.130399653496808
 40
3.196481924742138
 40
3.262576940124288
 40
3.262576940124288
 40
3.262576940124288
 40
3.262576940124288
 10
69.04339999999999
 20
-2.6425
 30
0.0
 10
69.14949040625086
 20
-2.617750051882172
 30
0.0
 10
69.36166833640754
 20
-2.56825081585478
 30
0.0
 10
69.67187277891539
 20
-2.493912732628397
 30
0.0
 10
69.97361572972867
 20
-2.417847399271056
 30
0.0
 10
70.19820834499194
 20
-2.356076762421865
 30
0.0
 10
70.35390157282201
 20
-2.309788645924871
 30
0.0
 10
70.48885719703091
 20
-2.267745990396094
 30
0.0
 10
70.66949897315696
 20
-2.205431788246638
 30
0.0
 10
70.88133580310466
 20
-2.133044102034087
 30
0.0
 10
71.07960223747382
 20
-2.07439403678077
 30
0.0
 10
71.22414950575914
 20
-2.05434756373167
 30
0.0
 10
71.32377148913841
 20
-2.057844399715573
 30
0.0
 10
71.41561495217896
 20
-2.069645647700243
 30
0.0
 10
71.54001788162702
 20
-2.1157703413283
 30
0.0
 10
71.68735120332235
 20
-2.212567090977946
 30
0.0
 10
71.82456935197411
 20
-2.334240105420211
 30
0.0
 10
71.92622582841528
 20
-2.442469525759656
 30
0.0
 10
71.9985857440972
 20
-2.521456786366043
 30
0.0
 10
72.02819429953658
 20
-2.55408454402018
 30
0.0
 10
72.04300000000002
 20
-2.570399999999998
 30
0.0
 11
69.04339999999999
 21
-2.6425
 31
0.0
 11
69.36159649354157
 21
-2.567931160973865
 31
0.0
 11
69.67932827988338
 21
-2.491444314868805
 31
0.0
 11
69.97332479686912
 21
-2.416802142350205
 31
0.0
 11
70.26571195335276
 21
-2.335854518950438
 31
0.0
 11
70.35387019467211
 21
-2.309589640966124
 31
0.0
 11
70.44159999999997
 21
-2.2822
 31
0.0
 11
70.66921238286319
 21
-2.205653317053438
 31
0.0
 11
70.89797930029155
 21
-2.129335568513119
 31
0.0
 11
71.08142251691399
 21
-2.078857456140076
 31
0.0
 11
71.26865685131194
 21
-2.056631486880465
 31
0.0
 11
71.32373215257949
 21
-2.058695970787624
 31
0.0
 11
71.3783
 21
-2.0659
 31
0.0
 11
71.5361115577455
 21
-2.120965037556321
 31
0.0
 11
71.67925772594751
 21
-2.211842565597668
 31
0.0
 11
71.82270089489094
 21
-2.336451021908798
 31
0.0
 11
71.95389241982505
 21
-2.472775218658892
 31
0.0
 11
71.99854483818589
 21
-2.521488955141756
 31
0.0
 11
72.04300000000002
 21
-2.570399999999998
 31
0.0
  0
MTEXT
  5
16FD
330
1F
100
AcDbEntity
  8
0
 62
     7
100
AcDbMText
 10
-80.23519871177127
 20
-71.35303892302828
 30
0.0
 40
8.0
 41
98.22249824764087
 71
     1
 72
     1
  1
AEM-DBH 4P 0.1kW
  7
CONVERTER_16
 73
     1
 44
1.0
  0
MTEXT
  5
1700
330
1F
100
AcDbEntity
  8
0
 62
     7
100
AcDbMText
 10
-80.58915202691327
 20
-85.50268221767339
 30
0.0
 40
8.0
 41
98.74728000000001
 71
     1
 72
     1
  1
AEM-DBH 4P 0.2kW
  7
CONVERTER_16
 73
     1
 44
1.0
  0
MTEXT
  5
1702
330
1F
100
AcDbEntity
  8
0
 62
     7
100
AcDbMText
 10
-80.58915202691327
 20
-99.2985834595651
 30
0.0
 40
8.0
 41
105.1552799999999
 71
     1
 72
     1
  1
AEM-DBH 4P 0.25kW
  7
CONVERTER_16
 73
     1
 44
1.0
  0
MTEXT
  5
1704
330
1F
100
AcDbEntity
  8
0
 62
     7
100
AcDbMText
 10
-80.94310828384545
 20
-112.3870020888528
 30
0.0
 40
8.0
 41
98.74728000000001
 71
     1
 72
     1
  1
AEM-DBH 4P 0.3kW
  7
CONVERTER_16
 73
     1
 44
1.0
  0
ENDSEC
  0
SECTION
  2
OBJECTS
  0
DICTIONARY
  5
C
330
0
100
AcDbDictionary
281
     1
  3
ACAD_COLOR
350
940
  3
ACAD_GROUP
350
D
  3
ACAD_LAYOUT
350
1A
  3
ACAD_MATERIAL
350
93F
  3
ACAD_MLINESTYLE
350
17
  3
ACAD_PLOTSETTINGS
350
19
  3
ACAD_PLOTSTYLENAME
350
E
  3
AcDbVariableDictionary
350
1433
  0
DICTIONARY
  5
940
102
{ACAD_REACTORS
330
C
102
}
330
C
100
AcDbDictionary
281
     1
  0
DICTIONARY
  5
D
102
{ACAD_REACTORS
330
C
102
}
330
C
100
AcDbDictionary
281
     1
  0
DICTIONARY
  5
1A
102
{ACAD_REACTORS
330
C
102
}
330
C
100
AcDbDictionary
281
     1
  3
Layout1
350
1E
  3
Layout2
350
26
  3
Model
350
22
  0
DICTIONARY
  5
93F
102
{ACAD_REACTORS
330
C
102
}
330
C
100
AcDbDictionary
281
     1
  0
DICTIONARY
  5
17
102
{ACAD_REACTORS
330
C
102
}
330
C
100
AcDbDictionary
281
     1
  3
Standard
350
18
  0
DICTIONARY
  5
19
102
{ACAD_REACTORS
330
C
102
}
330
C
100
AcDbDictionary
281
     1
  0
ACDBDICTIONARYWDFLT
  5
E
102
{ACAD_REACTORS
330
C
102
}
330
C
100
AcDbDictionary
281
     1
  3
Normal
350
F
100
AcDbDictionaryWithDefault
340
F
  0
DICTIONARY
  5
1433
102
{ACAD_REACTORS
330
C
102
}
330
C
100
AcDbDictionary
281
     1
  3
DIMASSOC
350
1434
  3
PROJECTNAME
350
1435
  0
LAYOUT
  5
1E
102
{ACAD_XDICTIONARY
360
1456
102
}
102
{ACAD_REACTORS
330
1A
102
}
330
1A
100
AcDbPlotSettings
  1

  2

  4

  6

 40
0.0
 41
0.0
 42
0.0
 43
0.0
 44
0.0
 45
0.0
 46
0.0
 47
0.0
 48
0.0
 49
0.0
140
0.0
141
0.0
142
1.0
143
1.0
 70
   688
 72
     0
 73
     0
 74
     5
  7
P社図面.ctb
 75
    16
147
1.0
148
0.0
149
0.0
100
AcDbLayout
  1
Layout1
 70
     1
 71
     1
 10
0.0
 20
0.0
 11
12.0
 21
9.0
 12
0.0
 22
0.0
 32
0.0
 14
1.000000000000000E+20
 24
1.000000000000000E+20
 34
1.000000000000000E+20
 15
-1.000000000000000E+20
 25
-1.000000000000000E+20
 35
-1.000000000000000E+20
146
0.0
 13
0.0
 23
0.0
 33
0.0
 16
1.0
 26
0.0
 36
0.0
 17
0.0
 27
1.0
 37
0.0
 76
     0
330
1B
  0
LAYOUT
  5
26
102
{ACAD_XDICTIONARY
360
145A
102
}
102
{ACAD_REACTORS
330
1A
102
}
330
1A
100
AcDbPlotSettings
  1

  2

  4

  6

 40
0.0
 41
0.0
 42
0.0
 43
0.0
 44
0.0
 45
0.0
 46
0.0
 47
0.0
 48
0.0
 49
0.0
140
0.0
141
0.0
142
1.0
143
1.0
 70
   688
 72
     0
 73
     0
 74
     5
  7
P社図面.ctb
 75
    16
147
1.0
148
0.0
149
0.0
100
AcDbLayout
  1
Layout2
 70
     1
 71
     2
 10
0.0
 20
0.0
 11
0.0
 21
0.0
 12
0.0
 22
0.0
 32
0.0
 14
0.0
 24
0.0
 34
0.0
 15
0.0
 25
0.0
 35
0.0
146
0.0
 13
0.0
 23
0.0
 33
0.0
 16
1.0
 26
0.0
 36
0.0
 17
0.0
 27
1.0
 37
0.0
 76
     0
330
23
  0
LAYOUT
  5
22
102
{ACAD_XDICTIONARY
360
1458
102
}
102
{ACAD_REACTORS
330
1A
102
}
330
1A
100
AcDbPlotSettings
  1

  2
Adobe PDF
  4
A3
  6

 40
3.174999952316282
 41
3.174999952316282
 42
3.17498779296875
 43
3.17498779296875
 44
297.0318298339843
 45
420.1583251953125
 46
0.0
 47
0.0
 48
0.0
 49
0.0
140
0.0
141
0.0
142
1.0
143
1.97941777499143
 70
 11952
 72
     1
 73
     1
 74
     1
  7
P社図面.ctb
 75
     0
147
0.5051990603672985
148
428.0497854802381
149
286.0351105111847
100
AcDbLayout
  1
Model
 70
     1
 71
     0
 10
0.0
 20
0.0
 11
0.0
 21
0.0
 12
0.0
 22
0.0
 32
0.0
 14
-427.9997999999998
 24
-286.0002
 34
0.0
 15
390.9997999999998
 25
285.9998
 35
0.0
146
0.0
 13
0.0
 23
0.0
 33
0.0
 16
1.0
 26
0.0
 36
0.0
 17
0.0
 27
1.0
 37
0.0
 76
     0
330
1F
  0
MLINESTYLE
  5
18
102
{ACAD_REACTORS
330
17
102
}
330
17
100
AcDbMlineStyle
  2
STANDARD
 70
     0
  3

 62
   256
 51
90.0
 52
90.0
 71
     2
 49
0.5
 62
   256
  6
BYLAYER
 49
-0.5
 62
   256
  6
BYLAYER
  0
ACDBPLACEHOLDER
  5
F
102
{ACAD_REACTORS
330
E
102
}
330
E
  0
DICTIONARYVAR
  5
1434
102
{ACAD_REACTORS
330
1433
102
}
330
1433
100
DictionaryVariables
280
     0
  1
1
  0
DICTIONARYVAR
  5
1435
102
{ACAD_REACTORS
330
1433
102
}
330
1433
100
DictionaryVariables
280
     0
  1

  0
DICTIONARY
  5
1456
330
1E
100
AcDbDictionary
280
     1
281
     1
  3
ACAD_XREC_ROUNDTRIP
360
1457
  0
DICTIONARY
  5
145A
330
26
100
AcDbDictionary
280
     1
281
     1
  3
ACAD_XREC_ROUNDTRIP
360
145B
  0
DICTIONARY
  5
1458
330
22
100
AcDbDictionary
280
     1
281
     1
  3
ACAD_XREC_ROUNDTRIP
360
1459
  0
XRECORD
  5
1457
102
{ACAD_REACTORS
330
1456
102
}
330
1456
100
AcDbXrecord
280
     1
102
SHADEPLOT
 70
     0
102
SHADEPLOTRESLEVEL
 70
     2
102
SHADEPLOTCUSTOMDPI
 70
   300
  0
XRECORD
  5
145B
102
{ACAD_REACTORS
330
145A
102
}
330
145A
100
AcDbXrecord
280
     1
102
SHADEPLOT
 70
     0
102
SHADEPLOTRESLEVEL
 70
     2
102
SHADEPLOTCUSTOMDPI
 70
   300
  0
XRECORD
  5
1459
102
{ACAD_REACTORS
330
1458
102
}
330
1458
100
AcDbXrecord
280
     1
102
SHADEPLOT
 70
     0
102
SHADEPLOTRESLEVEL
 70
     2
102
SHADEPLOTCUSTOMDPI
 70
   300
  0
ENDSEC
  0
EOF
