  0
SECTION
  2
HEADER
  9
$ACADVER
  1
AC1015
  9
$ACADMAINTVER
 70
    14
  9
$DWGCODEPAGE
  3
ANSI_932
  9
$INSBASE
 10
0.0
 20
0.0
 30
0.0
  9
$EXTMIN
 10
-314.1251839207295
 20
-134.187374367568
 30
-0.0000000349181948
  9
$EXTMAX
 10
253.2317790539316
 20
109.082512606737
 30
0.0000000814935747
  9
$LIMMIN
 10
0.0
 20
0.0
  9
$LIMMAX
 10
420.0
 20
297.0
  9
$ORTHOMODE
 70
     0
  9
$REGENMODE
 70
     1
  9
$FILLMODE
 70
     1
  9
$QTEXTMODE
 70
     0
  9
$MIRRTEXT
 70
     1
  9
$LTSCALE
 40
1.0
  9
$ATTMODE
 70
     1
  9
$TEXTSIZE
 40
2.5
  9
$TRACEWID
 40
1.0
  9
$TEXTSTYLE
  7
Standard
  9
$CLAYER
  8
0
  9
$CELTYPE
  6
ByLayer
  9
$CECOLOR
 62
   256
  9
$CELTSCALE
 40
1.0
  9
$DISPSILH
 70
     0
  9
$DIMSCALE
 40
1.0
  9
$DIMASZ
 40
2.5
  9
$DIMEXO
 40
0.625
  9
$DIMDLI
 40
3.75
  9
$DIMRND
 40
0.0
  9
$DIMDLE
 40
0.0
  9
$DIMEXE
 40
1.25
  9
$DIMTP
 40
0.0
  9
$DIMTM
 40
0.0
  9
$DIMTXT
 40
2.5
  9
$DIMCEN
 40
2.5
  9
$DIMTSZ
 40
0.0
  9
$DIMTOL
 70
     0
  9
$DIMLIM
 70
     0
  9
$DIMTIH
 70
     0
  9
$DIMTOH
 70
     0
  9
$DIMSE1
 70
     0
  9
$DIMSE2
 70
     0
  9
$DIMTAD
 70
     1
  9
$DIMZIN
 70
     8
  9
$DIMBLK
  1

  9
$DIMASO
 70
     1
  9
$DIMSHO
 70
     1
  9
$DIMPOST
  1

  9
$DIMAPOST
  1

  9
$DIMALT
 70
     0
  9
$DIMALTD
 70
     3
  9
$DIMALTF
 40
0.03937007874016
  9
$DIMLFAC
 40
1.0
  9
$DIMTOFL
 70
     1
  9
$DIMTVP
 40
0.0
  9
$DIMTIX
 70
     0
  9
$DIMSOXD
 70
     0
  9
$DIMSAH
 70
     0
  9
$DIMBLK1
  1

  9
$DIMBLK2
  1

  9
$DIMSTYLE
  2
ISO-25
  9
$DIMCLRD
 70
     0
  9
$DIMCLRE
 70
     0
  9
$DIMCLRT
 70
     0
  9
$DIMTFAC
 40
1.0
  9
$DIMGAP
 40
0.625
  9
$DIMJUST
 70
     0
  9
$DIMSD1
 70
     0
  9
$DIMSD2
 70
     0
  9
$DIMTOLJ
 70
     0
  9
$DIMTZIN
 70
     8
  9
$DIMALTZ
 70
     0
  9
$DIMALTTZ
 70
     0
  9
$DIMUPT
 70
     0
  9
$DIMDEC
 70
     2
  9
$DIMTDEC
 70
     2
  9
$DIMALTU
 70
     2
  9
$DIMALTTD
 70
     3
  9
$DIMTXSTY
  7
Standard
  9
$DIMAUNIT
 70
     0
  9
$DIMADEC
 70
     0
  9
$DIMALTRND
 40
0.0
  9
$DIMAZIN
 70
     0
  9
$DIMDSEP
 70
    44
  9
$DIMATFIT
 70
     3
  9
$DIMFRAC
 70
     0
  9
$DIMLDRBLK
  1

  9
$DIMLUNIT
 70
     2
  9
$DIMLWD
 70
    -2
  9
$DIMLWE
 70
    -2
  9
$DIMTMOVE
 70
     0
  9
$LUNITS
 70
     2
  9
$LUPREC
 70
     4
  9
$SKETCHINC
 40
1.0
  9
$FILLETRAD
 40
10.0
  9
$AUNITS
 70
     0
  9
$AUPREC
 70
     0
  9
$MENU
  1
.
  9
$ELEVATION
 40
0.0
  9
$PELEVATION
 40
0.0
  9
$THICKNESS
 40
0.0
  9
$LIMCHECK
 70
     0
  9
$CHAMFERA
 40
10.0
  9
$CHAMFERB
 40
10.0
  9
$CHAMFERC
 40
20.0
  9
$CHAMFERD
 40
0.0
  9
$SKPOLY
 70
     0
  9
$TDCREATE
 40
2456040.468015046
  9
$TDUCREATE
 40
2456040.093015046
  9
$TDUPDATE
 40
2456044.433437858
  9
$TDUUPDATE
 40
2456044.058437858
  9
$TDINDWG
 40
0.0031105324
  9
$TDUSRTIMER
 40
0.0031105324
  9
$USRTIMER
 70
     1
  9
$ANGBASE
 50
0.0
  9
$ANGDIR
 70
     0
  9
$PDMODE
 70
     0
  9
$PDSIZE
 40
0.0
  9
$PLINEWID
 40
0.0
  9
$SPLFRAME
 70
     0
  9
$SPLINETYPE
 70
     6
  9
$SPLINESEGS
 70
     8
  9
$HANDSEED
  5
B02
  9
$SURFTAB1
 70
     6
  9
$SURFTAB2
 70
     6
  9
$SURFTYPE
 70
     6
  9
$SURFU
 70
     6
  9
$SURFV
 70
     6
  9
$UCSBASE
  2

  9
$UCSNAME
  2

  9
$UCSORG
 10
0.0
 20
0.0
 30
0.0
  9
$UCSXDIR
 10
1.0
 20
0.0
 30
0.0
  9
$UCSYDIR
 10
0.0
 20
1.0
 30
0.0
  9
$UCSORTHOREF
  2

  9
$UCSORTHOVIEW
 70
     0
  9
$UCSORGTOP
 10
0.0
 20
0.0
 30
0.0
  9
$UCSORGBOTTOM
 10
0.0
 20
0.0
 30
0.0
  9
$UCSORGLEFT
 10
0.0
 20
0.0
 30
0.0
  9
$UCSORGRIGHT
 10
0.0
 20
0.0
 30
0.0
  9
$UCSORGFRONT
 10
0.0
 20
0.0
 30
0.0
  9
$UCSORGBACK
 10
0.0
 20
0.0
 30
0.0
  9
$PUCSBASE
  2

  9
$PUCSNAME
  2

  9
$PUCSORG
 10
0.0
 20
0.0
 30
0.0
  9
$PUCSXDIR
 10
1.0
 20
0.0
 30
0.0
  9
$PUCSYDIR
 10
0.0
 20
1.0
 30
0.0
  9
$PUCSORTHOREF
  2

  9
$PUCSORTHOVIEW
 70
     0
  9
$PUCSORGTOP
 10
0.0
 20
0.0
 30
0.0
  9
$PUCSORGBOTTOM
 10
0.0
 20
0.0
 30
0.0
  9
$PUCSORGLEFT
 10
0.0
 20
0.0
 30
0.0
  9
$PUCSORGRIGHT
 10
0.0
 20
0.0
 30
0.0
  9
$PUCSORGFRONT
 10
0.0
 20
0.0
 30
0.0
  9
$PUCSORGBACK
 10
0.0
 20
0.0
 30
0.0
  9
$USERI1
 70
     0
  9
$USERI2
 70
     0
  9
$USERI3
 70
     0
  9
$USERI4
 70
     0
  9
$USERI5
 70
     0
  9
$USERR1
 40
0.0
  9
$USERR2
 40
0.0
  9
$USERR3
 40
0.0
  9
$USERR4
 40
0.0
  9
$USERR5
 40
0.0
  9
$WORLDVIEW
 70
     1
  9
$SHADEDGE
 70
     3
  9
$SHADEDIF
 70
    70
  9
$TILEMODE
 70
     1
  9
$MAXACTVP
 70
    64
  9
$PINSBASE
 10
0.0
 20
0.0
 30
0.0
  9
$PLIMCHECK
 70
     0
  9
$PEXTMIN
 10
26.66076962115562
 20
20.31135699206657
 30
-0.0015258207003583
  9
$PEXTMAX
 10
240.039213369355
 20
182.8886381005154
 30
0.0000000349246037
  9
$PLIMMIN
 10
-6.350006103515625
 20
-6.349999904632567
  9
$PLIMMAX
 10
273.0499877929687
 20
209.5499939918517
  9
$UNITMODE
 70
     0
  9
$VISRETAIN
 70
     1
  9
$PLINEGEN
 70
     0
  9
$PSLTSCALE
 70
     1
  9
$TREEDEPTH
 70
  3020
  9
$CMLSTYLE
  2
Standard
  9
$CMLJUST
 70
     0
  9
$CMLSCALE
 40
20.0
  9
$PROXYGRAPHICS
 70
     1
  9
$MEASUREMENT
 70
     1
  9
$CELWEIGHT
370
    -1
  9
$ENDCAPS
280
     0
  9
$JOINSTYLE
280
     0
  9
$LWDISPLAY
290
     0
  9
$INSUNITS
 70
     4
  9
$HYPERLINKBASE
  1

  9
$STYLESHEET
  1

  9
$XEDIT
290
     1
  9
$CEPSNTYPE
380
     0
  9
$PSTYLEMODE
290
     1
  9
$FINGERPRINTGUID
  2
{FDEAD578-A652-11D2-9A35-0060089B3A3F}
  9
$VERSIONGUID
  2
{D96E09F7-5B33-41B3-A63F-5D41F3BB16E2}
  9
$EXTNAMES
290
     1
  9
$PSVPSCALE
 40
0.0
  9
$OLESTARTUP
290
     0
  0
ENDSEC
  0
SECTION
  2
CLASSES
  0
CLASS
  1
ACDBDICTIONARYWDFLT
  2
AcDbDictionaryWithDefault
  3
AutoCAD 2000
 90
        0
280
     0
281
     0
  0
CLASS
  1
ACDBPLACEHOLDER
  2
AcDbPlaceHolder
  3
AutoCAD 2000
 90
        0
280
     0
281
     0
  0
CLASS
  1
LAYOUT
  2
AcDbLayout
  3
AutoCAD 2000
 90
        0
280
     0
281
     0
  0
CLASS
  1
DICTIONARYVAR
  2
AcDbDictionaryVar
  3
AutoCAD 2000
 90
        0
280
     0
281
     0
  0
ENDSEC
  0
SECTION
  2
TABLES
  0
TABLE
  2
VPORT
  5
8
330
0
100
AcDbSymbolTable
 70
     2
  0
VPORT
  5
B01
330
8
100
AcDbSymbolTableRecord
100
AcDbViewportTableRecord
  2
*Active
 70
     0
 10
0.0
 20
0.0
 11
1.0
 21
1.0
 12
-30.44670243339897
 22
-12.5524308804155
 13
0.0
 23
0.0
 14
10.0
 24
10.0
 15
10.0
 25
10.0
 16
0.0
 26
0.0
 36
1.0
 17
0.0
 27
0.0
 37
0.0
 40
288.9987446797189
 41
1.97051597051597
 42
50.0
 43
0.0
 44
0.0
 50
0.0
 51
0.0
 71
     0
 72
   100
 73
     1
 74
     3
 75
     0
 76
     0
 77
     0
 78
     0
281
     0
 65
     1
110
0.0
120
0.0
130
0.0
111
1.0
121
0.0
131
0.0
112
0.0
122
1.0
132
0.0
 79
     0
146
0.0
  0
ENDTAB
  0
TABLE
  2
LTYPE
  5
5
330
0
100
AcDbSymbolTable
 70
     5
  0
LTYPE
  5
14
330
5
100
AcDbSymbolTableRecord
100
AcDbLinetypeTableRecord
  2
ByBlock
 70
     0
  3

 72
    65
 73
     0
 40
0.0
  0
LTYPE
  5
15
330
5
100
AcDbSymbolTableRecord
100
AcDbLinetypeTableRecord
  2
ByLayer
 70
     0
  3

 72
    65
 73
     0
 40
0.0
  0
LTYPE
  5
16
330
5
100
AcDbSymbolTableRecord
100
AcDbLinetypeTableRecord
  2
Continuous
 70
     0
  3
Solid line
 72
    65
 73
     0
 40
0.0
  0
LTYPE
  5
86
330
5
100
AcDbSymbolTableRecord
100
AcDbLinetypeTableRecord
  2
DASHED
 70
     0
  3
Dashed
 72
    65
 73
     2
 40
15.0
 49
7.0
 74
     0
 49
-8.0
 74
     0
  0
LTYPE
  5
87
330
5
100
AcDbSymbolTableRecord
100
AcDbLinetypeTableRecord
  2
DASH_CENTER
 70
     0
  3
Dash_Center
 72
    65
 73
     4
 40
14.0
 49
11.0
 74
     0
 49
-1.0
 74
     0
 49
1.0
 74
     0
 49
-1.0
 74
     0
  0
LTYPE
  5
88
330
5
100
AcDbSymbolTableRecord
100
AcDbLinetypeTableRecord
  2
PHANTOM
 70
     0
  3
Phantom
 72
    65
 73
     6
 40
13.0
 49
10.0
 74
     0
 49
-1.0
 74
     0
 49
0.0
 74
     0
 49
-1.0
 74
     0
 49
0.0
 74
     0
 49
-1.0
 74
     0
  0
LTYPE
  5
89
330
5
100
AcDbSymbolTableRecord
100
AcDbLinetypeTableRecord
  2
CENTER_DASH_DASH
 70
     0
  3
Center_Dash_Dash
 72
    65
 73
     6
 40
14.0
 49
9.0
 74
     0
 49
-1.0
 74
     0
 49
1.0
 74
     0
 49
-1.0
 74
     0
 49
1.0
 74
     0
 49
-1.0
 74
     0
  0
ENDTAB
  0
TABLE
  2
LAYER
  5
2
330
0
100
AcDbSymbolTable
 70
     1
  0
LAYER
  5
10
330
2
100
AcDbSymbolTableRecord
100
AcDbLayerTableRecord
  2
0
 70
     0
 62
     7
  6
Continuous
370
    -3
390
F
  0
ENDTAB
  0
TABLE
  2
STYLE
  5
3
330
0
100
AcDbSymbolTable
 70
    21
  0
STYLE
  5
11
330
3
100
AcDbSymbolTableRecord
100
AcDbTextStyleTableRecord
  2
Standard
 70
     0
 40
0.0
 41
1.0
 50
0.0
 71
     0
 42
2.5
  3
txt
  4

  0
STYLE
  5
8A
330
3
100
AcDbSymbolTableRecord
100
AcDbTextStyleTableRecord
  2
CONVERTER_1
 70
     0
 40
0.0
 41
0.7565
 50
0.0
 71
     0
 42
0.2
  3
simplex.shx
  4
bigfont.shx
  0
STYLE
  5
8B
330
3
100
AcDbSymbolTableRecord
100
AcDbTextStyleTableRecord
  2
CONVERTER_2
 70
     0
 40
0.0
 41
0.89
 50
0.0
 71
     0
 42
0.2
  3
txt.shx
  4
bigfont.shx
  0
STYLE
  5
8C
330
3
100
AcDbSymbolTableRecord
100
AcDbTextStyleTableRecord
  2
CONVERTER_3
 70
     0
 40
0.0
 41
0.7565
 50
0.0
 71
     0
 42
0.2
  3
simplex.shx
  4
bigfont.shx
  0
STYLE
  5
8D
330
3
100
AcDbSymbolTableRecord
100
AcDbTextStyleTableRecord
  2
CONVERTER_4
 70
     0
 40
0.0
 41
0.73425
 50
0.0
 71
     0
 42
0.2
  3
simplex.shx
  4
bigfont.shx
  0
STYLE
  5
8E
330
3
100
AcDbSymbolTableRecord
100
AcDbTextStyleTableRecord
  2
CONVERTER_5
 70
     0
 40
0.0
 41
0.7120000000000001
 50
0.0
 71
     0
 42
0.2
  3
simplex.shx
  4
bigfont.shx
  0
STYLE
  5
8F
330
3
100
AcDbSymbolTableRecord
100
AcDbTextStyleTableRecord
  2
CONVERTER_6
 70
     0
 40
0.0
 41
1.008666666666669
 50
0.0
 71
     0
 42
0.2
  3
txt.shx
  4
bigfont.shx
  0
STYLE
  5
90
330
3
100
AcDbSymbolTableRecord
100
AcDbTextStyleTableRecord
  2
CONVERTER_7
 70
     0
 40
0.0
 41
0.9761290322580599
 50
0.0
 71
     0
 42
0.2
  3
txt.shx
  4
bigfont.shx
  0
STYLE
  5
91
330
3
100
AcDbSymbolTableRecord
100
AcDbTextStyleTableRecord
  2
CONVERTER_9
 70
     0
 40
0.0
 41
1.0235
 50
0.0
 71
     0
 42
0.2
  3
simplex.shx
  4
bigfont.shx
  0
STYLE
  5
92
330
3
100
AcDbSymbolTableRecord
100
AcDbTextStyleTableRecord
  2
CONVERTER_10
 70
     0
 40
0.0
 41
0.8009999999999999
 50
0.0
 71
     0
 42
0.2
  3
simplex.shx
  4
bigfont.shx
  0
STYLE
  5
93
330
3
100
AcDbSymbolTableRecord
100
AcDbTextStyleTableRecord
  2
CONVERTER_11
 70
     0
 40
0.0
 41
0.8009999999999999
 50
0.0
 71
     0
 42
0.2
  3
txt.shx
  4
bigfont.shx
  0
STYLE
  5
94
330
3
100
AcDbSymbolTableRecord
100
AcDbTextStyleTableRecord
  2
CONVERTER_12
 70
     0
 40
0.0
 41
0.7758974358974399
 50
0.0
 71
     0
 42
0.2
  3
txt.shx
  4
bigfont.shx
  0
STYLE
  5
95
330
3
100
AcDbSymbolTableRecord
100
AcDbTextStyleTableRecord
  2
CONVERTER_15
 70
     0
 40
0.0
 41
1.87368421052632
 50
0.0
 71
     0
 42
0.2
  3
txt.shx
  4

  0
STYLE
  5
96
330
3
100
AcDbSymbolTableRecord
100
AcDbTextStyleTableRecord
  2
CONVERTER_16
 70
     0
 40
0.0
 41
0.7120000000000001
 50
0.0
 71
     0
 42
0.2
  3
simplex.shx
  4
bigfont.shx
  0
STYLE
  5
97
330
3
100
AcDbSymbolTableRecord
100
AcDbTextStyleTableRecord
  2
CONVERTER_17
 70
     0
 40
0.0
 41
1.080714285714289
 50
0.0
 71
     0
 42
0.2
  3
txt.shx
  4
bigfont.shx
  0
STYLE
  5
98
330
3
100
AcDbSymbolTableRecord
100
AcDbTextStyleTableRecord
  2
CONVERTER_18
 70
     0
 40
0.0
 41
0.945625
 50
0.0
 71
     0
 42
0.2
  3
txt.shx
  4
bigfont.shx
  0
STYLE
  5
99
330
3
100
AcDbSymbolTableRecord
100
AcDbTextStyleTableRecord
  2
CONVERTER_19
 70
     0
 40
0.0
 41
0.73514
 50
0.0
 71
     0
 42
0.2
  3
simplex.shx
  4
bigfont.shx
  0
STYLE
  5
9A
330
3
100
AcDbSymbolTableRecord
100
AcDbTextStyleTableRecord
  2
CONVERTER_20
 70
     0
 40
0.0
 41
0.6230000000000003
 50
0.0
 71
     0
 42
0.2
  3
simplex.shx
  4
bigfont.shx
  0
STYLE
  5
9B
330
3
100
AcDbSymbolTableRecord
100
AcDbTextStyleTableRecord
  2
CONVERTER_21
 70
     0
 40
0.0
 41
1.62688172043011
 50
0.0
 71
     0
 42
0.2
  3
txt.shx
  4
bigfont.shx
  0
STYLE
  5
9C
330
3
100
AcDbSymbolTableRecord
100
AcDbTextStyleTableRecord
  2
CONVERTER_22
 70
     0
 40
0.0
 41
1.68111111111111
 50
0.0
 71
     0
 42
0.2
  3
txt.shx
  4
bigfont.shx
  0
STYLE
  5
9D
330
3
100
AcDbSymbolTableRecord
100
AcDbTextStyleTableRecord
  2
社名
 70
     0
 40
2.5
 41
0.8
 50
0.0
 71
     0
 42
2.5
  3

  4

1001
ACAD
1000
Swis721 Blk BT
1071
       34
  0
ENDTAB
  0
TABLE
  2
VIEW
  5
6
330
0
100
AcDbSymbolTable
 70
     0
  0
ENDTAB
  0
TABLE
  2
UCS
  5
7
330
0
100
AcDbSymbolTable
 70
     0
  0
ENDTAB
  0
TABLE
  2
APPID
  5
9
330
0
100
AcDbSymbolTable
 70
     1
  0
APPID
  5
12
330
9
100
AcDbSymbolTableRecord
100
AcDbRegAppTableRecord
  2
ACAD
 70
     0
  0
ENDTAB
  0
TABLE
  2
DIMSTYLE
  5
A
330
0
100
AcDbSymbolTable
 70
     2
100
AcDbDimStyleTable
 71
     0
  0
DIMSTYLE
105
27
330
A
100
AcDbSymbolTableRecord
100
AcDbDimStyleTableRecord
  2
ISO-25
 70
     0
 41
2.5
 42
0.625
 43
3.75
 44
1.25
 73
     0
 74
     0
 77
     1
 78
     8
140
2.5
141
2.5
143
0.03937007874016
147
0.625
171
     3
172
     1
271
     2
272
     2
274
     3
278
    44
283
     0
284
     8
340
11
  0
DIMSTYLE
105
9E
330
A
100
AcDbSymbolTableRecord
100
AcDbDimStyleTableRecord
  2
Standard
 70
     0
340
11
  0
ENDTAB
  0
TABLE
  2
BLOCK_RECORD
  5
1
330
0
100
AcDbSymbolTable
 70
     1
  0
BLOCK_RECORD
  5
1F
330
1
100
AcDbSymbolTableRecord
100
AcDbBlockTableRecord
  2
*Model_Space
340
22
  0
BLOCK_RECORD
  5
55
330
1
100
AcDbSymbolTableRecord
100
AcDbBlockTableRecord
  2
*Paper_Space
340
56
  0
BLOCK_RECORD
  5
50
330
1
100
AcDbSymbolTableRecord
100
AcDbBlockTableRecord
  2
*Paper_Space0
340
51
  0
ENDTAB
  0
ENDSEC
  0
SECTION
  2
BLOCKS
  0
BLOCK
  5
20
330
1F
100
AcDbEntity
  8
0
100
AcDbBlockBegin
  2
*Model_Space
 70
     0
 10
0.0
 20
0.0
 30
0.0
  3
*Model_Space
  1

  0
ENDBLK
  5
21
330
1F
100
AcDbEntity
  8
0
100
AcDbBlockEnd
  0
BLOCK
  5
57
330
55
100
AcDbEntity
 67
     1
  8
0
100
AcDbBlockBegin
  2
*Paper_Space
 70
     0
 10
0.0
 20
0.0
 30
0.0
  3
*Paper_Space
  1

  0
ENDBLK
  5
58
330
55
100
AcDbEntity
 67
     1
  8
0
100
AcDbBlockEnd
  0
BLOCK
  5
52
330
50
100
AcDbEntity
  8
0
100
AcDbBlockBegin
  2
*Paper_Space0
 70
     0
 10
0.0
 20
0.0
 30
0.0
  3
*Paper_Space0
  1

  0
VIEWPORT
  5
6B
330
50
100
AcDbEntity
  8
0
100
AcDbViewport
 10
133.3499908447265
 20
101.5999970436096
 30
0.0
 40
381.3957395593833
 41
218.2856291881582
 69
     0
 12
133.3499908447265
 22
101.5999970436096
 13
0.0
 23
0.0
 14
10.0
 24
10.0
 15
10.0
 25
10.0
 16
0.0
 26
0.0
 36
1.0
 17
0.0
 27
0.0
 37
0.0
 42
50.0
 43
0.0
 44
0.0
 45
218.2856291881582
 50
0.0
 51
0.0
 72
   100
 90
    32800
  1

281
     0
 71
     1
 74
     0
110
0.0
120
0.0
130
0.0
111
1.0
121
0.0
131
0.0
112
0.0
122
1.0
132
0.0
 79
     0
146
0.0
  0
VIEWPORT
  5
6D
330
50
100
AcDbEntity
  8
0
100
AcDbViewport
 10
133.3499939441679
 20
101.5999939441679
 30
0.0
 40
213.3599903106689
 41
162.5599903106689
 69
     0
 12
210.0
 22
148.5
 13
0.0
 23
0.0
 14
10.0
 24
10.0
 15
10.0
 25
10.0
 16
0.0
 26
0.0
 36
1.0
 17
0.0
 27
0.0
 37
0.0
 42
50.0
 43
0.0
 44
0.0
 45
324.0677920111345
 50
0.0
 51
0.0
 72
   100
 90
    32864
  1

281
     0
 71
     1
 74
     0
110
0.0
120
0.0
130
0.0
111
1.0
121
0.0
131
0.0
112
0.0
122
1.0
132
0.0
 79
     0
146
0.0
  0
ENDBLK
  5
53
330
50
100
AcDbEntity
  8
0
100
AcDbBlockEnd
  0
ENDSEC
  0
SECTION
  2
ENTITIES
  0
LINE
  5
5D3
330
1F
100
AcDbEntity
  8
0
  6
Continuous
 62
     7
100
AcDbLine
 10
-285.2257999999998
 20
95.0894
 30
0.0
 11
-285.2257999999998
 21
-36.1106
 31
0.0
  0
LINE
  5
5D4
330
1F
100
AcDbEntity
  8
0
  6
Continuous
 62
     7
100
AcDbLine
 10
-155.2257999999999
 20
-36.1106
 30
0.0
 11
-155.2257999999999
 21
95.0894
 31
0.0
  0
LINE
  5
5D5
330
1F
100
AcDbEntity
  8
0
  6
Continuous
 62
     7
100
AcDbLine
 10
-153.2257999999998
 20
-36.0105
 30
0.0
 11
-153.2256999999999
 21
94.9895
 31
0.0
  0
LINE
  5
5D6
330
1F
100
AcDbEntity
  8
0
  6
Continuous
 62
     7
100
AcDbLine
 10
-150.7257999999999
 20
-9.593799999999999
 30
0.0
 11
-150.7257999999999
 21
68.5728
 31
0.0
  0
LINE
  5
5D7
330
1F
100
AcDbEntity
  8
0
  6
Continuous
 62
     7
100
AcDbLine
 10
-287.2257999999998
 20
-36.01069999999999
 30
0.0
 11
-287.2257999999998
 21
94.98969999999999
 31
0.0
  0
LINE
  5
5D8
330
1F
100
AcDbEntity
  8
0
  6
Continuous
 62
     7
100
AcDbLine
 10
-289.7256
 20
-11.06249999999999
 30
0.0
 11
-289.7256
 21
70.0412
 31
0.0
  0
LINE
  5
5D9
330
1F
100
AcDbEntity
  8
0
  6
DASH_CENTER
 62
    30
100
AcDbLine
 10
-228.2257999999999
 20
106.3568999999999
 30
0.0
 11
-228.2257999999999
 21
-48.22290000000001
 31
0.0
  0
LINE
  5
5DE
330
1F
100
AcDbEntity
  8
0
  6
Continuous
 62
     7
100
AcDbLine
 10
-283.2256
 20
-41.50999999999998
 30
0.0
 11
-253.2255999999999
 21
-41.50999999999998
 31
0.0
  0
LINE
  5
5DF
330
1F
100
AcDbEntity
  8
0
  6
Continuous
 62
     7
100
AcDbLine
 10
-255.7255999999999
 20
-38.3101
 30
0.0
 11
-280.3009999999999
 21
-38.3101
 31
0.0
  0
ARC
  5
5E0
330
1F
100
AcDbEntity
  8
0
  6
Continuous
 62
     7
100
AcDbCircle
 10
-272.7871036975944
 20
-35.01000291249555
 30
0.0
 40
5.000002912496938
100
AcDbArc
 50
89.99995762871281
 51
166.453146091131
  0
LINE
  5
5EA
330
1F
100
AcDbEntity
  8
0
  6
Continuous
 62
     7
100
AcDbLine
 10
-289.7256
 20
-25.0107
 30
0.0
 11
-289.7256
 21
-16.2256
 31
0.0
  0
LINE
  5
5EB
330
1F
100
AcDbEntity
  8
0
  6
Continuous
 62
     7
100
AcDbLine
 10
-280.3009999999999
 20
-38.3101
 30
0.0
 11
-283.2256
 21
-38.3101
 31
0.0
  0
LINE
  5
5EC
330
1F
100
AcDbEntity
  8
0
  6
Continuous
 62
     7
100
AcDbLine
 10
-285.2257999999998
 20
-36.1106
 30
0.0
 11
-278.1956
 21
-36.1106
 31
0.0
  0
LINE
  5
5ED
330
1F
100
AcDbEntity
  8
0
  6
Continuous
 62
     7
100
AcDbLine
 10
-287.2257999999998
 20
-36.01069999999999
 30
0.0
 11
-285.2256
 21
-36.01069999999999
 31
0.0
  0
LINE
  5
5EE
330
1F
100
AcDbEntity
  8
0
  6
Continuous
 62
     7
100
AcDbLine
 10
-283.2256
 20
-38.3101
 30
0.0
 11
-283.2256
 21
-41.50999999999998
 31
0.0
  0
LINE
  5
5EF
330
1F
100
AcDbEntity
  8
0
  6
Continuous
 62
     7
100
AcDbLine
 10
-277.6481999999999
 20
-33.8389
 30
0.0
 11
-278.3566999999999
 21
-36.77859999999999
 31
0.0
  0
ARC
  5
5F0
330
1F
100
AcDbEntity
  8
0
  6
Continuous
 62
     7
100
AcDbCircle
 10
-280.3010325755
 20
-36.31012565798096
 30
0.0
 40
1.999974343155575
100
AcDbArc
 50
269.9980684055749
 51
346.4531620103473
  0
ARC
  5
5F1
330
1F
100
AcDbEntity
  8
0
  6
Continuous
 62
     7
100
AcDbCircle
 10
-286.7257881493165
 20
-25.01071757756585
 30
0.0
 40
3.000011850735001
100
AcDbArc
 50
179.999664294547
 51
247.9755345712891
  0
ARC
  5
5F2
330
1F
100
AcDbEntity
  8
0
  6
Continuous
 62
     7
100
AcDbCircle
 10
-288.2256348486133
 20
-28.71894830696082
 30
0.0
 40
1.00003484994942
100
AcDbArc
 50
359.9970383102383
 51
67.97434107409009
  0
LINE
  5
5F3
330
1F
100
AcDbEntity
  8
0
  6
CENTER_DASH_DASH
 62
    30
100
AcDbLine
 10
-280.2201999999999
 20
-13.6443
 30
0.0
 11
-295.0749999999998
 21
-13.6443
 31
0.0
  0
ARC
  5
5F4
330
1F
100
AcDbEntity
  8
0
  6
Continuous
 62
     7
100
AcDbCircle
 10
-288.5258767509108
 20
-11.56297462720556
 30
0.0
 40
1.300023249336613
100
AcDbArc
 50
95.0008298424778
 51
180.0011182523362
  0
ARC
  5
5F5
330
1F
100
AcDbEntity
  8
0
  6
Continuous
 62
     7
100
AcDbCircle
 10
-288.5258767509108
 20
-15.72532537279444
 30
0.0
 40
1.30002324933661
100
AcDbArc
 50
179.9988817476637
 51
264.9991701575221
  0
LINE
  5
5F6
330
1F
100
AcDbEntity
  8
0
  6
Continuous
 62
     7
100
AcDbLine
 10
-289.8258999999999
 20
-15.7253
 30
0.0
 11
-289.8258999999999
 21
-11.56299999999999
 31
0.0
  0
LINE
  5
5F7
330
1F
100
AcDbEntity
  8
0
  6
Continuous
 62
     7
100
AcDbLine
 10
-287.2257999999998
 20
-17.144
 30
0.0
 11
-288.6391999999998
 21
-17.02049999999999
 31
0.0
  0
ARC
  5
5F8
330
1F
100
AcDbEntity
  8
0
  6
Continuous
 62
     7
100
AcDbCircle
 10
-288.7256084602217
 20
-4.81808774355845
 30
0.0
 40
0.999991539853304
100
AcDbArc
 50
180.0007022483138
 51
249.2314032922791
  0
ARC
  5
5F9
330
1F
100
AcDbEntity
  8
0
  6
Continuous
 62
     7
100
AcDbCircle
 10
-288.2256028212008
 20
-7.146495915027017
 30
0.0
 40
1.000002864983563
100
AcDbArc
 50
0.0169546338151686
 51
69.24321309630288
  0
LINE
  5
5FA
330
1F
100
AcDbEntity
  8
0
  6
Continuous
 62
     7
100
AcDbLine
 10
-287.2257999999998
 20
-10.14399999999999
 30
0.0
 11
-288.6391999999998
 21
-10.2678
 31
0.0
  0
LINE
  5
5FB
330
1F
100
AcDbEntity
  8
0
  6
Continuous
 62
     7
100
AcDbLine
 10
-287.8710999999999
 20
-6.211199999999998
 30
0.0
 11
-289.0801
 21
-5.752899999999996
 31
0.0
  0
LINE
  5
605
330
1F
100
AcDbEntity
  8
0
  6
DASH_CENTER
 62
    30
100
AcDbLine
 10
-142.7988
 20
-13.6436
 30
0.0
 11
-158.9272
 21
-13.6436
 31
0.0
  0
LINE
  5
613
330
1F
100
AcDbEntity
  8
0
  6
Continuous
 62
     7
100
AcDbLine
 10
-228.2257999999999
 20
-40.50999999999999
 30
0.0
 11
-203.2258999999998
 21
-40.51029999999999
 31
0.0
  0
LINE
  5
614
330
1F
100
AcDbEntity
  8
0
  6
Continuous
 62
     7
100
AcDbLine
 10
-201.7259
 20
-37.31009999999999
 30
0.0
 11
-228.2257999999999
 21
-37.31009999999999
 31
0.0
  0
LINE
  5
615
330
1F
100
AcDbEntity
  8
0
  6
Continuous
 62
     7
100
AcDbLine
 10
-209.0444999999998
 20
-14.5103
 30
0.0
 11
-247.407
 21
-14.50999999999999
 31
0.0
  0
LINE
  5
617
330
1F
100
AcDbEntity
  8
0
  6
DASH_CENTER
 62
    30
100
AcDbLine
 10
-273.2256
 20
-44.8293
 30
0.0
 11
-273.2256
 21
-36.06489999999999
 31
0.0
  0
LINE
  5
62E
330
1F
100
AcDbEntity
  8
0
  6
Continuous
 62
     7
100
AcDbLine
 10
-214.0976999999999
 20
-40.5105
 30
0.0
 11
-250.7147999999999
 21
-40.5105
 31
0.0
  0
LINE
  5
62F
330
1F
100
AcDbEntity
  8
0
  6
Continuous
 62
     7
100
AcDbLine
 10
-228.2257999999999
 20
-40.50999999999999
 30
0.0
 11
-253.2255999999999
 21
-40.51029999999999
 31
0.0
  0
LINE
  5
630
330
1F
100
AcDbEntity
  8
0
  6
Continuous
 62
     7
100
AcDbLine
 10
-228.2255999999999
 20
-37.31009999999999
 30
0.0
 11
-254.7255999999999
 21
-37.31009999999999
 31
0.0
  0
ARC
  5
631
330
1F
100
AcDbEntity
  8
0
  6
Continuous
 62
     7
100
AcDbCircle
 10
-247.4070046098407
 20
-24.51000406524622
 30
0.0
 40
10.00000406524728
100
AcDbArc
 50
89.9999735875682
 51
172.8157587418019
  0
LINE
  5
632
330
1F
100
AcDbEntity
  8
0
  6
Continuous
 62
     7
100
AcDbLine
 10
-257.3285999999999
 20
-23.2595
 30
0.0
 11
-258.8947999999999
 21
-35.68529999999999
 31
0.0
  0
ARC
  5
633
330
1F
100
AcDbEntity
  8
0
  6
Continuous
 62
     7
100
AcDbCircle
 10
-261.8711253253826
 20
-35.31012233371338
 30
0.0
 40
2.999977666393513
100
AcDbArc
 50
270.0004836827825
 51
352.8157704402918
  0
ARC
  5
634
330
1F
100
AcDbEntity
  8
0
  6
Continuous
 62
     7
100
AcDbCircle
 10
-267.3431623749478
 20
-15.10526924578214
 30
0.0
 40
15.00000530896049
100
AcDbArc
 50
276.4577652006522
 51
309.7344710844605
  0
LINE
  5
635
330
1F
100
AcDbEntity
  8
0
  6
Continuous
 62
     7
100
AcDbLine
 10
-265.6562
 20
-30.01
 30
0.0
 11
-272.7870999999999
 21
-30.01
 31
0.0
  0
LINE
  5
636
330
1F
100
AcDbEntity
  8
0
  6
Continuous
 62
     7
100
AcDbLine
 10
-253.2255999999999
 20
-40.51029999999999
 30
0.0
 11
-253.2255999999999
 21
-41.5103
 31
0.0
  0
ARC
  5
637
330
1F
100
AcDbEntity
  8
0
  6
Continuous
 62
     7
100
AcDbCircle
 10
-254.7255999999999
 20
-37.8101
 30
0.0
 40
0.5
100
AcDbArc
 50
90.0
 51
180.0
  0
ARC
  5
638
330
1F
100
AcDbEntity
  8
0
  6
Continuous
 62
     7
100
AcDbCircle
 10
-255.7255999999999
 20
-37.8101
 30
0.0
 40
0.5
100
AcDbArc
 50
270.0
 51
0.0
  0
LINE
  5
639
330
1F
100
AcDbEntity
  8
0
  6
Continuous
 62
     7
100
AcDbLine
 10
-245.2263
 20
-13.75999999999999
 30
0.0
 11
-266.2262999999999
 21
-13.75999999999999
 31
0.0
  0
LINE
  5
63A
330
1F
100
AcDbEntity
  8
0
  6
Continuous
 62
     7
100
AcDbLine
 10
-245.2263
 20
-0.7600000000000016
 30
0.0
 11
-266.2262999999999
 21
-0.7600000000000016
 31
0.0
  0
LINE
  5
63B
330
1F
100
AcDbEntity
  8
0
  6
Continuous
 62
     7
100
AcDbLine
 10
-266.2260999999999
 20
-17.76
 30
0.0
 11
-254.7852
 21
-17.76
 31
0.0
  0
LINE
  5
63C
330
1F
100
AcDbEntity
  8
0
  6
Continuous
 62
     7
100
AcDbLine
 10
-245.2263
 20
-7.759999999999998
 30
0.0
 11
-266.2262999999999
 21
-7.759999999999998
 31
0.0
  0
LINE
  5
63D
330
1F
100
AcDbEntity
  8
0
  6
Continuous
 62
     7
100
AcDbLine
 10
-245.2263
 20
-6.560099999999997
 30
0.0
 11
-266.2262999999999
 21
-6.560099999999997
 31
0.0
  0
LINE
  5
63E
330
1F
100
AcDbEntity
  8
0
  6
Continuous
 62
     7
100
AcDbLine
 10
-266.2260999999999
 20
-19.26
 30
0.0
 11
-255.9177
 21
-19.26
 31
0.0
  0
ARC
  5
63F
330
1F
100
AcDbEntity
  8
0
  6
Continuous
 62
     7
100
AcDbCircle
 10
-266.2262999999999
 20
-17.26
 30
0.0
 40
2.0
100
AcDbArc
 50
180.0
 51
270.0
  0
ARC
  5
640
330
1F
100
AcDbEntity
  8
0
  6
Continuous
 62
     7
100
AcDbCircle
 10
-266.2262999999999
 20
-15.75999999999999
 30
0.0
 40
2.0
100
AcDbArc
 50
180.0
 51
270.0
  0
ARC
  5
641
330
1F
100
AcDbEntity
  8
0
  6
Continuous
 62
     7
100
AcDbCircle
 10
-266.2262999999999
 20
-15.75999999999999
 30
0.0
 40
2.0
100
AcDbArc
 50
90.0
 51
180.0
  0
LINE
  5
642
330
1F
100
AcDbEntity
  8
0
  6
Continuous
 62
     7
100
AcDbLine
 10
-268.2262999999999
 20
-17.26
 30
0.0
 11
-268.2262999999999
 21
-15.75999999999999
 31
0.0
  0
ARC
  5
643
330
1F
100
AcDbEntity
  8
0
  6
Continuous
 62
     7
100
AcDbCircle
 10
-266.2262999999999
 20
-2.759999999999998
 30
0.0
 40
2.0
100
AcDbArc
 50
90.0
 51
180.0
  0
ARC
  5
644
330
1F
100
AcDbEntity
  8
0
  6
Continuous
 62
     7
100
AcDbCircle
 10
-266.2262999999999
 20
-4.560099999999998
 30
0.0
 40
2.0
100
AcDbArc
 50
180.0
 51
270.0
  0
ARC
  5
645
330
1F
100
AcDbEntity
  8
0
  6
Continuous
 62
     7
100
AcDbCircle
 10
-266.2262999999999
 20
-5.759999999999998
 30
0.0
 40
2.0
100
AcDbArc
 50
180.0
 51
270.0
  0
LINE
  5
646
330
1F
100
AcDbEntity
  8
0
  6
Continuous
 62
     7
100
AcDbLine
 10
-268.2262999999999
 20
-2.759999999999998
 30
0.0
 11
-268.2262999999999
 21
-5.759999999999998
 31
0.0
  0
ARC
  5
647
330
1F
100
AcDbEntity
  8
0
  6
Continuous
 62
     7
100
AcDbCircle
 10
-245.2266078293516
 20
-15.75999623753785
 30
0.0
 40
1.999996261227638
100
AcDbArc
 50
38.67479576510617
 51
89.99118132214919
  0
ARC
  5
648
330
1F
100
AcDbEntity
  8
0
  6
Continuous
 62
     7
100
AcDbCircle
 10
-245.2263
 20
-4.560099999999998
 30
0.0
 40
2.0
100
AcDbArc
 50
270.0
 51
0.0
  0
ARC
  5
649
330
1F
100
AcDbEntity
  8
0
  6
Continuous
 62
     7
100
AcDbCircle
 10
-245.2263
 20
-5.759999999999998
 30
0.0
 40
2.0
100
AcDbArc
 50
270.0
 51
0.0
  0
ARC
  5
64A
330
1F
100
AcDbEntity
  8
0
  6
Continuous
 62
     7
100
AcDbCircle
 10
-245.2263
 20
-2.759999999999998
 30
0.0
 40
2.0
100
AcDbArc
 50
0.0
 51
90.0
  0
LINE
  5
64B
330
1F
100
AcDbEntity
  8
0
  6
Continuous
 62
     7
100
AcDbLine
 10
-243.2263
 20
-2.759999999999998
 30
0.0
 11
-243.2263
 21
-5.759999999999998
 31
0.0
  0
CIRCLE
  5
64C
330
1F
100
AcDbEntity
  8
0
  6
Continuous
 62
     7
100
AcDbCircle
 10
-228.2257999999999
 20
-26.5103
 30
0.0
 40
5.0
  0
LINE
  5
64D
330
1F
100
AcDbEntity
  8
0
  6
DASH_CENTER
 62
    30
100
AcDbLine
 10
-218.9208
 20
-26.5103
 30
0.0
 11
-237.5898999999999
 21
-26.5103
 31
0.0
  0
LINE
  5
64E
330
1F
100
AcDbEntity
  8
0
  6
Continuous
 62
     7
100
AcDbLine
 10
-226.3520999999999
 20
-27.67689999999999
 30
0.0
 11
-227.0592
 21
-28.384
 31
0.0
  0
LINE
  5
64F
330
1F
100
AcDbEntity
  8
0
  6
Continuous
 62
     7
100
AcDbLine
 10
-226.3520999999999
 20
-25.34359999999999
 30
0.0
 11
-227.0592
 21
-24.63649999999999
 31
0.0
  0
LINE
  5
650
330
1F
100
AcDbEntity
  8
0
  6
Continuous
 62
     7
100
AcDbLine
 10
-226.3520999999999
 20
-25.34359999999999
 30
0.0
 11
-227.1652
 21
-26.1567
 31
0.0
  0
LINE
  5
651
330
1F
100
AcDbEntity
  8
0
  6
Continuous
 62
     7
100
AcDbLine
 10
-226.3520999999999
 20
-27.67689999999999
 30
0.0
 11
-227.1652
 21
-26.86379999999999
 31
0.0
  0
CIRCLE
  5
652
330
1F
100
AcDbEntity
  8
0
  6
Continuous
 62
     7
100
AcDbCircle
 10
-228.2257999999999
 20
-26.5103
 30
0.0
 40
3.5
  0
ARC
  5
654
330
1F
100
AcDbEntity
  8
0
  6
Continuous
 62
     7
100
AcDbCircle
 10
-229.6399999999999
 20
-26.51025
 30
0.0
 40
0.499959850888048
100
AcDbArc
 50
314.9959482512253
 51
45.0040517487745
  0
ARC
  5
655
330
1F
100
AcDbEntity
  8
0
  6
Continuous
 62
     7
100
AcDbCircle
 10
-228.22585
 20
-25.0961
 30
0.0
 40
0.4999598508880581
100
AcDbArc
 50
224.9959482512253
 51
315.0040517487723
  0
ARC
  5
656
330
1F
100
AcDbEntity
  8
0
  6
Continuous
 62
     7
100
AcDbCircle
 10
-226.8116
 20
-26.51025
 30
0.0
 40
0.5000305615659899
100
AcDbArc
 50
135.004051175806
 51
224.9959488241939
  0
ARC
  5
657
330
1F
100
AcDbEntity
  8
0
  6
Continuous
 62
     7
100
AcDbCircle
 10
-228.22585
 20
-27.92449999999999
 30
0.0
 40
0.5000305615659773
100
AcDbArc
 50
45.00405117580681
 51
134.9959488241954
  0
LINE
  5
658
330
1F
100
AcDbEntity
  8
0
  6
Continuous
 62
     7
100
AcDbLine
 10
-229.3927
 20
-24.6363
 30
0.0
 11
-230.0997999999999
 21
-25.3434
 31
0.0
  0
LINE
  5
659
330
1F
100
AcDbEntity
  8
0
  6
Continuous
 62
     7
100
AcDbLine
 10
-229.3925
 20
-28.384
 30
0.0
 11
-230.0996
 21
-27.67689999999999
 31
0.0
  0
LINE
  5
65A
330
1F
100
AcDbEntity
  8
0
  6
Continuous
 62
     7
100
AcDbLine
 10
-229.2864999999999
 20
-26.86379999999999
 30
0.0
 11
-230.0996
 21
-27.67689999999999
 31
0.0
  0
LINE
  5
65B
330
1F
100
AcDbEntity
  8
0
  6
Continuous
 62
     7
100
AcDbLine
 10
-228.5794
 20
-27.5709
 30
0.0
 11
-229.3925
 21
-28.384
 31
0.0
  0
LINE
  5
65C
330
1F
100
AcDbEntity
  8
0
  6
Continuous
 62
     7
100
AcDbLine
 10
-227.0592
 20
-24.63649999999999
 30
0.0
 11
-227.8722999999999
 21
-25.4496
 31
0.0
  0
LINE
  5
65D
330
1F
100
AcDbEntity
  8
0
  6
Continuous
 62
     7
100
AcDbLine
 10
-228.5794
 20
-25.4496
 30
0.0
 11
-229.3927
 21
-24.6363
 31
0.0
  0
LINE
  5
65E
330
1F
100
AcDbEntity
  8
0
  6
Continuous
 62
     7
100
AcDbLine
 10
-229.2864999999999
 20
-26.1567
 30
0.0
 11
-230.0997999999999
 21
-25.3434
 31
0.0
  0
LINE
  5
65F
330
1F
100
AcDbEntity
  8
0
  6
Continuous
 62
     7
100
AcDbLine
 10
-227.0592
 20
-28.384
 30
0.0
 11
-227.8722999999999
 21
-27.5709
 31
0.0
  0
LINE
  5
750
330
1F
100
AcDbEntity
  8
0
  6
DASH_CENTER
 62
    30
100
AcDbLine
 10
-183.2259999999999
 20
-44.8293
 30
0.0
 11
-183.2259999999999
 21
-36.06489999999999
 31
0.0
  0
LINE
  5
765
330
1F
100
AcDbEntity
  8
0
  6
Continuous
 62
     7
100
AcDbLine
 10
-200.7258999999999
 20
-38.3101
 30
0.0
 11
-173.2258999999999
 21
-38.3101
 31
0.0
  0
LINE
  5
766
330
1F
100
AcDbEntity
  8
0
  6
Continuous
 62
     7
100
AcDbLine
 10
-178.8031
 20
-33.8389
 30
0.0
 11
-178.0947999999999
 21
-36.77859999999999
 31
0.0
  0
LINE
  5
767
330
1F
100
AcDbEntity
  8
0
  6
Continuous
 62
     7
100
AcDbLine
 10
-203.2258999999998
 20
-41.5103
 30
0.0
 11
-173.2258999999999
 21
-41.5103
 31
0.0
  0
LINE
  5
768
330
1F
100
AcDbEntity
  8
0
  6
Continuous
 62
     7
100
AcDbLine
 10
-171.2264999999999
 20
-13.75999999999999
 30
0.0
 11
-192.2264999999999
 21
-13.75999999999999
 31
0.0
  0
LINE
  5
769
330
1F
100
AcDbEntity
  8
0
  6
Continuous
 62
     7
100
AcDbLine
 10
-171.2264999999999
 20
-0.7600000000000016
 30
0.0
 11
-192.2264999999999
 21
-0.7600000000000016
 31
0.0
  0
LINE
  5
76A
330
1F
100
AcDbEntity
  8
0
  6
Continuous
 62
     7
100
AcDbLine
 10
-171.2264999999999
 20
-19.26
 30
0.0
 11
-192.2264999999999
 21
-19.26
 31
0.0
  0
LINE
  5
76B
330
1F
100
AcDbEntity
  8
0
  6
Continuous
 62
     7
100
AcDbLine
 10
-171.2264999999999
 20
-17.76
 30
0.0
 11
-192.2264999999999
 21
-17.76
 31
0.0
  0
LINE
  5
76C
330
1F
100
AcDbEntity
  8
0
  6
Continuous
 62
     7
100
AcDbLine
 10
-171.2264999999999
 20
-6.560099999999997
 30
0.0
 11
-192.2264999999999
 21
-6.560099999999997
 31
0.0
  0
LINE
  5
76D
330
1F
100
AcDbEntity
  8
0
  6
Continuous
 62
     7
100
AcDbLine
 10
-171.2264999999999
 20
-7.759999999999998
 30
0.0
 11
-192.2264999999999
 21
-7.759999999999998
 31
0.0
  0
ARC
  5
76E
330
1F
100
AcDbEntity
  8
0
  6
Continuous
 62
     7
100
AcDbCircle
 10
-183.6642580141083
 20
-35.00995430290921
 30
0.0
 40
4.999954303245756
100
AcDbArc
 50
13.546415150551
 51
89.99933520121038
  0
ARC
  5
76F
330
1F
100
AcDbEntity
  8
0
  6
Continuous
 62
     7
100
AcDbCircle
 10
-209.0444953901593
 20
-24.51030406524621
 30
0.0
 40
10.0000040652473
100
AcDbArc
 50
7.184241258198169
 51
90.00002641243177
  0
ARC
  5
770
330
1F
100
AcDbEntity
  8
0
  6
Continuous
 62
     7
100
AcDbCircle
 10
-189.1082403023077
 20
-15.10522545812109
 30
0.0
 40
15.00003727097992
100
AcDbArc
 50
230.2656436949826
 51
263.5426433195489
  0
LINE
  5
771
330
1F
100
AcDbEntity
  8
0
  6
Continuous
 62
     7
100
AcDbLine
 10
-199.1230999999999
 20
-23.25979999999999
 30
0.0
 11
-197.5567
 21
-35.68529999999999
 31
0.0
  0
LINE
  5
772
330
1F
100
AcDbEntity
  8
0
  6
Continuous
 62
     7
100
AcDbLine
 10
-203.2258999999998
 20
-40.51029999999999
 30
0.0
 11
-203.2258999999998
 21
-41.5103
 31
0.0
  0
ARC
  5
773
330
1F
100
AcDbEntity
  8
0
  6
Continuous
 62
     7
100
AcDbCircle
 10
-200.7257999949999
 20
-37.810100005001
 30
0.0
 40
0.500000005000004
100
AcDbArc
 50
179.9999994269269
 51
269.9885402711763
  0
ARC
  5
774
330
1F
100
AcDbEntity
  8
0
  6
Continuous
 62
     7
100
AcDbCircle
 10
-201.7258000049999
 20
-37.81009999500099
 30
0.0
 40
0.500000005000004
100
AcDbArc
 50
359.9999994271572
 51
90.01145858290714
  0
ARC
  5
775
330
1F
100
AcDbEntity
  8
0
  6
Continuous
 62
     7
100
AcDbCircle
 10
-194.5803746746172
 20
-35.31012233371338
 30
0.0
 40
2.999977666393504
100
AcDbArc
 50
187.1842295597079
 51
269.9995163172173
  0
LINE
  5
776
330
1F
100
AcDbEntity
  8
0
  6
Continuous
 62
     7
100
AcDbLine
 10
-190.7951999999999
 20
-30.01
 30
0.0
 11
-183.6641999999999
 21
-30.00999999999999
 31
0.0
  0
ARC
  5
777
330
1F
100
AcDbEntity
  8
0
  6
Continuous
 62
     7
100
AcDbCircle
 10
-192.2264999999999
 20
-2.759999999999998
 30
0.0
 40
2.0
100
AcDbArc
 50
90.0
 51
180.0
  0
ARC
  5
778
330
1F
100
AcDbEntity
  8
0
  6
Continuous
 62
     7
100
AcDbCircle
 10
-192.2264999999999
 20
-15.75999999999999
 30
0.0
 40
2.0
100
AcDbArc
 50
90.0
 51
180.0
  0
ARC
  5
779
330
1F
100
AcDbEntity
  8
0
  6
Continuous
 62
     7
100
AcDbCircle
 10
-192.2264999999999
 20
-5.759999999999998
 30
0.0
 40
2.0
100
AcDbArc
 50
180.0
 51
270.0
  0
ARC
  5
77A
330
1F
100
AcDbEntity
  8
0
  6
Continuous
 62
     7
100
AcDbCircle
 10
-192.2264999999999
 20
-15.75999999999999
 30
0.0
 40
2.0
100
AcDbArc
 50
180.0
 51
270.0
  0
ARC
  5
77B
330
1F
100
AcDbEntity
  8
0
  6
Continuous
 62
     7
100
AcDbCircle
 10
-192.2264999999999
 20
-4.560099999999998
 30
0.0
 40
2.0
100
AcDbArc
 50
180.0
 51
270.0
  0
ARC
  5
77C
330
1F
100
AcDbEntity
  8
0
  6
Continuous
 62
     7
100
AcDbCircle
 10
-192.2264999999999
 20
-17.26
 30
0.0
 40
2.0
100
AcDbArc
 50
180.0
 51
270.0
  0
LINE
  5
77D
330
1F
100
AcDbEntity
  8
0
  6
Continuous
 62
     7
100
AcDbLine
 10
-194.2264999999999
 20
-15.75999999999999
 30
0.0
 11
-194.2264999999999
 21
-17.26
 31
0.0
  0
LINE
  5
77E
330
1F
100
AcDbEntity
  8
0
  6
Continuous
 62
     7
100
AcDbLine
 10
-194.2264999999999
 20
-2.759999999999998
 30
0.0
 11
-194.2264999999999
 21
-5.759999999999998
 31
0.0
  0
LINE
  5
77F
330
1F
100
AcDbEntity
  8
0
  6
Continuous
 62
     7
100
AcDbLine
 10
-150.7257999999999
 20
-25.0095
 30
0.0
 11
-150.7257999999999
 21
-17.6931
 31
0.0
  0
LINE
  5
780
330
1F
100
AcDbEntity
  8
0
  6
Continuous
 62
     7
100
AcDbLine
 10
-178.2556999999999
 20
-36.1106
 30
0.0
 11
-155.2257999999999
 21
-36.1106
 31
0.0
  0
LINE
  5
781
330
1F
100
AcDbEntity
  8
0
  6
Continuous
 62
     7
100
AcDbLine
 10
-173.2258999999999
 20
-38.3101
 30
0.0
 11
-173.2258999999999
 21
-41.5103
 31
0.0
  0
ARC
  5
782
330
1F
100
AcDbEntity
  8
0
  6
Continuous
 62
     7
100
AcDbCircle
 10
-176.1504674245
 20
-36.31012565798096
 30
0.0
 40
1.999974343155558
100
AcDbArc
 50
193.5468379896519
 51
270.0019315944233
  0
LINE
  5
783
330
1F
100
AcDbEntity
  8
0
  6
Continuous
 62
     7
100
AcDbLine
 10
-153.2257999999998
 20
-36.0105
 30
0.0
 11
-155.2259
 21
-36.0105
 31
0.0
  0
ARC
  5
784
330
1F
100
AcDbEntity
  8
0
  6
Continuous
 62
     7
100
AcDbCircle
 10
-153.7257931016157
 20
-25.00948976849448
 30
0.0
 40
2.999993101633357
100
AcDbArc
 50
292.0221638197973
 51
359.999804592189
  0
ARC
  5
785
330
1F
100
AcDbEntity
  8
0
  6
Continuous
 62
     7
100
AcDbCircle
 10
-152.2257651513865
 20
-28.71774830696082
 30
0.0
 40
1.000034849949444
100
AcDbArc
 50
112.0256589259116
 51
180.0029616897615
  0
ARC
  5
786
330
1F
100
AcDbEntity
  8
0
  6
Continuous
 62
     7
100
AcDbCircle
 10
-171.2264999999999
 20
-17.26
 30
0.0
 40
2.0
100
AcDbArc
 50
270.0
 51
0.0
  0
ARC
  5
787
330
1F
100
AcDbEntity
  8
0
  6
Continuous
 62
     7
100
AcDbCircle
 10
-171.2264999999999
 20
-15.75999999999999
 30
0.0
 40
2.0
100
AcDbArc
 50
0.0
 51
90.0
  0
ARC
  5
788
330
1F
100
AcDbEntity
  8
0
  6
Continuous
 62
     7
100
AcDbCircle
 10
-171.2264999999999
 20
-15.75999999999999
 30
0.0
 40
2.000000000000002
100
AcDbArc
 50
270.0
 51
0.0
  0
LINE
  5
789
330
1F
100
AcDbEntity
  8
0
  6
Continuous
 62
     7
100
AcDbLine
 10
-169.2264999999999
 20
-17.26
 30
0.0
 11
-169.2264999999999
 21
-15.75999999999999
 31
0.0
  0
ARC
  5
78A
330
1F
100
AcDbEntity
  8
0
  6
Continuous
 62
     7
100
AcDbCircle
 10
-171.2264999999999
 20
-2.759999999999998
 30
0.0
 40
2.0
100
AcDbArc
 50
0.0
 51
90.0
  0
ARC
  5
78B
330
1F
100
AcDbEntity
  8
0
  6
Continuous
 62
     7
100
AcDbCircle
 10
-171.2264999999999
 20
-5.759999999999998
 30
0.0
 40
2.0
100
AcDbArc
 50
270.0
 51
0.0
  0
ARC
  5
78C
330
1F
100
AcDbEntity
  8
0
  6
Continuous
 62
     7
100
AcDbCircle
 10
-171.2264999999999
 20
-4.560099999999998
 30
0.0
 40
2.0
100
AcDbArc
 50
270.0
 51
0.0
  0
LINE
  5
78D
330
1F
100
AcDbEntity
  8
0
  6
Continuous
 62
     7
100
AcDbLine
 10
-169.2264999999999
 20
-2.759999999999998
 30
0.0
 11
-169.2264999999999
 21
-5.759999999999998
 31
0.0
  0
ARC
  5
78E
330
1F
100
AcDbEntity
  8
0
  6
Continuous
 62
     7
100
AcDbCircle
 10
-156.6141858478147
 20
-9.602228137292627
 30
0.0
 40
6.588374475895837
100
AcDbArc
 50
342.1375442905591
 51
355.5806523657635
  0
LINE
  5
78F
330
1F
100
AcDbEntity
  8
0
  6
Continuous
 62
     7
100
AcDbLine
 10
-153.2257999999998
 20
-10.14359999999999
 30
0.0
 11
-153.2257999999998
 21
-17.1436
 31
0.0
  0
LINE
  5
790
330
1F
100
AcDbEntity
  8
0
  6
Continuous
 62
     7
100
AcDbLine
 10
-150.0258
 20
-17.1436
 30
0.0
 11
-150.0258
 21
-10.14359999999999
 31
0.0
  0
ARC
  5
791
330
1F
100
AcDbEntity
  8
0
  6
Continuous
 62
     7
100
AcDbCircle
 10
-156.6141858478147
 20
-17.68517186270737
 30
0.0
 40
6.588374475895839
100
AcDbArc
 50
4.419347634236522
 51
17.86245570944105
  0
ARC
  5
792
330
1F
100
AcDbEntity
  8
0
  6
Continuous
 62
     7
100
AcDbCircle
 10
-156.6142
 20
-13.64374999999999
 30
0.0
 40
6.58835056766867
100
AcDbArc
 50
342.1385907380356
 51
17.86140926196429
  0
LINE
  5
793
330
1F
100
AcDbEntity
  8
0
  6
Continuous
 62
     7
100
AcDbLine
 10
-150.3434
 20
-11.62299999999999
 30
0.0
 11
-153.2257999999998
 21
-11.62299999999999
 31
0.0
  0
LINE
  5
794
330
1F
100
AcDbEntity
  8
0
  6
Continuous
 62
     7
100
AcDbLine
 10
-152.9082999999999
 20
-17.69359999999999
 30
0.0
 11
-150.3434
 21
-17.69359999999999
 31
0.0
  0
LINE
  5
795
330
1F
100
AcDbEntity
  8
0
  6
Continuous
 62
     7
100
AcDbLine
 10
-150.3434
 20
-15.66429999999999
 30
0.0
 11
-153.2257999999998
 21
-15.66429999999999
 31
0.0
  0
LINE
  5
796
330
1F
100
AcDbEntity
  8
0
  6
Continuous
 62
     7
100
AcDbLine
 10
-150.0258
 20
-17.1436
 30
0.0
 11
-150.3434
 21
-17.69359999999999
 31
0.0
  0
LINE
  5
797
330
1F
100
AcDbEntity
  8
0
  6
Continuous
 62
     7
100
AcDbLine
 10
-153.2257999999998
 20
-17.1436
 30
0.0
 11
-152.9082999999999
 21
-17.69359999999999
 31
0.0
  0
LINE
  5
798
330
1F
100
AcDbEntity
  8
0
  6
Continuous
 62
     7
100
AcDbLine
 10
-147.5757
 20
-11.64379999999999
 30
0.0
 11
-150.0258
 21
-11.64379999999999
 31
0.0
  0
LINE
  5
799
330
1F
100
AcDbEntity
  8
0
  6
Continuous
 62
    30
100
AcDbLine
 10
-147.2255999999999
 20
-11.9937
 30
0.0
 11
-150.0258
 21
-11.9937
 31
0.0
  0
LINE
  5
79A
330
1F
100
AcDbEntity
  8
0
  6
Continuous
 62
     7
100
AcDbLine
 10
-150.0258
 20
-15.64359999999999
 30
0.0
 11
-147.5757
 21
-15.64359999999999
 31
0.0
  0
LINE
  5
79B
330
1F
100
AcDbEntity
  8
0
  6
Continuous
 62
    30
100
AcDbLine
 10
-147.2255999999999
 20
-15.2937
 30
0.0
 11
-150.0258
 21
-15.2937
 31
0.0
  0
LINE
  5
79C
330
1F
100
AcDbEntity
  8
0
  6
Continuous
 62
     7
100
AcDbLine
 10
-147.5757
 20
-11.64379999999999
 30
0.0
 11
-147.5757
 21
-15.64359999999999
 31
0.0
  0
LINE
  5
79D
330
1F
100
AcDbEntity
  8
0
  6
Continuous
 62
     7
100
AcDbLine
 10
-147.2255999999999
 20
-15.2937
 30
0.0
 11
-147.2255999999999
 21
-11.9937
 31
0.0
  0
LINE
  5
79E
330
1F
100
AcDbEntity
  8
0
  6
Continuous
 62
     7
100
AcDbLine
 10
-147.2255999999999
 20
-15.2937
 30
0.0
 11
-147.5757
 21
-15.64359999999999
 31
0.0
  0
LINE
  5
79F
330
1F
100
AcDbEntity
  8
0
  6
Continuous
 62
     7
100
AcDbLine
 10
-147.2255999999999
 20
-11.9937
 30
0.0
 11
-147.5757
 21
-11.64379999999999
 31
0.0
  0
ARC
  5
7A0
330
1F
100
AcDbEntity
  8
0
  6
Continuous
 62
     7
100
AcDbCircle
 10
-151.725773810375
 20
-4.818062064602058
 30
0.0
 40
0.9999738110945768
100
AcDbArc
 50
290.7617677322985
 51
359.9978264048791
  0
ARC
  5
7A1
330
1F
100
AcDbEntity
  8
0
  6
Continuous
 62
     7
100
AcDbCircle
 10
-152.2258971787992
 20
-7.14649591502703
 30
0.0
 40
1.000002864983569
100
AcDbArc
 50
110.7567869036971
 51
179.983045366184
  0
LINE
  5
7A2
330
1F
100
AcDbEntity
  8
0
  6
Continuous
 62
     7
100
AcDbLine
 10
-150.0258
 20
-10.14359999999999
 30
0.0
 11
-150.3434
 21
-9.593799999999999
 31
0.0
  0
LINE
  5
7A3
330
1F
100
AcDbEntity
  8
0
  6
Continuous
 62
     7
100
AcDbLine
 10
-150.3434
 20
-9.593799999999999
 30
0.0
 11
-152.9082999999999
 21
-9.593799999999999
 31
0.0
  0
LINE
  5
7A4
330
1F
100
AcDbEntity
  8
0
  6
Continuous
 62
     7
100
AcDbLine
 10
-153.2257999999998
 20
-10.14359999999999
 30
0.0
 11
-152.9082999999999
 21
-9.593799999999999
 31
0.0
  0
LINE
  5
7A5
330
1F
100
AcDbEntity
  8
0
  6
Continuous
 62
     7
100
AcDbLine
 10
-152.5803999999999
 20
-6.211199999999998
 30
0.0
 11
-151.3712999999999
 21
-5.752899999999996
 31
0.0
  0
ARC
  5
7B0
330
1F
100
AcDbEntity
  8
0
  6
Continuous
 62
     7
100
AcDbCircle
 10
-269.2255481588878
 20
29.48950000068641
 30
0.0
 40
13.49998675507915
100
AcDbArc
 50
304.0181826552918
 51
235.9833346112948
  0
LINE
  5
7B1
330
1F
100
AcDbEntity
  8
0
  6
Continuous
 62
     7
100
AcDbLine
 10
-275.8396
 20
12.2665
 30
0.0
 11
-270.7256
 21
25.8861
 31
0.0
  0
LINE
  5
7B2
330
1F
100
AcDbEntity
  8
0
  6
Continuous
 62
     7
100
AcDbLine
 10
-272.3520999999999
 20
30.08399999999999
 30
0.0
 11
-278.6478999999999
 21
13.3211
 31
0.0
  0
LINE
  5
7B3
330
1F
100
AcDbEntity
  8
0
  6
Continuous
 62
     7
100
AcDbLine
 10
-277.9206999999999
 20
95.0894
 30
0.0
 11
-155.2257999999999
 21
95.08929999999999
 31
0.0
  0
LINE
  5
7B4
330
1F
100
AcDbEntity
  8
0
  6
DASH_CENTER
 62
    30
100
AcDbLine
 10
-96.99320000000005
 20
29.48949999999999
 30
0.0
 11
-314.0802999999999
 21
29.48949999999999
 31
0.0
  0
ARC
  5
7B8
330
1F
100
AcDbEntity
  8
0
  6
Continuous
 62
     7
100
AcDbCircle
 10
-296.4257846359206
 20
42.22312833033774
 30
0.0
 40
3.300015364200794
100
AcDbArc
 50
123.0558758180224
 51
180.0004918791598
  0
LINE
  5
7B9
330
1F
100
AcDbEntity
  8
0
  6
Continuous
 62
     7
100
AcDbLine
 10
-298.2255999999998
 20
46.23899999999999
 30
0.0
 11
-298.2255999999998
 21
12.74
 31
0.0
  0
LINE
  5
7BA
330
1F
100
AcDbEntity
  8
0
  6
Continuous
 62
     7
100
AcDbLine
 10
-299.7252999999998
 20
42.2236
 30
0.0
 11
-299.7252999999998
 21
16.75609999999998
 31
0.0
  0
LINE
  5
7BB
330
1F
100
AcDbEntity
  8
0
  6
Continuous
 62
     7
100
AcDbLine
 10
-295.7256
 20
10.24
 30
0.0
 11
-289.7256
 21
10.24
 31
0.0
  0
ARC
  5
7BC
330
1F
100
AcDbEntity
  8
0
  6
Continuous
 62
     7
100
AcDbCircle
 10
-295.7256
 20
12.74
 30
0.0
 40
2.5
100
AcDbArc
 50
180.0
 51
270.0
  0
ARC
  5
7BD
330
1F
100
AcDbEntity
  8
0
  6
Continuous
 62
     7
100
AcDbCircle
 10
-296.4257846359206
 20
16.75587166966225
 30
0.0
 40
3.300015364200836
100
AcDbArc
 50
179.9995081208398
 51
236.9441241819775
  0
ARC
  5
7BE
330
1F
100
AcDbEntity
  8
0
  6
Continuous
 62
    54
100
AcDbCircle
 10
-278.4026014354405
 20
11.84120053899291
 30
0.0
 40
1.500025329785348
100
AcDbArc
 50
39.41916253447583
 51
99.41957109133793
  0
ARC
  5
7BF
330
1F
100
AcDbEntity
  8
0
  6
Continuous
 62
    54
100
AcDbCircle
 10
-276.0849985645595
 20
13.74629946100708
 30
0.0
 40
1.500025329785365
100
AcDbArc
 50
219.4191625344778
 51
279.4195710913395
  0
LINE
  5
7C0
330
1F
100
AcDbEntity
  8
0
  6
Continuous
 62
     7
100
AcDbLine
 10
-295.7256
 20
48.73899999999999
 30
0.0
 11
-289.7256
 21
48.73899999999999
 31
0.0
  0
ARC
  5
7C1
330
1F
100
AcDbEntity
  8
0
  6
Continuous
 62
     7
100
AcDbCircle
 10
-295.7256
 20
46.23899999999999
 30
0.0
 40
2.5
100
AcDbArc
 50
90.0
 51
180.0
  0
ARC
  5
7C2
330
1F
100
AcDbEntity
  8
0
  6
Continuous
 62
     7
100
AcDbCircle
 10
-288.2256028212008
 20
66.12549591502703
 30
0.0
 40
1.000002864983562
100
AcDbArc
 50
290.756786903697
 51
359.9830453661851
  0
ARC
  5
7C3
330
1F
100
AcDbEntity
  8
0
  6
Continuous
 62
     7
100
AcDbCircle
 10
-288.7256084602217
 20
63.79708774355846
 30
0.0
 40
0.9999915398533115
100
AcDbArc
 50
110.7685967077209
 51
179.9992977516861
  0
LINE
  5
7C4
330
1F
100
AcDbEntity
  8
0
  6
Continuous
 62
     7
100
AcDbLine
 10
-287.8710999999999
 20
65.19020000000001
 30
0.0
 11
-289.0801
 21
64.73189999999999
 31
0.0
  0
LINE
  5
7C5
330
1F
100
AcDbEntity
  8
0
  6
CENTER_DASH_DASH
 62
    30
100
AcDbLine
 10
-280.5114999999998
 20
72.62300000000002
 30
0.0
 11
-294.2013999999998
 21
72.62300000000002
 31
0.0
  0
LINE
  5
7C6
330
1F
100
AcDbEntity
  8
0
  6
Continuous
 62
     7
100
AcDbLine
 10
-289.7256
 20
83.9897
 30
0.0
 11
-289.7256
 21
75.20459999999999
 31
0.0
  0
ARC
  5
7C7
330
1F
100
AcDbEntity
  8
0
  6
Continuous
 62
     7
100
AcDbCircle
 10
-288.5258767509108
 20
74.70432537279444
 30
0.0
 40
1.3000232493366
100
AcDbArc
 50
95.0008298424778
 51
180.0011182523364
  0
ARC
  5
7C8
330
1F
100
AcDbEntity
  8
0
  6
Continuous
 62
     7
100
AcDbCircle
 10
-288.5258767509108
 20
70.54197462720556
 30
0.0
 40
1.30002324933661
100
AcDbArc
 50
179.9988817476634
 51
264.9991701575221
  0
LINE
  5
7C9
330
1F
100
AcDbEntity
  8
0
  6
Continuous
 62
     7
100
AcDbLine
 10
-287.2257999999998
 20
76.12300000000002
 30
0.0
 11
-288.6391999999998
 21
75.99949999999998
 31
0.0
  0
LINE
  5
7CA
330
1F
100
AcDbEntity
  8
0
  6
Continuous
 62
     7
100
AcDbLine
 10
-287.2257999999998
 20
69.123
 30
0.0
 11
-288.6391999999998
 21
69.24679999999999
 31
0.0
  0
LINE
  5
7CB
330
1F
100
AcDbEntity
  8
0
  6
Continuous
 62
     7
100
AcDbLine
 10
-289.8258999999999
 20
74.7043
 30
0.0
 11
-289.8258999999999
 21
70.542
 31
0.0
  0
ARC
  5
7CC
330
1F
100
AcDbEntity
  8
0
  6
Continuous
 62
     7
100
AcDbCircle
 10
-288.2256348486133
 20
87.69794830696081
 30
0.0
 40
1.000034849949424
100
AcDbArc
 50
292.0256589259114
 51
0.0029616897620331
  0
ARC
  5
7CD
330
1F
100
AcDbEntity
  8
0
  6
Continuous
 62
     7
100
AcDbCircle
 10
-286.7257881493165
 20
83.98971757756584
 30
0.0
 40
3.000011850735018
100
AcDbArc
 50
112.0244654287108
 51
180.0003357054528
  0
LINE
  5
7CE
330
1F
100
AcDbEntity
  8
0
  6
Continuous
 62
     7
100
AcDbLine
 10
-285.2257999999998
 20
95.0894
 30
0.0
 11
-277.9206999999999
 21
95.0894
 31
0.0
  0
LINE
  5
7CF
330
1F
100
AcDbEntity
  8
0
  6
Continuous
 62
     7
100
AcDbLine
 10
-287.2257999999998
 20
94.98969999999999
 30
0.0
 11
-285.2256
 21
94.98969999999999
 31
0.0
  0
LINE
  5
7DC
330
1F
100
AcDbEntity
  8
0
  6
Continuous
 62
     7
100
AcDbLine
 10
-144.7257999999999
 20
48.7385
 30
0.0
 11
-150.7257999999999
 21
48.7385
 31
0.0
  0
LINE
  5
7DD
330
1F
100
AcDbEntity
  8
0
  6
DASH_CENTER
 62
    30
100
AcDbLine
 10
-142.7988
 20
72.62260000000002
 30
0.0
 11
-158.9272
 21
72.62260000000002
 31
0.0
  0
LINE
  5
7DE
330
1F
100
AcDbEntity
  8
0
  6
Continuous
 62
     7
100
AcDbLine
 10
-144.7257999999999
 20
10.2405
 30
0.0
 11
-150.7257999999999
 21
10.2405
 31
0.0
  0
LINE
  5
7DF
330
1F
100
AcDbEntity
  8
0
  6
DASHED
 62
   171
100
AcDbLine
 10
-251.7257999999999
 20
87.80929999999996
 30
0.0
 11
-188.7257999999999
 21
87.80929999999996
 31
0.0
  0
LINE
  5
7E0
330
1F
100
AcDbEntity
  8
0
  6
DASHED
 62
   171
100
AcDbLine
 10
-251.7257999999999
 20
59.5251
 30
0.0
 11
-188.7257999999999
 21
59.5251
 31
0.0
  0
LINE
  5
7E1
330
1F
100
AcDbEntity
  8
0
  6
Continuous
 62
     7
100
AcDbLine
 10
-266.0991
 20
30.08399999999999
 30
0.0
 11
-259.8031999999999
 21
13.3211
 31
0.0
  0
LINE
  5
7E2
330
1F
100
AcDbEntity
  8
0
  6
Continuous
 62
     7
100
AcDbLine
 10
-267.7255999999999
 20
31.2395
 30
0.0
 11
-267.7255999999999
 21
11.30509999999999
 31
0.0
  0
LINE
  5
7E3
330
1F
100
AcDbEntity
  8
0
  6
Continuous
 62
     7
100
AcDbLine
 10
-262.6115999999999
 20
12.2665
 30
0.0
 11
-267.7255999999999
 21
25.8861
 31
0.0
  0
LINE
  5
7E4
330
1F
100
AcDbEntity
  8
0
  6
Continuous
 62
     7
100
AcDbLine
 10
-270.7256
 20
31.2395
 30
0.0
 11
-270.7256
 21
11.30509999999999
 31
0.0
  0
ARC
  5
7E5
330
1F
100
AcDbEntity
  8
0
  6
Continuous
 62
    54
100
AcDbCircle
 10
-268.4755999999999
 20
12.60419999999998
 30
0.0
 40
1.500053602375595
100
AcDbArc
 50
240.0011820522604
 51
299.9988179477393
  0
ARC
  5
7E6
330
1F
100
AcDbEntity
  8
0
  6
Continuous
 62
     7
100
AcDbCircle
 10
-269.2256718443847
 20
29.48948238968361
 30
0.0
 40
13.49998266534177
100
AcDbArc
 50
276.379685251237
 51
291.1656184740325
  0
ARC
  5
7E7
330
1F
100
AcDbEntity
  8
0
  6
Continuous
 62
     7
100
AcDbCircle
 10
-269.2255507517007
 20
29.48948792951017
 30
0.0
 40
13.49998566008233
100
AcDbArc
 50
248.8367648433485
 51
263.6204126683025
  0
ARC
  5
7E8
330
1F
100
AcDbEntity
  8
0
  6
Continuous
 62
    54
100
AcDbCircle
 10
-269.9755999999999
 20
10.00609999999999
 30
0.0
 40
1.499966999636991
100
AcDbArc
 50
59.99927221917328
 51
120.0007277808265
  0
ARC
  5
7E9
330
1F
100
AcDbEntity
  8
0
  6
Continuous
 62
    54
100
AcDbCircle
 10
-260.0485985645594
 20
11.84120053899291
 30
0.0
 40
1.500025329785348
100
AcDbArc
 50
80.58042890866042
 51
140.5808374655225
  0
ARC
  5
7EA
330
1F
100
AcDbEntity
  8
0
  6
Continuous
 62
    54
100
AcDbCircle
 10
-262.3662014354404
 20
13.74629946100708
 30
0.0
 40
1.50002532978536
100
AcDbArc
 50
260.5804289086603
 51
320.5808374655217
  0
ARC
  5
7EB
330
1F
100
AcDbEntity
  8
0
  6
Continuous
 62
     7
100
AcDbCircle
 10
-267.4760734917989
 20
29.48948474391965
 30
0.0
 40
1.500015139611758
100
AcDbArc
 50
20.58153465887809
 51
99.5756285581962
  0
ARC
  5
7EC
330
1F
100
AcDbEntity
  8
0
  6
Continuous
 62
     7
100
AcDbCircle
 10
-269.2255824037506
 20
29.4894991776769
 30
0.0
 40
3.249982403750823
100
AcDbArc
 50
0.0000144971994772
 51
174.6486873324471
  0
ARC
  5
7ED
330
1F
100
AcDbEntity
  8
0
  6
Continuous
 62
     7
100
AcDbCircle
 10
-269.2255999999999
 20
31.2395
 30
0.0
 40
1.5
100
AcDbArc
 50
0.0
 51
180.0
  0
ARC
  5
7EE
330
1F
100
AcDbEntity
  8
0
  6
Continuous
 62
     7
100
AcDbCircle
 10
-270.975126508201
 20
29.48948474391965
 30
0.0
 40
1.500015139611791
100
AcDbArc
 50
80.42437144180381
 51
159.4184653411218
  0
LINE
  5
7EF
330
1F
100
AcDbEntity
  8
0
  6
DASHED
 62
   171
100
AcDbLine
 10
-251.7257999999999
 20
87.80929999999996
 30
0.0
 11
-251.7257999999999
 21
59.5251
 31
0.0
  0
LINE
  5
7F0
330
1F
100
AcDbEntity
  8
0
  6
Continuous
 62
     7
100
AcDbLine
 10
-192.2264999999999
 20
14.24
 30
0.0
 11
-171.2264999999999
 21
14.24
 31
0.0
  0
LINE
  5
7F1
330
1F
100
AcDbEntity
  8
0
  6
Continuous
 62
     7
100
AcDbLine
 10
-192.2264999999999
 20
22.23999999999999
 30
0.0
 11
-171.2264999999999
 21
22.23999999999999
 31
0.0
  0
LINE
  5
7F2
330
1F
100
AcDbEntity
  8
0
  6
Continuous
 62
     7
100
AcDbLine
 10
-192.2264999999999
 20
30.24
 30
0.0
 11
-171.2264999999999
 21
30.24
 31
0.0
  0
LINE
  5
7F3
330
1F
100
AcDbEntity
  8
0
  6
Continuous
 62
     7
100
AcDbLine
 10
-171.2264999999999
 20
6.240000000000001
 30
0.0
 11
-192.2264999999999
 21
6.240000000000001
 31
0.0
  0
LINE
  5
7F4
330
1F
100
AcDbEntity
  8
0
  6
Continuous
 62
     7
100
AcDbLine
 10
-171.2264999999999
 20
7.240000000000001
 30
0.0
 11
-192.2264999999999
 21
7.240000000000001
 31
0.0
  0
ARC
  5
7F5
330
1F
100
AcDbEntity
  8
0
  6
Continuous
 62
     7
100
AcDbCircle
 10
-192.2264999999999
 20
24.23999999999999
 30
0.0
 40
2.0
100
AcDbArc
 50
180.0
 51
270.0
  0
ARC
  5
7F6
330
1F
100
AcDbEntity
  8
0
  6
Continuous
 62
     7
100
AcDbCircle
 10
-192.2264999999999
 20
12.24
 30
0.0
 40
2.0
100
AcDbArc
 50
90.0
 51
180.0
  0
ARC
  5
7F7
330
1F
100
AcDbEntity
  8
0
  6
Continuous
 62
     7
100
AcDbCircle
 10
-192.2264999999999
 20
8.240000000000001
 30
0.0
 40
2.0
100
AcDbArc
 50
180.0
 51
270.0
  0
ARC
  5
7F8
330
1F
100
AcDbEntity
  8
0
  6
Continuous
 62
     7
100
AcDbCircle
 10
-192.2264999999999
 20
9.24
 30
0.0
 40
2.0
100
AcDbArc
 50
180.0
 51
270.0
  0
LINE
  5
7F9
330
1F
100
AcDbEntity
  8
0
  6
Continuous
 62
     7
100
AcDbLine
 10
-194.2264999999999
 20
12.24
 30
0.0
 11
-194.2264999999999
 21
8.240000000000001
 31
0.0
  0
ARC
  5
7FA
330
1F
100
AcDbEntity
  8
0
  6
Continuous
 62
     7
100
AcDbCircle
 10
-192.226480290521
 20
28.24005615876131
 30
0.0
 40
2.000019710267308
100
AcDbArc
 50
141.3203255173145
 51
180.0016088141481
  0
ARC
  5
7FB
330
1F
100
AcDbEntity
  8
0
  6
PHANTOM
 62
     7
100
AcDbCircle
 10
-192.2265410314094
 20
28.23998028978603
 30
0.0
 40
2.000019710634862
100
AcDbArc
 50
89.99882454828972
 51
141.3175413063366
  0
LINE
  5
7FC
330
1F
100
AcDbEntity
  8
0
  6
Continuous
 62
     7
100
AcDbLine
 10
-194.2264999999999
 20
28.23999999999999
 30
0.0
 11
-194.2264999999999
 21
24.23999999999999
 31
0.0
  0
ARC
  5
7FD
330
1F
100
AcDbEntity
  8
0
  6
Continuous
 62
     7
100
AcDbCircle
 10
-171.2264999999999
 20
24.23999999999999
 30
0.0
 40
2.0
100
AcDbArc
 50
270.0
 51
0.0
  0
LINE
  5
7FE
330
1F
100
AcDbEntity
  8
0
  6
Continuous
 62
     7
100
AcDbLine
 10
-169.2264999999999
 20
12.24
 30
0.0
 11
-169.2264999999999
 21
8.240000000000001
 31
0.0
  0
ARC
  5
7FF
330
1F
100
AcDbEntity
  8
0
  6
Continuous
 62
     7
100
AcDbCircle
 10
-171.2264999999999
 20
8.240000000000001
 30
0.0
 40
2.0
100
AcDbArc
 50
270.0
 51
0.0
  0
ARC
  5
800
330
1F
100
AcDbEntity
  8
0
  6
Continuous
 62
     7
100
AcDbCircle
 10
-171.2264999999999
 20
9.24
 30
0.0
 40
2.0
100
AcDbArc
 50
270.0
 51
0.0
  0
ARC
  5
801
330
1F
100
AcDbEntity
  8
0
  6
Continuous
 62
     7
100
AcDbCircle
 10
-171.2264999999999
 20
12.24
 30
0.0
 40
2.0
100
AcDbArc
 50
0.0
 51
90.0
  0
ARC
  5
802
330
1F
100
AcDbEntity
  8
0
  6
PHANTOM
 62
     7
100
AcDbCircle
 10
-171.2264913466924
 20
28.23969584379607
 30
0.0
 40
2.000004156222626
100
AcDbArc
 50
38.6895847516306
 51
90.00024789848398
  0
ARC
  5
803
330
1F
100
AcDbEntity
  8
0
  6
Continuous
 62
     7
100
AcDbCircle
 10
-171.2265041543294
 20
28.23971183449148
 30
0.0
 40
2.000004157456348
100
AcDbArc
 50
359.9967961844751
 51
38.6889978290352
  0
LINE
  5
804
330
1F
100
AcDbEntity
  8
0
  6
Continuous
 62
     7
100
AcDbLine
 10
-169.2264999999999
 20
28.2397
 30
0.0
 11
-169.2264999999999
 21
24.23999999999999
 31
0.0
  0
LINE
  5
805
330
1F
100
AcDbEntity
  8
0
  6
DASHED
 62
   171
100
AcDbLine
 10
-188.7257999999999
 20
87.80929999999996
 30
0.0
 11
-188.7257999999999
 21
59.5251
 31
0.0
  0
LINE
  5
806
330
1F
100
AcDbEntity
  8
0
  6
Continuous
 62
     7
100
AcDbLine
 10
-152.5803999999999
 20
65.19020000000001
 30
0.0
 11
-151.3712999999999
 21
64.73189999999999
 31
0.0
  0
ARC
  5
807
330
1F
100
AcDbEntity
  8
0
  6
Continuous
 62
     7
100
AcDbCircle
 10
-152.2258971787992
 20
66.12549591502703
 30
0.0
 40
1.000002864983563
100
AcDbArc
 50
180.0169546338156
 51
249.2432130963046
  0
ARC
  5
808
330
1F
100
AcDbEntity
  8
0
  6
Continuous
 62
     7
100
AcDbCircle
 10
-151.725773810375
 20
63.79706206460205
 30
0.0
 40
0.9999738110945624
100
AcDbArc
 50
0.0021735951207915
 51
69.2382322677015
  0
LINE
  5
809
330
1F
100
AcDbEntity
  8
0
  6
Continuous
 62
     7
100
AcDbLine
 10
-150.7257999999999
 20
83.98850000000001
 30
0.0
 11
-150.7257999999999
 21
76.6721
 31
0.0
  0
ARC
  5
80A
330
1F
100
AcDbEntity
  8
0
  6
Continuous
 62
     7
100
AcDbCircle
 10
-156.6142
 20
72.62274999999998
 30
0.0
 40
6.588350567668669
100
AcDbArc
 50
342.1385907380358
 51
17.86140926196429
  0
ARC
  5
80B
330
1F
100
AcDbEntity
  8
0
  6
Continuous
 62
     7
100
AcDbCircle
 10
-156.6141858478147
 20
76.66417186270738
 30
0.0
 40
6.58837447589584
100
AcDbArc
 50
342.1375442905588
 51
355.5806523657631
  0
ARC
  5
80C
330
1F
100
AcDbEntity
  8
0
  6
Continuous
 62
     7
100
AcDbCircle
 10
-156.6141858478147
 20
68.58122813729261
 30
0.0
 40
6.588374475895811
100
AcDbArc
 50
4.419347634236723
 51
17.86245570944105
  0
LINE
  5
80D
330
1F
100
AcDbEntity
  8
0
  6
Continuous
 62
     7
100
AcDbLine
 10
-147.2255999999999
 20
70.9727
 30
0.0
 11
-147.5757
 21
70.6228
 31
0.0
  0
LINE
  5
80E
330
1F
100
AcDbEntity
  8
0
  6
Continuous
 62
     7
100
AcDbLine
 10
-147.2255999999999
 20
74.2727
 30
0.0
 11
-147.5757
 21
74.62260000000002
 31
0.0
  0
LINE
  5
80F
330
1F
100
AcDbEntity
  8
0
  6
Continuous
 62
     7
100
AcDbLine
 10
-147.2255999999999
 20
74.2727
 30
0.0
 11
-147.2255999999999
 21
70.9727
 31
0.0
  0
LINE
  5
810
330
1F
100
AcDbEntity
  8
0
  6
Continuous
 62
     7
100
AcDbLine
 10
-147.5757
 20
70.6228
 30
0.0
 11
-147.5757
 21
74.62260000000002
 31
0.0
  0
LINE
  5
811
330
1F
100
AcDbEntity
  8
0
  6
Continuous
 62
    30
100
AcDbLine
 10
-147.2255999999999
 20
74.2727
 30
0.0
 11
-150.0258
 21
74.2727
 31
0.0
  0
LINE
  5
812
330
1F
100
AcDbEntity
  8
0
  6
Continuous
 62
     7
100
AcDbLine
 10
-150.0258
 20
74.62260000000002
 30
0.0
 11
-147.5757
 21
74.62260000000002
 31
0.0
  0
LINE
  5
813
330
1F
100
AcDbEntity
  8
0
  6
Continuous
 62
    30
100
AcDbLine
 10
-147.2255999999999
 20
70.9727
 30
0.0
 11
-150.0258
 21
70.9727
 31
0.0
  0
LINE
  5
814
330
1F
100
AcDbEntity
  8
0
  6
Continuous
 62
     7
100
AcDbLine
 10
-147.5757
 20
70.6228
 30
0.0
 11
-150.0258
 21
70.6228
 31
0.0
  0
LINE
  5
815
330
1F
100
AcDbEntity
  8
0
  6
Continuous
 62
     7
100
AcDbLine
 10
-153.2257999999998
 20
76.12260000000002
 30
0.0
 11
-152.9082999999999
 21
76.6726
 31
0.0
  0
LINE
  5
816
330
1F
100
AcDbEntity
  8
0
  6
Continuous
 62
     7
100
AcDbLine
 10
-150.0258
 20
76.12260000000002
 30
0.0
 11
-150.3434
 21
76.6726
 31
0.0
  0
LINE
  5
817
330
1F
100
AcDbEntity
  8
0
  6
Continuous
 62
     7
100
AcDbLine
 10
-153.2257999999998
 20
69.1226
 30
0.0
 11
-152.9082999999999
 21
68.5728
 31
0.0
  0
LINE
  5
818
330
1F
100
AcDbEntity
  8
0
  6
Continuous
 62
     7
100
AcDbLine
 10
-150.3434
 20
74.6433
 30
0.0
 11
-153.2257999999998
 21
74.6433
 31
0.0
  0
LINE
  5
819
330
1F
100
AcDbEntity
  8
0
  6
Continuous
 62
     7
100
AcDbLine
 10
-150.0258
 20
76.12260000000002
 30
0.0
 11
-150.0258
 21
69.1226
 31
0.0
  0
LINE
  5
81A
330
1F
100
AcDbEntity
  8
0
  6
Continuous
 62
     7
100
AcDbLine
 10
-150.3434
 20
68.5728
 30
0.0
 11
-152.9082999999999
 21
68.5728
 31
0.0
  0
LINE
  5
81B
330
1F
100
AcDbEntity
  8
0
  6
Continuous
 62
     7
100
AcDbLine
 10
-153.2257999999998
 20
69.1226
 30
0.0
 11
-153.2257999999998
 21
76.12260000000002
 31
0.0
  0
LINE
  5
81C
330
1F
100
AcDbEntity
  8
0
  6
Continuous
 62
     7
100
AcDbLine
 10
-152.9082999999999
 20
76.6726
 30
0.0
 11
-150.3434
 21
76.6726
 31
0.0
  0
LINE
  5
81D
330
1F
100
AcDbEntity
  8
0
  6
Continuous
 62
     7
100
AcDbLine
 10
-150.3434
 20
70.60209999999995
 30
0.0
 11
-153.2257999999998
 21
70.60209999999995
 31
0.0
  0
LINE
  5
81E
330
1F
100
AcDbEntity
  8
0
  6
Continuous
 62
     7
100
AcDbLine
 10
-150.0258
 20
69.1226
 30
0.0
 11
-150.3434
 21
68.5728
 31
0.0
  0
ARC
  5
81F
330
1F
100
AcDbEntity
  8
0
  6
Continuous
 62
     7
100
AcDbCircle
 10
-152.225811500423
 20
87.69681705742771
 30
0.0
 40
0.9999884997222526
100
AcDbArc
 50
180.0009773298567
 51
247.976131418367
  0
ARC
  5
820
330
1F
100
AcDbEntity
  8
0
  6
Continuous
 62
     7
100
AcDbCircle
 10
-153.7257931016157
 20
83.98848976849448
 30
0.0
 40
2.999993101633346
100
AcDbArc
 50
0.0001954078109074
 51
67.97783618020261
  0
LINE
  5
82F
330
1F
100
AcDbEntity
  8
0
  6
Continuous
 62
     7
100
AcDbLine
 10
-153.2257999999998
 20
94.9895
 30
0.0
 11
-155.2259
 21
94.9895
 31
0.0
  0
LINE
  5
839
330
1F
100
AcDbEntity
  8
0
  6
Continuous
 62
     7
100
AcDbLine
 10
-142.2257999999999
 20
46.2385
 30
0.0
 11
-142.2257999999999
 21
12.7405
 31
0.0
  0
ARC
  5
83A
330
1F
100
AcDbEntity
  8
0
  6
Continuous
 62
     7
100
AcDbCircle
 10
-144.025815364079
 20
42.22292833033775
 30
0.0
 40
3.300015364200806
100
AcDbArc
 50
359.9995081208398
 51
56.94412418197748
  0
LINE
  5
83B
330
1F
100
AcDbEntity
  8
0
  6
Continuous
 62
     7
100
AcDbLine
 10
-109.2258
 20
36.4895
 30
0.0
 11
-137.6257999999999
 21
36.4895
 31
0.0
  0
LINE
  5
83C
330
1F
100
AcDbEntity
  8
0
  6
Continuous
 62
     7
100
AcDbLine
 10
-109.2258
 20
22.4895
 30
0.0
 11
-137.6257999999999
 21
22.4895
 31
0.0
  0
LINE
  5
83D
330
1F
100
AcDbEntity
  8
0
  6
Continuous
 62
     7
100
AcDbLine
 10
-108.2258
 20
38.4895
 30
0.0
 11
-128.2257999999999
 21
38.4895
 31
0.0
  0
ARC
  5
841
330
1F
100
AcDbEntity
  8
0
  6
Continuous
 62
     7
100
AcDbCircle
 10
-137.6257332942766
 20
21.88937645972205
 30
0.0
 40
0.6000235439858479
100
AcDbArc
 50
90.00636967743576
 51
160.51706144098
  0
LINE
  5
842
330
1F
100
AcDbEntity
  8
0
  6
Continuous
 62
     7
100
AcDbLine
 10
-138.2257999999999
 20
36.8896
 30
0.0
 11
-138.2257999999999
 21
22.0896
 31
0.0
  0
LINE
  5
843
330
1F
100
AcDbEntity
  8
0
  6
Continuous
 62
     7
100
AcDbLine
 10
-140.7257999999998
 20
16.75609999999998
 30
0.0
 11
-140.7257999999998
 21
42.2229
 31
0.0
  0
ARC
  5
844
330
1F
100
AcDbEntity
  8
0
  6
Continuous
 62
     7
100
AcDbCircle
 10
-144.7257999999999
 20
12.7405
 30
0.0
 40
2.5
100
AcDbArc
 50
270.0
 51
0.0
  0
LINE
  5
845
330
1F
100
AcDbEntity
  8
0
  6
Continuous
 62
     7
100
AcDbLine
 10
-140.7257999999998
 20
22.0896
 30
0.0
 11
-138.2257999999999
 21
22.0896
 31
0.0
  0
ARC
  5
846
330
1F
100
AcDbEntity
  8
0
  6
Continuous
 62
     7
100
AcDbCircle
 10
-144.025815364079
 20
16.75607166966224
 30
0.0
 40
3.300015364200806
100
AcDbArc
 50
303.0558758180224
 51
0.0004918791601095
  0
LINE
  5
848
330
1F
100
AcDbEntity
  8
0
  6
Continuous
 62
     7
100
AcDbLine
 10
-138.2257999999999
 20
36.8896
 30
0.0
 11
-140.7257999999998
 21
36.8896
 31
0.0
  0
ARC
  5
849
330
1F
100
AcDbEntity
  8
0
  6
Continuous
 62
     7
100
AcDbCircle
 10
-137.62575281162
 20
37.0894373518282
 30
0.0
 40
0.6000373536837384
100
AcDbArc
 50
199.4636147997985
 51
269.9954941221672
  0
LINE
  5
84A
330
1F
100
AcDbEntity
  8
0
  6
Continuous
 62
     7
100
AcDbLine
 10
-128.2257999999999
 20
38.4895
 30
0.0
 11
-128.2257999999999
 21
36.4895
 31
0.0
  0
LINE
  5
850
330
1F
100
AcDbEntity
  8
0
  6
Continuous
 62
     7
100
AcDbLine
 10
-109.2258
 20
22.4895
 30
0.0
 11
-109.2258
 21
36.4895
 31
0.0
  0
LINE
  5
851
330
1F
100
AcDbEntity
  8
0
  6
Continuous
 62
     7
100
AcDbLine
 10
-108.2258
 20
38.4895
 30
0.0
 11
-108.2258
 21
23.48949999999998
 31
0.0
  0
LINE
  5
852
330
1F
100
AcDbEntity
  8
0
  6
Continuous
 62
     7
100
AcDbLine
 10
-109.2258
 20
22.4895
 30
0.0
 11
-108.2258
 21
23.48949999999998
 31
0.0
  0
LINE
  5
853
330
1F
100
AcDbEntity
  8
0
  6
Continuous
 62
     7
100
AcDbLine
 10
-108.2258
 20
35.4895
 30
0.0
 11
-109.2258
 21
36.4895
 31
0.0
  0
ARC
  5
854
330
1F
100
AcDbEntity
  8
0
  6
Continuous
 62
     7
100
AcDbCircle
 10
-144.7257999999999
 20
46.2385
 30
0.0
 40
2.5
100
AcDbArc
 50
0.0
 51
90.0
  0
LINE
  5
85B
330
1F
100
AcDbEntity
  8
0
  6
DASH_CENTER
 62
    30
100
AcDbLine
 10
-52.1714
 20
15.228
 30
0.0
 11
-52.1714
 21
45.11619999999999
 31
0.0
  0
ARC
  5
85E
330
1F
100
AcDbEntity
  8
0
  6
Continuous
 62
     7
100
AcDbCircle
 10
-52.17153076699998
 20
29.48950000261534
 30
0.0
 40
7.000001479135557
100
AcDbArc
 50
110.9236818872455
 51
69.07402628157368
  0
LINE
  5
85F
330
1F
100
AcDbEntity
  8
0
  6
DASH_CENTER
 62
    30
100
AcDbLine
 10
-67.274
 20
29.48949999999999
 30
0.0
 11
-37.33289999999998
 21
29.48949999999999
 31
0.0
  0
LINE
  5
860
330
1F
100
AcDbEntity
  8
0
  6
Continuous
 62
     7
100
AcDbLine
 10
-49.6714
 20
33.4895
 30
0.0
 11
-52.1714
 21
33.4895
 31
0.0
  0
LINE
  5
861
330
1F
100
AcDbEntity
  8
0
  6
Continuous
 62
     7
100
AcDbLine
 10
-49.6714
 20
38.4895
 30
0.0
 11
-54.6714
 21
38.4895
 31
0.0
  0
LINE
  5
86A
330
1F
100
AcDbEntity
  8
0
  6
Continuous
 62
     7
100
AcDbLine
 10
-54.6714
 20
33.4895
 30
0.0
 11
-54.6714
 21
38.4895
 31
0.0
  0
LINE
  5
86C
330
1F
100
AcDbEntity
  8
0
  6
Continuous
 62
     7
100
AcDbLine
 10
-52.1714
 20
33.4895
 30
0.0
 11
-54.6714
 21
33.4895
 31
0.0
  0
ARC
  5
86D
330
1F
100
AcDbEntity
  8
0
  6
Continuous
 62
    30
100
AcDbCircle
 10
-52.17153046422296
 20
29.48947591108604
 30
0.0
 40
7.000024090129727
100
AcDbArc
 50
89.99893213948203
 51
110.923613780357
  0
LINE
  5
878
330
1F
100
AcDbEntity
  8
0
  6
Continuous
 62
     7
100
AcDbLine
 10
-49.6714
 20
33.4895
 30
0.0
 11
-49.6714
 21
38.4895
 31
0.0
  0
ARC
  5
8B8
330
1F
100
AcDbEntity
  8
0
  6
Continuous
 62
     7
100
AcDbCircle
 10
176.1266999998916
 20
29.48928165018704
 30
0.0
 40
58.49995487091989
100
AcDbArc
 50
324.6210733601269
 51
35.37824998666533
  0
ARC
  5
8B9
330
1F
100
AcDbEntity
  8
0
  6
Continuous
 62
     7
100
AcDbCircle
 10
176.1266999998099
 20
29.48926834977164
 30
0.0
 40
57.50000627577359
100
AcDbArc
 50
144.6210714448769
 51
215.3782401345735
  0
ARC
  5
8BA
330
1F
100
AcDbEntity
  8
0
  6
Continuous
 62
     7
100
AcDbCircle
 10
176.12669999995
 20
29.48928876213828
 30
0.0
 40
58.49999563756284
100
AcDbArc
 50
144.6211862946045
 51
215.3783062154894
  0
ARC
  5
8BB
330
1F
100
AcDbEntity
  8
0
  6
Continuous
 62
     7
100
AcDbCircle
 10
176.1266656693194
 20
29.48933433049401
 30
0.0
 40
33.5000254712238
100
AcDbArc
 50
202.151163973496
 51
247.8491474783921
  0
ARC
  5
8BC
330
1F
100
AcDbEntity
  8
0
  6
Continuous
 62
     7
100
AcDbCircle
 10
174.6267261403995
 20
-0.4733751350860409
 30
0.0
 40
3.000026140502508
100
AcDbArc
 50
87.13454087639446
 51
180.000474880738
  0
ARC
  5
8BD
330
1F
100
AcDbEntity
  8
0
  6
Continuous
 62
     7
100
AcDbCircle
 10
164.626727026187
 20
1.240218176863969
 30
0.0
 40
2.999972973868143
100
AcDbArc
 50
247.8471293759856
 51
359.9996528443423
  0
ARC
  5
8BE
330
1F
100
AcDbEntity
  8
0
  6
Continuous
 62
     7
100
AcDbCircle
 10
187.6266541206475
 20
1.240230857587697
 30
0.0
 40
2.99995412080633
100
AcDbArc
 50
180.0005893455266
 51
292.1513438916426
  0
ARC
  5
8BF
330
1F
100
AcDbEntity
  8
0
  6
Continuous
 62
     7
100
AcDbCircle
 10
176.1268
 20
29.489
 30
0.0
 40
37.99995609734306
100
AcDbArc
 50
289.1819305235895
 51
340.818069476411
  0
LINE
  5
8C0
330
1F
100
AcDbEntity
  8
0
  6
Continuous
 62
     7
100
AcDbLine
 10
167.6266999999999
 20
-3.567599999999998
 30
0.0
 11
167.6266999999999
 21
1.780799999999999
 31
0.0
  0
LINE
  5
8C1
330
1F
100
AcDbEntity
  8
0
  6
Continuous
 62
     7
100
AcDbLine
 10
181.6267
 20
1.601099999999997
 30
0.0
 11
181.6267
 21
-12.1521
 31
0.0
  0
LINE
  5
8C2
330
1F
100
AcDbEntity
  8
0
  6
Continuous
 62
     7
100
AcDbLine
 10
170.6266999999999
 20
1.601099999999997
 30
0.0
 11
170.6266999999999
 21
-12.1521
 31
0.0
  0
LINE
  5
8C3
330
1F
100
AcDbEntity
  8
0
  6
Continuous
 62
     7
100
AcDbLine
 10
184.6267
 20
1.780799999999999
 30
0.0
 11
184.6267
 21
-3.567900000000001
 31
0.0
  0
LINE
  5
8C4
330
1F
100
AcDbEntity
  8
0
  6
DASH_CENTER
 62
    30
100
AcDbLine
 10
176.1267
 20
-69.5908
 30
0.0
 11
176.1267
 21
109.0637
 31
0.0
  0
CIRCLE
  5
8C5
330
1F
100
AcDbEntity
  8
0
  6
Continuous
 62
     7
100
AcDbCircle
 10
176.1267
 20
29.4893
 30
0.0
 40
65.59999999999999
  0
ARC
  5
8C6
330
1F
100
AcDbEntity
  8
0
  6
Continuous
 62
     7
100
AcDbCircle
 10
176.1262409987438
 20
29.48915755753038
 30
0.0
 40
61.2500442741573
100
AcDbArc
 50
329.5231106771718
 51
345.4771272819297
  0
ARC
  5
8C7
330
1F
100
AcDbEntity
  8
0
  6
Continuous
 62
     7
100
AcDbCircle
 10
176.1264229798094
 20
29.48959689481363
 30
0.0
 40
64.25005717932655
100
AcDbArc
 50
329.8974196101813
 51
345.1019376365276
  0
ARC
  5
8C8
330
1F
100
AcDbEntity
  8
0
  6
Continuous
 62
     7
100
AcDbCircle
 10
176.1267167923231
 20
29.4892594597659
 30
0.0
 40
64.25000886080153
100
AcDbArc
 50
194.8977624479639
 51
210.1022575471318
  0
ARC
  5
8C9
330
1F
100
AcDbEntity
  8
0
  6
Continuous
 62
     7
100
AcDbCircle
 10
176.1266401731916
 20
29.48944443332054
 30
0.0
 40
61.25000118253518
100
AcDbArc
 50
194.523160373296
 51
210.4772244229939
  0
ARC
  5
8CA
330
1F
100
AcDbEntity
  8
0
  6
Continuous
 62
     7
100
AcDbCircle
 10
176.12665
 20
29.48925
 30
0.0
 40
45.50004594025153
100
AcDbArc
 50
281.5370114848781
 51
348.4629885151229
  0
ARC
  5
8CB
330
1F
100
AcDbEntity
  8
0
  6
Continuous
 62
     7
100
AcDbCircle
 10
176.1267
 20
29.4893
 30
0.0
 40
46.49999097042922
100
AcDbArc
 50
191.5369613038889
 51
258.4630386961112
  0
ARC
  5
8CC
330
1F
100
AcDbEntity
  8
0
  6
Continuous
 62
     7
100
AcDbCircle
 10
176.12665
 20
29.48925
 30
0.0
 40
46.50004996024196
100
AcDbArc
 50
281.537009345785
 51
348.4629906542148
  0
ARC
  5
8CD
330
1F
100
AcDbEntity
  8
0
  6
Continuous
 62
     7
100
AcDbCircle
 10
176.1267628237666
 20
29.48923717605628
 30
0.0
 40
45.50003594017378
100
AcDbArc
 50
191.5368690524903
 51
258.4629694633814
  0
ARC
  5
8CE
330
1F
100
AcDbEntity
  8
0
  6
Continuous
 62
     7
100
AcDbCircle
 10
176.1265233265039
 20
29.4890766731682
 30
0.0
 40
38.00000332122672
100
AcDbArc
 50
199.1820281554613
 51
250.8182166496495
  0
ARC
  5
8CF
330
1F
100
AcDbEntity
  8
0
  6
Continuous
 62
     7
100
AcDbCircle
 10
176.1267343306806
 20
29.48933433049401
 30
0.0
 40
33.5000254712238
100
AcDbArc
 50
292.1508525216077
 51
337.8488360265038
  0
ARC
  5
8D0
330
1F
100
AcDbEntity
  8
0
  6
Continuous
 62
     7
100
AcDbCircle
 10
177.6266738596004
 20
-0.4733751350860409
 30
0.0
 40
3.000026140502526
100
AcDbArc
 50
359.9995251192618
 51
92.86545912360551
  0
ARC
  5
8D1
330
1F
100
AcDbEntity
  8
0
  6
Continuous
 62
     7
100
AcDbCircle
 10
176.1266999998253
 20
29.48926123744596
 30
0.0
 40
57.49996550841137
100
AcDbArc
 50
324.6211286516318
 51
35.37835503295558
  0
SPLINE
  5
8D5
330
1F
100
AcDbEntity
  8
0
  6
Continuous
 62
    54
100
AcDbSpline
210
0.0
220
0.0
230
1.0
 70
     8
 71
     3
 72
   141
 73
   137
 74
   135
 42
0.0000000001
 43
0.0000000001
 44
0.00000001
 40
0.0
 40
0.0
 40
0.0
 40
0.0
 40
0.2626125161823235
 40
0.5252228790195847
 40
0.7878464591891472
 40
1.075429211391636
 40
1.363038935625956
 40
1.65058645538034
 40
1.931165282863604
 40
2.211797626546714
 40
2.492417408208358
 40
2.793856542357236
 40
3.095315193603714
 40
3.396870092291165
 40
3.698453104994424
 40
4.131418529955944
 40
4.564259973367067
 40
4.997080933284058
 40
5.504453594207211
 40
6.011844806006743
 40
6.017628364944835
 40
6.023411839693538
 40
6.029171960217809
 40
6.034932166439853
 40
6.392576910707052
 40
6.75021602344339
 40
7.107826245749422
 40
7.458796872713544
 40
7.809809685116247
 40
8.160821563462427
 40
8.662227116871829
 40
9.163628983591307
 40
9.66591927772415
 40
10.16822144071869
 40
10.67054226382945
 40
11.53510815917524
 40
12.39963748637508
 40
13.15105770130985
 40
13.90251703048344
 40
14.34346679373551
 40
14.78439846922896
 40
15.22536137688113
 40
15.66657503540907
 40
15.94508047160051
 40
16.22364927806474
 40
16.50215097842282
 40
16.78054790371533
 40
17.05890898628467
 40
17.33742349337262
 40
17.60542241788468
 40
17.87352579062925
 40
18.14151968088472
 40
18.40932588340337
 40
18.67701855589132
 40
18.95182906174743
 40
19.2269245412845
 40
19.5023500610448
 40
19.77804231259237
 40
20.05384282385775
 40
20.3295107465648
 40
20.62907942416931
 40
20.92840838949407
 40
21.22767877605655
 40
21.52697229608224
 40
21.82627915750299
 40
22.12550609997344
 40
22.45491321713261
 40
22.78418303749329
 40
23.11339747323127
 40
23.44256122682793
 40
23.77160768556221
 40
24.13291210312645
 40
24.49421107821452
 40
24.85566401552103
 40
25.21730498995914
 40
25.57905854693547
 40
25.94075542282221
 40
26.51611048164424
 40
27.09110753068759
 40
27.66599167868625
 40
28.24087567217831
 40
29.19441049232373
 40
30.14800121116458
 40
30.8690477922259
 40
31.59008797323947
 40
32.31113225610989
 40
32.8196467429286
 40
33.32816846793452
 40
33.83668642089223
 40
34.34523503110644
 40
34.88755404933539
 40
35.42982412797154
 40
35.97194336581201
 40
36.4546199674845
 40
36.93737583313744
 40
37.42026446898234
 40
37.90322437297474
 40
38.41319592300116
 40
38.92307072243124
 40
39.43285149892924
 40
39.94263451054287
 40
40.41608034128045
 40
40.88960490008324
 40
41.36311416246048
 40
41.83653895590377
 40
42.35234823986033
 40
42.86820102955325
 40
43.38417795159307
 40
43.90025588781661
 40
44.4163281620605
 40
45.30517188666477
 40
46.19380548251812
 40
47.08243250329306
 40
47.76061540858448
 40
48.43880298397812
 40
49.1169888931342
 40
49.61226925270263
 40
50.10756572267595
 40
50.60286993340806
 40
51.09822222922113
 40
51.47005624087501
 40
51.84187196818466
 40
52.21362076617996
 40
52.58531193007549
 40
52.88707496939921
 40
53.18886451953932
 40
53.49077831561865
 40
53.67849192877613
 40
53.86617029495408
 40
54.05376404367141
 40
54.24136539490312
 40
54.41161617801355
 40
54.58184211119153
 40
54.7519293451443
 40
54.92296917397214
 40
55.09405670022764
 40
55.09405670022764
 40
55.09405670022764
 40
55.09405670022764
 10
212.9236999999998
 20
-112.2358393232509
 30
0.0
 10
212.9064612422001
 20
-112.3216628724417
 30
0.0
 10
212.8719838757035
 20
-112.4933092686328
 30
0.0
 10
212.8232851474279
 20
-112.7513816403927
 30
0.0
 10
212.7789780752066
 20
-113.0187088420182
 30
0.0
 10
212.7428776023107
 20
-113.2957092492153
 30
0.0
 10
212.7171264617992
 20
-113.5822163005212
 30
0.0
 10
212.7040742506238
 20
-113.8672674241125
 30
0.0
 10
212.7045133348275
 20
-114.1502842951252
 30
0.0
 10
212.7169692217948
 20
-114.4306953961688
 30
0.0
 10
212.7409332679397
 20
-114.7173255928138
 30
0.0
 10
212.7762188168576
 20
-115.0097715527694
 30
0.0
 10
212.8218002787714
 20
-115.3078304916755
 30
0.0
 10
212.8749204133215
 20
-115.6046719142087
 30
0.0
 10
212.942210737878
 20
-115.943434171425
 30
0.0
 10
213.0239357611549
 20
-116.3239034305579
 30
0.0
 10
213.1208362835347
 20
-116.74580469929
 30
0.0
 10
213.2277649694338
 20
-117.1908215743212
 30
0.0
 10
213.3435135676067
 20
-117.6592628736053
 30
0.0
 10
213.4258618924077
 20
-117.9893277501649
 30
0.0
 10
213.4675312678911
 20
-118.157220094827
 30
0.0
 10
213.4689042362064
 20
-118.1628302839368
 30
0.0
 10
213.4702389661132
 20
-118.168441691225
 30
0.0
 10
213.4983338176865
 20
-118.2882465899411
 30
0.0
 10
213.5540984097617
 20
-118.5220364613632
 30
0.0
 10
213.6361614447202
 20
-118.8701266430558
 30
0.0
 10
213.7133028039375
 20
-119.2170822414147
 30
0.0
 10
213.7821374737863
 20
-119.5635396165098
 30
0.0
 10
213.8430551041441
 20
-119.9092377451985
 30
0.0
 10
213.904370006574
 20
-120.3056960898309
 30
0.0
 10
213.9623418993198
 20
-120.7532861774759
 30
0.0
 10
214.0154172457594
 20
-121.2522003005555
 30
0.0
 10
214.0601914276814
 20
-121.752214367641
 30
0.0
 10
214.0991150416111
 20
-122.2530152795141
 30
0.0
 10
214.1431792266871
 20
-122.8745196178771
 30
0.0
 10
214.1939300354977
 20
-123.6165910935798
 30
0.0
 10
214.2517380545955
 20
-124.4414085182911
 30
0.0
 10
214.3117153777137
 20
-125.2282692387227
 30
0.0
 10
214.3670293663825
 20
-125.8738612252187
 30
0.0
 10
214.4191461353122
 20
-126.4158168486294
 30
0.0
 10
214.4675037942388
 20
-126.8541273335145
 30
0.0
 10
214.5247809979737
 20
-127.29146701788
 30
0.0
 10
214.5852448858691
 20
-127.6736704353892
 30
0.0
 10
214.6460475946664
 20
-128.0008578813449
 30
0.0
 10
214.7036558242028
 20
-128.2733940855558
 30
0.0
 10
214.7689891923148
 20
-128.5441551250659
 30
0.0
 10
214.8430421234642
 20
-128.8126031135884
 30
0.0
 10
214.9268103172115
 20
-129.0781981377475
 30
0.0
 10
215.0200522446453
 20
-129.3369518939724
 30
0.0
 10
215.1231284157131
 20
-129.5882608207431
 30
0.0
 10
215.236080829135
 20
-129.831440537411
 30
0.0
 10
215.3607784908098
 20
-130.0687565908765
 30
0.0
 10
215.4977036987697
 20
-130.2990936261643
 30
0.0
 10
215.6486477420033
 20
-130.5232708685944
 30
0.0
 10
215.8144318301027
 20
-130.7397941927313
 30
0.0
 10
215.9943674187508
 20
-130.94810251977
 30
0.0
 10
216.1859770087116
 20
-131.1461200792941
 30
0.0
 10
216.3881989644255
 20
-131.3336162933743
 30
0.0
 10
216.5999758938322
 20
-131.5103614499413
 30
0.0
 10
216.8267343279283
 20
-131.6810060140759
 30
0.0
 10
217.0684143454097
 20
-131.8442663052287
 30
0.0
 10
217.3248135461651
 20
-131.9990789612906
 30
0.0
 10
217.5883407638486
 20
-132.1412051469384
 30
0.0
 10
217.8581543201
 20
-132.270960170471
 30
0.0
 10
218.1334152604197
 20
-132.3886598310153
 30
0.0
 10
218.4227706716531
 20
-132.4982111592102
 30
0.0
 10
218.7259942615623
 20
-132.5985791927737
 30
0.0
 10
219.0428017904221
 20
-132.6887519124513
 30
0.0
 10
219.3629059507928
 20
-132.7660354937819
 30
0.0
 10
219.6856664296859
 20
-132.8309262829789
 30
0.0
 10
220.0211398976952
 20
-132.8856671678749
 30
0.0
 10
220.3690292066112
 20
-132.9294211702712
 30
0.0
 10
220.7289667273716
 20
-132.9620776301861
 30
0.0
 10
221.0898393623158
 20
-132.9836181994946
 30
0.0
 10
221.451302157482
 20
-132.9953746760722
 30
0.0
 10
221.8130124321119
 20
-132.9986771871711
 30
0.0
 10
222.2459446070026
 20
-132.9941009204726
 30
0.0
 10
222.7497617528458
 20
-132.9782806366476
 30
0.0
 10
223.3240865854576
 20
-132.9482397898372
 30
0.0
 10
223.8976830648676
 20
-132.9089644534003
 30
0.0
 10
224.5965680904032
 20
-132.8531434491622
 30
0.0
 10
225.4206729930595
 20
-132.7800778089423
 30
0.0
 10
226.2934791303016
 20
-132.7045357393873
 30
0.0
 10
227.0899298331106
 20
-132.6462103060688
 30
0.0
 10
227.8097545033776
 20
-132.6038191361832
 30
0.0
 10
228.4594304437517
 20
-132.5767408890964
 30
0.0
 10
229.0386364621403
 20
-132.5625144271581
 30
0.0
 10
229.5471589076919
 20
-132.5580770280992
 30
0.0
 10
230.0556973291696
 20
-132.5625537698464
 30
0.0
 10
230.5753225125687
 20
-132.5771248083392
 30
0.0
 10
231.1057625244177
 20
-132.6034866025487
 30
0.0
 10
231.6465730945795
 20
-132.6435454564469
 30
0.0
 10
232.1663773222654
 20
-132.6958146900377
 30
0.0
 10
232.6648908505014
 20
-132.7594611737985
 30
0.0
 10
233.14256340309
 20
-132.8295817088972
 30
0.0
 10
233.6194180285962
 20
-132.9055906503246
 30
0.0
 10
234.1047626821221
 20
-132.985874936501
 30
0.0
 10
234.5990306313664
 20
-133.0673362136883
 30
0.0
 10
235.1026125142446
 20
-133.1472411569454
 30
0.0
 10
235.6070172150935
 20
-133.2214105923433
 30
0.0
 10
236.1005691625527
 20
-133.2855580367874
 30
0.0
 10
236.5833650110831
 20
-133.3378637432623
 30
0.0
 10
237.0551194151509
 20
-133.3788334312519
 30
0.0
 10
237.5276589324319
 20
-133.4093805367008
 30
0.0
 10
238.0148617348754
 20
-133.4296979714067
 30
0.0
 10
238.5165365634253
 20
-133.4381817078399
 30
0.0
 10
239.0324438545426
 20
-133.4354333663615
 30
0.0
 10
239.5482893570592
 20
-133.4230737852307
 30
0.0
 10
240.0639546017056
 20
-133.4029607220384
 30
0.0
 10
240.7034810552834
 20
-133.3706848805107
 30
0.0
 10
241.4665870414972
 20
-133.3239739013341
 30
0.0
 10
242.3531136860332
 20
-133.2617628712457
 30
0.0
 10
243.1693344013551
 20
-133.2009743384954
 30
0.0
 10
243.9156188475065
 20
-133.1456364688275
 30
0.0
 10
244.592249734751
 20
-133.0996293882453
 30
0.0
 10
245.208528315717
 20
-133.0651345981706
 30
0.0
 10
245.7643445406917
 20
-133.0426136724934
 30
0.0
 10
246.259497511219
 20
-133.0299596353654
 30
0.0
 10
246.7548224667064
 20
-133.0256679675886
 30
0.0
 10
247.2089934623105
 20
-133.0302851668068
 30
0.0
 10
247.6218465125118
 20
-133.0419899422391
 30
0.0
 10
247.9932688115581
 20
-133.0592468485579
 30
0.0
 10
248.3642150037533
 20
-133.0841492829645
 30
0.0
 10
248.7112359759432
 20
-133.1155243367776
 30
0.0
 10
249.0342549036361
 20
-133.1523205911722
 30
0.0
 10
249.3332412577151
 20
-133.1938507582251
 30
0.0
 10
249.5934457117793
 20
-133.2375470522863
 30
0.0
 10
249.8150671283231
 20
-133.2807165977218
 30
0.0
 10
249.9982546662109
 20
-133.3215892589679
 30
0.0
 10
250.1799040810718
 20
-133.3687396442186
 30
0.0
 10
250.3538864796984
 20
-133.4217512312944
 30
0.0
 10
250.5197479431617
 20
-133.480894812757
 30
0.0
 10
250.6770951531934
 20
-133.545941751313
 30
0.0
 10
250.830899191356
 20
-133.6196551262591
 30
0.0
 10
250.9801982150206
 20
-133.7026366209096
 30
0.0
 10
251.0779948577765
 20
-133.7613023670462
 30
0.0
 10
251.1268999999999
 20
-133.7906393232508
 30
0.0
 11
212.9236999999998
 21
-112.2358393232509
 31
0.0
 11
212.8724867438586
 21
-112.4934097807888
 31
0.0
 11
212.8242447161794
 21
-112.7515510403597
 31
0.0
 11
212.7817703846937
 21
-113.010717157568
 31
0.0
 11
212.7447825723129
 21
-113.295911374081
 31
0.0
 11
212.719223734419
 21
-113.5823831860915
 31
0.0
 11
212.7062630775494
 21
-113.869638468376
 31
0.0
 11
212.7065162936615
 21
-114.1502171810919
 31
0.0
 11
212.7187910462462
 21
-114.4305809492952
 31
0.0
 11
212.742
 21
-114.7102393232508
 31
0.0
 11
212.7777943928539
 21
-115.0095457095108
 31
0.0
 11
212.8230501654852
 21
-115.3075880442935
 31
0.0
 11
212.8758570308266
 21
-115.6044832982213
 31
0.0
 11
212.9343047018115
 21
-115.9003484419157
 31
0.0
 11
213.0249427926554
 21
-116.3237203772893
 31
0.0
 11
213.1215433638529
 21
-116.7456445941815
 31
0.0
 11
213.2223739466719
 21
-117.1665569092471
 31
0.0
 11
213.3436974163174
 21
-117.6592105734911
 31
0.0
 11
213.4661380954053
 21
-118.1516068794022
 31
0.0
 11
213.4675282265593
 21
-118.1572208877196
 31
0.0
 11
213.4688999999999
 21
-118.1628393232509
 31
0.0
 11
213.4702359958646
 21
-118.1684423673814
 31
0.0
 11
213.4715541990261
 21
-118.1740497122229
 31
0.0
 11
213.5539466495608
 21
-118.5220744919369
 31
0.0
 11
213.6354238144189
 21
-118.8703089053219
 31
0.0
 11
213.7124499671025
 21
-119.2195252322717
 31
0.0
 11
213.7808868476694
 21
-119.5637588367954
 31
0.0
 11
213.8418438780087
 21
-119.9094382186537
 31
0.0
 11
213.8955324463536
 21
-120.2563198648792
 31
0.0
 11
213.9604474240213
 21
-120.7535055192308
 31
0.0
 11
214.014
 21
-121.2520393232508
 31
0.0
 11
214.0592114682037
 21
-121.7522907229203
 31
0.0
 11
214.0985479578302
 21
-122.253050249669
 31
0.0
 11
214.1344864237737
 21
-122.7540838174499
 31
0.0
 11
214.1941734148554
 21
-123.6165869481476
 31
0.0
 11
214.2553128434764
 21
-124.4789516782275
 31
0.0
 11
214.3128871754409
 21
-125.2281629538537
 31
0.0
 11
214.3775
 21
-125.9768393232508
 31
0.0
 11
214.42017144082
 21
-126.4157195367208
 31
0.0
 11
214.4689872288631
 21
-126.853940669503
 31
0.0
 11
214.5267106033704
 21
-127.291109170071
 31
0.0
 11
214.5961048035823
 21
-127.7268314868984
 31
0.0
 11
214.6471628274392
 21
-128.0006167241983
 31
0.0
 11
214.7049497416313
 21
-128.2731259028703
 31
0.0
 11
214.7704540521582
 21
-128.5438146214839
 31
0.0
 11
214.8446642650185
 21
-128.8121384786089
 31
0.0
 11
214.9285688862124
 21
-129.0775530728154
 31
0.0
 11
215.0231564217381
 21
-129.3395140026728
 31
0.0
 11
215.1249825099409
 21
-129.5874149330778
 31
0.0
 11
215.2380596517634
 21
-129.8305054069204
 31
0.0
 11
215.3628581073109
 21
-130.0676679476183
 31
0.0
 11
215.499848136688
 21
-130.2977850785893
 31
0.0
 11
215.6495
 21
-130.5197393232508
 31
0.0
 11
215.8164679227933
 21
-130.7380110046594
 31
0.0
 11
215.9962057967001
 21
-130.9462700250348
 31
0.0
 11
216.1876544300306
 21
-131.1442766859267
 31
0.0
 11
216.3897546310955
 21
-131.331791288885
 31
0.0
 11
216.6014472082061
 21
-131.5085741354594
 31
0.0
 11
216.8216729696723
 21
-131.6743855271995
 31
0.0
 11
217.0698480856664
 21
-131.8421666478475
 31
0.0
 11
217.3260316034753
 21
-131.9969821339262
 31
0.0
 11
217.5893826657709
 21
-132.1391404340933
 31
0.0
 11
217.8590604152264
 21
-132.268949997007
 31
0.0
 11
218.1342239945135
 21
-132.3867192713252
 31
0.0
 11
218.4140325463057
 21
-132.4927567057055
 31
0.0
 11
218.7267199945845
 21
-132.596369487633
 31
0.0
 11
219.0433821347002
 21
-132.6866119591822
 31
0.0
 11
219.3633772960461
 21
-132.7639763015222
 31
0.0
 11
219.6860638080149
 21
-132.828954695822
 31
0.0
 11
220.0107999999999
 21
-132.8820393232509
 31
0.0
 11
220.369252317407
 21
-132.9273473617527
 31
0.0
 11
220.7290527415853
 21
-132.9602199067404
 31
0.0
 11
221.089849878875
 21
-132.981983446465
 31
0.0
 11
221.4512923356156
 21
-132.9939644691782
 31
0.0
 11
221.8130287181474
 21
-132.9974894631309
 31
0.0
 11
222.1747076328109
 21
-132.9938849165747
 31
0.0
 11
222.7497931954987
 21
-132.976276980929
 31
0.0
 11
223.3240288902453
 21
-132.9466970320604
 31
0.0
 11
223.8976011372232
 21
-132.9078812981948
 31
0.0
 11
224.4706963566049
 21
-132.8625660075578
 31
0.0
 11
225.4206853927678
 21
-132.7804107608182
 31
0.0
 11
226.3708999999999
 21
-132.7002393232509
 31
0.0
 11
227.0900460906056
 21
-132.6479222849598
 31
0.0
 11
227.8098595097058
 21
-132.6058796354288
 31
0.0
 11
228.5302926725014
 21
-132.5761994087384
 31
0.0
 11
229.0386573300974
 21
-132.5638560609647
 31
0.0
 11
229.547160930889
 21
-132.5595627167505
 31
0.0
 11
230.0556578907833
 21
-132.5641833525625
 31
0.0
 11
230.5640026256869
 21
-132.578581944867
 31
0.0
 11
231.1056443107716
 21
-132.605678116615
 31
0.0
 11
231.646419428743
 21
-132.645916282263
 31
0.0
 11
232.1858
 21
-132.7003393232508
 31
0.0
 11
232.6646555738498
 21
-132.7609531928974
 31
0.0
 11
233.1423677752878
 21
-132.8305540435697
 31
0.0
 11
233.619317862947
 21
-132.9060527091285
 31
0.0
 11
234.0958870954608
 21
-132.984360023434
 31
0.0
 11
234.599144580896
 21
-133.066839628028
 31
0.0
 11
235.1027909802044
 21
-133.1462915980444
 31
0.0
 11
235.6072147573121
 21
-133.2200011168028
 31
0.0
 11
236.1128043761449
 21
-133.2852533676229
 31
0.0
 11
236.5835022826392
 21
-133.336188968582
 31
0.0
 11
237.0552565235684
 21
-133.3770967176446
 31
0.0
 11
237.5277835967496
 21
-133.4075792806032
 31
0.0
 11
238.0008
 21
-133.4272393232508
 31
0.0
 11
238.5165302273597
 21
-133.4362698253606
 31
0.0
 11
239.0323772583121
 21
-133.4338323570522
 31
0.0
 11
239.5482134682775
 21
-133.4217829370984
 31
0.0
 11
240.0639112326762
 21
-133.4019775842727
 31
0.0
 11
240.5793429269285
 21
-133.3762723173482
 31
0.0
 11
241.4665677398379
 21
-133.3226505126497
 31
0.0
 11
242.3530692760186
 21
-133.2611306474683
 31
0.0
 11
243.2392928963973
 21
-133.1958185009428
 31
0.0
 11
243.915667542494
 21
-133.1463271786595
 31
0.0
 11
244.5923373572572
 21
-133.1009801939424
 31
0.0
 11
245.2694999999999
 21
-133.0637393232508
 31
0.0
 11
245.7643807220787
 21
-133.0438469786633
 31
0.0
 11
246.2595195968459
 21
-133.0313534707962
 31
0.0
 11
246.7548065807819
 21
-133.0272225411002
 31
0.0
 11
247.2501316303684
 21
-133.0324179310261
 31
0.0
 11
247.6218118787202
 21
-133.0431102235993
 31
0.0
 11
247.9932196538332
 21
-133.0605228502408
 31
0.0
 11
248.3641230264137
 21
-133.0855799234424
 31
0.0
 11
248.7342900671686
 21
-133.1192055556954
 31
0.0
 11
249.034092654934
 21
-133.1535470784966
 31
0.0
 11
249.3329862308504
 21
-133.1952551443407
 31
0.0
 11
249.6306999999999
 21
-133.2454393232509
 31
0.0
 11
249.8149073972208
 21
-133.2815507525193
 31
0.0
 11
249.9980318014864
 21
-133.322643594193
 31
0.0
 11
250.1795503396106
 21
-133.3699979478617
 31
0.0
 11
250.3589401384083
 21
-133.4248939131144
 31
0.0
 11
250.5192533000765
 21
-133.482209000861
 31
0.0
 11
250.6765074126535
 21
-133.5473857784724
 31
0.0
 11
250.8298238754325
 21
-133.6210317515025
 31
0.0
 11
250.9797029969004
 21
-133.7034384994067
 31
0.0
 11
251.1268999999999
 21
-133.7906393232508
 31
0.0
  0
LINE
  5
8D6
330
1F
100
AcDbEntity
  8
0
  6
DASH_CENTER
 62
    30
100
AcDbLine
 10
248.6943
 20
-122.2358393232509
 30
0.0
 11
212.8314
 21
-122.2358393232509
 31
0.0
  0
LINE
  5
8D7
330
1F
100
AcDbEntity
  8
0
  6
Continuous
 62
     7
100
AcDbLine
 10
222.127
 20
-125.7358393232509
 30
0.0
 11
242.127
 21
-125.7358393232509
 31
0.0
  0
LINE
  5
8D8
330
1F
100
AcDbEntity
  8
0
  6
Continuous
 62
     7
100
AcDbLine
 10
222.127
 20
-118.7358393232509
 30
0.0
 11
242.127
 21
-118.7358393232509
 31
0.0
  0
LINE
  5
8D9
330
1F
100
AcDbEntity
  8
0
  6
Continuous
 62
     7
100
AcDbLine
 10
212.9237999999999
 20
-112.2358393232509
 30
0.0
 11
241.1272999999999
 21
-112.2358393232509
 31
0.0
  0
LINE
  5
8E2
330
1F
100
AcDbEntity
  8
0
  6
Continuous
 62
     7
100
AcDbLine
 10
206.1266999999999
 20
-41.51069999999998
 30
0.0
 11
251.1264999999999
 21
-41.51069999999998
 31
0.0
  0
LINE
  5
8E3
330
1F
100
AcDbEntity
  8
0
  6
Continuous
 62
     7
100
AcDbLine
 10
208.6516
 20
-38.3108
 30
0.0
 11
251.1264999999999
 21
-38.3108
 31
0.0
  0
ARC
  5
8E4
330
1F
100
AcDbEntity
  8
0
  6
Continuous
 62
     7
100
AcDbCircle
 10
229.3991514790028
 20
-24.15229309524602
 30
0.0
 40
9.999995012128671
100
AcDbArc
 50
28.99934039423174
 51
134.8025265848372
  0
LINE
  5
939
330
1F
100
AcDbEntity
  8
0
  6
Continuous
 62
     7
100
AcDbLine
 10
106.9905
 20
-30.49409999999999
 30
0.0
 11
111.8386
 21
-21.748
 31
0.0
  0
LINE
  5
93A
330
1F
100
AcDbEntity
  8
0
  6
Continuous
 62
     7
100
AcDbLine
 10
146.1267
 20
-41.51069999999998
 30
0.0
 11
101.1268999999999
 21
-41.51069999999998
 31
0.0
  0
LINE
  5
93B
330
1F
100
AcDbEntity
  8
0
  6
Continuous
 62
     7
100
AcDbLine
 10
143.6017999999999
 20
-38.3108
 30
0.0
 11
101.1268999999999
 21
-38.3108
 31
0.0
  0
LINE
  5
93C
330
1F
100
AcDbEntity
  8
0
  6
DASH_CENTER
 62
    30
100
AcDbLine
 10
104.6641
 20
-23.36209999999999
 30
0.0
 11
113.3223
 21
-28.3606
 31
0.0
  0
LINE
  5
93D
330
1F
100
AcDbEntity
  8
0
  6
Continuous
 62
     7
100
AcDbLine
 10
104.698
 20
-36.2805
 30
0.0
 11
114.1081
 21
-19.3042
 31
0.0
  0
ARC
  5
93E
330
1F
100
AcDbEntity
  8
0
  6
Continuous
 62
     7
100
AcDbCircle
 10
109.6535275763204
 20
-23.83369077257714
 30
0.0
 40
1.299989276553614
100
AcDbArc
 50
65.99907613789316
 51
151.0028488812585
  0
LINE
  5
94A
330
1F
100
AcDbEntity
  8
0
  6
DASH_CENTER
 62
    30
100
AcDbLine
 10
92.79900000000001
 20
-34.08379999999999
 30
0.0
 11
76.92490000000002
 21
-34.08379999999999
 31
0.0
  0
LINE
  5
94B
330
1F
100
AcDbEntity
  8
0
  6
Continuous
 62
     7
100
AcDbLine
 10
87.04309999999997
 20
-22.984
 30
0.0
 11
87.04309999999997
 21
-2.570399999999998
 31
0.0
  0
LINE
  5
94C
330
1F
100
AcDbEntity
  8
0
  6
Continuous
 62
     7
100
AcDbLine
 10
84.04340000000003
 20
-22.984
 30
0.0
 11
84.04340000000003
 21
-2.642499999999997
 31
0.0
  0
LINE
  5
94D
330
1F
100
AcDbEntity
  8
0
  6
DASH_CENTER
 62
    30
100
AcDbLine
 10
85.5432
 20
-42.04189999999999
 30
0.0
 11
85.5432
 21
-27.5289
 31
0.0
  0
CIRCLE
  5
94E
330
1F
100
AcDbEntity
  8
0
  6
Continuous
 62
     7
100
AcDbCircle
 10
85.5432
 20
-34.08379999999999
 30
0.0
 40
2.150000000000006
  0
ARC
  5
94F
330
1F
100
AcDbEntity
  8
0
  6
Continuous
 62
     7
100
AcDbCircle
 10
85.54325000000002
 20
-34.08380000000001
 30
0.0
 40
3.299966800211791
100
AcDbArc
 50
168.1508663061884
 51
11.84913369381153
  0
LINE
  5
951
330
1F
100
AcDbEntity
  8
0
  6
Continuous
 62
     7
100
AcDbLine
 10
87.59299999999996
 20
-22.984
 30
0.0
 11
83.4932
 21
-22.984
 31
0.0
  0
LINE
  5
952
330
1F
100
AcDbEntity
  8
0
  6
Continuous
 62
     7
100
AcDbLine
 10
83.4932
 20
-27.784
 30
0.0
 11
87.59299999999996
 21
-27.784
 31
0.0
  0
LINE
  5
953
330
1F
100
AcDbEntity
  8
0
  6
Continuous
 62
     7
100
AcDbLine
 10
83.4932
 20
-22.984
 30
0.0
 11
83.4932
 21
-27.784
 31
0.0
  0
LINE
  5
954
330
1F
100
AcDbEntity
  8
0
  6
Continuous
 62
     7
100
AcDbLine
 10
83.4932
 20
-27.784
 30
0.0
 11
82.31350000000002
 21
-33.4064
 31
0.0
  0
LINE
  5
955
330
1F
100
AcDbEntity
  8
0
  6
Continuous
 62
     7
100
AcDbLine
 10
87.59299999999996
 20
-22.984
 30
0.0
 11
87.59299999999996
 21
-27.784
 31
0.0
  0
LINE
  5
956
330
1F
100
AcDbEntity
  8
0
  6
Continuous
 62
     7
100
AcDbLine
 10
87.59299999999996
 20
-27.784
 30
0.0
 11
88.77270000000001
 21
-33.4064
 31
0.0
  0
LINE
  5
957
330
1F
100
AcDbEntity
  8
0
  6
Continuous
 62
     7
100
AcDbLine
 10
101.1268999999999
 20
-37.3108
 30
0.0
 11
102.9487
 21
-37.3108
 31
0.0
  0
LINE
  5
958
330
1F
100
AcDbEntity
  8
0
  6
Continuous
 62
     7
100
AcDbLine
 10
101.1268999999999
 20
-37.3108
 30
0.0
 11
101.1268999999999
 21
-41.51069999999998
 31
0.0
  0
ARC
  5
95A
330
1F
100
AcDbEntity
  8
0
  6
Continuous
 62
     7
100
AcDbCircle
 10
102.9489039661491
 20
-35.3107976641572
 30
0.0
 40
2.000002346243328
100
AcDbArc
 50
269.9941568070916
 51
330.9973154644159
  0
LINE
  5
95B
330
1F
100
AcDbEntity
  8
0
  6
Continuous
 62
     7
100
AcDbLine
 10
106.4643999999999
 20
-26.90549999999999
 30
0.0
 11
108.5164999999999
 21
-23.20339999999999
 31
0.0
  0
LINE
  5
95C
330
1F
100
AcDbEntity
  8
0
  6
Continuous
 62
     7
100
AcDbLine
 10
106.9905
 20
-30.49409999999999
 30
0.0
 11
107.6902
 21
-30.8821
 31
0.0
  0
LINE
  5
95D
330
1F
100
AcDbEntity
  8
0
  6
Continuous
 62
     7
100
AcDbLine
 10
107.7177
 20
-29.1824
 30
0.0
 11
106.8745
 21
-28.61349999999999
 31
0.0
  0
ARC
  5
95E
330
1F
100
AcDbEntity
  8
0
  6
Continuous
 62
     7
100
AcDbCircle
 10
107.6014076698214
 20
-27.53563194356331
 30
0.0
 40
1.299991824559207
100
AcDbArc
 50
151.0008364669694
 51
236.0020484994698
  0
SPLINE
  5
95F
330
1F
100
AcDbEntity
  8
0
  6
Continuous
 62
    30
100
AcDbSpline
210
0.0
220
0.0
230
1.0
 70
     8
 71
     3
 72
    25
 73
    21
 74
    19
 42
0.0000000001
 43
0.0000000001
 44
0.00000001
 40
0.0
 40
0.0
 40
0.0
 40
0.0
 40
0.3268172640940055
 40
0.6536256573300894
 40
0.9569495868641775
 40
1.260335096765854
 40
1.352322701441059
 40
1.444228692959057
 40
1.684367801899101
 40
1.925528948746636
 40
2.115790485070133
 40
2.30433938807727
 40
2.359453368548521
 40
2.414494698056258
 40
2.581637289009112
 40
2.751194212432727
 40
2.941202659146618
 40
3.130399653496761
 40
3.19648192474209
 40
3.262576940124223
 40
3.262576940124223
 40
3.262576940124223
 40
3.262576940124223
 10
84.04340000000003
 20
-2.642499999999997
 30
0.0
 10
84.14949040625089
 20
-2.617750051882168
 30
0.0
 10
84.36166833640756
 20
-2.568250815854768
 30
0.0
 10
84.67187277891541
 20
-2.493912732628404
 30
0.0
 10
84.97361572972872
 20
-2.417847399271051
 30
0.0
 10
85.19820834499194
 20
-2.356076762421883
 30
0.0
 10
85.35390157282202
 20
-2.309788645924855
 30
0.0
 10
85.48885719703092
 20
-2.267745990396124
 30
0.0
 10
85.66949897315696
 20
-2.205431788246618
 30
0.0
 10
85.88133580310467
 20
-2.133044102034092
 30
0.0
 10
86.07960223747381
 20
-2.074394036780771
 30
0.0
 10
86.22414950575906
 20
-2.054347563731673
 30
0.0
 10
86.32377148913843
 20
-2.057844399715571
 30
0.0
 10
86.41561495217896
 20
-2.069645647700234
 30
0.0
 10
86.54001788162705
 20
-2.115770341328292
 30
0.0
 10
86.68735120332234
 20
-2.212567090977957
 30
0.0
 10
86.82456935197413
 20
-2.3342401054202
 30
0.0
 10
86.92622582841526
 20
-2.442469525759662
 30
0.0
 10
86.99858574409718
 20
-2.521456786366033
 30
0.0
 10
87.02819429953658
 20
-2.554084544020179
 30
0.0
 10
87.04299999999998
 20
-2.570399999999998
 30
0.0
 11
84.04340000000003
 21
-2.642499999999997
 31
0.0
 11
84.36159649354157
 21
-2.567931160973863
 31
0.0
 11
84.6793282798834
 21
-2.491444314868804
 31
0.0
 11
84.97332479686916
 21
-2.416802142350205
 31
0.0
 11
85.26571195335279
 21
-2.335854518950437
 31
0.0
 11
85.35387019467211
 21
-2.309589640966123
 31
0.0
 11
85.44160000000003
 21
-2.282199999999999
 31
0.0
 11
85.66921238286319
 21
-2.205653317053438
 31
0.0
 11
85.89797930029154
 21
-2.12933556851312
 31
0.0
 11
86.08142251691399
 21
-2.078857456140076
 31
0.0
 11
86.26865685131193
 21
-2.056631486880465
 31
0.0
 11
86.32373215257947
 21
-2.05869597078762
 31
0.0
 11
86.37830000000002
 21
-2.065899999999999
 31
0.0
 11
86.53611155774553
 21
-2.12096503755632
 31
0.0
 11
86.67925772594751
 21
-2.211842565597667
 31
0.0
 11
86.82270089489094
 21
-2.336451021908795
 31
0.0
 11
86.95389241982503
 21
-2.472775218658892
 31
0.0
 11
86.99854483818588
 21
-2.521488955141754
 31
0.0
 11
87.04299999999998
 21
-2.570399999999998
 31
0.0
  0
ARC
  5
96F
330
1F
100
AcDbEntity
  8
0
  6
Continuous
 62
     7
100
AcDbCircle
 10
222.127
 20
-122.2358393232509
 30
0.0
 40
3.5
100
AcDbArc
 50
90.0
 51
270.0
  0
LINE
  5
973
330
1F
100
AcDbEntity
  8
0
  6
DASH_CENTER
 62
    30
100
AcDbLine
 10
232.127
 20
-114.6388393232508
 30
0.0
 11
232.127
 21
-130.2614393232509
 31
0.0
  0
LINE
  5
97C
330
1F
100
AcDbEntity
  8
0
  6
Continuous
 62
     7
100
AcDbLine
 10
207.6516
 20
-37.3108
 30
0.0
 11
144.6018
 21
-37.3108
 31
0.0
  0
LINE
  5
97D
330
1F
100
AcDbEntity
  8
0
  6
Continuous
 62
     7
100
AcDbLine
 10
206.1266999999999
 20
-40.5107
 30
0.0
 11
146.1267
 21
-40.5107
 31
0.0
  0
ARC
  5
97E
330
1F
100
AcDbEntity
  8
0
  6
Continuous
 62
     7
100
AcDbCircle
 10
176.1266908251809
 20
29.48930000002707
 30
0.0
 40
58.50006535333883
100
AcDbArc
 50
234.6212593014242
 51
305.378402372472
  0
ARC
  5
97F
330
1F
100
AcDbEntity
  8
0
  6
Continuous
 62
     7
100
AcDbCircle
 10
176.1266908251141
 20
29.48930000002757
 30
0.0
 40
57.50000627517285
100
AcDbArc
 50
234.6212435501402
 51
305.3784122395843
  0
LINE
  5
981
330
1F
100
AcDbEntity
  8
0
  6
DASH_CENTER
 62
    30
100
AcDbLine
 10
120.1267
 20
-33.9805
 30
0.0
 11
120.1267
 21
-45.11070000000001
 31
0.0
  0
ARC
  5
98E
330
1F
100
AcDbEntity
  8
0
  6
Continuous
 62
     7
100
AcDbCircle
 10
139.6167532795232
 20
-36.31075977722828
 30
0.0
 40
2.000040223481378
100
AcDbArc
 50
269.9984736847881
 51
344.1026579948143
  0
ARC
  5
98F
330
1F
100
AcDbEntity
  8
0
  6
Continuous
 62
     7
100
AcDbCircle
 10
145.151421054942
 20
-14.13164370227484
 30
0.0
 40
4.000049803145794
100
AcDbArc
 50
176.8279042576663
 51
234.6198980353973
  0
ARC
  5
990
330
1F
100
AcDbEntity
  8
0
  6
Continuous
 62
     7
100
AcDbCircle
 10
133.1698
 20
-13.46779999999998
 30
0.0
 40
7.000022555677932
100
AcDbArc
 50
356.8282969603254
 51
93.17170303967433
  0
ARC
  5
991
330
1F
100
AcDbEntity
  8
0
  6
Continuous
 62
     7
100
AcDbCircle
 10
133.1697552511714
 20
-13.46775525010973
 30
0.0
 40
8.000005567872751
100
AcDbArc
 50
356.8274555963946
 51
93.17118513762652
  0
ARC
  5
992
330
1F
100
AcDbEntity
  8
0
  6
Continuous
 62
     7
100
AcDbCircle
 10
145.1513689326264
 20
-14.13153551909221
 30
0.0
 40
5.000027476912215
100
AcDbArc
 50
176.828388393795
 51
234.621827004468
  0
LINE
  5
993
330
1F
100
AcDbEntity
  8
0
  6
Continuous
 62
     7
100
AcDbLine
 10
111.1114
 20
-23.05979999999999
 30
0.0
 11
110.1822
 21
-22.6462
 31
0.0
  0
ARC
  5
994
330
1F
100
AcDbEntity
  8
0
  6
Continuous
 62
     7
100
AcDbCircle
 10
122.8542485209972
 20
-24.15229309524603
 30
0.0
 40
9.99999501212866
100
AcDbArc
 50
45.1974734151627
 51
151.0006596057682
  0
LINE
  5
995
330
1F
100
AcDbEntity
  8
0
  6
Continuous
 62
     7
100
AcDbLine
 10
111.8386
 20
-21.748
 30
0.0
 11
112.5383
 21
-22.1357
 31
0.0
  0
LINE
  5
996
330
1F
100
AcDbEntity
  8
0
  6
Continuous
 62
     7
100
AcDbLine
 10
123.3395
 20
-1.5762
 30
0.0
 11
120.5419999999999
 21
-2.735100000000001
 31
0.0
  0
LINE
  5
997
330
1F
100
AcDbEntity
  8
0
  6
DASH_CENTER
 62
    30
100
AcDbLine
 10
137.2446999999999
 20
-9.392799999999999
 30
0.0
 11
127.9791
 21
-18.6584
 31
0.0
  0
LINE
  5
998
330
1F
100
AcDbEntity
  8
0
  6
Continuous
 62
     7
100
AcDbLine
 10
129.089
 20
-12.5981
 30
0.0
 11
131.9444
 21
-9.732199999999997
 31
0.0
  0
LINE
  5
999
330
1F
100
AcDbEntity
  8
0
  6
Continuous
 62
     7
100
AcDbLine
 10
135.8504
 20
-10.78659999999999
 30
0.0
 11
136.8966
 21
-14.6902
 31
0.0
  0
CIRCLE
  5
99A
330
1F
100
AcDbEntity
  8
0
  6
Continuous
 62
     7
100
AcDbCircle
 10
132.9927999999999
 20
-13.6443
 30
0.0
 40
3.5
  0
ARC
  5
99B
330
1F
100
AcDbEntity
  8
0
  6
DASH_CENTER
 62
    30
100
AcDbCircle
 10
176.1268402486409
 20
29.48915962074569
 30
0.0
 40
61.00003167975099
100
AcDbArc
 50
219.6859654241719
 51
230.2606999756234
  0
LINE
  5
99C
330
1F
100
AcDbEntity
  8
0
  6
Continuous
 62
     7
100
AcDbLine
 10
134.0408999999999
 20
-17.5562
 30
0.0
 11
130.1350999999999
 21
-16.50199999999999
 31
0.0
  0
CIRCLE
  5
99D
330
1F
100
AcDbEntity
  8
0
  6
Continuous
 62
     7
100
AcDbCircle
 10
132.9927999999999
 20
-13.6443
 30
0.0
 40
2.0
  0
CIRCLE
  5
99E
330
1F
100
AcDbEntity
  8
0
  6
Continuous
 62
    30
100
AcDbCircle
 10
132.9927999999999
 20
-13.6443
 30
0.0
 40
1.6
  0
LINE
  5
99F
330
1F
100
AcDbEntity
  8
0
  6
Continuous
 62
     7
100
AcDbLine
 10
130.1350999999999
 20
-16.50199999999999
 30
0.0
 11
129.089
 21
-12.5981
 31
0.0
  0
LINE
  5
9A0
330
1F
100
AcDbEntity
  8
0
  6
Continuous
 62
     7
100
AcDbLine
 10
136.8966
 20
-14.6902
 30
0.0
 11
134.0408999999999
 21
-17.5562
 31
0.0
  0
LINE
  5
9A1
330
1F
100
AcDbEntity
  8
0
  6
Continuous
 62
     7
100
AcDbLine
 10
131.9444
 20
-9.732199999999997
 30
0.0
 11
135.8504
 21
-10.78659999999999
 31
0.0
  0
ARC
  5
9A2
330
1F
100
AcDbEntity
  8
0
  6
Continuous
 62
     7
100
AcDbCircle
 10
132.5057662507174
 20
-1.486083739750216
 30
0.0
 40
4.999974787296078
100
AcDbArc
 50
215.3792669023326
 51
273.1716247510158
  0
ARC
  5
9A3
330
1F
100
AcDbEntity
  8
0
  6
Continuous
 62
     7
100
AcDbCircle
 10
132.5058102687437
 20
-1.486104947584308
 30
0.0
 40
4.000020854304386
100
AcDbArc
 50
215.3781828149591
 51
273.1713444629347
  0
ARC
  5
9A4
330
1F
100
AcDbEntity
  8
0
  6
Continuous
 62
     7
100
AcDbCircle
 10
176.1269071236156
 20
29.48921420577445
 30
0.0
 40
64.25004432500212
100
AcDbArc
 50
239.8975054994568
 51
255.1021097042537
  0
ARC
  5
9A5
330
1F
100
AcDbEntity
  8
0
  6
Continuous
 62
     7
100
AcDbCircle
 10
176.1267263858114
 20
29.48928907063367
 30
0.0
 40
61.25001891472511
100
AcDbArc
 50
239.5230220097994
 51
255.4769579951054
  0
ARC
  5
9A6
330
1F
100
AcDbEntity
  8
0
  6
Continuous
 62
     7
100
AcDbCircle
 10
147.2827345127859
 20
-34.94968390971564
 30
0.0
 40
5.000010166344665
100
AcDbArc
 50
65.8860771433023
 51
164.1049442872886
  0
LINE
  5
9A7
330
1F
100
AcDbEntity
  8
0
  6
Continuous
 62
     7
100
AcDbLine
 10
146.1267
 20
-40.5107
 30
0.0
 11
146.1267
 21
-41.51069999999998
 31
0.0
  0
LINE
  5
9A8
330
1F
100
AcDbEntity
  8
0
  6
Continuous
 62
     7
100
AcDbLine
 10
141.5402999999999
 20
-36.85859999999999
 30
0.0
 11
142.4738999999999
 21
-33.5803
 31
0.0
  0
ARC
  5
9AA
330
1F
100
AcDbEntity
  8
0
  6
Continuous
 62
     7
100
AcDbCircle
 10
143.6017999949999
 20
-37.81080000499901
 30
0.0
 40
0.5000000049999909
100
AcDbArc
 50
269.9885414170928
 51
0.0000005728442586
  0
ARC
  5
9AB
330
1F
100
AcDbEntity
  8
0
  6
Continuous
 62
     7
100
AcDbCircle
 10
144.601800005
 20
-37.810799994999
 30
0.0
 40
0.5000000050000084
100
AcDbArc
 50
90.01145972882367
 51
180.0000005730714
  0
LINE
  5
9AC
330
1F
100
AcDbEntity
  8
0
  6
Continuous
 62
     7
100
AcDbLine
 10
145.0612
 20
-23.2981
 30
0.0
 11
143.9024999999999
 21
-26.0955
 31
0.0
  0
ARC
  5
9AD
330
1F
100
AcDbEntity
  8
0
  6
Continuous
 62
     7
100
AcDbCircle
 10
165.0402537591748
 20
-36.18157970167583
 30
0.0
 40
0.9999468098102827
100
AcDbArc
 50
52.18754159574998
 51
80.41241469023162
  0
LINE
  5
9AE
330
1F
100
AcDbEntity
  8
0
  6
Continuous
 62
     7
100
AcDbLine
 10
167.8562
 20
-37.10079999999999
 30
0.0
 11
165.6533
 21
-35.39159999999998
 31
0.0
  0
ARC
  5
9AF
330
1F
100
AcDbEntity
  8
0
  6
Continuous
 62
     7
100
AcDbCircle
 10
168.4692956286365
 20
-36.31083276021806
 30
0.0
 40
0.9999672443545023
100
AcDbArc
 50
232.1848682264858
 51
269.9945207032389
  0
LINE
  5
9B0
330
1F
100
AcDbEntity
  8
0
  6
Continuous
 62
     7
100
AcDbLine
 10
160.7671
 20
-29.80349999999999
 30
0.0
 11
159.6083999999999
 21
-32.6011
 31
0.0
  0
LINE
  5
9B1
330
1F
100
AcDbEntity
  8
0
  6
Continuous
 62
     7
100
AcDbLine
 10
171.6267
 20
-0.4734000000000016
 30
0.0
 11
171.6267
 21
-12.1521
 31
0.0
  0
ARC
  5
9B2
330
1F
100
AcDbEntity
  8
0
  6
Continuous
 62
     7
100
AcDbCircle
 10
167.6266919600269
 20
-12.152106564638
 30
0.0
 40
4.000008039978455
100
AcDbArc
 50
258.4631820135605
 51
0.00009403132395
  0
ARC
  5
9B3
330
1F
100
AcDbEntity
  8
0
  6
Continuous
 62
     7
100
AcDbCircle
 10
167.62669397002
 20
-12.1521049234785
 30
0.0
 40
3.000006029983841
100
AcDbArc
 50
258.4631820135605
 51
0.00009403132395
  0
ARC
  5
9B4
330
1F
100
AcDbEntity
  8
0
  6
Continuous
 62
     7
100
AcDbCircle
 10
164.6266727720385
 20
-3.567619356807689
 30
0.0
 40
3.000027228023768
100
AcDbArc
 50
250.8189304118659
 51
0.0003696844399085
  0
LINE
  5
9B6
330
1F
100
AcDbEntity
  8
0
  6
DASH_CENTER
 62
    30
100
AcDbLine
 10
232.1267
 20
-33.9805
 30
0.0
 11
232.1267
 21
-45.11070000000001
 31
0.0
  0
ARC
  5
9CA
330
1F
100
AcDbEntity
  8
0
  6
Continuous
 62
     7
100
AcDbCircle
 10
176.1264424424694
 20
29.48935900125623
 30
0.0
 40
61.25004427415728
100
AcDbArc
 50
284.5228727180708
 51
300.4768893228296
  0
ARC
  5
9CB
330
1F
100
AcDbEntity
  8
0
  6
Continuous
 62
     7
100
AcDbCircle
 10
176.1260031051863
 20
29.48917702019055
 30
0.0
 40
64.25005717932653
100
AcDbArc
 50
284.8980623634732
 51
300.1025803898189
  0
ARC
  5
9CC
330
1F
100
AcDbEntity
  8
0
  6
Continuous
 62
     7
100
AcDbCircle
 10
204.970665487214
 20
-34.94968390971564
 30
0.0
 40
5.000010166344683
100
AcDbArc
 50
15.89505571271119
 51
114.1139228566977
  0
LINE
  5
9CD
330
1F
100
AcDbEntity
  8
0
  6
Continuous
 62
     7
100
AcDbLine
 10
184.3971999999999
 20
-37.10079999999999
 30
0.0
 11
186.6000999999999
 21
-35.39159999999998
 31
0.0
  0
ARC
  5
9CE
330
1F
100
AcDbEntity
  8
0
  6
Continuous
 62
     7
100
AcDbCircle
 10
187.213146240825
 20
-36.18157970167583
 30
0.0
 40
0.9999468098102843
100
AcDbArc
 50
99.58758530976837
 51
127.8124584042499
  0
ARC
  5
9CF
330
1F
100
AcDbEntity
  8
0
  6
Continuous
 62
     7
100
AcDbCircle
 10
183.7841043713634
 20
-36.31083276021806
 30
0.0
 40
0.9999672443544987
100
AcDbArc
 50
270.0054792967609
 51
307.8151317735138
  0
LINE
  5
9D0
330
1F
100
AcDbEntity
  8
0
  6
Continuous
 62
     7
100
AcDbLine
 10
191.4858999999999
 20
-29.80349999999999
 30
0.0
 11
192.6446999999999
 21
-32.6011
 31
0.0
  0
LINE
  5
9D1
330
1F
100
AcDbEntity
  8
0
  6
Continuous
 62
     7
100
AcDbLine
 10
180.6267
 20
-12.1521
 30
0.0
 11
180.6267
 21
-0.4734000000000016
 31
0.0
  0
ARC
  5
9D2
330
1F
100
AcDbEntity
  8
0
  6
Continuous
 62
     7
100
AcDbCircle
 10
184.6267080399729
 20
-12.152106564638
 30
0.0
 40
4.000008039978455
100
AcDbArc
 50
179.9999059686759
 51
281.5368179864393
  0
ARC
  5
9D3
330
1F
100
AcDbEntity
  8
0
  6
Continuous
 62
     7
100
AcDbCircle
 10
184.6267060299798
 20
-12.1521049234785
 30
0.0
 40
3.000006029983841
100
AcDbArc
 50
179.9999059686761
 51
281.5368179864393
  0
ARC
  5
9D4
330
1F
100
AcDbEntity
  8
0
  6
Continuous
 62
     7
100
AcDbCircle
 10
187.6266800036064
 20
-3.567885784233418
 30
0.0
 40
2.999980004833036
100
AcDbArc
 50
179.9983616309054
 51
289.1823382727886
  0
LINE
  5
9D5
330
1F
100
AcDbEntity
  8
0
  6
Continuous
 62
     7
100
AcDbLine
 10
206.1266999999999
 20
-40.5107
 30
0.0
 11
206.1266999999999
 21
-41.51069999999998
 31
0.0
  0
LINE
  5
9D6
330
1F
100
AcDbEntity
  8
0
  6
Continuous
 62
     7
100
AcDbLine
 10
210.7132
 20
-36.85859999999999
 30
0.0
 11
209.7795
 21
-33.5803
 31
0.0
  0
ARC
  5
9D8
330
1F
100
AcDbEntity
  8
0
  6
Continuous
 62
     7
100
AcDbCircle
 10
212.6367104159804
 20
-36.31080786383518
 30
0.0
 40
1.999992136191945
100
AcDbArc
 50
195.8963019922932
 51
269.9997016029644
  0
ARC
  5
9D9
330
1F
100
AcDbEntity
  8
0
  6
Continuous
 62
     7
100
AcDbCircle
 10
207.6515999949999
 20
-37.810799994999
 30
0.0
 40
0.500000005000004
100
AcDbArc
 50
359.9999994269284
 51
89.98854027117634
  0
ARC
  5
9DA
330
1F
100
AcDbEntity
  8
0
  6
Continuous
 62
     7
100
AcDbCircle
 10
208.651600005
 20
-37.81080000499901
 30
0.0
 40
0.500000005000004
100
AcDbArc
 50
179.9999994271556
 51
270.0114585829071
  0
LINE
  5
9DB
330
1F
100
AcDbEntity
  8
0
  6
Continuous
 62
     7
100
AcDbLine
 10
207.1918
 20
-23.2981
 30
0.0
 11
208.3505999999999
 21
-26.0955
 31
0.0
  0
LINE
  5
9DC
330
1F
100
AcDbEntity
  8
0
  6
DASH_CENTER
 62
    30
100
AcDbLine
 10
215.0082999999999
 20
-9.392799999999999
 30
0.0
 11
224.2739999999999
 21
-18.6584
 31
0.0
  0
LINE
  5
9DD
330
1F
100
AcDbEntity
  8
0
  6
Continuous
 62
     7
100
AcDbLine
 10
220.3056
 20
-9.740700000000003
 30
0.0
 11
223.1716
 21
-12.5964
 31
0.0
  0
LINE
  5
9DE
330
1F
100
AcDbEntity
  8
0
  6
Continuous
 62
     7
100
AcDbLine
 10
222.1172999999999
 20
-16.5022
 30
0.0
 11
218.2136
 21
-17.54829999999999
 31
0.0
  0
CIRCLE
  5
9DF
330
1F
100
AcDbEntity
  8
0
  6
Continuous
 62
     7
100
AcDbCircle
 10
219.2595999999999
 20
-13.6445
 30
0.0
 40
3.5
  0
ARC
  5
9E0
330
1F
100
AcDbEntity
  8
0
  6
DASH_CENTER
 62
    30
100
AcDbCircle
 10
176.1262097048156
 20
29.48920962072404
 30
0.0
 40
61.00010212232174
100
AcDbArc
 50
309.7393061475902
 51
320.3140284526143
  0
ARC
  5
9E1
330
1F
100
AcDbEntity
  8
0
  6
Continuous
 62
     7
100
AcDbCircle
 10
219.7475285911663
 20
-1.486086225223438
 30
0.0
 40
4.999977553848886
100
AcDbArc
 50
266.8272885250597
 51
324.6207905424131
  0
ARC
  5
9E2
330
1F
100
AcDbEntity
  8
0
  6
Continuous
 62
     7
100
AcDbCircle
 10
219.7474137284256
 20
-1.48614156770857
 30
0.0
 40
3.999980086304096
100
AcDbArc
 50
266.829713516535
 51
324.6220458607647
  0
LINE
  5
9E3
330
1F
100
AcDbEntity
  8
0
  6
Continuous
 62
     7
100
AcDbLine
 10
215.3475999999999
 20
-14.69289999999999
 30
0.0
 11
216.4019
 21
-10.78689999999999
 31
0.0
  0
ARC
  5
9E4
330
1F
100
AcDbEntity
  8
0
  6
Continuous
 62
     7
100
AcDbCircle
 10
219.083502625532
 20
-13.46779737450349
 30
0.0
 40
7.000025322453199
100
AcDbArc
 50
86.82749997420701
 51
183.1717233076419
  0
ARC
  5
9E5
330
1F
100
AcDbEntity
  8
0
  6
Continuous
 62
     7
100
AcDbCircle
 10
219.0835499999999
 20
-13.46775
 30
0.0
 40
8.000005567810564
100
AcDbArc
 50
86.82813523338953
 51
183.1718647666098
  0
ARC
  5
9E6
330
1F
100
AcDbEntity
  8
0
  6
Continuous
 62
     7
100
AcDbCircle
 10
207.1018731237463
 20
-14.13185578216067
 30
0.0
 40
4.999986606098672
100
AcDbArc
 50
305.3779144891616
 51
3.171870112575048
  0
ARC
  5
9E7
330
1F
100
AcDbEntity
  8
0
  6
Continuous
 62
     7
100
AcDbCircle
 10
207.1018601064255
 20
-14.13188280431023
 30
0.0
 40
3.999970930088353
100
AcDbArc
 50
305.3794783927977
 51
3.172719314136931
  0
LINE
  5
9E8
330
1F
100
AcDbEntity
  8
0
  6
Continuous
 62
     7
100
AcDbLine
 10
218.2136
 20
-17.54829999999999
 30
0.0
 11
215.3475999999999
 21
-14.69289999999999
 31
0.0
  0
CIRCLE
  5
9E9
330
1F
100
AcDbEntity
  8
0
  6
Continuous
 62
     7
100
AcDbCircle
 10
219.2595999999999
 20
-13.6445
 30
0.0
 40
2.0
  0
CIRCLE
  5
9EA
330
1F
100
AcDbEntity
  8
0
  6
Continuous
 62
    30
100
AcDbCircle
 10
219.2595999999999
 20
-13.6445
 30
0.0
 40
1.599999999999994
  0
LINE
  5
9EB
330
1F
100
AcDbEntity
  8
0
  6
Continuous
 62
     7
100
AcDbLine
 10
216.4019
 20
-10.78689999999999
 30
0.0
 11
220.3056
 21
-9.740700000000003
 31
0.0
  0
LINE
  5
9EC
330
1F
100
AcDbEntity
  8
0
  6
Continuous
 62
     7
100
AcDbLine
 10
223.1716
 20
-12.5964
 30
0.0
 11
222.1172999999999
 21
-16.5022
 31
0.0
  0
LINE
  5
9ED
330
1F
100
AcDbEntity
  8
0
  6
Continuous
 62
     7
100
AcDbLine
 10
228.9134999999999
 20
-1.5762
 30
0.0
 11
231.711
 21
-2.735100000000001
 31
0.0
  0
ARC
  5
9F4
330
1F
100
AcDbEntity
  8
0
  6
Continuous
 62
     7
100
AcDbCircle
 10
241.1270999992499
 20
-122.2360393225008
 30
0.0
 40
10.00000000125
100
AcDbArc
 50
359.9994270379077
 51
89.99885408011344
  0
ARC
  5
9F5
330
1F
100
AcDbEntity
  8
0
  6
Continuous
 62
     7
100
AcDbCircle
 10
242.127
 20
-122.2358393232509
 30
0.0
 40
3.5
100
AcDbArc
 50
270.0
 51
90.0
  0
LINE
  5
9F6
330
1F
100
AcDbEntity
  8
0
  6
Continuous
 62
     7
100
AcDbLine
 10
251.127
 20
-122.2360393232509
 30
0.0
 11
251.127
 21
-133.7907393232509
 31
0.0
  0
LINE
  5
A0B
330
1F
100
AcDbEntity
  8
0
  6
Continuous
 62
     7
100
AcDbLine
 10
247.5553999999999
 20
-36.2805
 30
0.0
 11
238.1453
 21
-19.3042
 31
0.0
  0
LINE
  5
A0C
330
1F
100
AcDbEntity
  8
0
  6
Continuous
 62
     7
100
AcDbLine
 10
251.1264999999999
 20
-37.3108
 30
0.0
 11
251.1264999999999
 21
-41.51069999999998
 31
0.0
  0
LINE
  5
A0D
330
1F
100
AcDbEntity
  8
0
  6
Continuous
 62
     7
100
AcDbLine
 10
251.1264999999999
 20
-37.3108
 30
0.0
 11
249.3047
 21
-37.3108
 31
0.0
  0
ARC
  5
A0F
330
1F
100
AcDbEntity
  8
0
  6
Continuous
 62
     7
100
AcDbCircle
 10
249.3045960273746
 20
-35.31079766020926
 30
0.0
 40
2.000002342493314
100
AcDbArc
 50
209.0026847244571
 51
270.0029785928224
  0
LINE
  5
A25
330
1F
100
AcDbEntity
  8
0
  6
Continuous
 62
     7
100
AcDbLine
 10
235.4190999999999
 20
14.12959999999999
 30
0.0
 11
238.2166
 21
12.9709
 31
0.0
  0
LINE
  5
A26
330
1F
100
AcDbEntity
  8
0
  6
Continuous
 62
     7
100
AcDbLine
 10
235.4190999999999
 20
44.8489
 30
0.0
 11
238.2166
 21
46.0076
 31
0.0
  0
LINE
  5
A27
330
1F
100
AcDbEntity
  8
0
  6
DASH_CENTER
 62
    30
100
AcDbLine
 10
110.1188999999999
 20
29.4892
 30
0.0
 11
252.7111
 21
29.4892
 31
0.0
  0
ARC
  5
A28
330
1F
100
AcDbEntity
  8
0
  6
Continuous
 62
     7
100
AcDbCircle
 10
176.1262960237226
 20
29.48930959963896
 30
0.0
 40
64.25004965009673
100
AcDbArc
 50
14.89759676633173
 51
30.10216527456745
  0
ARC
  5
A29
330
1F
100
AcDbEntity
  8
0
  6
Continuous
 62
     7
100
AcDbCircle
 10
111.0139516614629
 20
40.87276713158668
 30
0.0
 40
2.000050116017856
100
AcDbArc
 50
78.34786920160571
 51
170.0806305216823
  0
ARC
  5
A2A
330
1F
100
AcDbEntity
  8
0
  6
Continuous
 62
     7
100
AcDbCircle
 10
111.0139615844367
 20
18.10522612277712
 30
0.0
 40
2.000041505279789
100
AcDbArc
 50
189.9163082494341
 51
281.6518914195946
  0
ARC
  5
A2F
330
1F
100
AcDbEntity
  8
0
  6
Continuous
 62
     7
100
AcDbCircle
 10
176.1262999999999
 20
29.489
 30
0.0
 40
68.09991971360904
100
AcDbArc
 50
170.0830531145209
 51
189.916946885479
  0
ARC
  5
A30
330
1F
100
AcDbEntity
  8
0
  6
Continuous
 62
     7
100
AcDbCircle
 10
102.0434
 20
17.489
 30
0.0
 40
9.0
100
AcDbArc
 50
90.0
 51
180.0
  0
ARC
  5
A31
330
1F
100
AcDbEntity
  8
0
  6
Continuous
 62
     7
100
AcDbCircle
 10
99.04340000000004
 20
17.48899999999999
 30
0.0
 40
9.000000000000008
100
AcDbArc
 50
90.0
 51
180.0
  0
ARC
  5
A32
330
1F
100
AcDbEntity
  8
0
  6
Continuous
 62
     7
100
AcDbCircle
 10
99.04340000000001
 20
17.489
 30
0.0
 40
11.99999999999999
100
AcDbArc
 50
90.0
 51
180.0
  0
ARC
  5
A33
330
1F
100
AcDbEntity
  8
0
  6
Continuous
 62
     7
100
AcDbCircle
 10
99.04340000000004
 20
17.489
 30
0.0
 40
15.0
100
AcDbArc
 50
90.0
 51
180.0
  0
LINE
  5
A34
330
1F
100
AcDbEntity
  8
0
  6
Continuous
 62
     7
100
AcDbLine
 10
93.04340000000001
 20
6.243199999999997
 30
0.0
 11
93.04340000000001
 21
17.489
 31
0.0
  0
LINE
  5
A35
330
1F
100
AcDbEntity
  8
0
  6
Continuous
 62
     7
100
AcDbLine
 10
84.04340000000003
 20
6.243199999999997
 30
0.0
 11
84.04340000000003
 21
17.489
 31
0.0
  0
LINE
  5
A36
330
1F
100
AcDbEntity
  8
0
  6
Continuous
 62
     7
100
AcDbLine
 10
90.04340000000002
 20
5.703099999999999
 30
0.0
 11
90.04340000000002
 21
17.489
 31
0.0
  0
LINE
  5
A37
330
1F
100
AcDbEntity
  8
0
  6
Continuous
 62
     7
100
AcDbLine
 10
87.04340000000001
 20
6.783199999999999
 30
0.0
 11
87.04340000000001
 21
17.489
 31
0.0
  0
ARC
  5
A38
330
1F
100
AcDbEntity
  8
0
  6
Continuous
 62
    30
100
AcDbCircle
 10
86.29340000000002
 20
2.346199999999988
 30
0.0
 40
4.499987601094037
100
AcDbArc
 50
59.99990885470451
 51
120.0000911452955
  0
ARC
  5
A39
330
1F
100
AcDbEntity
  8
0
  6
Continuous
 62
    30
100
AcDbCircle
 10
90.7934
 20
10.14039999999996
 30
0.0
 40
4.499987601094001
100
AcDbArc
 50
239.9999088547044
 51
300.0000911452954
  0
LINE
  5
A3B
330
1F
100
AcDbEntity
  8
0
  6
Continuous
 62
     7
100
AcDbLine
 10
108.0923999999999
 20
32.48900000000001
 30
0.0
 11
99.04340000000001
 21
32.48900000000001
 31
0.0
  0
LINE
  5
A3C
330
1F
100
AcDbEntity
  8
0
  6
Continuous
 62
     7
100
AcDbLine
 10
108.0925
 20
26.489
 30
0.0
 11
99.04340000000001
 21
26.489
 31
0.0
  0
LINE
  5
A3D
330
1F
100
AcDbEntity
  8
0
  6
Continuous
 62
     7
100
AcDbLine
 10
99.04340000000001
 20
29.489
 30
0.0
 11
108.0263999999999
 21
29.489
 31
0.0
  0
LINE
  5
A3F
330
1F
100
AcDbEntity
  8
0
  6
Continuous
 62
     7
100
AcDbLine
 10
191.4858999999999
 20
88.78200000000004
 30
0.0
 11
192.6446999999999
 21
91.5793
 31
0.0
  0
LINE
  5
A40
330
1F
100
AcDbEntity
  8
0
  6
Continuous
 62
     7
100
AcDbLine
 10
160.7671999999999
 20
88.78200000000004
 30
0.0
 11
159.6083999999999
 21
91.5793
 31
0.0
  0
ARC
  5
A42
330
1F
100
AcDbEntity
  8
0
  6
Continuous
 62
     7
100
AcDbCircle
 10
176.1262135870625
 20
29.48933579375065
 30
0.0
 40
64.24999068152657
100
AcDbArc
 50
59.89749911464422
 51
75.10211608906455
  0
ARC
  5
A43
330
1F
100
AcDbEntity
  8
0
  6
Continuous
 62
     7
100
AcDbCircle
 10
176.126961539078
 20
29.48940833475189
 30
0.0
 40
64.24996560364728
100
AcDbArc
 50
104.8980514639106
 51
120.1025912893807
  0
ARC
  5
A44
330
1F
100
AcDbEntity
  8
0
  6
Continuous
 62
     7
100
AcDbCircle
 10
176.12635
 20
29.48895000000001
 30
0.0
 40
66.4000260167494
100
AcDbArc
 50
27.47007094724671
 51
62.5299290527521
  0
ARC
  5
A45
330
1F
100
AcDbEntity
  8
0
  6
Continuous
 62
     7
100
AcDbCircle
 10
176.1266887622368
 20
29.48930000005065
 30
0.0
 40
57.49993655939867
100
AcDbArc
 50
54.62116927356657
 51
125.3783144102451
  0
ARC
  5
A46
330
1F
100
AcDbEntity
  8
0
  6
Continuous
 62
     7
100
AcDbCircle
 10
176.126618349813
 20
29.48930000048213
 30
0.0
 40
58.49995487043845
100
AcDbArc
 50
54.62107335979229
 51
125.3782499870006
  0
ARC
  5
A47
330
1F
100
AcDbEntity
  8
0
  6
Continuous
 62
     7
100
AcDbCircle
 10
173.6266928674687
 20
1.601093478379676
 30
0.0
 40
2.999992867475953
100
AcDbArc
 50
84.87651312491092
 51
179.9998754459306
  0
ARC
  5
A48
330
1F
100
AcDbEntity
  8
0
  6
Continuous
 62
     7
100
AcDbCircle
 10
174.6268261403995
 20
59.45167513508606
 30
0.0
 40
3.000026140502498
100
AcDbArc
 50
179.999525119262
 51
272.865459123607
  0
ARC
  5
A49
330
1F
100
AcDbEntity
  8
0
  6
Continuous
 62
     7
100
AcDbCircle
 10
173.626788403251
 20
57.37721060379644
 30
0.0
 40
2.999988403269761
100
AcDbArc
 50
180.0002025183768
 51
275.121662596738
  0
ARC
  5
A4A
330
1F
100
AcDbEntity
  8
0
  6
Continuous
 62
     7
100
AcDbCircle
 10
176.12635
 20
29.4893
 30
0.0
 40
7.750015773693633
100
AcDbArc
 50
108.8194141533507
 51
71.18058584664921
  0
ARC
  5
A4B
330
1F
100
AcDbEntity
  8
0
  6
Continuous
 62
     7
100
AcDbCircle
 10
176.12635
 20
29.489
 30
0.0
 40
7.400005541383062
100
AcDbArc
 50
109.7455940176268
 51
70.25440598237313
  0
ARC
  5
A4C
330
1F
100
AcDbEntity
  8
0
  6
Continuous
 62
     7
100
AcDbCircle
 10
176.12635
 20
29.489
 30
0.0
 40
7.000066039867057
100
AcDbArc
 50
110.9250638953738
 51
69.07493610462613
  0
CIRCLE
  5
A4D
330
1F
100
AcDbEntity
  8
0
  6
Continuous
 62
     7
100
AcDbCircle
 10
176.1267
 20
29.4893
 30
0.0
 40
19.25
  0
CIRCLE
  5
A4E
330
1F
100
AcDbEntity
  8
0
  6
Continuous
 62
     7
100
AcDbCircle
 10
176.1265999999999
 20
29.4893
 30
0.0
 40
15.5
  0
ARC
  5
A4F
330
1F
100
AcDbEntity
  8
0
  6
Continuous
 62
     7
100
AcDbCircle
 10
176.1265999999999
 20
29.4893
 30
0.0
 40
26.99998770851572
100
AcDbArc
 50
112.5400915313985
 51
157.4599084686021
  0
ARC
  5
A50
330
1F
100
AcDbEntity
  8
0
  6
Continuous
 62
     7
100
AcDbCircle
 10
176.1267499999999
 20
29.48935
 30
0.0
 40
33.49997916156069
100
AcDbArc
 50
112.1510404914118
 51
157.8489595085883
  0
ARC
  5
A51
330
1F
100
AcDbEntity
  8
0
  6
Continuous
 62
     7
100
AcDbCircle
 10
176.1265733267176
 20
29.48927332683179
 30
0.0
 40
37.99993966894653
100
AcDbArc
 50
109.1817369172892
 51
160.8180182776002
  0
ARC
  5
A52
330
1F
100
AcDbEntity
  8
0
  6
Continuous
 62
     7
100
AcDbCircle
 10
176.1266871761973
 20
29.48928717623262
 30
0.0
 40
46.49998097047641
100
AcDbArc
 50
101.5368219345563
 51
168.4630200541066
  0
ARC
  5
A53
330
1F
100
AcDbEntity
  8
0
  6
Continuous
 62
     7
100
AcDbCircle
 10
176.1266871761972
 20
29.48928717623333
 30
0.0
 40
45.49997695048506
100
AcDbArc
 50
101.5368199547048
 51
168.463018561167
  0
ARC
  5
A54
330
1F
100
AcDbEntity
  8
0
  6
Continuous
 62
     7
100
AcDbCircle
 10
143.0697806431923
 20
17.9892727720387
 30
0.0
 40
3.000027228023751
100
AcDbArc
 50
89.9996303155601
 51
199.1810695881342
  0
ARC
  5
A55
330
1F
100
AcDbEntity
  8
0
  6
Continuous
 62
     7
100
AcDbCircle
 10
143.0698806431923
 20
40.9893272279613
 30
0.0
 40
3.000027228023752
100
AcDbArc
 50
160.8189304118659
 51
270.0003696844399
  0
LINE
  5
A56
330
1F
100
AcDbEntity
  8
0
  6
Continuous
 62
     7
100
AcDbLine
 10
148.2385999999999
 20
23.9893
 30
0.0
 11
134.4853999999999
 21
23.9893
 31
0.0
  0
LINE
  5
A57
330
1F
100
AcDbEntity
  8
0
  6
Continuous
 62
     7
100
AcDbLine
 10
134.4853999999999
 20
24.9893
 30
0.0
 11
146.1643
 21
24.9893
 31
0.0
  0
LINE
  5
A58
330
1F
100
AcDbEntity
  8
0
  6
Continuous
 62
     7
100
AcDbLine
 10
148.2385999999999
 20
34.9893
 30
0.0
 11
134.4853999999999
 21
34.9893
 31
0.0
  0
LINE
  5
A59
330
1F
100
AcDbEntity
  8
0
  6
Continuous
 62
     7
100
AcDbLine
 10
146.1643
 20
33.9893
 30
0.0
 11
134.4853999999999
 21
33.9893
 31
0.0
  0
ARC
  5
A5A
330
1F
100
AcDbEntity
  8
0
  6
Continuous
 62
     7
100
AcDbCircle
 10
134.4852950771684
 20
20.98929397101762
 30
0.0
 40
3.000006030817176
100
AcDbArc
 50
89.99799612555255
 51
191.5368180026333
  0
ARC
  5
A5B
330
1F
100
AcDbEntity
  8
0
  6
Continuous
 62
     7
100
AcDbCircle
 10
134.485393435362
 20
20.98929196002695
 30
0.0
 40
4.000008039978446
100
AcDbArc
 50
89.99990596867688
 51
191.5368179864399
  0
LINE
  5
A5C
330
1F
100
AcDbEntity
  8
0
  6
Continuous
 62
     7
100
AcDbLine
 10
116.8339
 20
14.12959999999999
 30
0.0
 11
114.0365
 21
12.9709
 31
0.0
  0
LINE
  5
A5D
330
1F
100
AcDbEntity
  8
0
  6
Continuous
 62
     7
100
AcDbLine
 10
111.4179
 20
16.1465
 30
0.0
 11
111.8778999999999
 21
16.2412
 31
0.0
  0
POINT
  5
A5E
330
1F
100
AcDbEntity
  8
0
 62
     2
100
AcDbPoint
 10
110.5266999999999
 20
31.83419999999999
 30
0.0
  0
LINE
  5
A5F
330
1F
100
AcDbEntity
  8
0
  6
Continuous
 62
     7
100
AcDbLine
 10
111.8778999999999
 20
42.7366
 30
0.0
 11
111.4179
 21
42.8315
 31
0.0
  0
ARC
  5
A60
330
1F
100
AcDbEntity
  8
0
  6
Continuous
 62
     7
100
AcDbCircle
 10
134.485393435362
 20
37.98930803997306
 30
0.0
 40
4.000008039978451
100
AcDbArc
 50
168.46318201356
 51
270.0000940313231
  0
ARC
  5
A61
330
1F
100
AcDbEntity
  8
0
  6
Continuous
 62
     7
100
AcDbCircle
 10
134.4853950765214
 20
37.98930602997979
 30
0.0
 40
3.000006029983837
100
AcDbArc
 50
168.4631820135601
 51
270.0000940313246
  0
ARC
  5
A62
330
1F
100
AcDbEntity
  8
0
  6
Continuous
 62
     7
100
AcDbCircle
 10
176.1265999999999
 20
29.489
 30
0.0
 40
26.99998770851572
100
AcDbArc
 50
202.5400915313976
 51
247.4599084686014
  0
ARC
  5
A63
330
1F
100
AcDbEntity
  8
0
  6
Continuous
 62
     7
100
AcDbCircle
 10
148.4182195712259
 20
17.98928693203222
 30
0.0
 40
3.000013069045893
100
AcDbArc
 50
22.53840929332628
 51
89.99846393025725
  0
ARC
  5
A64
330
1F
100
AcDbEntity
  8
0
  6
Continuous
 62
     7
100
AcDbCircle
 10
147.8777870303615
 20
17.98928071684667
 30
0.0
 40
3.000019283181363
100
AcDbArc
 50
89.9997522997465
 51
202.1515556170283
  0
LINE
  5
A65
330
1F
100
AcDbEntity
  8
0
  6
Continuous
 62
     7
100
AcDbLine
 10
143.0697999999999
 20
20.9893
 30
0.0
 11
148.4182
 21
20.9893
 31
0.0
  0
ARC
  5
A66
330
1F
100
AcDbEntity
  8
0
  6
Continuous
 62
     7
100
AcDbCircle
 10
164.6267139468769
 20
1.780779111347751
 30
0.0
 40
2.999986053195775
100
AcDbArc
 50
0.000398945725975
 51
67.45986738215972
  0
ARC
  5
A67
330
1F
100
AcDbEntity
  8
0
  6
Continuous
 62
     7
100
AcDbCircle
 10
148.2385934783797
 20
31.98930713253114
 30
0.0
 40
2.999992867475958
100
AcDbArc
 50
354.8765131249113
 51
89.99987544593031
  0
ARC
  5
A68
330
1F
100
AcDbEntity
  8
0
  6
Continuous
 62
     7
100
AcDbCircle
 10
146.1642797443134
 20
30.98932129612126
 30
0.0
 40
2.999978703947111
100
AcDbArc
 50
357.1316761502523
 51
89.99961314213463
  0
ARC
  5
A69
330
1F
100
AcDbEntity
  8
0
  6
Continuous
 62
     7
100
AcDbCircle
 10
146.1642749868594
 20
27.98927370372762
 30
0.0
 40
2.999973703831896
100
AcDbArc
 50
270.0004777199824
 51
2.864599713378771
  0
ARC
  5
A6A
330
1F
100
AcDbEntity
  8
0
  6
Continuous
 62
     7
100
AcDbCircle
 10
148.2385893962035
 20
26.98928840325102
 30
0.0
 40
2.999988403269761
100
AcDbArc
 50
270.0002025183762
 51
5.121662596737563
  0
ARC
  5
A6B
330
1F
100
AcDbEntity
  8
0
  6
Continuous
 62
     7
100
AcDbCircle
 10
176.1267
 20
29.4893
 30
0.0
 40
26.99997115628088
100
AcDbArc
 50
177.1340129531515
 51
182.8659870468483
  0
ARC
  5
A6C
330
1F
100
AcDbEntity
  8
0
  6
Continuous
 62
     7
100
AcDbCircle
 10
176.1267
 20
29.4893
 30
0.0
 40
24.99994500833953
100
AcDbArc
 50
174.87757121766
 51
185.1224287823399
  0
ARC
  5
A6D
330
1F
100
AcDbEntity
  8
0
  6
Continuous
 62
     7
100
AcDbCircle
 10
148.4183482781296
 20
40.9893322330434
 30
0.0
 40
3.000032233431872
100
AcDbArc
 50
269.9990779655475
 51
337.4592785218981
  0
ARC
  5
A6E
330
1F
100
AcDbEntity
  8
0
  6
Continuous
 62
     7
100
AcDbCircle
 10
147.8778308575875
 20
40.98925412064764
 30
0.0
 40
2.999954120806323
100
AcDbArc
 50
157.8486561083586
 51
269.9994106544741
  0
LINE
  5
A6F
330
1F
100
AcDbEntity
  8
0
  6
Continuous
 62
     7
100
AcDbLine
 10
148.4182999999999
 20
37.9893
 30
0.0
 11
143.0698999999999
 21
37.9893
 31
0.0
  0
ARC
  5
A70
330
1F
100
AcDbEntity
  8
0
  6
Continuous
 62
     7
100
AcDbCircle
 10
145.1514877729056
 20
73.11007462243996
 30
0.0
 40
4.999948605156518
100
AcDbArc
 50
125.377674130252
 51
183.1721104714846
  0
ARC
  5
A71
330
1F
100
AcDbEntity
  8
0
  6
Continuous
 62
     7
100
AcDbCircle
 10
145.1515398935746
 20
73.11018280431024
 30
0.0
 40
3.999970930088353
100
AcDbArc
 50
125.3794783927978
 51
183.1727193141365
  0
ARC
  5
A72
330
1F
100
AcDbEntity
  8
0
  6
Continuous
 62
     7
100
AcDbCircle
 10
133.1699473751102
 20
72.44604737446791
 30
0.0
 40
6.999972632125862
100
AcDbArc
 50
266.8278859496728
 51
3.171337321645568
  0
ARC
  5
A73
330
1F
100
AcDbEntity
  8
0
  6
Continuous
 62
     7
100
AcDbCircle
 10
133.1699473746797
 20
72.44604737411776
 30
0.0
 40
8.000008334402608
100
AcDbArc
 50
266.8274378671275
 51
3.171882503913709
  0
ARC
  5
A74
330
1F
100
AcDbEntity
  8
0
  6
Continuous
 62
     7
100
AcDbCircle
 10
176.1266814369715
 20
29.4892551849074
 30
0.0
 40
64.24997092880779
100
AcDbArc
 50
149.897737938117
 51
165.1022420667868
  0
ARC
  5
A75
330
1F
100
AcDbEntity
  8
0
  6
Continuous
 62
     7
100
AcDbCircle
 10
176.1267236460639
 20
29.48935708698369
 30
0.0
 40
61.25000637629505
100
AcDbArc
 50
149.5231057093327
 51
165.4771322497675
  0
LINE
  5
A76
330
1F
100
AcDbEntity
  8
0
  6
Continuous
 62
     7
100
AcDbLine
 10
116.834
 20
44.8489
 30
0.0
 11
114.0363999999999
 21
46.0076
 31
0.0
  0
LINE
  5
A77
330
1F
100
AcDbEntity
  8
0
  6
Continuous
 62
     7
100
AcDbLine
 10
123.3395
 20
60.55469999999999
 30
0.0
 11
120.5421
 21
61.7134
 31
0.0
  0
ARC
  5
A78
330
1F
100
AcDbEntity
  8
0
  6
Continuous
 62
     7
100
AcDbCircle
 10
132.5058714088336
 20
60.46458622522344
 30
0.0
 40
4.999977553848886
100
AcDbArc
 50
86.82728852505976
 51
144.6207905424131
  0
ARC
  5
A79
330
1F
100
AcDbEntity
  8
0
  6
Continuous
 62
     7
100
AcDbCircle
 10
132.5059914282885
 20
60.46464405107201
 30
0.0
 40
3.999982853050798
100
AcDbArc
 50
86.82835509259907
 51
144.6221176295052
  0
LINE
  5
A7A
330
1F
100
AcDbEntity
  8
0
  6
DASH_CENTER
 62
    30
100
AcDbLine
 10
137.2446999999999
 20
68.3711
 30
0.0
 11
127.9791
 21
77.63670000000002
 31
0.0
  0
LINE
  5
A7B
330
1F
100
AcDbEntity
  8
0
  6
Continuous
 62
     7
100
AcDbLine
 10
135.8508
 20
69.7649
 30
0.0
 11
131.9471
 21
68.7188
 31
0.0
  0
LINE
  5
A7C
330
1F
100
AcDbEntity
  8
0
  6
Continuous
 62
     7
100
AcDbLine
 10
130.1352999999999
 20
75.4802
 30
0.0
 11
134.0390999999998
 21
76.52639999999998
 31
0.0
  0
CIRCLE
  5
A7D
330
1F
100
AcDbEntity
  8
0
  6
Continuous
 62
     7
100
AcDbCircle
 10
132.9930999999999
 20
72.62260000000002
 30
0.0
 40
3.5
  0
CIRCLE
  5
A7E
330
1F
100
AcDbEntity
  8
0
  6
Continuous
 62
     7
100
AcDbCircle
 10
132.9930999999999
 20
72.62260000000002
 30
0.0
 40
2.0
  0
CIRCLE
  5
A7F
330
1F
100
AcDbEntity
  8
0
  6
Continuous
 62
    40
100
AcDbCircle
 10
132.9930999999999
 20
72.62260000000002
 30
0.0
 40
1.599999999999994
  0
ARC
  5
A80
330
1F
100
AcDbEntity
  8
0
  6
DASH_CENTER
 62
    30
100
AcDbCircle
 10
176.1267097138104
 20
29.48930970477245
 30
0.0
 40
60.99996136826492
100
AcDbArc
 50
129.6859593123396
 51
140.2607060874557
  0
LINE
  5
A81
330
1F
100
AcDbEntity
  8
0
  6
Continuous
 62
     7
100
AcDbLine
 10
131.9471
 20
68.7188
 30
0.0
 11
129.0810999999999
 21
71.5745
 31
0.0
  0
LINE
  5
A82
330
1F
100
AcDbEntity
  8
0
  6
Continuous
 62
     7
100
AcDbLine
 10
129.0810999999999
 20
71.5745
 30
0.0
 11
130.1352999999999
 21
75.4802
 31
0.0
  0
LINE
  5
A83
330
1F
100
AcDbEntity
  8
0
  6
Continuous
 62
     7
100
AcDbLine
 10
134.0390999999998
 20
76.52639999999998
 30
0.0
 11
136.9051
 21
73.67090000000001
 31
0.0
  0
LINE
  5
A84
330
1F
100
AcDbEntity
  8
0
  6
Continuous
 62
     7
100
AcDbLine
 10
136.9051
 20
73.67090000000001
 30
0.0
 11
135.8508
 21
69.7649
 31
0.0
  0
LINE
  5
A85
330
1F
100
AcDbEntity
  8
0
  6
Continuous
 62
     7
100
AcDbLine
 10
170.6268
 20
57.3772
 30
0.0
 11
170.6268
 21
71.1306
 31
0.0
  0
LINE
  5
A86
330
1F
100
AcDbEntity
  8
0
  6
Continuous
 62
     7
100
AcDbLine
 10
171.6268
 20
71.1306
 30
0.0
 11
171.6268
 21
59.4517
 31
0.0
  0
ARC
  5
A87
330
1F
100
AcDbEntity
  8
0
  6
Continuous
 62
     7
100
AcDbCircle
 10
164.6267677661805
 20
57.19775172245046
 30
0.0
 40
3.000032234265201
100
AcDbArc
 50
292.5407214875416
 51
359.9990121845745
  0
ARC
  5
A88
330
1F
100
AcDbEntity
  8
0
  6
Continuous
 62
     7
100
AcDbCircle
 10
164.6267807168467
 20
57.73801296963831
 30
0.0
 40
3.000019283181368
100
AcDbArc
 50
359.9997522997463
 51
112.1515556170285
  0
ARC
  5
A89
330
1F
100
AcDbEntity
  8
0
  6
Continuous
 62
     7
100
AcDbCircle
 10
164.6267727720386
 20
62.54611935680769
 30
0.0
 40
3.000027228023758
100
AcDbArc
 50
359.99963031556
 51
109.181069588134
  0
LINE
  5
A8A
330
1F
100
AcDbEntity
  8
0
  6
Continuous
 62
     7
100
AcDbLine
 10
167.6268
 20
62.5461
 30
0.0
 11
167.6268
 21
57.1978
 31
0.0
  0
ARC
  5
A8B
330
1F
100
AcDbEntity
  8
0
  6
Continuous
 62
     7
100
AcDbCircle
 10
176.1265222023379
 20
29.48922635422969
 30
0.0
 40
61.24995278008763
100
AcDbArc
 50
104.522860724567
 51
120.4769013163317
  0
LINE
  5
A8C
330
1F
100
AcDbEntity
  8
0
  6
Continuous
 62
     7
100
AcDbLine
 10
145.0612
 20
82.27639999999999
 30
0.0
 11
143.9024999999999
 21
85.074
 31
0.0
  0
ARC
  5
A8D
330
1F
100
AcDbEntity
  8
0
  6
Continuous
 62
     7
100
AcDbCircle
 10
167.62679397002
 20
71.13060492347852
 30
0.0
 40
3.000006029983841
100
AcDbArc
 50
359.9999059686758
 51
101.5368179864392
  0
ARC
  5
A8E
330
1F
100
AcDbEntity
  8
0
  6
Continuous
 62
     7
100
AcDbCircle
 10
167.6267919600268
 20
71.13060656463801
 30
0.0
 40
4.000008039978455
100
AcDbArc
 50
359.9999059686758
 51
101.5368179864392
  0
ARC
  5
A8F
330
1F
100
AcDbEntity
  8
0
  6
Continuous
 62
     7
100
AcDbCircle
 10
176.1266743523273
 20
29.48932564781415
 30
0.0
 40
46.4999909705226
100
AcDbArc
 50
11.53680329226743
 51
78.46288068462413
  0
ARC
  5
A90
330
1F
100
AcDbEntity
  8
0
  6
Continuous
 62
     7
100
AcDbCircle
 10
176.1267290505015
 20
29.48937095047128
 30
0.0
 40
26.99998770851446
100
AcDbArc
 50
22.53969876040863
 51
67.45951569872878
  0
ARC
  5
A91
330
1F
100
AcDbEntity
  8
0
  6
Continuous
 62
     7
100
AcDbCircle
 10
176.1267499999999
 20
29.48925
 30
0.0
 40
33.49997916156069
100
AcDbArc
 50
22.15104049141165
 51
67.84895950858819
  0
ARC
  5
A92
330
1F
100
AcDbEntity
  8
0
  6
Continuous
 62
     7
100
AcDbCircle
 10
176.126823326618
 20
29.48927667328218
 30
0.0
 40
38.00000332149868
100
AcDbArc
 50
19.18178335054775
 51
70.81797184434022
  0
ARC
  5
A93
330
1F
100
AcDbEntity
  8
0
  6
Continuous
 62
     7
100
AcDbCircle
 10
176.1266743523258
 20
29.48932564781879
 30
0.0
 40
45.49998695053311
100
AcDbArc
 50
11.536800902688
 51
78.46287612860236
  0
ARC
  5
A94
330
1F
100
AcDbEntity
  8
0
  6
Continuous
 62
     7
100
AcDbCircle
 10
204.3756002897807
 20
17.98899956916675
 30
0.0
 40
3.000000430833256
100
AcDbArc
 50
337.849971108756
 51
90.0000055344037
  0
ARC
  5
A95
330
1F
100
AcDbEntity
  8
0
  6
Continuous
 62
     7
100
AcDbCircle
 10
206.089175135086
 20
27.98902614039948
 30
0.0
 40
3.000026140502515
100
AcDbArc
 50
177.1345408763938
 51
270.0004748807381
  0
ARC
  5
A96
330
1F
100
AcDbEntity
  8
0
  6
Continuous
 62
     7
100
AcDbCircle
 10
206.089175135086
 20
30.98897385960052
 30
0.0
 40
3.00002614050252
100
AcDbArc
 50
89.99952511926178
 51
182.8654591236063
  0
LINE
  5
A97
330
1F
100
AcDbEntity
  8
0
  6
Continuous
 62
     7
100
AcDbLine
 10
209.1836
 20
20.98899999999998
 30
0.0
 11
203.8351
 21
20.98899999999998
 31
0.0
  0
LINE
  5
A98
330
1F
100
AcDbEntity
  8
0
  6
Continuous
 62
     7
100
AcDbLine
 10
203.8351999999999
 20
37.98900000000001
 30
0.0
 11
209.1836999999999
 21
37.98900000000001
 31
0.0
  0
LINE
  5
A99
330
1F
100
AcDbEntity
  8
0
  6
Continuous
 62
     7
100
AcDbLine
 10
204.0148
 20
34.98900000000001
 30
0.0
 11
217.768
 21
34.98900000000001
 31
0.0
  0
LINE
  5
A9A
330
1F
100
AcDbEntity
  8
0
  6
Continuous
 62
     7
100
AcDbLine
 10
204.0148999999999
 20
23.989
 30
0.0
 11
217.768
 21
23.989
 31
0.0
  0
ARC
  5
A9B
330
1F
100
AcDbEntity
  8
0
  6
Continuous
 62
     7
100
AcDbCircle
 10
204.3756129696383
 20
40.9890192831533
 30
0.0
 40
3.000019283181363
100
AcDbArc
 50
269.9997522997465
 51
22.15155561702832
  0
ARC
  5
A9C
330
1F
100
AcDbEntity
  8
0
  6
Continuous
 62
     7
100
AcDbCircle
 10
176.1268
 20
29.489
 30
0.0
 40
26.99998770851572
100
AcDbArc
 50
292.5400915313985
 51
337.4599084686021
  0
ARC
  5
A9D
330
1F
100
AcDbEntity
  8
0
  6
Continuous
 62
     7
100
AcDbCircle
 10
178.6267071325311
 20
1.601093478379676
 30
0.0
 40
2.999992867475965
100
AcDbArc
 50
0.0001245540692986
 51
95.12348687508907
  0
ARC
  5
A9E
330
1F
100
AcDbEntity
  8
0
  6
Continuous
 62
     7
100
AcDbCircle
 10
176.1267
 20
29.4893
 30
0.0
 40
27.00007103120286
100
AcDbArc
 50
267.134023563465
 51
272.865976436535
  0
ARC
  5
A9F
330
1F
100
AcDbEntity
  8
0
  6
Continuous
 62
     7
100
AcDbCircle
 10
176.12665
 20
29.4893
 30
0.0
 40
25.00004907320183
100
AcDbArc
 50
264.8774775463727
 51
275.122522453627
  0
ARC
  5
AA0
330
1F
100
AcDbEntity
  8
0
  6
Continuous
 62
     7
100
AcDbCircle
 10
187.6266860531231
 20
1.780779111347751
 30
0.0
 40
2.99998605319578
100
AcDbArc
 50
112.5401326178401
 51
179.9996010542739
  0
ARC
  5
AA1
330
1F
100
AcDbEntity
  8
0
  6
Continuous
 62
     7
100
AcDbCircle
 10
203.8351208886523
 20
17.98901394687695
 30
0.0
 40
2.999986053195775
100
AcDbArc
 50
90.00039894572536
 51
157.4598673821589
  0
LINE
  5
AA2
330
1F
100
AcDbEntity
  8
0
  6
Continuous
 62
     7
100
AcDbLine
 10
178.6262999999999
 20
38.489
 30
0.0
 11
178.6262999999999
 21
33.489
 31
0.0
  0
LINE
  5
AA3
330
1F
100
AcDbEntity
  8
0
  6
Continuous
 62
     7
100
AcDbLine
 10
173.6262999999999
 20
33.489
 30
0.0
 11
173.6262999999999
 21
38.489
 31
0.0
  0
LINE
  5
AA4
330
1F
100
AcDbEntity
  8
0
  6
Continuous
 62
     7
100
AcDbLine
 10
178.6262999999999
 20
33.489
 30
0.0
 11
173.6262999999999
 21
33.489
 31
0.0
  0
LINE
  5
AA5
330
1F
100
AcDbEntity
  8
0
  6
Continuous
 62
     7
100
AcDbLine
 10
178.6262999999999
 20
38.489
 30
0.0
 11
173.6262999999999
 21
38.489
 31
0.0
  0
ARC
  5
AA6
330
1F
100
AcDbEntity
  8
0
  6
Continuous
 62
     7
100
AcDbCircle
 10
204.0148650675163
 20
31.98896179639552
 30
0.0
 40
3.000038204310103
100
AcDbArc
 50
90.00124268219821
 51
185.1206224329169
  0
ARC
  5
AA7
330
1F
100
AcDbEntity
  8
0
  6
Continuous
 62
     7
100
AcDbCircle
 10
204.0148609859794
 20
26.98904266721914
 30
0.0
 40
3.000042667472818
100
AcDbArc
 50
174.8775533070838
 51
270.000745102307
  0
ARC
  5
AA8
330
1F
100
AcDbEntity
  8
0
  6
Continuous
 62
     7
100
AcDbCircle
 10
176.1267
 20
29.48925
 30
0.0
 40
25.00004907320185
100
AcDbArc
 50
354.8774775463723
 51
5.12252245362752
  0
ARC
  5
AA9
330
1F
100
AcDbEntity
  8
0
  6
Continuous
 62
     7
100
AcDbCircle
 10
176.1267
 20
29.48925
 30
0.0
 40
26.99996865632437
100
AcDbArc
 50
357.1341189238574
 51
2.865881076142413
  0
ARC
  5
AAA
330
1F
100
AcDbEntity
  8
0
  6
Continuous
 62
     7
100
AcDbCircle
 10
203.8352208886522
 20
40.98898605312304
 30
0.0
 40
2.999986053195751
100
AcDbArc
 50
202.540132617841
 51
269.9996010542745
  0
ARC
  5
AAB
330
1F
100
AcDbEntity
  8
0
  6
Continuous
 62
     7
100
AcDbCircle
 10
217.7679049227644
 20
20.98899397068944
 30
0.0
 40
3.000006030817185
100
AcDbArc
 50
348.4631820037638
 51
89.99818416221058
  0
ARC
  5
AAC
330
1F
100
AcDbEntity
  8
0
  6
Continuous
 62
     7
100
AcDbCircle
 10
217.7679065640941
 20
20.98899196048781
 30
0.0
 40
4.000008040603432
100
AcDbArc
 50
348.4631820086495
 51
89.9986616319258
  0
ARC
  5
AAD
330
1F
100
AcDbEntity
  8
0
  6
Continuous
 62
     7
100
AcDbCircle
 10
209.1835857849907
 20
17.98901999603398
 30
0.0
 40
2.999980003999691
100
AcDbArc
 50
340.8176617289436
 51
89.99972851150987
  0
ARC
  5
AAE
330
1F
100
AcDbEntity
  8
0
  6
Continuous
 62
     7
100
AcDbCircle
 10
217.7679049227644
 20
37.98900602931055
 30
0.0
 40
3.000006030817178
100
AcDbArc
 50
270.0018158377894
 51
11.53681799623606
  0
ARC
  5
AAF
330
1F
100
AcDbEntity
  8
0
  6
Continuous
 62
     7
100
AcDbCircle
 10
217.768066565118
 20
37.98895904992628
 30
0.0
 40
3.999959050066017
100
AcDbArc
 50
270.0004789243111
 51
11.53767743511427
  0
LINE
  5
AB0
330
1F
100
AcDbEntity
  8
0
  6
Continuous
 62
     7
100
AcDbLine
 10
206.0891999999999
 20
24.989
 30
0.0
 11
217.768
 21
24.989
 31
0.0
  0
LINE
  5
AB1
330
1F
100
AcDbEntity
  8
0
  6
Continuous
 62
     7
100
AcDbLine
 10
217.7681
 20
33.98900000000001
 30
0.0
 11
206.0891999999999
 21
33.98900000000001
 31
0.0
  0
ARC
  5
AB2
330
1F
100
AcDbEntity
  8
0
  6
Continuous
 62
     7
100
AcDbCircle
 10
209.1836857842333
 20
40.98898000360652
 30
0.0
 40
2.999980004833036
100
AcDbArc
 50
269.9983616309054
 51
19.18233827278879
  0
ARC
  5
AB3
330
1F
100
AcDbEntity
  8
0
  6
Continuous
 62
     7
100
AcDbCircle
 10
176.1265631531475
 20
29.48919099903743
 30
0.0
 40
61.24999067794925
100
AcDbArc
 50
59.52310365151474
 51
75.47713430758588
  0
LINE
  5
AB4
330
1F
100
AcDbEntity
  8
0
  6
Continuous
 62
     7
100
AcDbLine
 10
181.6267999999999
 20
57.3772
 30
0.0
 11
181.6267999999999
 21
71.13039999999998
 31
0.0
  0
LINE
  5
AB5
330
1F
100
AcDbEntity
  8
0
  6
Continuous
 62
     7
100
AcDbLine
 10
180.6268
 20
59.4517
 30
0.0
 11
180.6268
 21
71.13039999999998
 31
0.0
  0
ARC
  5
AB6
330
1F
100
AcDbEntity
  8
0
  6
Continuous
 62
     7
100
AcDbCircle
 10
187.626786053123
 20
57.19752088865224
 30
0.0
 40
2.999986053195775
100
AcDbArc
 50
180.0003989457255
 51
247.4598673821597
  0
ARC
  5
AB7
330
1F
100
AcDbEntity
  8
0
  6
Continuous
 62
     7
100
AcDbCircle
 10
178.626807132531
 20
57.37720652162032
 30
0.0
 40
2.999992867475949
100
AcDbArc
 50
264.8765131249108
 51
359.9998754459306
  0
ARC
  5
AB8
330
1F
100
AcDbEntity
  8
0
  6
Continuous
 62
     7
100
AcDbCircle
 10
177.6267713588541
 20
59.45167275722507
 30
0.0
 40
3.000028641269537
100
AcDbArc
 50
267.1326788535433
 51
0.0005202937078154
  0
ARC
  5
AB9
330
1F
100
AcDbEntity
  8
0
  6
Continuous
 62
     7
100
AcDbCircle
 10
176.1267499999999
 20
29.4893
 30
0.0
 40
24.99994947259895
100
AcDbArc
 50
84.87745708352667
 51
95.1225429164733
  0
ARC
  5
ABA
330
1F
100
AcDbEntity
  8
0
  6
Continuous
 62
     7
100
AcDbCircle
 10
176.1267499999999
 20
29.4893
 30
0.0
 40
26.99996865632439
100
AcDbArc
 50
87.13411892385739
 51
92.8658810761426
  0
ARC
  5
ABB
330
1F
100
AcDbEntity
  8
0
  6
Continuous
 62
     7
100
AcDbCircle
 10
187.6268004308332
 20
57.73800028978075
 30
0.0
 40
3.000000430833256
100
AcDbArc
 50
67.84997110875622
 51
180.0000055344039
  0
ARC
  5
ABC
330
1F
100
AcDbEntity
  8
0
  6
Continuous
 62
     7
100
AcDbCircle
 10
187.6268272279613
 20
62.54611935680769
 30
0.0
 40
3.000027228023764
100
AcDbArc
 50
70.81893041186596
 51
180.0003696844398
  0
LINE
  5
ABD
330
1F
100
AcDbEntity
  8
0
  6
Continuous
 62
     7
100
AcDbLine
 10
184.6268
 20
57.1975
 30
0.0
 11
184.6268
 21
62.5459
 31
0.0
  0
ARC
  5
ABE
330
1F
100
AcDbEntity
  8
0
  6
Continuous
 62
     7
100
AcDbCircle
 10
184.6268060299798
 20
71.13040492347852
 30
0.0
 40
3.000006029983837
100
AcDbArc
 50
78.46318201356068
 51
180.0000940313239
  0
ARC
  5
ABF
330
1F
100
AcDbEntity
  8
0
  6
Continuous
 62
     7
100
AcDbCircle
 10
184.6268080399731
 20
71.13040656463798
 30
0.0
 40
4.000008039978461
100
AcDbArc
 50
78.46318201356068
 51
180.0000940313237
  0
ARC
  5
AC0
330
1F
100
AcDbEntity
  8
0
  6
Continuous
 62
     7
100
AcDbCircle
 10
219.0835499999999
 20
72.44604999999999
 30
0.0
 40
6.999975398885338
100
AcDbArc
 50
176.8278656866818
 51
273.1721343133183
  0
ARC
  5
AC1
330
1F
100
AcDbEntity
  8
0
  6
Continuous
 62
     7
100
AcDbCircle
 10
219.0836
 20
72.446
 30
0.0
 40
7.999958411141887
100
AcDbArc
 50
176.8277578673628
 51
273.1722421326375
  0
ARC
  5
AC2
330
1F
100
AcDbEntity
  8
0
  6
Continuous
 62
     7
100
AcDbCircle
 10
219.74767462244
 20
60.46441222709427
 30
0.0
 40
4.999948605156504
100
AcDbArc
 50
35.37767413025317
 51
93.17211047148381
  0
ARC
  5
AC3
330
1F
100
AcDbEntity
  8
0
  6
Continuous
 62
     7
100
AcDbCircle
 10
219.7477016429425
 20
60.46439920846083
 30
0.0
 40
3.999932930687298
100
AcDbArc
 50
35.379177958739
 51
93.17301974819622
  0
ARC
  5
AC4
330
1F
100
AcDbEntity
  8
0
  6
Continuous
 62
     7
100
AcDbCircle
 10
176.126276353936
 20
29.48935708698373
 30
0.0
 40
61.25000637629505
100
AcDbArc
 50
14.52286775023241
 51
30.47689429066692
  0
LINE
  5
AC5
330
1F
100
AcDbEntity
  8
0
  6
Continuous
 62
     7
100
AcDbLine
 10
228.9134999999999
 20
60.55469999999999
 30
0.0
 11
231.711
 21
61.7134
 31
0.0
  0
LINE
  5
AC6
330
1F
100
AcDbEntity
  8
0
  6
Continuous
 62
     7
100
AcDbLine
 10
235.0985
 20
60.0054
 30
0.0
 11
234.3879999999999
 21
59.6377
 31
0.0
  0
LINE
  5
AC8
330
1F
100
AcDbEntity
  8
0
  6
DASH_CENTER
 62
    30
100
AcDbLine
 10
215.0084
 20
68.3711
 30
0.0
 11
224.2739999999999
 21
77.63670000000002
 31
0.0
  0
LINE
  5
AC9
330
1F
100
AcDbEntity
  8
0
  6
Continuous
 62
     7
100
AcDbLine
 10
223.1637
 20
71.5762
 30
0.0
 11
220.3082
 21
68.7102
 31
0.0
  0
LINE
  5
ACA
330
1F
100
AcDbEntity
  8
0
  6
Continuous
 62
     7
100
AcDbLine
 10
218.2118
 20
76.5342
 30
0.0
 11
222.1176
 21
75.48
 31
0.0
  0
CIRCLE
  5
ACC
330
1F
100
AcDbEntity
  8
0
  6
Continuous
 62
     7
100
AcDbCircle
 10
219.2598999999999
 20
72.62229999999998
 30
0.0
 40
3.5
  0
ARC
  5
ACD
330
1F
100
AcDbEntity
  8
0
  6
DASH_CENTER
 62
    30
100
AcDbCircle
 10
176.1263403327325
 20
29.4892597047941
 30
0.0
 40
61.00003174529297
100
AcDbArc
 50
39.73930003007431
 51
50.31403457012972
  0
ARC
  5
ACE
330
1F
100
AcDbEntity
  8
0
  6
Continuous
 62
     7
100
AcDbCircle
 10
207.1020862252235
 20
73.10992859116637
 30
0.0
 40
4.999977553848887
100
AcDbArc
 50
356.82728852506
 51
54.62079054241213
  0
ARC
  5
ACF
330
1F
100
AcDbEntity
  8
0
  6
Continuous
 62
     7
100
AcDbCircle
 10
207.1020992084608
 20
73.10990164294267
 30
0.0
 40
3.999932930687292
100
AcDbArc
 50
356.8269802518031
 51
54.62082204126071
  0
LINE
  5
AD0
330
1F
100
AcDbEntity
  8
0
  6
Continuous
 62
     7
100
AcDbLine
 10
220.3082
 20
68.7102
 30
0.0
 11
216.4022
 21
69.7644
 31
0.0
  0
LINE
  5
AD1
330
1F
100
AcDbEntity
  8
0
  6
Continuous
 62
     7
100
AcDbLine
 10
216.4022
 20
69.7644
 30
0.0
 11
215.3560999999999
 21
73.6682
 31
0.0
  0
LINE
  5
AD2
330
1F
100
AcDbEntity
  8
0
  6
Continuous
 62
     7
100
AcDbLine
 10
215.3560999999999
 20
73.6682
 30
0.0
 11
218.2118
 21
76.5342
 31
0.0
  0
CIRCLE
  5
AD3
330
1F
100
AcDbEntity
  8
0
  6
Continuous
 62
     7
100
AcDbCircle
 10
219.2598999999999
 20
72.62229999999998
 30
0.0
 40
2.0
  0
CIRCLE
  5
AD4
330
1F
100
AcDbEntity
  8
0
  6
Continuous
 62
    30
100
AcDbCircle
 10
219.2598999999999
 20
72.62229999999998
 30
0.0
 40
1.599999999999994
  0
LINE
  5
AD5
330
1F
100
AcDbEntity
  8
0
  6
Continuous
 62
     7
100
AcDbLine
 10
206.275
 20
87.7505
 30
0.0
 11
206.6427
 21
88.46120000000002
 31
0.0
  0
LINE
  5
AD6
330
1F
100
AcDbEntity
  8
0
  6
Continuous
 62
     7
100
AcDbLine
 10
207.1918
 20
82.27639999999999
 30
0.0
 11
208.3505999999999
 21
85.074
 31
0.0
  0
LINE
  5
AD7
330
1F
100
AcDbEntity
  8
0
  6
Continuous
 62
     7
100
AcDbLine
 10
222.1176
 20
75.48
 30
0.0
 11
223.1637
 21
71.5762
 31
0.0
  0
POINT
  5
ADC
330
1F
100
AcDbEntity
  8
0
 62
     2
100
AcDbPoint
 10
178.4717
 20
95.0894
 30
0.0
  0
POINT
  5
AE7
330
1F
100
AcDbEntity
  8
0
 62
     2
100
AcDbPoint
 10
241.7266999999999
 20
31.83419999999999
 30
0.0
  0
MTEXT
  5
AF4
330
1F
100
AcDbEntity
  8
0
100
AcDbMText
 10
-87.72956021086343
 20
-126.1763579790111
 30
0.0
 40
8.0
 41
125.7754920403131
 71
     1
 72
     1
  1
AEM-DBH 4P 0.4kW
 73
     1
 44
1.0
  0
VIEWPORT
  5
71
330
55
100
AcDbEntity
 67
     1
  8
0
100
AcDbViewport
 10
133.3499908447265
 20
101.5999970436096
 30
0.0
 40
381.3957395593833
 41
218.2856291881582
 68
     1
 69
     1
 12
133.3499908447265
 22
101.5999970436096
 13
0.0
 23
0.0
 14
10.0
 24
10.0
 15
10.0
 25
10.0
 16
0.0
 26
0.0
 36
1.0
 17
0.0
 27
0.0
 37
0.0
 42
50.0
 43
0.0
 44
0.0
 45
218.2856291881582
 50
0.0
 51
0.0
 72
   100
 90
    32800
  1

281
     0
 71
     1
 74
     0
110
0.0
120
0.0
130
0.0
111
1.0
121
0.0
131
0.0
112
0.0
122
1.0
132
0.0
 79
     0
146
0.0
  0
VIEWPORT
  5
73
330
55
100
AcDbEntity
 67
     1
  8
0
100
AcDbViewport
 10
133.3499939441679
 20
101.5999939441679
 30
0.0
 40
213.3599903106689
 41
162.5599903106689
 68
     2
 69
     2
 12
210.0
 22
148.5
 13
0.0
 23
0.0
 14
10.0
 24
10.0
 15
10.0
 25
10.0
 16
0.0
 26
0.0
 36
1.0
 17
0.0
 27
0.0
 37
0.0
 42
50.0
 43
0.0
 44
0.0
 45
324.0677920111345
 50
0.0
 51
0.0
 72
   100
 90
    32864
  1

281
     0
 71
     1
 74
     0
110
0.0
120
0.0
130
0.0
111
1.0
121
0.0
131
0.0
112
0.0
122
1.0
132
0.0
 79
     0
146
0.0
  0
ENDSEC
  0
SECTION
  2
OBJECTS
  0
DICTIONARY
  5
C
330
0
100
AcDbDictionary
281
     1
  3
ACAD_GROUP
350
D
  3
ACAD_LAYOUT
350
1A
  3
ACAD_MLINESTYLE
350
17
  3
ACAD_PLOTSETTINGS
350
19
  3
ACAD_PLOTSTYLENAME
350
E
  3
AcDbVariableDictionary
350
5E
  0
DICTIONARY
  5
D
102
{ACAD_REACTORS
330
C
102
}
330
C
100
AcDbDictionary
281
     1
  0
DICTIONARY
  5
1A
102
{ACAD_REACTORS
330
C
102
}
330
C
100
AcDbDictionary
281
     1
  3
Model
350
22
  3
ﾚｲｱｳﾄ1
350
51
  3
ﾚｲｱｳﾄ2
350
56
  0
DICTIONARY
  5
17
102
{ACAD_REACTORS
330
C
102
}
330
C
100
AcDbDictionary
281
     1
  3
Standard
350
18
  0
DICTIONARY
  5
19
102
{ACAD_REACTORS
330
C
102
}
330
C
100
AcDbDictionary
281
     1
  0
ACDBDICTIONARYWDFLT
  5
E
102
{ACAD_REACTORS
330
C
102
}
330
C
100
AcDbDictionary
281
     1
  3
Normal
350
F
100
AcDbDictionaryWithDefault
340
F
  0
DICTIONARY
  5
5E
102
{ACAD_REACTORS
330
C
102
}
330
C
100
AcDbDictionary
281
     1
  3
DIMASSOC
350
5F
  3
HIDETEXT
350
63
  0
LAYOUT
  5
22
102
{ACAD_REACTORS
330
1A
102
}
330
1A
100
AcDbPlotSettings
  1

  2
none_device
  4
ANSI_A_(8.50_x_11.00_Inches)
  6

 40
6.349999904632567
 41
19.04999923706053
 42
6.350006103515625
 43
19.04998779296875
 44
215.8999938964842
 45
279.3999938964843
 46
0.0
 47
0.0
 48
0.0
 49
0.0
140
0.0
141
0.0
142
1.0
143
78.436453180766
 70
 11952
 72
     0
 73
     1
 74
     0
  7

 75
     0
147
0.0127491741332998
148
0.0
149
0.0
100
AcDbLayout
  1
Model
 70
     1
 71
     0
 10
0.0
 20
0.0
 11
12.0
 21
9.0
 12
0.0
 22
0.0
 32
0.0
 14
0.0
 24
0.0
 34
0.0
 15
0.0
 25
0.0
 35
0.0
146
0.0
 13
0.0
 23
0.0
 33
0.0
 16
1.0
 26
0.0
 36
0.0
 17
0.0
 27
1.0
 37
0.0
 76
     0
330
1F
  0
LAYOUT
  5
51
102
{ACAD_REACTORS
330
1A
102
}
330
1A
100
AcDbPlotSettings
  1

  2
none_device
  4
Letter_(8.50_x_11.00_Inches)
  6

 40
6.349999904632567
 41
6.349999904632567
 42
6.350006103515625
 43
6.350006103515625
 44
215.8999938964842
 45
279.3999938964843
 46
0.0
 47
0.0
 48
0.0
 49
0.0
140
0.0
141
0.0
142
1.0
143
1.0
 70
   688
 72
     1
 73
     1
 74
     5
  7

 75
    16
147
1.0
148
0.0
149
0.0
100
AcDbLayout
  1
ﾚｲｱｳﾄ1
 70
     1
 71
     1
 10
-6.350006103515625
 20
-6.349999904632567
 11
273.0499877929687
 21
209.5499939918517
 12
0.0
 22
0.0
 32
0.0
 14
26.66076962115562
 24
20.31135699206657
 34
-0.0015258207003583
 15
240.039213369355
 25
182.8886381005154
 35
0.0000000349246037
146
0.0
 13
0.0
 23
0.0
 33
0.0
 16
1.0
 26
0.0
 36
0.0
 17
0.0
 27
1.0
 37
0.0
 76
     0
330
50
331
6B
  0
LAYOUT
  5
56
102
{ACAD_REACTORS
330
1A
102
}
330
1A
100
AcDbPlotSettings
  1

  2
none_device
  4
Letter_(8.50_x_11.00_Inches)
  6

 40
6.349999904632567
 41
6.349999904632567
 42
6.350006103515625
 43
6.350006103515625
 44
215.8999938964842
 45
279.3999938964843
 46
0.0
 47
0.0
 48
0.0
 49
0.0
140
0.0
141
0.0
142
1.0
143
1.0
 70
   688
 72
     1
 73
     1
 74
     5
  7

 75
    16
147
1.0
148
0.0
149
0.0
100
AcDbLayout
  1
ﾚｲｱｳﾄ2
 70
     1
 71
     2
 10
-6.350006103515625
 20
-6.349999904632567
 11
273.0499877929687
 21
209.5499939918517
 12
0.0
 22
0.0
 32
0.0
 14
26.66076962115562
 24
20.31135699206657
 34
-0.0015258207003583
 15
240.039213369355
 25
182.8886381005154
 35
0.0000000349246037
146
0.0
 13
0.0
 23
0.0
 33
0.0
 16
1.0
 26
0.0
 36
0.0
 17
0.0
 27
1.0
 37
0.0
 76
     0
330
55
331
71
  0
MLINESTYLE
  5
18
102
{ACAD_REACTORS
330
17
102
}
330
17
100
AcDbMlineStyle
  2
STANDARD
 70
     0
  3

 62
   256
 51
90.0
 52
90.0
 71
     2
 49
0.5
 62
   256
  6
BYLAYER
 49
-0.5
 62
   256
  6
BYLAYER
  0
ACDBPLACEHOLDER
  5
F
102
{ACAD_REACTORS
330
E
102
}
330
E
  0
DICTIONARYVAR
  5
5F
102
{ACAD_REACTORS
330
5E
102
}
330
5E
100
DictionaryVariables
280
     0
  1
2
  0
DICTIONARYVAR
  5
63
102
{ACAD_REACTORS
330
5E
102
}
330
5E
100
DictionaryVariables
280
     0
  1
1
  0
ENDSEC
  0
EOF
