  0
SECTION
  2
HEADER
  9
$ACADVER
  1
AC1015
  9
$ACADMAINTVER
 70
    14
  9
$DWGCODEPAGE
  3
ANSI_932
  9
$INSBASE
 10
0.0
 20
0.0
 30
0.0
  9
$EXTMIN
 10
-312.2759646525728
 20
-118.8711233341374
 30
-0.0000000349181948
  9
$EXTMAX
 10
280.6324076516736
 20
120.9287020973015
 30
0.0000000814935747
  9
$LIMMIN
 10
0.0
 20
0.0
  9
$LIMMAX
 10
12.0
 20
9.0
  9
$ORTHOMODE
 70
     0
  9
$REGENMODE
 70
     1
  9
$FILLMODE
 70
     1
  9
$QTEXTMODE
 70
     0
  9
$MIRRTEXT
 70
     1
  9
$LTSCALE
 40
1.0
  9
$ATTMODE
 70
     1
  9
$TEXTSIZE
 40
0.2
  9
$TRACEWID
 40
0.05
  9
$TEXTSTYLE
  7
CONVERTER_8
  9
$CLAYER
  8
0
  9
$CELTYPE
  6
ByLayer
  9
$CECOLOR
 62
     4
  9
$CELTSCALE
 40
1.0
  9
$DISPSILH
 70
     0
  9
$DIMSCALE
 40
1.0
  9
$DIMASZ
 40
0.18
  9
$DIMEXO
 40
0.0625
  9
$DIMDLI
 40
0.38
  9
$DIMRND
 40
0.0
  9
$DIMDLE
 40
0.0
  9
$DIMEXE
 40
0.18
  9
$DIMTP
 40
0.0
  9
$DIMTM
 40
0.0
  9
$DIMTXT
 40
0.18
  9
$DIMCEN
 40
0.09
  9
$DIMTSZ
 40
0.0
  9
$DIMTOL
 70
     0
  9
$DIMLIM
 70
     0
  9
$DIMTIH
 70
     1
  9
$DIMTOH
 70
     1
  9
$DIMSE1
 70
     0
  9
$DIMSE2
 70
     0
  9
$DIMTAD
 70
     0
  9
$DIMZIN
 70
     0
  9
$DIMBLK
  1

  9
$DIMASO
 70
     1
  9
$DIMSHO
 70
     1
  9
$DIMPOST
  1

  9
$DIMAPOST
  1

  9
$DIMALT
 70
     0
  9
$DIMALTD
 70
     2
  9
$DIMALTF
 40
25.4
  9
$DIMLFAC
 40
1.0
  9
$DIMTOFL
 70
     0
  9
$DIMTVP
 40
0.0
  9
$DIMTIX
 70
     0
  9
$DIMSOXD
 70
     0
  9
$DIMSAH
 70
     0
  9
$DIMBLK1
  1

  9
$DIMBLK2
  1

  9
$DIMSTYLE
  2
Standard
  9
$DIMCLRD
 70
     0
  9
$DIMCLRE
 70
     0
  9
$DIMCLRT
 70
     0
  9
$DIMTFAC
 40
1.0
  9
$DIMGAP
 40
0.09
  9
$DIMJUST
 70
     0
  9
$DIMSD1
 70
     0
  9
$DIMSD2
 70
     0
  9
$DIMTOLJ
 70
     1
  9
$DIMTZIN
 70
     0
  9
$DIMALTZ
 70
     0
  9
$DIMALTTZ
 70
     0
  9
$DIMUPT
 70
     0
  9
$DIMDEC
 70
     4
  9
$DIMTDEC
 70
     4
  9
$DIMALTU
 70
     2
  9
$DIMALTTD
 70
     2
  9
$DIMTXSTY
  7
Standard
  9
$DIMAUNIT
 70
     0
  9
$DIMADEC
 70
     0
  9
$DIMALTRND
 40
0.0
  9
$DIMAZIN
 70
     0
  9
$DIMDSEP
 70
    46
  9
$DIMATFIT
 70
     3
  9
$DIMFRAC
 70
     0
  9
$DIMLDRBLK
  1

  9
$DIMLUNIT
 70
     2
  9
$DIMLWD
 70
    -2
  9
$DIMLWE
 70
    -2
  9
$DIMTMOVE
 70
     0
  9
$LUNITS
 70
     2
  9
$LUPREC
 70
     4
  9
$SKETCHINC
 40
0.1
  9
$FILLETRAD
 40
0.5
  9
$AUNITS
 70
     0
  9
$AUPREC
 70
     0
  9
$MENU
  1
.
  9
$ELEVATION
 40
0.0
  9
$PELEVATION
 40
0.0
  9
$THICKNESS
 40
0.0
  9
$LIMCHECK
 70
     0
  9
$CHAMFERA
 40
0.5
  9
$CHAMFERB
 40
0.5
  9
$CHAMFERC
 40
1.0
  9
$CHAMFERD
 40
0.0
  9
$SKPOLY
 70
     0
  9
$TDCREATE
 40
2455092.497248438
  9
$TDUCREATE
 40
2455092.122248438
  9
$TDUPDATE
 40
2456044.466066435
  9
$TDUUPDATE
 40
2456044.091066435
  9
$TDINDWG
 40
0.0779537384
  9
$TDUSRTIMER
 40
0.0779521065
  9
$USRTIMER
 70
     1
  9
$ANGBASE
 50
0.0
  9
$ANGDIR
 70
     0
  9
$PDMODE
 70
     0
  9
$PDSIZE
 40
0.0
  9
$PLINEWID
 40
0.0
  9
$SPLFRAME
 70
     0
  9
$SPLINETYPE
 70
     6
  9
$SPLINESEGS
 70
     8
  9
$HANDSEED
  5
EB7
  9
$SURFTAB1
 70
     6
  9
$SURFTAB2
 70
     6
  9
$SURFTYPE
 70
     6
  9
$SURFU
 70
     6
  9
$SURFV
 70
     6
  9
$UCSBASE
  2

  9
$UCSNAME
  2

  9
$UCSORG
 10
0.0
 20
0.0
 30
0.0
  9
$UCSXDIR
 10
1.0
 20
0.0
 30
0.0
  9
$UCSYDIR
 10
0.0
 20
1.0
 30
0.0
  9
$UCSORTHOREF
  2

  9
$UCSORTHOVIEW
 70
     0
  9
$UCSORGTOP
 10
0.0
 20
0.0
 30
0.0
  9
$UCSORGBOTTOM
 10
0.0
 20
0.0
 30
0.0
  9
$UCSORGLEFT
 10
0.0
 20
0.0
 30
0.0
  9
$UCSORGRIGHT
 10
0.0
 20
0.0
 30
0.0
  9
$UCSORGFRONT
 10
0.0
 20
0.0
 30
0.0
  9
$UCSORGBACK
 10
0.0
 20
0.0
 30
0.0
  9
$PUCSBASE
  2

  9
$PUCSNAME
  2

  9
$PUCSORG
 10
0.0
 20
0.0
 30
0.0
  9
$PUCSXDIR
 10
1.0
 20
0.0
 30
0.0
  9
$PUCSYDIR
 10
0.0
 20
1.0
 30
0.0
  9
$PUCSORTHOREF
  2

  9
$PUCSORTHOVIEW
 70
     0
  9
$PUCSORGTOP
 10
0.0
 20
0.0
 30
0.0
  9
$PUCSORGBOTTOM
 10
0.0
 20
0.0
 30
0.0
  9
$PUCSORGLEFT
 10
0.0
 20
0.0
 30
0.0
  9
$PUCSORGRIGHT
 10
0.0
 20
0.0
 30
0.0
  9
$PUCSORGFRONT
 10
0.0
 20
0.0
 30
0.0
  9
$PUCSORGBACK
 10
0.0
 20
0.0
 30
0.0
  9
$USERI1
 70
     0
  9
$USERI2
 70
     0
  9
$USERI3
 70
     0
  9
$USERI4
 70
     0
  9
$USERI5
 70
     0
  9
$USERR1
 40
14.0
  9
$USERR2
 40
0.0
  9
$USERR3
 40
0.0
  9
$USERR4
 40
0.0
  9
$USERR5
 40
0.0
  9
$WORLDVIEW
 70
     1
  9
$SHADEDGE
 70
     3
  9
$SHADEDIF
 70
    70
  9
$TILEMODE
 70
     1
  9
$MAXACTVP
 70
    64
  9
$PINSBASE
 10
0.0
 20
0.0
 30
0.0
  9
$PLIMCHECK
 70
     0
  9
$PEXTMIN
 10
1.000000000000000E+20
 20
1.000000000000000E+20
 30
1.000000000000000E+20
  9
$PEXTMAX
 10
-1.000000000000000E+20
 20
-1.000000000000000E+20
 30
-1.000000000000000E+20
  9
$PLIMMIN
 10
0.0
 20
0.0
  9
$PLIMMAX
 10
12.0
 20
9.0
  9
$UNITMODE
 70
     0
  9
$VISRETAIN
 70
     1
  9
$PLINEGEN
 70
     0
  9
$PSLTSCALE
 70
     1
  9
$TREEDEPTH
 70
  3020
  9
$CMLSTYLE
  2
Standard
  9
$CMLJUST
 70
     0
  9
$CMLSCALE
 40
1.0
  9
$PROXYGRAPHICS
 70
     1
  9
$MEASUREMENT
 70
     1
  9
$CELWEIGHT
370
    -1
  9
$ENDCAPS
280
     0
  9
$JOINSTYLE
280
     0
  9
$LWDISPLAY
290
     0
  9
$INSUNITS
 70
     1
  9
$HYPERLINKBASE
  1

  9
$STYLESHEET
  1
P社図面.CTB
  9
$XEDIT
290
     1
  9
$CEPSNTYPE
380
     0
  9
$PSTYLEMODE
290
     1
  9
$FINGERPRINTGUID
  2
{7B0254C7-8FB9-4957-9D9B-9267A2BDC099}
  9
$VERSIONGUID
  2
{6051E842-2CB4-4496-B7CA-23D7A361041C}
  9
$EXTNAMES
290
     1
  9
$PSVPSCALE
 40
0.0
  9
$OLESTARTUP
290
     0
  0
ENDSEC
  0
SECTION
  2
CLASSES
  0
CLASS
  1
ACDBDICTIONARYWDFLT
  2
AcDbDictionaryWithDefault
  3
AutoCAD 2000
 90
        0
280
     0
281
     0
  0
CLASS
  1

  2
exOdDbCircle
  3

 90
    32768
280
     0
281
     1
  0
CLASS
  1

  2
exOdDbPolyline
  3

 90
    32768
280
     0
281
     1
  0
CLASS
  1

  2
exOdDbSpline
  3

 90
    32768
280
     0
281
     1
  0
CLASS
  1
ACDBPLACEHOLDER
  2
AcDbPlaceHolder
  3
AutoCAD 2000
 90
        0
280
     0
281
     0
  0
CLASS
  1
LAYOUT
  2
AcDbLayout
  3
AutoCAD 2000
 90
        0
280
     0
281
     0
  0
CLASS
  1
DICTIONARYVAR
  2
AcDbDictionaryVar
  3
AutoCAD 2000
 90
        0
280
     0
281
     0
  0
ENDSEC
  0
SECTION
  2
TABLES
  0
TABLE
  2
VPORT
  5
8
330
0
100
AcDbSymbolTable
 70
     4
  0
VPORT
  5
EB6
330
8
100
AcDbSymbolTableRecord
100
AcDbViewportTableRecord
  2
*Active
 70
     0
 10
0.0
 20
0.0
 11
1.0
 21
1.0
 12
-15.82177850044956
 22
1.028789381582043
 13
0.0
 23
0.0
 14
0.5
 24
0.5
 15
0.5
 25
0.5
 16
0.0
 26
0.0
 36
1.0
 17
0.0
 27
0.0
 37
0.0
 40
302.0140519781993
 41
1.97051597051597
 42
50.0
 43
0.0
 44
0.0
 50
0.0
 51
0.0
 71
     0
 72
   100
 73
     1
 74
     3
 75
     0
 76
     0
 77
     0
 78
     0
281
     0
 65
     1
110
0.0
120
0.0
130
0.0
111
1.0
121
0.0
131
0.0
112
0.0
122
1.0
132
0.0
 79
     0
146
0.0
  0
ENDTAB
  0
TABLE
  2
LTYPE
  5
5
330
0
100
AcDbSymbolTable
 70
     5
  0
LTYPE
  5
14
330
5
100
AcDbSymbolTableRecord
100
AcDbLinetypeTableRecord
  2
ByBlock
 70
     0
  3

 72
    65
 73
     0
 40
0.0
  0
LTYPE
  5
15
330
5
100
AcDbSymbolTableRecord
100
AcDbLinetypeTableRecord
  2
ByLayer
 70
     0
  3

 72
    65
 73
     0
 40
0.0
  0
LTYPE
  5
16
330
5
100
AcDbSymbolTableRecord
100
AcDbLinetypeTableRecord
  2
Continuous
 70
     0
  3
Solid line
 72
    65
 73
     0
 40
0.0
  0
LTYPE
  5
2A
330
5
100
AcDbSymbolTableRecord
100
AcDbLinetypeTableRecord
  2
DASHED
 70
     0
  3
Dashed
 72
    65
 73
     2
 40
15.0
 49
7.0
 74
     0
 49
-8.0
 74
     0
  0
LTYPE
  5
2E
330
5
100
AcDbSymbolTableRecord
100
AcDbLinetypeTableRecord
  2
DASH_CENTER
 70
     0
  3
Dash_Center
 72
    65
 73
     4
 40
14.0
 49
11.0
 74
     0
 49
-1.0
 74
     0
 49
1.0
 74
     0
 49
-1.0
 74
     0
  0
LTYPE
  5
2F
330
5
100
AcDbSymbolTableRecord
100
AcDbLinetypeTableRecord
  2
PHANTOM
 70
     0
  3
Phantom
 72
    65
 73
     6
 40
13.0
 49
10.0
 74
     0
 49
-1.0
 74
     0
 49
0.0
 74
     0
 49
-1.0
 74
     0
 49
0.0
 74
     0
 49
-1.0
 74
     0
  0
LTYPE
  5
30
330
5
100
AcDbSymbolTableRecord
100
AcDbLinetypeTableRecord
  2
CENTER_DASH_DASH
 70
     0
  3
Center_Dash_Dash
 72
    65
 73
     6
 40
14.0
 49
9.0
 74
     0
 49
-1.0
 74
     0
 49
1.0
 74
     0
 49
-1.0
 74
     0
 49
1.0
 74
     0
 49
-1.0
 74
     0
  0
ENDTAB
  0
TABLE
  2
LAYER
  5
2
330
0
100
AcDbSymbolTable
 70
     3
  0
LAYER
  5
10
330
2
100
AcDbSymbolTableRecord
100
AcDbLayerTableRecord
  2
0
 70
     0
 62
     7
  6
Continuous
370
    -3
390
F
  0
LAYER
  5
893
330
2
100
AcDbSymbolTableRecord
100
AcDbLayerTableRecord
  2
Defpoints
 70
     0
 62
     7
  6
Continuous
290
     0
370
    -3
390
F
  0
ENDTAB
  0
TABLE
  2
STYLE
  5
3
330
0
100
AcDbSymbolTable
 70
    22
  0
STYLE
  5
11
330
3
100
AcDbSymbolTableRecord
100
AcDbTextStyleTableRecord
  2
Standard
 70
     0
 40
0.0
 41
1.0
 50
0.0
 71
     0
 42
0.2
  3
txt
  4

  0
STYLE
  5
BF
330
3
100
AcDbSymbolTableRecord
100
AcDbTextStyleTableRecord
  2
CONVERTER_1
 70
     0
 40
0.0
 41
0.89
 50
0.0
 71
     0
 42
0.2
  3
txt.shx
  4

  0
STYLE
  5
C2
330
3
100
AcDbSymbolTableRecord
100
AcDbTextStyleTableRecord
  2
CONVERTER_2
 70
     0
 40
0.0
 41
0.6230000000000003
 50
0.0
 71
     0
 42
0.2
  3
simplex.shx
  4
bigfont.shx
  0
STYLE
  5
CB
330
3
100
AcDbSymbolTableRecord
100
AcDbTextStyleTableRecord
  2
CONVERTER_3
 70
     0
 40
0.0
 41
0.89
 50
0.0
 71
     0
 42
0.2
  3
simplex.shx
  4
bigfont.shx
  0
STYLE
  5
CD
330
3
100
AcDbSymbolTableRecord
100
AcDbTextStyleTableRecord
  2
CONVERTER_4
 70
     0
 40
0.0
 41
1.68111111111111
 50
0.0
 71
     0
 42
0.2
  3
txt.shx
  4
bigfont.shx
  0
STYLE
  5
CF
330
3
100
AcDbSymbolTableRecord
100
AcDbTextStyleTableRecord
  2
CONVERTER_5
 70
     0
 40
0.0
 41
1.62688172043011
 50
0.0
 71
     0
 42
0.2
  3
txt.shx
  4
bigfont.shx
  0
STYLE
  5
D2
330
3
100
AcDbSymbolTableRecord
100
AcDbTextStyleTableRecord
  2
CONVERTER_6
 70
     0
 40
0.0
 41
1.008666666666669
 50
0.0
 71
     0
 42
0.2
  3
txt.shx
  4
bigfont.shx
  0
STYLE
  5
D4
330
3
100
AcDbSymbolTableRecord
100
AcDbTextStyleTableRecord
  2
CONVERTER_7
 70
     0
 40
0.0
 41
0.9761290322580599
 50
0.0
 71
     0
 42
0.2
  3
txt.shx
  4
bigfont.shx
  0
STYLE
  5
D9
330
3
100
AcDbSymbolTableRecord
100
AcDbTextStyleTableRecord
  2
CONVERTER_8
 70
     0
 40
0.0
 41
0.73514
 50
0.0
 71
     0
 42
0.2
  3
simplex.shx
  4
bigfont.shx
  0
STYLE
  5
DF
330
3
100
AcDbSymbolTableRecord
100
AcDbTextStyleTableRecord
  2
CONVERTER_9
 70
     0
 40
0.0
 41
0.945625
 50
0.0
 71
     0
 42
0.2
  3
txt.shx
  4
bigfont.shx
  0
STYLE
  5
E5
330
3
100
AcDbSymbolTableRecord
100
AcDbTextStyleTableRecord
  2
CONVERTER_10
 70
     0
 40
0.0
 41
1.080714285714289
 50
0.0
 71
     0
 42
0.2
  3
txt.shx
  4
bigfont.shx
  0
STYLE
  5
E8
330
3
100
AcDbSymbolTableRecord
100
AcDbTextStyleTableRecord
  2
CONVERTER_11
 70
     0
 40
0.0
 41
0.7120000000000001
 50
0.0
 71
     0
 42
0.2
  3
simplex.shx
  4
bigfont.shx
  0
STYLE
  5
EA
330
3
100
AcDbSymbolTableRecord
100
AcDbTextStyleTableRecord
  2
CONVERTER_12
 70
     0
 40
0.0
 41
1.87368421052632
 50
0.0
 71
     0
 42
0.2
  3
txt.shx
  4

  0
STYLE
  5
F6
330
3
100
AcDbSymbolTableRecord
100
AcDbTextStyleTableRecord
  2
CONVERTER_14
 70
     0
 40
0.0
 41
0.7758974358974399
 50
0.0
 71
     0
 42
0.2
  3
txt.shx
  4
bigfont.shx
  0
STYLE
  5
F8
330
3
100
AcDbSymbolTableRecord
100
AcDbTextStyleTableRecord
  2
CONVERTER_15
 70
     0
 40
0.0
 41
0.8009999999999999
 50
0.0
 71
     0
 42
0.2
  3
simplex.shx
  4
bigfont.shx
  0
STYLE
  5
FB
330
3
100
AcDbSymbolTableRecord
100
AcDbTextStyleTableRecord
  2
CONVERTER_16
 70
     0
 40
0.0
 41
0.8009999999999999
 50
0.0
 71
     0
 42
0.2
  3
simplex.shx
  4
bigfont.shx
  0
STYLE
  5
FD
330
3
100
AcDbSymbolTableRecord
100
AcDbTextStyleTableRecord
  2
CONVERTER_17
 70
     0
 40
0.0
 41
1.0235
 50
0.0
 71
     0
 42
0.2
  3
simplex.shx
  4
bigfont.shx
  0
STYLE
  5
13C
330
3
100
AcDbSymbolTableRecord
100
AcDbTextStyleTableRecord
  2
CONVERTER_19
 70
     0
 40
0.0
 41
0.7120000000000001
 50
0.0
 71
     0
 42
0.2
  3
simplex.shx
  4
bigfont.shx
  0
STYLE
  5
172
330
3
100
AcDbSymbolTableRecord
100
AcDbTextStyleTableRecord
  2
CONVERTER_20
 70
     0
 40
0.0
 41
0.7565
 50
0.0
 71
     0
 42
0.2
  3
simplex.shx
  4
bigfont.shx
  0
STYLE
  5
18E
330
3
100
AcDbSymbolTableRecord
100
AcDbTextStyleTableRecord
  2
CONVERTER_21
 70
     0
 40
0.0
 41
1.1125
 50
0.0
 71
     0
 42
0.2
  3
txt.shx
  4
bigfont.shx
  0
STYLE
  5
40C
330
3
100
AcDbSymbolTableRecord
100
AcDbTextStyleTableRecord
  2
CONVERTER_22
 70
     0
 40
0.0
 41
0.7565
 50
0.0
 71
     0
 42
0.2
  3
simplex.shx
  4
bigfont.shx
  0
STYLE
  5
A45
330
3
100
AcDbSymbolTableRecord
100
AcDbTextStyleTableRecord
  2
社名
 70
     0
 40
2.5
 41
0.8
 50
0.0
 71
     0
 42
2.5
  3
swissk.ttf
  4

1001
ACAD
1000
Swis721 Blk BT
1071
       34
  0
ENDTAB
  0
TABLE
  2
VIEW
  5
6
330
0
100
AcDbSymbolTable
 70
     0
  0
ENDTAB
  0
TABLE
  2
UCS
  5
7
330
0
100
AcDbSymbolTable
 70
     0
  0
ENDTAB
  0
TABLE
  2
APPID
  5
9
330
0
100
AcDbSymbolTable
 70
     1
  0
APPID
  5
12
330
9
100
AcDbSymbolTableRecord
100
AcDbRegAppTableRecord
  2
ACAD
 70
     0
  0
ENDTAB
  0
TABLE
  2
DIMSTYLE
  5
A
330
0
100
AcDbSymbolTable
 70
     1
100
AcDbDimStyleTable
 71
     0
  0
DIMSTYLE
105
27
330
A
100
AcDbSymbolTableRecord
100
AcDbDimStyleTableRecord
  2
Standard
 70
     0
340
11
  0
ENDTAB
  0
TABLE
  2
BLOCK_RECORD
  5
1
330
0
100
AcDbSymbolTable
 70
     3
  0
BLOCK_RECORD
  5
1F
330
1
100
AcDbSymbolTableRecord
100
AcDbBlockTableRecord
  2
*Model_Space
340
22
  0
BLOCK_RECORD
  5
1B
330
1
100
AcDbSymbolTableRecord
100
AcDbBlockTableRecord
  2
*Paper_Space
340
1E
  0
BLOCK_RECORD
  5
23
330
1
100
AcDbSymbolTableRecord
100
AcDbBlockTableRecord
  2
*Paper_Space0
340
26
  0
BLOCK_RECORD
  5
1A5
330
1
100
AcDbSymbolTableRecord
100
AcDbBlockTableRecord
  2
_Open30
340
0
102
{BLKREFS
331
9A1
331
9A2
331
9A9
331
9AA
331
9B0
331
9B1
331
9B7
331
9B8
331
9BE
331
9BF
331
9C6
331
9C7
331
9CD
331
9CE
331
9D4
331
9D5
331
9DB
331
9DC
331
9E2
331
9E3
331
9E9
331
9EA
331
A3A
331
A3B
331
A41
331
A42
331
C7B
331
C7C
331
C82
331
C83
331
C89
331
C8A
331
C90
331
C91
331
C97
331
C98
331
C9E
331
C9F
331
CA5
331
CA6
331
CAC
331
CAD
331
CB3
331
CB4
331
CBA
331
CBB
331
CC1
331
CC2
331
CC8
331
CC9
102
}
  0
BLOCK_RECORD
  5
360
330
1
100
AcDbSymbolTableRecord
100
AcDbBlockTableRecord
  2
*D2
340
0
102
{BLKREFS
331
367
331
B62
102
}
  0
ENDTAB
  0
ENDSEC
  0
SECTION
  2
BLOCKS
  0
BLOCK
  5
20
330
1F
100
AcDbEntity
  8
0
100
AcDbBlockBegin
  2
*Model_Space
 70
     0
 10
0.0
 20
0.0
 30
0.0
  3
*Model_Space
  1

  0
ENDBLK
  5
21
330
1F
100
AcDbEntity
  8
0
100
AcDbBlockEnd
  0
BLOCK
  5
1C
330
1B
100
AcDbEntity
 67
     1
  8
0
100
AcDbBlockBegin
  2
*Paper_Space
 70
     0
 10
0.0
 20
0.0
 30
0.0
  3
*Paper_Space
  1

  0
ENDBLK
  5
1D
330
1B
100
AcDbEntity
 67
     1
  8
0
100
AcDbBlockEnd
  0
BLOCK
  5
24
330
23
100
AcDbEntity
  8
0
100
AcDbBlockBegin
  2
*Paper_Space0
 70
     0
 10
0.0
 20
0.0
 30
0.0
  3
*Paper_Space0
  1

  0
ENDBLK
  5
25
330
23
100
AcDbEntity
  8
0
100
AcDbBlockEnd
  0
BLOCK
  5
1A6
330
1A5
100
AcDbEntity
  8
0
100
AcDbBlockBegin
  2
_Open30
 70
     0
 10
0.0
 20
0.0
 30
0.0
  3
_Open30
  1

  0
LINE
  5
1A8
330
1A5
100
AcDbEntity
  8
0
  6
ByBlock
 62
     0
370
    -2
100
AcDbLine
 10
-1.0
 20
0.267949
 30
0.0
 11
0.0
 21
0.0
 31
0.0
  0
LINE
  5
1A9
330
1A5
100
AcDbEntity
  8
0
  6
ByBlock
 62
     0
370
    -2
100
AcDbLine
 10
0.0
 20
0.0
 30
0.0
 11
-1.0
 21
-0.267949
 31
0.0
  0
LINE
  5
1AA
330
1A5
100
AcDbEntity
  8
0
  6
ByBlock
 62
     0
370
    -2
100
AcDbLine
 10
0.0
 20
0.0
 30
0.0
 11
-1.0
 21
0.0
 31
0.0
  0
ENDBLK
  5
1A7
330
1A5
100
AcDbEntity
  8
0
100
AcDbBlockEnd
  0
BLOCK
  5
365
330
360
100
AcDbEntity
  8
0
100
AcDbBlockBegin
  2
*D2
 70
     1
 10
0.0
 20
0.0
 30
0.0
  3
*D2
  1

  0
LINE
  5
361
330
360
100
AcDbEntity
  8
0
  6
Continuous
 62
    54
100
AcDbLine
 10
-104.7541676263652
 20
17.20027486123945
 30
0.0
 11
-117.9442440502369
 21
32.03747943171129
 31
0.0
  0
LINE
  5
362
330
360
100
AcDbEntity
  8
0
 62
    54
100
AcDbLine
 10
-117.9442440502369
 20
32.03747943171129
 30
0.0
 11
-114.4855934623004
 21
29.7600939952605
 31
0.0
  0
LINE
  5
363
330
360
100
AcDbEntity
  8
0
 62
    54
100
AcDbLine
 10
-117.9442440502369
 20
32.03747943171129
 30
0.0
 11
-116.0876574964953
 21
28.33588049556793
 31
0.0
  0
MTEXT
  5
364
330
360
100
AcDbEntity
  8
0
 62
     2
100
AcDbMText
 10
-108.6567536004179
 20
23.9983724039123
 30
0.0
 40
5.0
 41
0.0
 71
     7
 72
     1
  1
QR
  7
CONVERTER_20
 11
0.6644046427097822
 21
-0.7473730465742572
 31
0.0
 73
     1
 44
0.6002400960384203
1001
ACAD
1000
MTEXTBEGIN
1070
    73
1070
     1
1070
    44
1040
0.6002400960384203
1070
    74
1070
     0
1000
MTEXTEND
  0
ENDBLK
  5
366
330
360
100
AcDbEntity
  8
0
100
AcDbBlockEnd
  0
ENDSEC
  0
SECTION
  2
ENTITIES
  0
MTEXT
  5
65E
330
1F
100
AcDbEntity
  8
0
 62
     2
100
AcDbMText
 10
205.5000000000005
 20
-240.9997577209245
 30
0.0
 40
6.0
 41
0.0
 71
     5
 72
     1
  1
 
  7
CONVERTER_1
 73
     1
 44
1.32052821128451
1001
ACAD
1000
MTEXTBEGIN
1070
    73
1070
     1
1070
    44
1040
1.32052821128451
1070
    74
1070
     0
1000
MTEXTEND
  0
MTEXT
  5
65F
330
1F
100
AcDbEntity
  8
0
 62
     2
100
AcDbMText
 10
209.5000000000005
 20
-267.9996999999996
 30
0.0
 40
6.0
 41
0.0
 71
     5
 72
     1
  1
 
  7
CONVERTER_1
 73
     1
 44
1.32052821128451
1001
ACAD
1000
MTEXTBEGIN
1070
    73
1070
     1
1070
    44
1040
1.32052821128451
1070
    74
1070
     0
1000
MTEXTEND
  0
MTEXT
  5
660
330
1F
100
AcDbEntity
  8
0
 62
     2
100
AcDbMText
 10
88.50020000000002
 20
-279.9996999999998
 30
0.0
 40
4.0
 41
0.0
 71
     5
 72
     1
  1
 
  7
CONVERTER_2
 73
     1
 44
1.32052821128451
1001
ACAD
1000
MTEXTBEGIN
1070
    73
1070
     1
1070
    44
1040
1.32052821128451
1070
    74
1070
     0
1000
MTEXTEND
  0
MTEXT
  5
661
330
1F
100
AcDbEntity
  8
0
 62
     2
100
AcDbMText
 10
49.50020000000002
 20
-279.9996999999998
 30
0.0
 40
4.0
 41
0.0
 71
     5
 72
     1
  1
 
  7
CONVERTER_2
 73
     1
 44
1.32052821128451
1001
ACAD
1000
MTEXTBEGIN
1070
    73
1070
     1
1070
    44
1040
1.32052821128451
1070
    74
1070
     0
1000
MTEXTEND
  0
MTEXT
  5
662
330
1F
100
AcDbEntity
  8
0
 62
     2
100
AcDbMText
 10
127.5002
 20
-279.9996999999998
 30
0.0
 40
4.0
 41
0.0
 71
     5
 72
     1
  1
 
  7
CONVERTER_2
 73
     1
 44
1.32052821128451
1001
ACAD
1000
MTEXTBEGIN
1070
    73
1070
     1
1070
    44
1040
1.32052821128451
1070
    74
1070
     0
1000
MTEXTEND
  0
MTEXT
  5
663
330
1F
100
AcDbEntity
  8
0
 62
     2
100
AcDbMText
 10
166.5002
 20
-279.9996999999998
 30
0.0
 40
4.0
 41
0.0
 71
     5
 72
     1
  1
 
  7
CONVERTER_2
 73
     1
 44
1.32052821128451
1001
ACAD
1000
MTEXTBEGIN
1070
    73
1070
     1
1070
    44
1040
1.32052821128451
1070
    74
1070
     0
1000
MTEXTEND
  0
MTEXT
  5
664
330
1F
100
AcDbEntity
  8
0
 62
     2
100
AcDbMText
 10
205.5000000000005
 20
-279.9996999999998
 30
0.0
 40
4.0
 41
0.0
 71
     5
 72
     1
  1
 
  7
CONVERTER_2
 73
     1
 44
1.32052821128451
1001
ACAD
1000
MTEXTBEGIN
1070
    73
1070
     1
1070
    44
1040
1.32052821128451
1070
    74
1070
     0
1000
MTEXTEND
  0
MTEXT
  5
665
330
1F
100
AcDbEntity
  8
0
 62
     2
100
AcDbMText
 10
92.50020000000002
 20
-267.9996999999996
 30
0.0
 40
6.0
 41
0.0
 71
     5
 72
     1
  1
 
  7
CONVERTER_1
 73
     1
 44
1.32052821128451
1001
ACAD
1000
MTEXTBEGIN
1070
    73
1070
     1
1070
    44
1040
1.32052821128451
1070
    74
1070
     0
1000
MTEXTEND
  0
MTEXT
  5
666
330
1F
100
AcDbEntity
  8
0
 62
     2
100
AcDbMText
 10
170.5002
 20
-267.9996999999996
 30
0.0
 40
6.0
 41
0.0
 71
     5
 72
     1
  1
 
  7
CONVERTER_1
 73
     1
 44
1.32052821128451
1001
ACAD
1000
MTEXTBEGIN
1070
    73
1070
     1
1070
    44
1040
1.32052821128451
1070
    74
1070
     0
1000
MTEXTEND
  0
MTEXT
  5
667
330
1F
100
AcDbEntity
  8
0
 62
     2
100
AcDbMText
 10
131.5002
 20
-267.9996999999996
 30
0.0
 40
6.0
 41
0.0
 71
     5
 72
     1
  1
 
  7
CONVERTER_1
 73
     1
 44
1.32052821128451
1001
ACAD
1000
MTEXTBEGIN
1070
    73
1070
     1
1070
    44
1040
1.32052821128451
1070
    74
1070
     0
1000
MTEXTEND
  0
MTEXT
  5
670
330
1F
100
AcDbEntity
  8
0
 62
     2
100
AcDbMText
 10
205.5000000000005
 20
-255.4997860470252
 30
0.0
 40
4.0
 41
0.0
 71
     5
 72
     1
  1
 
  7
CONVERTER_2
 73
     1
 44
1.32052821128451
1001
ACAD
1000
MTEXTBEGIN
1070
    73
1070
     1
1070
    44
1040
1.32052821128451
1070
    74
1070
     0
1000
MTEXTEND
  0
LINE
  5
758
330
1F
100
AcDbEntity
  8
0
  6
Continuous
 62
     7
100
AcDbLine
 10
187.0594986971658
 20
81.13292041633306
 30
0.0
 11
187.0594986971658
 21
71.80349703838101
 31
0.0
  0
LINE
  5
759
330
1F
100
AcDbEntity
  8
0
  6
Continuous
 62
     7
100
AcDbLine
 10
183.867798697166
 20
81.13292041633306
 30
0.0
 11
183.867798697166
 21
71.93302041633295
 31
0.0
  0
LINE
  5
75A
330
1F
100
AcDbEntity
  8
0
  6
DASH_CENTER
 62
    30
100
AcDbLine
 10
175.1788371972048
 20
76.53333066249206
 30
0.0
 11
211.4692631431708
 21
76.53282514735794
 31
0.0
  0
LINE
  5
75B
330
1F
100
AcDbEntity
  8
0
  6
Continuous
 62
     7
100
AcDbLine
 10
200.1690374302019
 20
45.18907519404389
 30
0.0
 11
192.95795996413
 21
45.18907519404389
 31
0.0
  0
LINE
  5
75C
330
1F
100
AcDbEntity
  8
0
  6
DASH_CENTER
 62
    30
100
AcDbLine
 10
148.0111421192499
 20
-9.363551390749988
 30
0.0
 11
157.681798697166
 21
0.30702041633299
 31
0.0
  0
LINE
  5
75D
330
1F
100
AcDbEntity
  8
0
  6
DASH_CENTER
 62
    30
100
AcDbLine
 10
148.0110692750789
 20
87.74171937960888
 30
0.0
 11
157.6816986971658
 21
78.07092041633289
 31
0.0
  0
LINE
  5
75E
330
1F
100
AcDbEntity
  8
0
  6
DASH_CENTER
 62
    30
100
AcDbLine
 10
245.1159357340678
 20
87.74171176481786
 30
0.0
 11
235.4453986971658
 21
78.07092041633289
 31
0.0
  0
LINE
  5
75F
330
1F
100
AcDbEntity
  8
0
  6
DASH_CENTER
 62
    30
100
AcDbLine
 10
245.1159052749988
 20
-9.363501391105051
 30
0.0
 11
235.4452986971656
 21
0.30702041633299
 31
0.0
  0
LINE
  5
760
330
1F
100
AcDbEntity
  8
0
  6
DASH_CENTER
 62
    30
100
AcDbLine
 10
140.563498697166
 20
-21.11087958366602
 30
0.0
 11
140.563498697166
 21
-38.81087958366703
 31
0.0
  0
LINE
  5
761
330
1F
100
AcDbEntity
  8
0
  6
DASH_CENTER
 62
    30
100
AcDbLine
 10
252.5634986971659
 20
-38.81087958366703
 30
0.0
 11
252.5634986971659
 21
-21.1108795836671
 31
0.0
  0
LINE
  5
762
330
1F
100
AcDbEntity
  8
0
  6
DASH_CENTER
 62
    30
100
AcDbLine
 10
196.5634986971657
 20
-44.84698796092903
 30
0.0
 11
196.5634986971657
 21
120.9132898146729
 31
0.0
  0
LINE
  5
763
330
1F
100
AcDbEntity
  8
0
  6
DASH_CENTER
 62
    30
100
AcDbLine
 10
280.5996070741899
 20
39.18892041633284
 30
0.0
 11
112.5273903201419
 21
39.18892041633284
 31
0.0
  0
LINE
  5
764
330
1F
100
AcDbEntity
  8
0
  6
Continuous
 62
     7
100
AcDbLine
 10
234.7606986971658
 20
-28.6108795836671
 30
0.0
 11
271.563498697166
 21
-28.6108795836671
 31
0.0
  0
LINE
  5
765
330
1F
100
AcDbEntity
  8
0
  6
Continuous
 62
     7
100
AcDbLine
 10
160.563498697166
 20
-31.31087958366703
 30
0.0
 11
160.563498697166
 21
-31.81087958366703
 31
0.0
  0
LINE
  5
766
330
1F
100
AcDbEntity
  8
0
  6
Continuous
 62
     7
100
AcDbLine
 10
254.8834986971659
 20
69.2249204163329
 30
0.0
 11
255.6252986971659
 21
69.96682041633289
 31
0.0
  0
LINE
  5
767
330
1F
100
AcDbEntity
  8
0
  6
Continuous
 62
     7
100
AcDbLine
 10
226.5991986971659
 20
97.50912041633295
 30
0.0
 11
227.3409986971659
 21
98.25102041633295
 31
0.0
  0
LINE
  5
768
330
1F
100
AcDbEntity
  8
0
  6
Continuous
 62
     7
100
AcDbLine
 10
161.860498697166
 20
16.90102041633304
 30
0.0
 11
163.4586986971659
 21
16.82462041633289
 31
0.0
  0
LINE
  5
769
330
1F
100
AcDbEntity
  8
0
  6
Continuous
 62
    30
100
AcDbLine
 10
204.0634986971658
 20
78.63252041633291
 30
0.0
 11
189.0634986971658
 21
78.63322041633295
 31
0.0
  0
LINE
  5
76A
330
1F
100
AcDbEntity
  8
0
  6
Continuous
 62
    30
100
AcDbLine
 10
204.0634986971658
 20
74.43252041633285
 30
0.0
 11
189.0634986971658
 21
74.4332204163329
 31
0.0
  0
LINE
  5
76B
330
1F
100
AcDbEntity
  8
0
  6
Continuous
 62
     7
100
AcDbLine
 10
189.0634986971658
 20
74.03312041633284
 30
0.0
 11
204.0634986971658
 21
74.03242041633301
 31
0.0
  0
LINE
  5
76C
330
1F
100
AcDbEntity
  8
0
  6
Continuous
 62
     7
100
AcDbLine
 10
200.5634986971659
 20
70.93792041633287
 30
0.0
 11
200.5634986971659
 21
74.03262041633299
 31
0.0
  0
LINE
  5
76D
330
1F
100
AcDbEntity
  8
0
  6
Continuous
 62
     7
100
AcDbLine
 10
192.5634986971658
 20
74.03282041633294
 30
0.0
 11
192.5634986971658
 21
70.93812041633305
 31
0.0
  0
LINE
  5
76E
330
1F
100
AcDbEntity
  8
0
  6
Continuous
 62
     7
100
AcDbLine
 10
161.860498697166
 20
16.90102041633304
 30
0.0
 11
163.001798697166
 21
40.79242041633302
 31
0.0
  0
LINE
  5
76F
330
1F
100
AcDbEntity
  8
0
  6
Continuous
 62
     7
100
AcDbLine
 10
205.6634986971659
 20
72.03312041633285
 30
0.0
 11
207.5027986971659
 21
72.19422041633284
 31
0.0
  0
LINE
  5
770
330
1F
100
AcDbEntity
  8
0
  6
Continuous
 62
     7
100
AcDbLine
 10
205.6634986971659
 20
81.03312041633286
 30
0.0
 11
207.5027986971659
 21
80.872220416333
 31
0.0
  0
LINE
  5
771
330
1F
100
AcDbEntity
  8
0
  6
Continuous
 62
     7
100
AcDbLine
 10
208.9634986971659
 20
73.78802041633298
 30
0.0
 11
208.9634986971659
 21
79.27852041633288
 31
0.0
  0
LINE
  5
772
330
1F
100
AcDbEntity
  8
0
  6
Continuous
 62
     7
100
AcDbLine
 10
205.6634986971659
 20
81.03312041633286
 30
0.0
 11
205.6634986971659
 21
72.03312041633285
 31
0.0
  0
LINE
  5
773
330
1F
100
AcDbEntity
  8
0
  6
Continuous
 62
     7
100
AcDbLine
 10
177.8635986971659
 20
74.0338204163329
 30
0.0
 11
183.4634986971659
 21
74.03332041633301
 31
0.0
  0
LINE
  5
774
330
1F
100
AcDbEntity
  8
0
  6
Continuous
 62
    30
100
AcDbLine
 10
183.4634986971659
 20
74.43352041633307
 30
0.0
 11
177.4634986971659
 21
74.43372041633302
 31
0.0
  0
LINE
  5
775
330
1F
100
AcDbEntity
  8
0
  6
Continuous
 62
     7
100
AcDbLine
 10
183.4634986971659
 20
72.63292041633305
 30
0.0
 11
183.867798697166
 21
71.93302041633295
 31
0.0
  0
LINE
  5
776
330
1F
100
AcDbEntity
  8
0
  6
Continuous
 62
     7
100
AcDbLine
 10
183.4634986971659
 20
80.43302041633294
 30
0.0
 11
183.867798697166
 21
81.13292041633306
 31
0.0
  0
LINE
  5
777
330
1F
100
AcDbEntity
  8
0
  6
Continuous
 62
     7
100
AcDbLine
 10
187.4634986971658
 20
72.63292041633305
 30
0.0
 11
187.0594986971658
 21
71.93302041633295
 31
0.0
  0
LINE
  5
778
330
1F
100
AcDbEntity
  8
0
  6
Continuous
 62
     7
100
AcDbLine
 10
187.4634986971658
 20
80.43302041633294
 30
0.0
 11
187.0594986971658
 21
81.13292041633306
 31
0.0
  0
LINE
  5
779
330
1F
100
AcDbEntity
  8
0
  6
Continuous
 62
     7
100
AcDbLine
 10
187.4634986971658
 20
80.43302041633294
 30
0.0
 11
187.4634986971658
 21
72.63292041633305
 31
0.0
  0
LINE
  5
77A
330
1F
100
AcDbEntity
  8
0
  6
Continuous
 62
     7
100
AcDbLine
 10
183.4634986971659
 20
80.43302041633294
 30
0.0
 11
183.4634986971659
 21
72.63292041633305
 31
0.0
  0
LINE
  5
77B
330
1F
100
AcDbEntity
  8
0
  6
Continuous
 62
     7
100
AcDbLine
 10
187.0594986971658
 20
71.93302041633295
 30
0.0
 11
183.867798697166
 21
71.93302041633295
 31
0.0
  0
LINE
  5
77C
330
1F
100
AcDbEntity
  8
0
  6
Continuous
 62
     7
100
AcDbLine
 10
187.0594986971658
 20
81.13292041633306
 30
0.0
 11
183.867798697166
 21
81.13292041633306
 31
0.0
  0
LINE
  5
77D
330
1F
100
AcDbEntity
  8
0
  6
Continuous
 62
     7
100
AcDbLine
 10
200.5634986971659
 20
79.03262041633299
 30
0.0
 11
200.5634986971659
 21
89.70642041633301
 31
0.0
  0
LINE
  5
77E
330
1F
100
AcDbEntity
  8
0
  6
Continuous
 62
     7
100
AcDbLine
 10
183.4634986971659
 20
79.03332041633301
 30
0.0
 11
177.8635986971659
 21
79.0338204163329
 31
0.0
  0
LINE
  5
77F
330
1F
100
AcDbEntity
  8
0
  6
Continuous
 62
     7
100
AcDbLine
 10
177.4635986971659
 20
74.43372041633302
 30
0.0
 11
177.8635986971659
 21
74.03362041633295
 31
0.0
  0
LINE
  5
780
330
1F
100
AcDbEntity
  8
0
  6
Continuous
 62
     7
100
AcDbLine
 10
177.4634986971659
 20
74.43372041633302
 30
0.0
 11
177.4634986971659
 21
78.63372041633306
 31
0.0
  0
LINE
  5
781
330
1F
100
AcDbEntity
  8
0
  6
Continuous
 62
     7
100
AcDbLine
 10
177.4635986971659
 20
78.63372041633306
 30
0.0
 11
177.8635986971659
 21
79.03362041633295
 31
0.0
  0
LINE
  5
782
330
1F
100
AcDbEntity
  8
0
  6
Continuous
 62
     7
100
AcDbLine
 10
192.5634986971658
 20
79.03282041633294
 30
0.0
 11
192.5634986971658
 21
89.70642041633301
 31
0.0
  0
LINE
  5
783
330
1F
100
AcDbEntity
  8
0
  6
Continuous
 62
     7
100
AcDbLine
 10
177.8635986971659
 20
79.03362041633295
 30
0.0
 11
177.8635986971659
 21
74.03362041633295
 31
0.0
  0
LINE
  5
784
330
1F
100
AcDbEntity
  8
0
  6
Continuous
 62
     7
100
AcDbLine
 10
204.0634986971658
 20
81.53312041633284
 30
0.0
 11
205.6634986971659
 21
81.53312041633284
 31
0.0
  0
LINE
  5
785
330
1F
100
AcDbEntity
  8
0
  6
Continuous
 62
     7
100
AcDbLine
 10
187.4634986971658
 20
81.53312041633284
 30
0.0
 11
189.0634986971658
 21
81.53312041633284
 31
0.0
  0
LINE
  5
786
330
1F
100
AcDbEntity
  8
0
  6
Continuous
 62
     7
100
AcDbLine
 10
205.6634986971659
 20
72.28212041633288
 30
0.0
 11
205.6634986971659
 21
81.53312041633284
 31
0.0
  0
LINE
  5
787
330
1F
100
AcDbEntity
  8
0
  6
Continuous
 62
     7
100
AcDbLine
 10
204.0634986971658
 20
81.53312041633284
 30
0.0
 11
204.0634986971658
 21
72.28212041633288
 31
0.0
  0
LINE
  5
788
330
1F
100
AcDbEntity
  8
0
  6
Continuous
 62
     7
100
AcDbLine
 10
189.0634986971658
 20
81.53312041633284
 30
0.0
 11
189.0634986971658
 21
72.28212041633288
 31
0.0
  0
LINE
  5
789
330
1F
100
AcDbEntity
  8
0
  6
Continuous
 62
     7
100
AcDbLine
 10
164.063498697166
 20
22.18842041633297
 30
0.0
 11
164.5635986971659
 21
39.18912041633303
 31
0.0
  0
LINE
  5
78A
330
1F
100
AcDbEntity
  8
0
  6
Continuous
 62
     7
100
AcDbLine
 10
160.8412986971659
 20
22.34632041633289
 30
0.0
 11
161.1735986971658
 21
22.75312041633287
 31
0.0
  0
LINE
  5
78B
330
1F
100
AcDbEntity
  8
0
  6
Continuous
 62
     7
100
AcDbLine
 10
231.2664986971658
 20
16.90102041633304
 30
0.0
 11
230.1251986971659
 21
40.79242041633302
 31
0.0
  0
LINE
  5
78C
330
1F
100
AcDbEntity
  8
0
  6
Continuous
 62
     7
100
AcDbLine
 10
210.5634986971658
 20
1.18912041633303
 30
0.0
 11
196.5634986971657
 21
1.18912041633303
 31
0.0
  0
LINE
  5
78D
330
1F
100
AcDbEntity
  8
0
  6
Continuous
 62
     7
100
AcDbLine
 10
213.4696986971658
 20
-7.879679583666979
 30
0.0
 11
199.4696986971659
 21
-17.87967958366704
 31
0.0
  0
LINE
  5
78E
330
1F
100
AcDbEntity
  8
0
  6
Continuous
 62
     7
100
AcDbLine
 10
187.4634986971658
 20
81.53312041633284
 30
0.0
 11
187.4634986971658
 21
72.28212041633288
 31
0.0
  0
LINE
  5
78F
330
1F
100
AcDbEntity
  8
0
  6
Continuous
 62
     7
100
AcDbLine
 10
229.0634986971658
 20
22.18842041633297
 30
0.0
 11
228.5634986971659
 21
39.18912041633303
 31
0.0
  0
LINE
  5
790
330
1F
100
AcDbEntity
  8
0
  6
Continuous
 62
     7
100
AcDbLine
 10
165.498198697166
 20
91.97622041633305
 30
0.0
 11
164.3394986971659
 21
94.77382041633291
 31
0.0
  0
LINE
  5
791
330
1F
100
AcDbEntity
  8
0
  6
Continuous
 62
     7
100
AcDbLine
 10
192.5634986971658
 20
-4.250579583667097
 30
0.0
 11
192.5634986971658
 21
1.18912041633303
 31
0.0
  0
LINE
  5
792
330
1F
100
AcDbEntity
  8
0
  6
Continuous
 62
     7
100
AcDbLine
 10
121.563498697166
 20
-28.1108795836671
 30
0.0
 11
158.4223986971658
 21
-28.1108795836671
 31
0.0
  0
LINE
  5
793
330
1F
100
AcDbEntity
  8
0
  6
Continuous
 62
     7
100
AcDbLine
 10
186.5634986971659
 20
81.22472041633296
 30
0.0
 11
186.5634986971659
 21
84.35542041633288
 31
0.0
  0
LINE
  5
794
330
1F
100
AcDbEntity
  8
0
  6
Continuous
 62
     7
100
AcDbLine
 10
235.7847986971659
 20
-4.992779583667018
 30
0.0
 11
236.8389986971659
 21
-1.086779583667069
 31
0.0
  0
LINE
  5
795
330
1F
100
AcDbEntity
  8
0
  6
Continuous
 62
     7
100
AcDbLine
 10
236.8389986971659
 20
-1.086779583667069
 30
0.0
 11
240.742798697166
 21
-0.04087958366699
 31
0.0
  0
LINE
  5
796
330
1F
100
AcDbEntity
  8
0
  6
Continuous
 62
     7
100
AcDbLine
 10
238.6507986971659
 20
-7.84827958366714
 30
0.0
 11
235.7847986971659
 21
-4.992779583667018
 31
0.0
  0
LINE
  5
797
330
1F
100
AcDbEntity
  8
0
  6
Continuous
 62
     7
100
AcDbLine
 10
242.5544986971658
 20
-6.802379583667057
 30
0.0
 11
238.6507986971659
 21
-7.84827958366714
 31
0.0
  0
LINE
  5
798
330
1F
100
AcDbEntity
  8
0
  6
Continuous
 62
     7
100
AcDbLine
 10
243.608798697166
 20
-2.89627958366714
 30
0.0
 11
242.5544986971658
 21
-6.802379583667057
 31
0.0
  0
LINE
  5
799
330
1F
100
AcDbEntity
  8
0
  6
Continuous
 62
     7
100
AcDbLine
 10
240.742798697166
 20
-0.04087958366699
 30
0.0
 11
243.608798697166
 21
-2.89627958366714
 31
0.0
  0
LINE
  5
79A
330
1F
100
AcDbEntity
  8
0
  6
Continuous
 62
     7
100
AcDbLine
 10
243.6088986971657
 20
81.27432041633301
 30
0.0
 11
242.5546986971659
 21
85.18012041633301
 31
0.0
  0
LINE
  5
79B
330
1F
100
AcDbEntity
  8
0
  6
Continuous
 62
     7
100
AcDbLine
 10
242.5546986971659
 20
85.18012041633301
 30
0.0
 11
238.6508986971656
 21
86.22622041633304
 31
0.0
  0
LINE
  5
79C
330
1F
100
AcDbEntity
  8
0
  6
Continuous
 62
     7
100
AcDbLine
 10
240.7428986971658
 20
78.41862041633294
 30
0.0
 11
243.6088986971657
 21
81.27432041633301
 31
0.0
  0
LINE
  5
79D
330
1F
100
AcDbEntity
  8
0
  6
Continuous
 62
     7
100
AcDbLine
 10
236.8391986971658
 20
79.46472041633295
 30
0.0
 11
240.7428986971658
 21
78.41862041633294
 31
0.0
  0
LINE
  5
79E
330
1F
100
AcDbEntity
  8
0
  6
Continuous
 62
     7
100
AcDbLine
 10
235.7848986971659
 20
83.37072041633289
 30
0.0
 11
236.8391986971658
 21
79.46472041633295
 31
0.0
  0
LINE
  5
79F
330
1F
100
AcDbEntity
  8
0
  6
Continuous
 62
     7
100
AcDbLine
 10
238.6508986971656
 20
86.22622041633304
 30
0.0
 11
235.7848986971659
 21
83.37072041633289
 31
0.0
  0
LINE
  5
7A0
330
1F
100
AcDbEntity
  8
0
  6
Continuous
 62
     7
100
AcDbLine
 10
204.0634986971658
 20
79.03242041633301
 30
0.0
 11
189.0634986971658
 21
79.03312041633284
 31
0.0
  0
LINE
  5
7A1
330
1F
100
AcDbEntity
  8
0
  6
Continuous
 62
     7
100
AcDbLine
 10
232.8634986971659
 20
35.18912041633303
 30
0.0
 11
247.0807986971659
 21
35.18912041633303
 31
0.0
  0
LINE
  5
7A2
330
1F
100
AcDbEntity
  8
0
  6
Continuous
 62
     7
100
AcDbLine
 10
238.5990986971659
 20
29.18912041633303
 30
0.0
 11
241.7297986971659
 21
29.18912041633303
 31
0.0
  0
LINE
  5
7A3
330
1F
100
AcDbEntity
  8
0
  6
DASH_CENTER
 62
    40
100
AcDbLine
 10
230.4238986971658
 20
39.18912041633303
 30
0.0
 11
230.1634986971659
 21
39.18892041633284
 31
0.0
  0
LINE
  5
7A4
330
1F
100
AcDbEntity
  8
0
  6
Continuous
 62
     7
100
AcDbLine
 10
229.9244986971658
 20
43.18912041633303
 30
0.0
 11
240.0030986971659
 21
43.18912041633303
 31
0.0
  0
LINE
  5
7A5
330
1F
100
AcDbEntity
  8
0
  6
Continuous
 62
     7
100
AcDbLine
 10
240.0031986971659
 20
43.18912041633303
 30
0.0
 11
247.0808986971658
 21
43.18912041633303
 31
0.0
  0
LINE
  5
7A6
330
1F
100
AcDbEntity
  8
0
  6
Continuous
 62
     7
100
AcDbLine
 10
238.5992986971658
 20
49.18912041633302
 30
0.0
 11
241.729898697166
 21
49.18912041633302
 31
0.0
  0
LINE
  5
7A7
330
1F
100
AcDbEntity
  8
0
  6
Continuous
 62
     7
100
AcDbLine
 10
163.4586986971659
 20
16.82462041633289
 30
0.0
 11
164.5999986971659
 21
40.71602041633286
 31
0.0
  0
LINE
  5
7A8
330
1F
100
AcDbEntity
  8
0
  6
Continuous
 62
     7
100
AcDbLine
 10
232.2856986971659
 20
22.34632041633289
 30
0.0
 11
231.9534986971658
 21
22.75312041633287
 31
0.0
  0
LINE
  5
7A9
330
1F
100
AcDbEntity
  8
0
  6
Continuous
 62
     7
100
AcDbLine
 10
229.668298697166
 20
16.82462041633289
 30
0.0
 11
228.5269986971659
 21
40.71602041633286
 31
0.0
  0
LINE
  5
7AA
330
1F
100
AcDbEntity
  8
0
  6
Continuous
 62
     7
100
AcDbLine
 10
200.5634986971659
 20
1.18912041633303
 30
0.0
 11
200.5634986971659
 21
-4.250579583667097
 31
0.0
  0
LINE
  5
7AB
330
1F
100
AcDbEntity
  8
0
  6
Continuous
 62
     7
100
AcDbLine
 10
200.5634986971659
 20
-4.250579583667097
 30
0.0
 11
200.5634986971659
 21
-11.32817958366695
 31
0.0
  0
LINE
  5
7AC
330
1F
100
AcDbEntity
  8
0
  6
Continuous
 62
     7
100
AcDbLine
 10
206.5634986971658
 20
-2.84677958366706
 30
0.0
 11
206.5634986971658
 21
-5.977379583667016
 31
0.0
  0
LINE
  5
7AD
330
1F
100
AcDbEntity
  8
0
  6
Continuous
 62
     7
100
AcDbLine
 10
158.063498697166
 20
24.18912041633304
 30
0.0
 11
160.7419986971659
 21
37.58122041633304
 31
0.0
  0
LINE
  5
7AE
330
1F
100
AcDbEntity
  8
0
  6
Continuous
 62
     7
100
AcDbLine
 10
206.5634986971658
 20
81.22472041633296
 30
0.0
 11
206.5634986971658
 21
84.35542041633288
 31
0.0
  0
LINE
  5
7AF
330
1F
100
AcDbEntity
  8
0
  6
Continuous
 62
     7
100
AcDbLine
 10
192.5635986971659
 20
-4.250579583667097
 30
0.0
 11
192.5635986971659
 21
-11.32817958366695
 31
0.0
  0
LINE
  5
7B0
330
1F
100
AcDbEntity
  8
0
  6
Continuous
 62
     7
100
AcDbLine
 10
227.6287986971659
 20
91.97622041633305
 30
0.0
 11
228.7875986971659
 21
94.77382041633291
 31
0.0
  0
LINE
  5
7B1
330
1F
100
AcDbEntity
  8
0
  6
Continuous
 62
     7
100
AcDbLine
 10
211.9228986971659
 20
98.481820416333
 30
0.0
 11
213.0816986971658
 21
101.2792204163329
 31
0.0
  0
LINE
  5
7B2
330
1F
100
AcDbEntity
  8
0
  6
Continuous
 62
     7
100
AcDbLine
 10
255.8560986971659
 20
54.54872041633302
 30
0.0
 11
258.6535986971658
 21
55.70742041633298
 31
0.0
  0
LINE
  5
7B3
330
1F
100
AcDbEntity
  8
0
  6
Continuous
 62
     7
100
AcDbLine
 10
249.3505986971658
 20
70.25452041633298
 30
0.0
 11
252.1479986971659
 21
71.41322041633294
 31
0.0
  0
LINE
  5
7B4
330
1F
100
AcDbEntity
  8
0
  6
Continuous
 62
     7
100
AcDbLine
 10
249.350498697166
 20
8.123720416332837
 30
0.0
 11
252.1479986971659
 21
6.964720416332967
 31
0.0
  0
LINE
  5
7B5
330
1F
100
AcDbEntity
  8
0
  6
Continuous
 62
     7
100
AcDbLine
 10
255.8561986971659
 20
23.82952041633303
 30
0.0
 11
258.6535986971658
 21
22.67082041633284
 31
0.0
  0
LINE
  5
7B6
330
1F
100
AcDbEntity
  8
0
  6
Continuous
 62
     7
100
AcDbLine
 10
186.5635986971659
 20
-2.84677958366706
 30
0.0
 11
186.5635986971659
 21
-5.977379583667016
 31
0.0
  0
LINE
  5
7B7
330
1F
100
AcDbEntity
  8
0
  6
Continuous
 62
     7
100
AcDbLine
 10
137.270898697166
 20
54.54872041633302
 30
0.0
 11
134.4733986971658
 21
55.70742041633298
 31
0.0
  0
LINE
  5
7B8
330
1F
100
AcDbEntity
  8
0
  6
Continuous
 62
     7
100
AcDbLine
 10
181.2040986971659
 20
98.481820416333
 30
0.0
 11
180.0453986971659
 21
101.2792204163329
 31
0.0
  0
LINE
  5
7B9
330
1F
100
AcDbEntity
  8
0
  6
Continuous
 62
     7
100
AcDbLine
 10
121.563498697166
 20
-31.81087958366703
 30
0.0
 11
160.563498697166
 21
-31.81087958366703
 31
0.0
  0
LINE
  5
7BA
330
1F
100
AcDbEntity
  8
0
  6
Continuous
 62
     7
100
AcDbLine
 10
137.270898697166
 20
23.82952041633303
 30
0.0
 11
134.473498697166
 21
22.67082041633284
 31
0.0
  0
LINE
  5
7BB
330
1F
100
AcDbEntity
  8
0
  6
Continuous
 62
     7
100
AcDbLine
 10
229.0634986971658
 20
22.18842041633297
 30
0.0
 11
235.0634986971658
 21
-31.31087958366703
 31
0.0
  0
LINE
  5
7BC
330
1F
100
AcDbEntity
  8
0
  6
Continuous
 62
     7
100
AcDbLine
 10
154.5277986971658
 20
49.18912041633302
 30
0.0
 11
151.3970986971659
 21
49.18912041633302
 31
0.0
  0
LINE
  5
7BD
330
1F
100
AcDbEntity
  8
0
  6
Continuous
 62
     7
100
AcDbLine
 10
143.7764986971659
 20
70.25452041633298
 30
0.0
 11
140.979098697166
 21
71.41322041633294
 31
0.0
  0
LINE
  5
7BE
330
1F
100
AcDbEntity
  8
0
  6
Continuous
 62
     7
100
AcDbLine
 10
143.7764986971659
 20
8.123720416332837
 30
0.0
 11
140.9789986971659
 21
6.964720416332967
 31
0.0
  0
LINE
  5
7BF
330
1F
100
AcDbEntity
  8
0
  6
Continuous
 62
     7
100
AcDbLine
 10
235.0634986971658
 20
24.18912041633304
 30
0.0
 11
232.3850986971659
 21
37.58122041633304
 31
0.0
  0
LINE
  5
7C0
330
1F
100
AcDbEntity
  8
0
  6
Continuous
 62
     7
100
AcDbLine
 10
234.704598697166
 20
-28.1108795836671
 30
0.0
 11
271.563498697166
 21
-28.1108795836671
 31
0.0
  0
LINE
  5
7C1
330
1F
100
AcDbEntity
  8
0
  6
Continuous
 62
     7
100
AcDbLine
 10
271.563498697166
 20
-31.81087958366703
 30
0.0
 11
232.5634986971659
 21
-31.81087958366703
 31
0.0
  0
LINE
  5
7C2
330
1F
100
AcDbEntity
  8
0
  6
Continuous
 62
     7
100
AcDbLine
 10
158.063498697166
 20
-31.31087958366703
 30
0.0
 11
164.063498697166
 21
22.18912041633303
 31
0.0
  0
LINE
  5
7C3
330
1F
100
AcDbEntity
  8
0
  6
Continuous
 62
     7
100
AcDbLine
 10
121.563498697166
 20
-28.1108795836671
 30
0.0
 11
121.563498697166
 21
-31.81087958366703
 31
0.0
  0
LINE
  5
7C4
330
1F
100
AcDbEntity
  8
0
  6
Continuous
 62
     7
100
AcDbLine
 10
230.1634986971659
 20
39.18892041633284
 30
0.0
 11
230.4239986971658
 21
39.18892041633284
 31
0.0
  0
LINE
  5
7C5
330
1F
100
AcDbEntity
  8
0
  6
Continuous
 62
     7
100
AcDbLine
 10
158.3662986971659
 20
-28.6108795836671
 30
0.0
 11
121.563498697166
 21
-28.6108795836671
 31
0.0
  0
LINE
  5
7C6
330
1F
100
AcDbEntity
  8
0
  6
Continuous
 62
     7
100
AcDbLine
 10
271.563498697166
 20
-31.81087958366703
 30
0.0
 11
271.563498697166
 21
-28.1108795836671
 31
0.0
  0
LINE
  5
7C7
330
1F
100
AcDbEntity
  8
0
  6
Continuous
 62
     7
100
AcDbLine
 10
179.6572986971658
 20
-7.879679583666979
 30
0.0
 11
193.6572986971658
 21
-17.87967958366704
 31
0.0
  0
LINE
  5
7C8
330
1F
100
AcDbEntity
  8
0
  6
Continuous
 62
     7
100
AcDbLine
 10
162.963498697166
 20
39.18892041633284
 30
0.0
 11
162.7030986971659
 21
39.18912041633303
 31
0.0
  0
LINE
  5
7C9
330
1F
100
AcDbEntity
  8
0
  6
Continuous
 62
     7
100
AcDbLine
 10
153.123898697166
 20
43.18912041633303
 30
0.0
 11
146.046198697166
 21
43.18912041633303
 31
0.0
  0
LINE
  5
7CA
330
1F
100
AcDbEntity
  8
0
  6
Continuous
 62
     7
100
AcDbLine
 10
163.2024986971659
 20
43.18912041633303
 30
0.0
 11
153.123898697166
 21
43.18912041633303
 31
0.0
  0
LINE
  5
7CB
330
1F
100
AcDbEntity
  8
0
  6
Continuous
 62
     7
100
AcDbLine
 10
231.2664986971658
 20
16.90102041633304
 30
0.0
 11
229.668298697166
 21
16.82462041633289
 31
0.0
  0
LINE
  5
7CC
330
1F
100
AcDbEntity
  8
0
  6
Continuous
 62
     7
100
AcDbLine
 10
154.5278986971659
 20
29.18912041633303
 30
0.0
 11
151.3971986971659
 21
29.18912041633303
 31
0.0
  0
LINE
  5
7CD
330
1F
100
AcDbEntity
  8
0
  6
Continuous
 62
     7
100
AcDbLine
 10
160.263498697166
 20
35.18912041633303
 30
0.0
 11
146.046298697166
 21
35.18912041633303
 31
0.0
  0
LINE
  5
7CE
330
1F
100
AcDbEntity
  8
0
  6
Continuous
 62
    30
100
AcDbLine
 10
183.4634986971659
 20
78.63342041633289
 30
0.0
 11
177.4634986971659
 21
78.63372041633306
 31
0.0
  0
LINE
  5
7CF
330
1F
100
AcDbEntity
  8
0
  6
Continuous
 62
     7
100
AcDbLine
 10
154.476198697166
 20
86.22622041633304
 30
0.0
 11
157.3420986971658
 21
83.37072041633289
 31
0.0
  0
LINE
  5
7D0
330
1F
100
AcDbEntity
  8
0
  6
Continuous
 62
     7
100
AcDbLine
 10
157.3420986971658
 20
83.37072041633289
 30
0.0
 11
156.287898697166
 21
79.46472041633295
 31
0.0
  0
LINE
  5
7D1
330
1F
100
AcDbEntity
  8
0
  6
Continuous
 62
     7
100
AcDbLine
 10
156.287898697166
 20
79.46472041633295
 30
0.0
 11
152.3840986971659
 21
78.41862041633294
 31
0.0
  0
LINE
  5
7D2
330
1F
100
AcDbEntity
  8
0
  6
Continuous
 62
     7
100
AcDbLine
 10
152.3840986971659
 20
78.41862041633294
 30
0.0
 11
149.518098697166
 21
81.27432041633301
 31
0.0
  0
LINE
  5
7D3
330
1F
100
AcDbEntity
  8
0
  6
Continuous
 62
     7
100
AcDbLine
 10
150.5723986971659
 20
85.18012041633301
 30
0.0
 11
154.476198697166
 21
86.22622041633304
 31
0.0
  0
LINE
  5
7D4
330
1F
100
AcDbEntity
  8
0
  6
Continuous
 62
     7
100
AcDbLine
 10
149.518098697166
 20
81.27432041633301
 30
0.0
 11
150.5723986971659
 21
85.18012041633301
 31
0.0
  0
LINE
  5
7D5
330
1F
100
AcDbEntity
  8
0
  6
Continuous
 62
     7
100
AcDbLine
 10
152.3842986971659
 20
-0.04087958366699
 30
0.0
 11
149.5182986971659
 21
-2.89627958366714
 31
0.0
  0
LINE
  5
7D6
330
1F
100
AcDbEntity
  8
0
  6
Continuous
 62
     7
100
AcDbLine
 10
149.5182986971659
 20
-2.89627958366714
 30
0.0
 11
150.5725986971659
 21
-6.802379583667057
 31
0.0
  0
LINE
  5
7D7
330
1F
100
AcDbEntity
  8
0
  6
Continuous
 62
     7
100
AcDbLine
 10
150.5725986971659
 20
-6.802379583667057
 30
0.0
 11
154.476298697166
 21
-7.84827958366714
 31
0.0
  0
LINE
  5
7D8
330
1F
100
AcDbEntity
  8
0
  6
Continuous
 62
     7
100
AcDbLine
 10
154.476298697166
 20
-7.84827958366714
 30
0.0
 11
157.342298697166
 21
-4.992779583667018
 31
0.0
  0
LINE
  5
7D9
330
1F
100
AcDbEntity
  8
0
  6
Continuous
 62
     7
100
AcDbLine
 10
156.287998697166
 20
-1.086779583667069
 30
0.0
 11
152.3842986971659
 21
-0.04087958366699
 31
0.0
  0
LINE
  5
7DA
330
1F
100
AcDbEntity
  8
0
  6
Continuous
 62
     7
100
AcDbLine
 10
157.342298697166
 20
-4.992779583667018
 30
0.0
 11
156.287998697166
 21
-1.086779583667069
 31
0.0
  0
LINE
  5
7DB
330
1F
100
AcDbEntity
  8
0
  6
Continuous
 62
     7
100
AcDbLine
 10
232.5634986971659
 20
-31.81087958366703
 30
0.0
 11
232.5634986971659
 21
-31.31087958366703
 31
0.0
  0
LINE
  5
7DC
330
1F
100
AcDbEntity
  8
0
  6
Continuous
 62
     7
100
AcDbLine
 10
182.5634986971659
 20
1.18912041633303
 30
0.0
 11
196.5634986971657
 21
1.18912041633303
 31
0.0
  0
LINE
  5
7DD
330
1F
100
AcDbEntity
  8
0
  6
Continuous
 62
     7
100
AcDbLine
 10
235.0634986971658
 20
-31.31087958366703
 30
0.0
 11
158.063498697166
 21
-31.31087958366703
 31
0.0
  0
LINE
  5
7DE
330
1F
100
AcDbEntity
  8
0
  6
DASH_CENTER
 62
    30
100
AcDbLine
 10
96.80421791205109
 20
-18.51490498668795
 30
0.0
 11
96.80421791205109
 21
-32.66185418064594
 31
0.0
  0
LINE
  5
7DF
330
1F
100
AcDbEntity
  8
0
  6
DASH_CENTER
 62
    30
100
AcDbLine
 10
103.87769250903
 20
-25.58837958366694
 30
0.0
 11
89.73074331507211
 21
-25.58837958366694
 31
0.0
  0
LINE
  5
7E0
330
1F
100
AcDbEntity
  8
0
  6
Continuous
 62
     7
100
AcDbLine
 10
132.3151067291248
 20
52.43671760076336
 30
0.0
 11
131.854798697166
 21
52.53142041633305
 31
0.0
  0
LINE
  5
7E1
330
1F
100
AcDbEntity
  8
0
  6
Continuous
 62
     7
100
AcDbLine
 10
132.3151485738312
 20
25.94132029444903
 30
0.0
 11
131.854798697166
 21
25.84632041633301
 31
0.0
  0
LINE
  5
7E2
330
1F
100
AcDbEntity
  8
0
  6
Continuous
 62
     7
100
AcDbLine
 10
110.3041179120509
 20
35.98892041633303
 30
0.0
 11
128.463398697166
 21
35.98892041633303
 31
0.0
  0
LINE
  5
7E3
330
1F
100
AcDbEntity
  8
0
  6
Continuous
 62
     7
100
AcDbLine
 10
104.304117912051
 20
26.98892041633303
 30
0.0
 11
104.304117912051
 21
5.215426823362347
 31
0.0
  0
LINE
  5
7E4
330
1F
100
AcDbEntity
  8
0
  6
Continuous
 62
     7
100
AcDbLine
 10
98.30411791205113
 20
3.180995651187688
 30
0.0
 11
98.30411791205113
 21
27.18892041633296
 31
0.0
  0
LINE
  5
7E5
330
1F
100
AcDbEntity
  8
0
  6
Continuous
 62
     7
100
AcDbLine
 10
101.304117912051
 20
26.98892041633303
 30
0.0
 11
101.304117912051
 21
5.215426823362347
 31
0.0
  0
LINE
  5
7E6
330
1F
100
AcDbEntity
  8
0
  6
Continuous
 62
     7
100
AcDbLine
 10
98.30411791205113
 20
-14.48847958366696
 30
0.0
 11
95.30411791205112
 21
-14.48847958366696
 31
0.0
  0
LINE
  5
7E7
330
1F
100
AcDbEntity
  8
0
  6
Continuous
 62
     7
100
AcDbLine
 10
98.30411791205113
 20
3.180995651187688
 30
0.0
 11
98.30411791205113
 21
-14.48847958366696
 31
0.0
  0
LINE
  5
7E8
330
1F
100
AcDbEntity
  8
0
  6
Continuous
 62
     7
100
AcDbLine
 10
110.3041179120509
 20
42.38912041633295
 30
0.0
 11
128.463398697166
 21
42.38912041633295
 31
0.0
  0
LINE
  5
7E9
330
1F
100
AcDbEntity
  8
0
  6
Continuous
 62
     7
100
AcDbLine
 10
110.3041179120509
 20
39.18892041633296
 30
0.0
 11
128.463398697166
 21
39.18892041633296
 31
0.0
  0
LINE
  5
7EA
330
1F
100
AcDbEntity
  8
0
  6
Continuous
 62
     7
100
AcDbLine
 10
98.85401791205111
 20
-14.48847958366696
 30
0.0
 11
98.30411791205113
 21
-14.48847958366696
 31
0.0
  0
LINE
  5
7EB
330
1F
100
AcDbEntity
  8
0
  6
Continuous
 62
     7
100
AcDbLine
 10
95.30411791205112
 20
-14.48847958366696
 30
0.0
 11
94.75421791205116
 21
-14.48847958366696
 31
0.0
  0
LINE
  5
7EC
330
1F
100
AcDbEntity
  8
0
  6
Continuous
 62
     7
100
AcDbLine
 10
95.30411791205112
 20
27.38912041633296
 30
0.0
 11
95.30411791205112
 21
-14.48847958366696
 31
0.0
  0
LINE
  5
7ED
330
1F
100
AcDbEntity
  8
0
  6
Continuous
 62
     7
100
AcDbLine
 10
94.75421791205116
 20
-19.28857958366694
 30
0.0
 11
93.57451791205098
 21
-24.91087958366694
 31
0.0
  0
LINE
  5
7EE
330
1F
100
AcDbEntity
  8
0
  6
Continuous
 62
     7
100
AcDbLine
 10
98.85401791205111
 20
-19.28857958366694
 30
0.0
 11
100.033717912051
 21
-24.91087958366694
 31
0.0
  0
LINE
  5
7EF
330
1F
100
AcDbEntity
  8
0
  6
Continuous
 62
     7
100
AcDbLine
 10
94.75421791205116
 20
-14.48847958366696
 30
0.0
 11
94.75421791205116
 21
-19.28857958366694
 31
0.0
  0
LINE
  5
7F0
330
1F
100
AcDbEntity
  8
0
  6
Continuous
 62
     7
100
AcDbLine
 10
98.85401791205111
 20
-14.48847958366696
 30
0.0
 11
98.85401791205111
 21
-19.28857958366694
 31
0.0
  0
LINE
  5
7F1
330
1F
100
AcDbEntity
  8
0
  6
Continuous
 62
     7
100
AcDbLine
 10
94.75421791205116
 20
-19.28857958366694
 30
0.0
 11
98.85401791205111
 21
-19.28857958366694
 31
0.0
  0
ARC
  5
7F2
330
1F
100
AcDbEntity
  8
0
  6
Continuous
 62
     7
100
AcDbCircle
 10
196.5634696223624
 20
39.18906572385946
 30
0.0
 40
65.60002907473549
100
AcDbArc
 50
304.0094383587834
 51
359.9998730868243
  0
ARC
  5
7F3
330
1F
100
AcDbEntity
  8
0
  6
Continuous
 62
     7
100
AcDbCircle
 10
196.5635188890252
 20
39.18914060826617
 30
0.0
 40
65.5999798080698
100
AcDbArc
 50
90.0000176358028
 51
180.000192318176
  0
ARC
  5
7F4
330
1F
100
AcDbEntity
  8
0
  6
Continuous
 62
     7
100
AcDbCircle
 10
162.5634566683606
 20
22.18888347447947
 30
0.0
 40
1.499947616375129
100
AcDbArc
 50
104.7171535415099
 51
157.9115327286723
  0
ARC
  5
7F5
330
1F
100
AcDbEntity
  8
0
  6
Continuous
 62
     7
100
AcDbCircle
 10
196.565233934332
 20
39.18938697019746
 30
0.0
 40
40.99998742740036
100
AcDbArc
 50
99.15655372418276
 51
100.5428979307015
  0
ARC
  5
7F6
330
1F
100
AcDbEntity
  8
0
  6
Continuous
 62
     7
100
AcDbCircle
 10
196.5637097571834
 20
39.18913581135021
 30
0.0
 40
40.9999670504701
100
AcDbArc
 50
117.7658409312312
 51
170.8460612396891
  0
ARC
  5
7F7
330
1F
100
AcDbEntity
  8
0
  6
Continuous
 62
     7
100
AcDbCircle
 10
196.5643772044946
 20
39.18895058943688
 30
0.0
 40
41.0000183080895
100
AcDbArc
 50
79.46096753998435
 51
80.84701140601115
  0
ARC
  5
7F8
330
1F
100
AcDbEntity
  8
0
  6
Continuous
 62
     7
100
AcDbCircle
 10
196.5633648184769
 20
39.18915970012914
 30
0.0
 40
40.99998577813538
100
AcDbArc
 50
9.153900728883119
 51
72.39564177789877
  0
ARC
  5
7F9
330
1F
100
AcDbEntity
  8
0
  6
Continuous
 62
     7
100
AcDbCircle
 10
207.3634022190578
 20
79.27851657275636
 30
0.0
 40
1.599996478112599
100
AcDbArc
 50
0.00013763824805
 51
84.99828905335418
  0
ARC
  5
7FA
330
1F
100
AcDbEntity
  8
0
  6
Continuous
 62
     7
100
AcDbCircle
 10
207.3634022190578
 20
73.78802425990949
 30
0.0
 40
1.599996478112615
100
AcDbArc
 50
275.0017109466458
 51
359.9998623617518
  0
ARC
  5
7FB
330
1F
100
AcDbEntity
  8
0
  6
Continuous
 62
     7
100
AcDbCircle
 10
186.4634260008605
 20
72.28215730086986
 30
0.0
 40
2.599972696567153
100
AcDbArc
 50
286.9795898295771
 51
359.9991871728876
  0
ARC
  5
7FC
330
1F
100
AcDbEntity
  8
0
  6
Continuous
 62
     7
100
AcDbCircle
 10
206.6634753381248
 20
72.28215196637798
 30
0.0
 40
0.9999766414565771
100
AcDbArc
 50
180.0018077266551
 51
253.0292503423204
  0
ARC
  5
7FD
330
1F
100
AcDbEntity
  8
0
  6
Continuous
 62
     7
100
AcDbCircle
 10
196.5634958859666
 20
39.18911680278271
 30
0.0
 40
33.59997173614853
100
AcDbArc
 50
106.9720355008513
 51
177.2649552235622
  0
ARC
  5
7FE
330
1F
100
AcDbEntity
  8
0
  6
Continuous
 62
     7
100
AcDbCircle
 10
196.5634859404359
 20
39.18913681406078
 30
0.0
 40
33.59998633146396
100
AcDbArc
 50
2.735009424682
 51
73.02776605099343
  0
ARC
  5
7FF
330
1F
100
AcDbEntity
  8
0
  6
Continuous
 62
     7
100
AcDbCircle
 10
160.063490529618
 20
24.18912583362928
 30
0.0
 40
1.999991832459303
100
AcDbArc
 50
180.0001551947396
 51
292.8895338713026
  0
ARC
  5
800
330
1F
100
AcDbEntity
  8
0
  6
Continuous
 62
     7
100
AcDbCircle
 10
162.5634903579319
 20
22.18895899034785
 30
0.0
 40
1.499988204434455
100
AcDbArc
 50
347.1992776531103
 51
37.19855586641071
  0
ARC
  5
801
330
1F
100
AcDbEntity
  8
0
  6
Continuous
 62
     7
100
AcDbCircle
 10
230.5634871198054
 20
22.18886688399979
 30
0.0
 40
1.499948378111948
100
AcDbArc
 50
142.795872273922
 51
192.7974600248434
  0
ARC
  5
802
330
1F
100
AcDbEntity
  8
0
  6
Continuous
 62
     7
100
AcDbCircle
 10
210.563503794623
 20
-3.81089549011116
 30
0.0
 40
5.000015906446781
100
AcDbArc
 50
305.5376029948358
 51
90.00005841236838
  0
ARC
  5
803
330
1F
100
AcDbEntity
  8
0
  6
Continuous
 62
     7
100
AcDbCircle
 10
196.5635483330418
 20
-13.81086367771034
 30
0.0
 40
5.000015906203044
100
AcDbArc
 50
269.9994312165705
 51
305.5369758030286
  0
ARC
  5
804
330
1F
100
AcDbEntity
  8
0
  6
Continuous
 62
     7
100
AcDbCircle
 10
196.5636934278051
 20
39.18914026428353
 30
0.0
 40
40.99998835395664
100
AcDbArc
 50
189.1542669461944
 51
200.5822597548733
  0
ARC
  5
805
330
1F
100
AcDbEntity
  8
0
  6
Continuous
 62
     7
100
AcDbCircle
 10
196.5634585511978
 20
39.18920795042971
 30
0.0
 40
40.99999466980142
100
AcDbArc
 50
324.26127021699
 51
327.0116798324131
  0
ARC
  5
806
330
1F
100
AcDbEntity
  8
0
  6
Continuous
 62
     7
100
AcDbCircle
 10
196.5636922904517
 20
39.1890986303446
 30
0.0
 40
54.000022248648
100
AcDbArc
 50
97.88927213647292
 51
229.3361466895571
  0
ARC
  5
807
330
1F
100
AcDbEntity
  8
0
  6
Continuous
 62
     7
100
AcDbCircle
 10
182.563493599709
 20
-3.81089549011125
 30
0.0
 40
5.000015906446872
100
AcDbArc
 50
89.99994158763128
 51
234.4623970051608
  0
ARC
  5
808
330
1F
100
AcDbEntity
  8
0
  6
Continuous
 62
     7
100
AcDbCircle
 10
196.5636581569318
 20
39.18910362400993
 30
0.0
 40
64.25000886080136
100
AcDbArc
 50
104.8977624479644
 51
120.1022575471311
  0
ARC
  5
809
330
1F
100
AcDbEntity
  8
0
  6
Continuous
 62
     7
100
AcDbCircle
 10
196.5636388431311
 20
39.18920795043426
 30
0.0
 40
40.99999466980158
100
AcDbArc
 50
212.9883201675942
 51
215.7387297830176
  0
ARC
  5
80A
330
1F
100
AcDbEntity
  8
0
  6
Continuous
 62
     7
100
AcDbCircle
 10
196.5638431304864
 20
39.18918024314145
 30
0.0
 40
61.25000118253508
100
AcDbArc
 50
104.5231603732962
 51
120.4772244229942
  0
ARC
  5
80B
330
1F
100
AcDbEntity
  8
0
  6
Continuous
 62
     7
100
AcDbCircle
 10
151.3970929828055
 20
52.18912800713631
 30
0.0
 40
3.000007590808733
100
AcDbArc
 50
163.9447935344714
 51
270.0001091359674
  0
ARC
  5
80C
330
1F
100
AcDbEntity
  8
0
  6
Continuous
 62
     7
100
AcDbCircle
 10
183.5635253267029
 20
84.35540037082345
 30
0.0
 40
2.999973370530037
100
AcDbArc
 50
0.0003828444281
 51
106.0580620603985
  0
ARC
  5
80D
330
1F
100
AcDbEntity
  8
0
  6
Continuous
 62
     7
100
AcDbCircle
 10
196.5633680265893
 20
39.18911198148602
 30
0.0
 40
40.99998695059542
100
AcDbArc
 50
279.1542825815075
 51
291.5997427073238
  0
ARC
  5
80E
330
1F
100
AcDbEntity
  8
0
  6
Continuous
 62
     7
100
AcDbCircle
 10
183.563499321055
 20
81.22476123649526
 30
0.0
 40
2.999999376388763
100
AcDbArc
 50
358.2495165880415
 51
359.9992203921648
  0
ARC
  5
80F
330
1F
100
AcDbEntity
  8
0
  6
Continuous
 62
     7
100
AcDbCircle
 10
196.563687473251
 20
39.18911964235871
 30
0.0
 40
54.00000077430428
100
AcDbArc
 50
90.00020029764414
 51
97.88927013375523
  0
ARC
  5
810
330
1F
100
AcDbEntity
  8
0
  6
Continuous
 62
     7
100
AcDbCircle
 10
196.5634486971659
 20
39.18917041633299
 30
0.0
 40
66.60004403110391
100
AcDbArc
 50
27.524416621618
 51
62.47558337838211
  0
ARC
  5
811
330
1F
100
AcDbEntity
  8
0
  6
Continuous
 62
     7
100
AcDbCircle
 10
196.5633459752634
 20
39.18918063723132
 30
0.0
 40
35.99996555614445
100
AcDbArc
 50
12.24649991095752
 51
70.15618395731154
  0
ARC
  5
812
330
1F
100
AcDbEntity
  8
0
  6
Continuous
 62
     7
100
AcDbCircle
 10
196.5633380746719
 20
39.1891810393586
 30
0.0
 40
49.99999981527638
100
AcDbArc
 50
16.05695647323518
 51
73.94254121787771
  0
ARC
  5
813
330
1F
100
AcDbEntity
  8
0
  6
Continuous
 62
     7
100
AcDbCircle
 10
230.4239179513855
 20
37.18910463164304
 30
0.0
 40
2.000015784782684
100
AcDbArc
 50
11.30936040876938
 51
90.00055158840247
  0
ARC
  5
814
330
1F
100
AcDbEntity
  8
0
  6
Continuous
 62
     7
100
AcDbCircle
 10
241.7298148215508
 20
26.18909899657267
 30
0.0
 40
3.000021419803705
100
AcDbArc
 50
343.943157006218
 51
90.00030795086747
  0
ARC
  5
815
330
1F
100
AcDbEntity
  8
0
  6
Continuous
 62
     7
100
AcDbCircle
 10
247.0807976665089
 20
32.18912159966713
 30
0.0
 40
2.999998816666088
100
AcDbArc
 50
352.1102633129951
 51
89.99998031589315
  0
ARC
  5
816
330
1F
100
AcDbEntity
  8
0
  6
Continuous
 62
     7
100
AcDbCircle
 10
240.0031914053136
 20
32.1891142055303
 30
0.0
 40
3.000006210811577
100
AcDbArc
 50
89.99986073617023
 51
170.8452380926094
  0
ARC
  5
817
330
1F
100
AcDbEntity
  8
0
  6
Continuous
 62
     7
100
AcDbCircle
 10
238.599137009154
 20
26.18914867042175
 30
0.0
 40
2.999971746155915
100
AcDbArc
 50
90.00073171196785
 51
162.8148750971995
  0
ARC
  5
818
330
1F
100
AcDbEntity
  8
0
  6
Continuous
 62
     7
100
AcDbCircle
 10
186.4633928547623
 20
72.28211252302208
 30
0.0
 40
1.000005842434644
100
AcDbArc
 50
286.9839696349846
 51
0.00045225075266
  0
ARC
  5
819
330
1F
100
AcDbEntity
  8
0
  6
Continuous
 62
     7
100
AcDbCircle
 10
206.6635086441737
 20
72.28210698076755
 30
0.0
 40
2.600009947042519
100
AcDbArc
 50
179.9997039237523
 51
253.0290187801525
  0
ARC
  5
81A
330
1F
100
AcDbEntity
  8
0
  6
Continuous
 62
     7
100
AcDbCircle
 10
196.5638837468885
 20
39.18877566265963
 30
0.0
 40
40.99999533977896
100
AcDbArc
 50
204.1615696714162
 51
212.288611919609
  0
ARC
  5
81B
330
1F
100
AcDbEntity
  8
0
  6
Continuous
 62
     7
100
AcDbCircle
 10
226.8951135495358
 20
52.18916808690559
 30
0.0
 40
3.00004381759783
100
AcDbArc
 50
302.1917166264571
 51
23.19811620908548
  0
ARC
  5
81C
330
1F
100
AcDbEntity
  8
0
  6
Continuous
 62
     7
100
AcDbCircle
 10
228.8125778338426
 20
46.18908159729701
 30
0.0
 40
2.999985718808945
100
AcDbArc
 50
291.2420477806398
 51
12.24626391578193
  0
ARC
  5
81D
330
1F
100
AcDbEntity
  8
0
  6
Continuous
 62
     7
100
AcDbCircle
 10
247.08089168919
 20
46.18911237046178
 30
0.0
 40
2.999991954136929
100
AcDbArc
 50
270.0001338428376
 51
7.887959055478429
  0
ARC
  5
81E
330
1F
100
AcDbEntity
  8
0
  6
Continuous
 62
     7
100
AcDbCircle
 10
240.0031914062529
 20
46.18912662654546
 30
0.0
 40
3.000006211644898
100
AcDbArc
 50
189.1547618934069
 51
269.9982293905295
  0
ARC
  5
81F
330
1F
100
AcDbEntity
  8
0
  6
Continuous
 62
     7
100
AcDbCircle
 10
238.5992722359053
 20
52.18893993013911
 30
0.0
 40
3.000019513922963
100
AcDbArc
 50
197.1857976884844
 51
270.0005053695615
  0
ARC
  5
820
330
1F
100
AcDbEntity
  8
0
  6
Continuous
 62
     7
100
AcDbCircle
 10
241.7299682405261
 20
52.18907995714475
 30
0.0
 40
2.999959540966318
100
AcDbArc
 50
270.0005816868201
 51
16.05642551845497
  0
ARC
  5
821
330
1F
100
AcDbEntity
  8
0
  6
Continuous
 62
     7
100
AcDbCircle
 10
230.5636184543893
 20
22.18881516434565
 30
0.0
 40
1.499993941514475
100
AcDbArc
 50
22.09056512698476
 51
75.2863809464212
  0
ARC
  5
822
330
1F
100
AcDbEntity
  8
0
  6
Continuous
 62
     7
100
AcDbCircle
 10
203.5634906512948
 20
-11.32817257569116
 30
0.0
 40
2.999991954136929
100
AcDbArc
 50
180.0001338428376
 51
277.8879590554769
  0
ARC
  5
823
330
1F
100
AcDbEntity
  8
0
  6
Continuous
 62
     7
100
AcDbCircle
 10
203.5635049079688
 20
-4.250572291814847
 30
0.0
 40
3.000006210811633
100
AcDbArc
 50
99.15476190739337
 51
180.0001392638314
  0
ARC
  5
824
330
1F
100
AcDbEntity
  8
0
  6
Continuous
 62
     7
100
AcDbCircle
 10
209.5635182109723
 20
-2.84675312240649
 30
0.0
 40
3.000019513923043
100
AcDbArc
 50
107.1857976884904
 51
180.0005053695629
  0
ARC
  5
825
330
1F
100
AcDbEntity
  8
0
  6
Continuous
 62
     7
100
AcDbCircle
 10
209.5635201169264
 20
-5.97739570805191
 30
0.0
 40
3.000021419803732
100
AcDbArc
 50
179.9996920491315
 51
286.0568429937791
  0
ARC
  5
826
330
1F
100
AcDbEntity
  8
0
  6
Continuous
 62
     7
100
AcDbCircle
 10
196.563470457957
 20
39.18914363990497
 30
0.0
 40
50.00001611369061
100
AcDbArc
 50
286.0571763038521
 51
289.8085582551268
  0
ARC
  5
827
330
1F
100
AcDbEntity
  8
0
  6
Continuous
 62
     7
100
AcDbCircle
 10
203.5634862844597
 20
71.43809885676606
 30
0.0
 40
2.999987587371176
100
AcDbArc
 50
120.1388959212809
 51
179.9995882408978
  0
ARC
  5
828
330
1F
100
AcDbEntity
  8
0
  6
Continuous
 62
     7
100
AcDbCircle
 10
196.5634986971657
 20
39.18912041633303
 30
0.0
 40
65.6000000000758
100
AcDbArc
 50
359.9998253177453
 51
89.99991265887279
  0
ARC
  5
829
330
1F
100
AcDbEntity
  8
0
  6
Continuous
 62
     7
100
AcDbCircle
 10
203.5635049079688
 20
82.62861312448071
 30
0.0
 40
3.000006210811641
100
AcDbArc
 50
179.9998607361685
 51
260.8452380926065
  0
ARC
  5
82A
330
1F
100
AcDbEntity
  8
0
  6
Continuous
 62
     7
100
AcDbCircle
 10
196.5634099210809
 20
39.18911964235872
 30
0.0
 40
54.00000077430428
100
AcDbArc
 50
82.11072986624474
 51
89.9997997023558
  0
ARC
  5
82B
330
1F
100
AcDbEntity
  8
0
  6
Continuous
 62
     7
100
AcDbCircle
 10
209.5635538437444
 20
69.52043759396217
 30
0.0
 40
2.999986214412431
100
AcDbArc
 50
66.79948976387106
 51
147.8031295150964
  0
ARC
  5
82C
330
1F
100
AcDbEntity
  8
0
  6
Continuous
 62
     7
100
AcDbCircle
 10
209.5635720676289
 20
84.35540037082345
 30
0.0
 40
2.999973370530029
100
AcDbArc
 50
73.9419379396011
 51
179.9996171555716
  0
ARC
  5
82D
330
1F
100
AcDbEntity
  8
0
  6
Continuous
 62
     7
100
AcDbCircle
 10
209.5634994679029
 20
81.22470340999319
 30
0.0
 40
3.000000770785048
100
AcDbArc
 50
179.9996752029193
 51
185.1901271704861
  0
ARC
  5
82E
330
1F
100
AcDbEntity
  8
0
  6
Continuous
 62
     7
100
AcDbCircle
 10
189.5635998804999
 20
-11.32817855300991
 30
0.0
 40
2.999998816666078
100
AcDbArc
 50
262.1102633129942
 51
359.9999803158928
  0
ARC
  5
82F
330
1F
100
AcDbEntity
  8
0
  6
Continuous
 62
     7
100
AcDbCircle
 10
196.5636890134476
 20
39.18913646637927
 30
0.0
 40
50.0000087784957
100
AcDbArc
 50
196.0572834320895
 51
226.1516747936048
  0
ARC
  5
830
330
1F
100
AcDbEntity
  8
0
  6
Continuous
 62
     7
100
AcDbCircle
 10
196.5634392373999
 20
39.18910362401002
 30
0.0
 40
64.25000886080136
100
AcDbArc
 50
59.89774245286859
 51
75.10223755203537
  0
ARC
  5
831
330
1F
100
AcDbEntity
  8
0
  6
Continuous
 62
     7
100
AcDbCircle
 10
196.5632542638454
 20
39.18918024314145
 30
0.0
 40
61.2500011825351
100
AcDbArc
 50
59.52277557700565
 51
75.47683962670369
  0
ARC
  5
832
330
1F
100
AcDbEntity
  8
0
  6
Continuous
 62
     7
100
AcDbCircle
 10
196.563417260194
 20
39.189075601241
 30
0.0
 40
64.24997092880757
100
AcDbArc
 50
14.89775793321231
 51
30.10226206188239
  0
ARC
  5
833
330
1F
100
AcDbEntity
  8
0
  6
Continuous
 62
     7
100
AcDbCircle
 10
196.5634938795508
 20
39.18889062791103
 30
0.0
 40
61.2499632841778
100
AcDbArc
 50
14.52315540537461
 51
30.47722939091587
  0
ARC
  5
834
330
1F
100
AcDbEntity
  8
0
  6
Continuous
 62
     7
100
AcDbCircle
 10
196.5633447211819
 20
39.18899010601514
 30
0.0
 40
64.24999600591495
100
AcDbArc
 50
329.8978283405531
 51
345.1024096185488
  0
ARC
  5
835
330
1F
100
AcDbEntity
  8
0
  6
Continuous
 62
     7
100
AcDbCircle
 10
196.5633250513954
 20
39.18894261867065
 30
0.0
 40
61.24995278008761
100
AcDbArc
 50
329.5230986836681
 51
345.4771392754336
  0
ARC
  5
836
330
1F
100
AcDbEntity
  8
0
  6
Continuous
 62
     7
100
AcDbCircle
 10
196.5635629400301
 20
39.18906763554193
 30
0.0
 40
65.59996743545759
100
AcDbArc
 50
225.1976821469717
 51
235.9904882605801
  0
ARC
  5
837
330
1F
100
AcDbEntity
  8
0
  6
Continuous
 62
     7
100
AcDbCircle
 10
203.5635043779804
 20
89.70642536404772
 30
0.0
 40
3.000005680818428
100
AcDbArc
 50
82.1084857173289
 51
180.0000944942116
  0
ARC
  5
838
330
1F
100
AcDbEntity
  8
0
  6
Continuous
 62
     7
100
AcDbCircle
 10
189.5636004405016
 20
-4.250581630365899
 30
0.0
 40
2.999998256664997
100
AcDbArc
 50
0.00003908909037
 51
80.84730197982329
  0
ARC
  5
839
330
1F
100
AcDbEntity
  8
0
  6
DASH_CENTER
 62
    30
100
AcDbCircle
 10
196.5634584019596
 20
39.18916074906611
 30
0.0
 40
61.00003174529289
100
AcDbArc
 50
39.68596542986956
 51
50.26069996992561
  0
ARC
  5
83A
330
1F
100
AcDbEntity
  8
0
  6
Continuous
 62
     7
100
AcDbCircle
 10
189.5635026063532
 20
71.43811362945891
 30
0.0
 40
2.999996090820475
100
AcDbArc
 50
0.00012961991724
 51
59.88309228490528
  0
ARC
  5
83B
330
1F
100
AcDbEntity
  8
0
  6
Continuous
 62
     7
100
AcDbCircle
 10
183.5635791833594
 20
-2.84675312240649
 30
0.0
 40
3.000019513923035
100
AcDbArc
 50
359.9994946304367
 51
72.81420231151013
  0
ARC
  5
83C
330
1F
100
AcDbEntity
  8
0
  6
Continuous
 62
     7
100
AcDbCircle
 10
196.5636877677995
 20
39.18909403052186
 30
0.0
 40
61.25001891472503
100
AcDbArc
 50
149.5230220097992
 51
165.4769579951054
  0
ARC
  5
83D
330
1F
100
AcDbEntity
  8
0
  6
Continuous
 62
     7
100
AcDbCircle
 10
183.5635772774055
 20
-5.977395708051906
 30
0.0
 40
3.000021419803743
100
AcDbArc
 50
253.9431570062203
 51
0.0003079508683225
  0
ARC
  5
83E
330
1F
100
AcDbEntity
  8
0
  6
Continuous
 62
     7
100
AcDbCircle
 10
189.5634924869533
 20
82.62861312541994
 30
0.0
 40
3.000006211644961
100
AcDbArc
 50
279.1547618934071
 51
359.9982293905311
  0
ARC
  5
83F
330
1F
100
AcDbEntity
  8
0
  6
Continuous
 62
     7
100
AcDbCircle
 10
196.5637526731493
 20
39.1889901060165
 30
0.0
 40
64.24999600591513
100
AcDbArc
 50
194.8975903814523
 51
210.1021716594482
  0
ARC
  5
840
330
1F
100
AcDbEntity
  8
0
  6
Continuous
 62
     7
100
AcDbCircle
 10
196.5637805069306
 20
39.18912041582465
 30
0.0
 40
53.99999422688228
100
AcDbArc
 50
261.4302879348059
 51
278.5689999935153
  0
ARC
  5
841
330
1F
100
AcDbEntity
  8
0
  6
Continuous
 62
     7
100
AcDbCircle
 10
189.5634998805
 20
89.70641938567585
 30
0.0
 40
2.999998816665971
100
AcDbArc
 50
0.00001968410874
 51
97.88973668700776
  0
ARC
  5
842
330
1F
100
AcDbEntity
  8
0
  6
Continuous
 62
     7
100
AcDbCircle
 10
196.5640092486038
 20
39.18901991066747
 30
0.0
 40
50.00000295943454
100
AcDbArc
 50
250.1907270672394
 51
253.9423634737508
  0
ARC
  5
843
330
1F
100
AcDbEntity
  8
0
  6
Continuous
 62
     7
100
AcDbCircle
 10
196.5637526731492
 20
39.18925072664936
 30
0.0
 40
64.24999600591504
100
AcDbArc
 50
149.8978283405518
 51
165.1024096185476
  0
ARC
  5
844
330
1F
100
AcDbEntity
  8
0
  6
Continuous
 62
     7
100
AcDbCircle
 10
196.5634773054929
 20
39.1892507028447
 30
0.0
 40
49.99997414071176
100
AcDbArc
 50
313.8480949208898
 51
343.9425689234511
  0
ARC
  5
845
330
1F
100
AcDbEntity
  8
0
  6
DASH_CENTER
 62
    30
100
AcDbCircle
 10
196.5636034809934
 20
39.18871582047032
 30
0.0
 40
61.00006367366507
100
AcDbArc
 50
219.7389759677093
 51
230.313638225679
  0
ARC
  5
846
330
1F
100
AcDbEntity
  8
0
  6
DASH_CENTER
 62
    30
100
AcDbCircle
 10
196.563638992372
 20
39.1891607490661
 30
0.0
 40
61.00003174529292
100
AcDbArc
 50
129.7393000300744
 51
140.3140345701304
  0
ARC
  5
847
330
1F
100
AcDbEntity
  8
0
  6
Continuous
 62
     7
100
AcDbCircle
 10
196.5636388703575
 20
39.18926484965302
 30
0.0
 40
61.25000118253519
100
AcDbArc
 50
194.5231603732958
 51
210.4772244229939
  0
ARC
  5
848
330
1F
100
AcDbEntity
  8
0
  6
Continuous
 62
     7
100
AcDbCircle
 10
196.5636363992177
 20
39.18913754915921
 30
0.0
 40
41.00001331128853
100
AcDbArc
 50
248.4002613093455
 51
260.8457134018235
  0
ARC
  5
849
330
1F
100
AcDbEntity
  8
0
  6
Continuous
 62
     7
100
AcDbCircle
 10
196.56344906129
 20
-13.81086367771025
 30
0.0
 40
5.000015906203131
100
AcDbArc
 50
234.4630241969714
 51
270.0005687834325
  0
ARC
  5
84A
330
1F
100
AcDbEntity
  8
0
  6
Continuous
 62
     7
100
AcDbCircle
 10
196.5633950201824
 20
39.18913291993593
 30
0.0
 40
53.99998966768258
100
AcDbArc
 50
310.6637572345308
 51
82.11071227184078
  0
ARC
  5
84B
330
1F
100
AcDbEntity
  8
0
  6
DASH_CENTER
 62
    30
100
AcDbCircle
 10
196.5637390298986
 20
39.18896071153877
 30
0.0
 40
61.00003174529287
100
AcDbArc
 50
309.6859654298703
 51
320.2606999699261
  0
ARC
  5
84C
330
1F
100
AcDbEntity
  8
0
  6
Continuous
 62
     7
100
AcDbCircle
 10
154.5277603851776
 20
52.18889216224422
 30
0.0
 40
2.999971746156017
100
AcDbArc
 50
270.0007317119651
 51
342.8148750971978
  0
ARC
  5
84D
330
1F
100
AcDbEntity
  8
0
  6
Continuous
 62
     7
100
AcDbCircle
 10
153.1239059890179
 20
46.18912662713568
 30
0.0
 40
3.000006210811521
100
AcDbArc
 50
269.9998607361711
 51
350.8452380926101
  0
ARC
  5
84E
330
1F
100
AcDbEntity
  8
0
  6
Continuous
 62
     7
100
AcDbCircle
 10
146.0462057051416
 20
46.18911237046178
 30
0.0
 40
2.999991954136964
100
AcDbArc
 50
172.1120409445218
 51
269.9998661571624
  0
ARC
  5
84F
330
1F
100
AcDbEntity
  8
0
  6
Continuous
 62
     7
100
AcDbCircle
 10
164.3144839435175
 20
46.18914786600366
 30
0.0
 40
3.000034581305488
100
AcDbArc
 50
167.7552337270014
 51
248.7590447764846
  0
ARC
  5
850
330
1F
100
AcDbEntity
  8
0
  6
Continuous
 62
     7
100
AcDbCircle
 10
166.2319048920834
 20
52.18910053124144
 30
0.0
 40
2.999997860760288
100
AcDbArc
 50
156.800103914022
 51
237.8072558257565
  0
ARC
  5
851
330
1F
100
AcDbEntity
  8
0
  6
Continuous
 62
     7
100
AcDbCircle
 10
196.5634793026451
 20
39.18942402004404
 30
0.0
 40
40.99995912200784
100
AcDbArc
 50
339.4171520547926
 51
350.8453248179102
  0
ARC
  5
852
330
1F
100
AcDbEntity
  8
0
  6
Continuous
 62
     7
100
AcDbCircle
 10
196.5633174853889
 20
39.18896911869178
 30
0.0
 40
40.99997978286707
100
AcDbArc
 50
327.7108892360011
 51
335.8381242707031
  0
ARC
  5
853
330
1F
100
AcDbEntity
  8
0
  6
Continuous
 62
     7
100
AcDbCircle
 10
233.063526311465
 20
24.18913873275103
 30
0.0
 40
1.999972385784854
100
AcDbArc
 50
247.1127358575245
 51
359.9994752660314
  0
ARC
  5
854
330
1F
100
AcDbEntity
  8
0
  6
Continuous
 62
     7
100
AcDbCircle
 10
162.7030794429463
 20
37.18910463164303
 30
0.0
 40
2.000015784782692
100
AcDbArc
 50
89.99944841159672
 51
168.69063959123
  0
ARC
  5
855
330
1F
100
AcDbEntity
  8
0
  6
Continuous
 62
     7
100
AcDbCircle
 10
154.5279251584263
 20
26.18910090252669
 30
0.0
 40
3.000019513923031
100
AcDbArc
 50
17.18579768848498
 51
90.00050536956274
  0
ARC
  5
856
330
1F
100
AcDbEntity
  8
0
  6
Continuous
 62
     7
100
AcDbCircle
 10
153.1239059890179
 20
32.18911420553038
 30
0.0
 40
3.000006210811517
100
AcDbArc
 50
9.154761907389632
 51
90.00013926382868
  0
ARC
  5
857
330
1F
100
AcDbEntity
  8
0
  6
Continuous
 62
     7
100
AcDbCircle
 10
146.0462997278229
 20
32.18912159966711
 30
0.0
 40
2.99999881666609
100
AcDbArc
 50
90.00001968410686
 51
187.8897366870047
  0
ARC
  5
858
330
1F
100
AcDbEntity
  8
0
  6
Continuous
 62
     7
100
AcDbCircle
 10
151.3972825735629
 20
26.18909899686859
 30
0.0
 40
3.00002142063697
100
AcDbArc
 50
90.00160190974707
 51
196.0568429950825
  0
ARC
  5
859
330
1F
100
AcDbEntity
  8
0
  6
Continuous
 62
     7
100
AcDbCircle
 10
196.5636189048689
 20
39.18904062380303
 30
0.0
 40
49.99999981532258
100
AcDbArc
 50
106.0572913461264
 51
163.9428760901693
  0
ARC
  5
85A
330
1F
100
AcDbEntity
  8
0
  6
Continuous
 62
     7
100
AcDbCircle
 10
196.5636518426373
 20
39.18906546667397
 30
0.0
 40
35.99999039999563
100
AcDbArc
 50
111.3394866656399
 51
167.7533211035094
  0
ARC
  5
85B
330
1F
100
AcDbEntity
  8
0
  6
Continuous
 62
     7
100
AcDbCircle
 10
196.5634986971657
 20
39.18912041633303
 30
0.0
 40
65.59995961614596
100
AcDbArc
 50
180.0001746823623
 51
225.1977544442381
  0
ARC
  5
85C
330
1F
100
AcDbEntity
  8
0
  6
Continuous
 62
     7
100
AcDbCircle
 10
110.3041179120509
 20
26.98892041633303
 30
0.0
 40
9.0
100
AcDbArc
 50
90.0
 51
180.0
  0
ARC
  5
85D
330
1F
100
AcDbEntity
  8
0
  6
Continuous
 62
   171
100
AcDbCircle
 10
102.0541179120509
 20
6.514464929039039
 30
0.0
 40
1.500000000000025
100
AcDbArc
 50
240.0000000000004
 51
299.9999999999994
  0
ARC
  5
85E
330
1F
100
AcDbEntity
  8
0
  6
Continuous
 62
   171
100
AcDbCircle
 10
103.554117912051
 20
6.514464929039039
 30
0.0
 40
1.500000000000025
100
AcDbArc
 50
240.0000000000004
 51
299.9999999999994
  0
ARC
  5
85F
330
1F
100
AcDbEntity
  8
0
  6
Continuous
 62
   171
100
AcDbCircle
 10
102.0541179120509
 20
3.91638871768578
 30
0.0
 40
1.499999999999926
100
AcDbArc
 50
59.99999999999838
 51
120.0000000000016
  0
ARC
  5
860
330
1F
100
AcDbEntity
  8
0
  6
Continuous
 62
   171
100
AcDbCircle
 10
99.05411791205112
 20
6.514464929039039
 30
0.0
 40
1.500000000000025
100
AcDbArc
 50
240.0000000000004
 51
299.9999999999994
  0
ARC
  5
861
330
1F
100
AcDbEntity
  8
0
  6
Continuous
 62
   171
100
AcDbCircle
 10
100.5541179120509
 20
6.514464929039039
 30
0.0
 40
1.50000000000001
100
AcDbArc
 50
240.0000000000014
 51
299.9999999999994
  0
ARC
  5
862
330
1F
100
AcDbEntity
  8
0
  6
Continuous
 62
   171
100
AcDbCircle
 10
99.05411791205112
 20
3.91638871768578
 30
0.0
 40
1.499999999999926
100
AcDbArc
 50
59.99999999999838
 51
120.0000000000016
  0
ARC
  5
863
330
1F
100
AcDbEntity
  8
0
  6
Continuous
 62
     7
100
AcDbCircle
 10
96.80420742113856
 20
-25.58837958350453
 30
0.0
 40
3.300026002153602
100
AcDbArc
 50
168.1493079358875
 51
11.84891803619968
  0
ARC
  5
864
330
1F
100
AcDbEntity
  8
0
  6
Continuous
 62
     7
100
AcDbCircle
 10
196.5632986971659
 20
39.18912041633303
 30
0.0
 40
68.10001821945426
100
AcDbArc
 50
170.0830676042466
 51
189.9169323957533
  0
ARC
  5
865
330
1F
100
AcDbEntity
  8
0
  6
Continuous
 62
     7
100
AcDbCircle
 10
131.4509071065655
 20
50.57262613465393
 30
0.0
 40
2.000000863723943
100
AcDbArc
 50
78.34923814445445
 51
170.081505978321
  0
ARC
  5
866
330
1F
100
AcDbEntity
  8
0
  6
Continuous
 62
     7
100
AcDbCircle
 10
131.4509170274698
 20
27.80530795110853
 30
0.0
 40
1.999992252362157
100
AcDbArc
 50
189.9154326880845
 51
281.6505225303481
  0
CIRCLE
  5
867
330
1F
100
AcDbEntity
  8
0
  6
Continuous
 62
     7
100
AcDbCircle
 10
196.5634986971657
 20
39.18912041633303
 30
0.0
 40
5.999954777710995
  0
CIRCLE
  5
868
330
1F
100
AcDbEntity
  8
0
  6
Continuous
 62
     7
100
AcDbCircle
 10
196.5634986971657
 20
39.18912041633303
 30
0.0
 40
7.749999644515981
  0
CIRCLE
  5
869
330
1F
100
AcDbEntity
  8
0
  6
Continuous
 62
     7
100
AcDbCircle
 10
196.5634986971657
 20
39.18912041633303
 30
0.0
 40
7.500030347272002
  0
CIRCLE
  5
86A
330
1F
100
AcDbEntity
  8
0
  6
Continuous
 62
     7
100
AcDbCircle
 10
196.5634986971657
 20
39.18912041633303
 30
0.0
 40
6.999954777710995
  0
CIRCLE
  5
86B
330
1F
100
AcDbEntity
  8
0
  6
Continuous
 62
     7
100
AcDbCircle
 10
196.5634986971657
 20
39.18912041633303
 30
0.0
 40
32.0
  0
CIRCLE
  5
86C
330
1F
100
AcDbEntity
  8
0
  6
Continuous
 62
     7
100
AcDbCircle
 10
196.5634986971657
 20
39.18912041633303
 30
0.0
 40
31.0
  0
CIRCLE
  5
86D
330
1F
100
AcDbEntity
  8
0
  6
Continuous
 62
    30
100
AcDbCircle
 10
239.6967986971659
 20
-3.944379583667107
 30
0.0
 40
1.649937604880953
  0
CIRCLE
  5
86E
330
1F
100
AcDbEntity
  8
0
  6
Continuous
 62
     7
100
AcDbCircle
 10
239.6967986971659
 20
-3.944379583667107
 30
0.0
 40
3.49996961415397
  0
CIRCLE
  5
86F
330
1F
100
AcDbEntity
  8
0
  6
Continuous
 62
     7
100
AcDbCircle
 10
239.6967986971659
 20
-3.944379583667107
 30
0.0
 40
1.999940249107495
  0
CIRCLE
  5
870
330
1F
100
AcDbEntity
  8
0
  6
Continuous
 62
    30
100
AcDbCircle
 10
239.6968986971659
 20
82.32242041633298
 30
0.0
 40
1.650034196615235
  0
CIRCLE
  5
871
330
1F
100
AcDbEntity
  8
0
  6
Continuous
 62
     7
100
AcDbCircle
 10
239.6968986971659
 20
82.32242041633298
 30
0.0
 40
3.499969614153751
  0
CIRCLE
  5
872
330
1F
100
AcDbEntity
  8
0
  6
Continuous
 62
     7
100
AcDbCircle
 10
239.6968986971659
 20
82.32242041633298
 30
0.0
 40
2.00003684216073
  0
CIRCLE
  5
873
330
1F
100
AcDbEntity
  8
0
  6
Continuous
 62
     7
100
AcDbCircle
 10
196.5634986971657
 20
39.18912041633303
 30
0.0
 40
20.04999999999989
  0
CIRCLE
  5
874
330
1F
100
AcDbEntity
  8
0
  6
Continuous
 62
     7
100
AcDbCircle
 10
153.4301986971659
 20
82.32242041633298
 30
0.0
 40
2.00006272401649
  0
CIRCLE
  5
875
330
1F
100
AcDbEntity
  8
0
  6
Continuous
 62
     7
100
AcDbCircle
 10
153.4301986971659
 20
82.32242041633298
 30
0.0
 40
3.499969614153751
  0
CIRCLE
  5
876
330
1F
100
AcDbEntity
  8
0
  6
Continuous
 62
    30
100
AcDbCircle
 10
153.4301986971659
 20
82.32242041633298
 30
0.0
 40
1.650034196615228
  0
CIRCLE
  5
877
330
1F
100
AcDbEntity
  8
0
  6
Continuous
 62
     7
100
AcDbCircle
 10
153.430298697166
 20
-3.944379583667107
 30
0.0
 40
1.999940249107495
  0
CIRCLE
  5
878
330
1F
100
AcDbEntity
  8
0
  6
Continuous
 62
     7
100
AcDbCircle
 10
153.430298697166
 20
-3.944379583667107
 30
0.0
 40
3.499943732405006
  0
CIRCLE
  5
879
330
1F
100
AcDbEntity
  8
0
  6
Continuous
 62
    30
100
AcDbCircle
 10
153.430298697166
 20
-3.944379583667107
 30
0.0
 40
1.649911721880996
  0
CIRCLE
  5
87A
330
1F
100
AcDbEntity
  8
0
  6
Continuous
 62
     7
100
AcDbCircle
 10
96.80421791205109
 20
-25.58837958366694
 30
0.0
 40
2.15000000000009
  0
ARC
  5
87B
330
1F
100
AcDbEntity
  8
0
  6
Continuous
 62
     7
100
AcDbCircle
 10
113.3041179120509
 20
26.98892041633303
 30
0.0
 40
9.0
100
AcDbArc
 50
90.0
 51
180.0
  0
ARC
  5
87C
330
1F
100
AcDbEntity
  8
0
  6
Continuous
 62
     7
100
AcDbCircle
 10
110.3041179120509
 20
27.18892041633296
 30
0.0
 40
12.0
100
AcDbArc
 50
90.0
 51
180.0
  0
ARC
  5
87D
330
1F
100
AcDbEntity
  8
0
  6
Continuous
 62
     7
100
AcDbCircle
 10
110.3041179120509
 20
27.38912041633296
 30
0.0
 40
15.0
100
AcDbArc
 50
90.0
 51
180.0
  0
LINE
  5
965
330
1F
100
AcDbEntity
  8
0
  6
Continuous
 62
     7
100
AcDbLine
 10
-8.485881762958058
 20
45.18916563862194
 30
0.0
 11
-15.69665820394806
 21
45.18916563862194
 31
0.0
  0
LINE
  5
966
330
1F
100
AcDbEntity
  8
0
  6
DASH_CENTER
 62
    30
100
AcDbLine
 10
-12.09126998345317
 20
53.48101799152686
 30
0.0
 11
-12.09126998345317
 21
24.89722284113895
 31
0.0
  0
LINE
  5
967
330
1F
100
AcDbEntity
  8
0
  6
DASH_CENTER
 62
    30
100
AcDbLine
 10
2.2006275917409
 20
39.18912041633303
 30
0.0
 11
-26.38316755864702
 21
39.18912041633303
 31
0.0
  0
ARC
  5
968
330
1F
100
AcDbEntity
  8
0
  6
Continuous
 62
     7
100
AcDbCircle
 10
-12.09126998345317
 20
39.18912041633303
 30
0.0
 40
6.999954777710847
100
AcDbArc
 50
90.0
 51
180.0
  0
ARC
  5
969
330
1F
100
AcDbEntity
  8
0
  6
Continuous
 62
     7
100
AcDbCircle
 10
-12.09126998345317
 20
39.18912041633303
 30
0.0
 40
6.999954777711081
100
AcDbArc
 50
0.0
 51
90.0
  0
ARC
  5
96A
330
1F
100
AcDbEntity
  8
0
  6
Continuous
 62
     7
100
AcDbCircle
 10
-12.09126998345317
 20
39.18912041633303
 30
0.0
 40
6.999954777710859
100
AcDbArc
 50
180.0
 51
0.0
  0
LINE
  5
9ED
330
1F
100
AcDbEntity
  8
0
  6
DASH_CENTER
 62
    30
100
AcDbLine
 10
252.5634986971659
 20
-110.6482095440988
 30
0.0
 11
252.5634986971659
 21
-90.50135314355296
 31
0.0
  0
LINE
  5
9EE
330
1F
100
AcDbEntity
  8
0
  6
DASH_CENTER
 62
    30
100
AcDbLine
 10
269.9768972843568
 20
-100.5747813438259
 30
0.0
 11
235.1501001099749
 21
-100.5747813438259
 31
0.0
  0
LINE
  5
9EF
330
1F
100
AcDbEntity
  8
0
  6
Continuous
 62
     7
100
AcDbLine
 10
243.5634986971658
 20
-96.07478134382597
 30
0.0
 11
261.5634986971659
 21
-96.07478134382597
 31
0.0
  0
LINE
  5
9F0
330
1F
100
AcDbEntity
  8
0
  6
Continuous
 62
     7
100
AcDbLine
 10
243.5634986971658
 20
-105.0747813438259
 30
0.0
 11
261.5634986971659
 21
-105.0747813438259
 31
0.0
  0
LINE
  5
9F1
330
1F
100
AcDbEntity
  8
0
  6
Continuous
 62
     7
100
AcDbLine
 10
235.0634986971658
 20
-81.23788134382596
 30
0.0
 11
235.0634986971658
 21
-82.57478134382598
 31
0.0
  0
LINE
  5
9F2
330
1F
100
AcDbEntity
  8
0
  6
Continuous
 62
     7
100
AcDbLine
 10
235.5634986971658
 20
-113.5747813438259
 30
0.0
 11
268.5634986971659
 21
-113.5747813438259
 31
0.0
  0
LINE
  5
9F3
330
1F
100
AcDbEntity
  8
0
  6
Continuous
 62
     7
100
AcDbLine
 10
271.563498697166
 20
-97.57478134382598
 30
0.0
 11
271.563498697166
 21
-116.4182813438258
 31
0.0
  0
LINE
  5
9F4
330
1F
100
AcDbEntity
  8
0
  6
Continuous
 62
     7
100
AcDbLine
 10
232.5634986971659
 20
-90.57478134382597
 30
0.0
 11
232.5634986971659
 21
-110.5747813438259
 31
0.0
  0
LINE
  5
9F5
330
1F
100
AcDbEntity
  8
0
  6
Continuous
 62
     7
100
AcDbLine
 10
235.5634986971658
 20
-87.57478134382598
 30
0.0
 11
261.563898697166
 21
-87.57478134382598
 31
0.0
  0
ARC
  5
9F6
330
1F
100
AcDbEntity
  8
0
  6
Continuous
 62
     7
100
AcDbCircle
 10
243.5634986971658
 20
-100.5747813438259
 30
0.0
 40
4.5
100
AcDbArc
 50
90.0
 51
180.0
  0
ARC
  5
9F7
330
1F
100
AcDbEntity
  8
0
  6
Continuous
 62
     7
100
AcDbCircle
 10
261.5634986971659
 20
-100.5747813438259
 30
0.0
 40
4.5
100
AcDbArc
 50
270.0
 51
0.0
  0
ARC
  5
9F8
330
1F
100
AcDbEntity
  8
0
  6
Continuous
 62
     7
100
AcDbCircle
 10
268.5634986979994
 20
-110.5745813429925
 30
0.0
 40
3.000000000833352
100
AcDbArc
 50
269.9999999840836
 51
359.9980901247671
  0
ARC
  5
9F9
330
1F
100
AcDbEntity
  8
0
  6
Continuous
 62
     7
100
AcDbCircle
 10
235.5634986963325
 20
-110.5745813429925
 30
0.0
 40
3.000000000833312
100
AcDbArc
 50
180.0019098752326
 51
270.0000000159163
  0
ARC
  5
9FA
330
1F
100
AcDbEntity
  8
0
  6
Continuous
 62
     7
100
AcDbCircle
 10
240.0634986971659
 20
-82.57458134382597
 30
0.0
 40
5.000000001
100
AcDbArc
 50
180.00114591559
 51
270.0011459155898
  0
ARC
  5
9FB
330
1F
100
AcDbEntity
  8
0
  6
Continuous
 62
     7
100
AcDbCircle
 10
261.5634986971659
 20
-100.5747813438259
 30
0.0
 40
4.5
100
AcDbArc
 50
0.0
 51
90.0
  0
ARC
  5
9FC
330
1F
100
AcDbEntity
  8
0
  6
Continuous
 62
     7
100
AcDbCircle
 10
243.5634986971658
 20
-100.5747813438259
 30
0.0
 40
4.5
100
AcDbArc
 50
180.0
 51
270.0
  0
ARC
  5
9FD
330
1F
100
AcDbEntity
  8
0
  6
Continuous
 62
     7
100
AcDbCircle
 10
261.563698696416
 20
-97.57478134307596
 30
0.0
 40
10.00000000125
100
AcDbArc
 50
359.9994270379077
 51
89.99885408011264
  0
ARC
  5
9FE
330
1F
100
AcDbEntity
  8
0
  6
Continuous
 62
     7
100
AcDbCircle
 10
235.5634986963327
 20
-90.57458134465926
 30
0.0
 40
3.000000000833325
100
AcDbArc
 50
89.99999998408522
 51
180.0019098434015
  0
SPLINE
  5
9FF
330
1F
100
AcDbEntity
  8
0
  6
Continuous
 62
   171
100
AcDbSpline
210
0.0
220
0.0
230
1.0
 70
     8
 71
     3
 72
   133
 73
   129
 74
   127
 42
0.0000000001
 43
0.0000000001
 44
0.00000001
 40
0.0
 40
0.0
 40
0.0
 40
0.0
 40
0.7461372537820232
 40
1.492275079250237
 40
2.306784937519942
 40
3.121290984720533
 40
3.90162274987367
 40
4.681968847171517
 40
5.771890458045365
 40
6.861787320655319
 40
7.653398878404825
 40
8.445035259525385
 40
9.236780761620641
 40
9.903030673764025
 40
10.5691752722055
 40
11.23508108763093
 40
11.81380773659788
 40
12.39270612268185
 40
12.97178290016836
 40
13.5508473265155
 40
14.29117227698048
 40
15.03134529419816
 40
15.77171448867015
 40
16.36450728852744
 40
16.95716100216035
 40
17.54948075038001
 40
18.0708317702472
 40
18.59245112654176
 40
19.11433234008187
 40
19.63623104747327
 40
20.35386078798442
 40
21.07123311090538
 40
21.78862674601352
 40
22.42972122760991
 40
23.07081484321463
 40
23.711804460343
 40
24.55937707357407
 40
25.40715306591531
 40
26.25503429296171
 40
27.66152801262794
 40
29.06791664817977
 40
30.33871977607528
 40
31.6093149479272
 40
33.21433658130497
 40
34.82042261205526
 40
35.8394206756556
 40
36.85772440021281
 40
37.87372398047903
 40
38.58219514436428
 40
39.29226242500516
 40
40.00750540149216
 40
40.27616576528127
 40
40.54499090403344
 40
40.81310416125495
 40
41.07996556121619
 40
41.34550069391365
 40
41.61023691643217
 40
41.87543627583969
 40
42.12532288779042
 40
42.37668807432626
 40
42.62873967029093
 40
42.88069230985519
 40
43.13184978344444
 40
43.3816900543595
 40
43.64274423450114
 40
43.90385349872409
 40
44.16583677316605
 40
44.42863583298948
 40
44.69151273838097
 40
44.95323641905943
 40
44.96463380705065
 40
44.97602920550971
 40
44.98746545906173
 40
44.99890235962719
 40
45.55399632526546
 40
46.10925728848644
 40
46.66497259873175
 40
47.22107841188806
 40
47.77723829647575
 40
48.95850029552363
 40
50.13876508380994
 40
51.31882801918796
 40
52.94255261883207
 40
54.56653056279551
 40
56.60738693880633
 40
58.64817886477588
 40
60.69045131584872
 40
62.73275031210226
 40
64.37062045676298
 40
66.00845175780825
 40
66.02794328354804
 40
66.04743477469175
 40
66.06691728120698
 40
66.08639985490075
 40
67.01894852889428
 40
67.95157463523537
 40
68.88415657886001
 40
69.81668857593932
 40
70.45925597915392
 40
71.10180095378403
 40
71.7444133710047
 40
72.3873730582207
 40
73.03118549617845
 40
73.38181300574167
 40
73.73240783300613
 40
74.08267627991147
 40
74.4326130700512
 40
74.78256965319402
 40
75.13332072504991
 40
75.52211385109123
 40
75.91170243249611
 40
76.30078799046518
 40
76.68857601239071
 40
77.0749098718653
 40
77.41469867836731
 40
77.75503640066614
 40
78.0963461073586
 40
78.43831932918843
 40
78.7800495192741
 40
79.24687413148015
 40
79.71250803189019
 40
80.17791606276087
 40
80.99928314321633
 40
81.82108468091341
 40
82.62715034787627
 40
83.43310753652026
 40
84.09909980678969
 40
84.76510763472154
 40
84.76510763472154
 40
84.76510763472154
 40
84.76510763472154
 10
271.563498697166
 20
-116.4182813438258
 30
0.0
 10
271.3196930475782
 20
-116.4674410193315
 30
0.0
 10
270.8320815587129
 20
-116.5657603936719
 30
0.0
 10
270.0781257356154
 20
-116.7167641070372
 30
0.0
 10
269.3014134803918
 20
-116.8701827363781
 30
0.0
 10
268.5130340892906
 20
-117.0233341257127
 30
0.0
 10
267.7353192289683
 20
-117.1716435047471
 30
0.0
 10
266.8668530509364
 20
-117.3341201044024
 30
0.0
 10
265.8961721886792
 20
-117.5113685072453
 30
0.0
 10
264.9194273235444
 20
-117.6760750964747
 30
0.0
 10
264.0380755182561
 20
-117.8074914004767
 30
0.0
 10
263.2528498251627
 20
-117.9087347511311
 30
0.0
 10
262.5069933072203
 20
-117.9870783798181
 30
0.0
 10
261.8011088542536
 20
-118.0433038332687
 30
0.0
 10
261.1358052603274
 20
-118.0778022465617
 30
0.0
 10
260.4988598670453
 20
-118.0901485108155
 30
0.0
 10
259.890994630491
 20
-118.0807898930895
 30
0.0
 10
259.3125610121128
 20
-118.056174899112
 30
0.0
 10
258.7347146299295
 20
-118.0188749071228
 30
0.0
 10
258.1039573104508
 20
-117.9675322533876
 30
0.0
 10
257.42048634866
 20
-117.9027781707469
 30
0.0
 10
256.6837549617484
 20
-117.8303257370087
 30
0.0
 10
255.9954369193689
 20
-117.7680202286461
 30
0.0
 10
255.3551728642866
 20
-117.7211105859336
 30
0.0
 10
254.7632016913063
 20
-117.6923784977867
 30
0.0
 10
254.1943269432807
 20
-117.6842086300041
 30
0.0
 10
253.649301370348
 20
-117.6987644603735
 30
0.0
 10
253.1285315935024
 20
-117.7297815291058
 30
0.0
 10
252.6086377164705
 20
-117.7749400780745
 30
0.0
 10
252.0249018018772
 20
-117.8383564895136
 30
0.0
 10
251.3778451195711
 20
-117.9211643923313
 30
0.0
 10
250.6672586142279
 20
-118.0202741040673
 30
0.0
 10
249.9819802842198
 20
-118.1161769690035
 30
0.0
 10
249.3209958947608
 20
-118.2020774237935
 30
0.0
 10
248.684173558146
 20
-118.2758877667619
 30
0.0
 10
247.9775668804329
 20
-118.3446021485743
 30
0.0
 10
247.2005970110819
 20
-118.3992022616316
 30
0.0
 10
246.3537381339187
 20
-118.4389743572392
 30
0.0
 10
245.3201581840398
 20
-118.4709938979889
 30
0.0
 10
244.1001145735501
 20
-118.4946288476684
 30
0.0
 10
242.73904317308
 20
-118.5151636393143
 30
0.0
 10
241.423385628728
 20
-118.5424273822002
 30
0.0
 10
240.0418536792094
 20
-118.584813970906
 30
0.0
 10
238.5495564752072
 20
-118.6552633230065
 30
0.0
 10
237.1417296409501
 20
-118.7340755258302
 30
0.0
 10
235.9291109784814
 20
-118.8010255432045
 30
0.0
 10
234.9124720432574
 20
-118.8493206018243
 30
0.0
 10
233.9986453186346
 20
-118.8791643221721
 30
0.0
 10
233.1871674377307
 20
-118.8904000354066
 30
0.0
 10
232.4758618140417
 20
-118.8854464026858
 30
0.0
 10
231.9114274474323
 20
-118.8669427659736
 30
0.0
 10
231.4944337727071
 20
-118.8446254371898
 30
0.0
 10
231.2266459777045
 20
-118.8241487346198
 30
0.0
 10
230.9602895974724
 20
-118.7944565723643
 30
0.0
 10
230.6966532503956
 20
-118.7524522770258
 30
0.0
 10
230.4370276803412
 20
-118.6950059902976
 30
0.0
 10
230.1827240638916
 20
-118.6189610615601
 30
0.0
 10
229.9406257293373
 20
-118.5232772598416
 30
0.0
 10
229.7125933222791
 20
-118.4072976992192
 30
0.0
 10
229.4994094735354
 20
-118.2740131915942
 30
0.0
 10
229.2981230303527
 20
-118.1222104639638
 30
0.0
 10
229.1110033098148
 20
-117.9533408799642
 30
0.0
 10
228.9403354187951
 20
-117.7688419251092
 30
0.0
 10
228.7857920850223
 20
-117.566735181311
 30
0.0
 10
228.6507375619407
 20
-117.3471950275218
 30
0.0
 10
228.5339985597043
 20
-117.1130179599702
 30
0.0
 10
228.4345205055423
 20
-116.8704750300017
 30
0.0
 10
228.3490700307625
 20
-116.6221006981615
 30
0.0
 10
228.2744506575085
 20
-116.3704075061053
 30
0.0
 10
228.2286610061942
 20
-116.1976932055106
 30
0.0
 10
228.2050926811158
 20
-116.1058296043467
 30
0.0
 10
228.2022867547063
 20
-116.0947702937162
 30
0.0
 10
228.1995293825886
 20
-116.0836852040501
 30
0.0
 10
228.1535478177334
 20
-115.8965973215756
 30
0.0
 10
228.0725561764992
 20
-115.5314124421398
 30
0.0
 10
227.9728571532153
 20
-114.9849768531935
 30
0.0
 10
227.8900488626677
 20
-114.4354151018553
 30
0.0
 10
227.8204681216288
 20
-113.8837532452366
 30
0.0
 10
227.7379474681344
 20
-113.1236895893843
 30
0.0
 10
227.6490118976143
 20
-112.1551341333268
 30
0.0
 10
227.560255481906
 20
-110.9779150449753
 30
0.0
 10
227.4736583095163
 20
-109.6527144399628
 30
0.0
 10
227.3838389281566
 20
-108.1795299111903
 30
0.0
 10
227.2745606209104
 20
-106.4200591446625
 30
0.0
 10
227.1409978628529
 20
-104.5228579868221
 30
0.0
 10
226.9875768161319
 20
-102.4873247270643
 30
0.0
 10
226.832707234529
 20
-100.4514191002651
 30
0.0
 10
226.6939483780067
 20
-98.54898377011977
 30
0.0
 10
226.5760249228049
 20
-96.78023062010755
 30
0.0
 10
226.5134735892051
 20
-95.68358474311343
 30
0.0
 10
226.4854959777318
 20
-95.12534730995705
 30
0.0
 10
226.4845046520599
 20
-95.10588402413722
 30
0.0
 10
226.4834786756876
 20
-95.08642552192254
 30
0.0
 10
226.4661695163748
 20
-94.7630505595424
 30
0.0
 10
226.435535443756
 20
-94.13556559758992
 30
0.0
 10
226.40122489877
 20
-93.20358419145675
 30
0.0
 10
226.3806927659148
 20
-92.27119028217046
 30
0.0
 10
226.3769883310811
 20
-91.43525222666047
 30
0.0
 10
226.3864424356332
 20
-90.6960684604032
 30
0.0
 10
226.4064703222887
 20
-90.05376035625188
 30
0.0
 10
226.4410954431575
 20
-89.41192142998946
 30
0.0
 10
226.4931069096277
 20
-88.77081076330401
 30
0.0
 10
226.5542896662153
 20
-88.22834088919112
 30
0.0
 10
226.6167443070848
 20
-87.78433315289024
 30
0.0
 10
226.6749365426136
 20
-87.43864351012978
 30
0.0
 10
226.7451039107406
 20
-87.09538798693552
 30
0.0
 10
226.8298598654569
 20
-86.75561856474795
 30
0.0
 10
226.9318273305512
 20
-86.42039346278568
 30
0.0
 10
227.0578195618304
 20
-86.07953162012831
 30
0.0
 10
227.2126834578951
 20
-85.73609788287297
 30
0.0
 10
227.3994027512864
 20
-85.39421158433858
 30
0.0
 10
227.6130479244558
 20
-85.06879641141322
 30
0.0
 10
227.8535508641871
 20
-84.76400208796176
 30
0.0
 10
228.1103921698779
 20
-84.49498718141445
 30
0.0
 10
228.3797401502267
 20
-84.26232566076782
 30
0.0
 10
228.6544571283337
 20
-84.06067224505756
 30
0.0
 10
228.9428482967059
 20
-83.87789739051843
 30
0.0
 10
229.2416757415205
 20
-83.71191776037074
 30
0.0
 10
229.5855929172377
 20
-83.54194253714451
 30
0.0
 10
229.9747450333307
 20
-83.37141544253714
 30
0.0
 10
230.4074906244689
 20
-83.19858060487929
 30
0.0
 10
230.9525590560796
 20
-82.98854328953124
 30
0.0
 10
231.6053655038288
 20
-82.72797694114188
 30
0.0
 10
232.3596927854326
 20
-82.41565564967174
 30
0.0
 10
233.106049807911
 20
-82.09763733363505
 30
0.0
 10
233.8023659833422
 20
-81.79474207547938
 30
0.0
 10
234.4545994270098
 20
-81.50757267802251
 30
0.0
 10
234.8605973584817
 20
-81.32784581870661
 30
0.0
 10
235.0635986971659
 20
-81.23798134382596
 30
0.0
 11
271.563498697166
 21
-116.4182813438258
 31
0.0
 11
270.8320498147104
 21
-116.5656018581616
 31
0.0
 11
270.1004109707259
 21
-116.7119789623889
 31
0.0
 11
269.3013302242924
 21
-116.8697644813385
 31
0.0
 11
268.5017615915278
 21
-117.025038762918
 31
0.0
 11
267.7352398696569
 21
-117.1711966012151
 31
0.0
 11
266.9681986971659
 21
-117.3146813438258
 31
0.0
 11
265.8957294307796
 21
-117.5089460876382
 31
0.0
 11
264.820749847176
 21
-117.6886515860404
 31
0.0
 11
264.037721038668
 21
-117.8049045151053
 31
0.0
 11
263.2525202787728
 21
-117.9056414332794
 31
0.0
 11
262.465054956071
 21
-117.9878564303311
 31
0.0
 11
261.8008675274454
 21
-118.0402396830249
 31
0.0
 11
261.1355895416273
 21
-118.0742077222662
 31
0.0
 11
260.4697986971659
 21
-118.0865813438259
 31
0.0
 11
259.8911331055089
 21
-118.0781749597345
 31
0.0
 11
259.3127370108707
 21
-118.0540648136096
 31
0.0
 11
258.7348309289304
 21
-118.0172616248379
 31
0.0
 11
258.1576353753665
 21
-117.9707761128061
 31
0.0
 11
257.4204807649727
 21
-117.9023355349304
 31
0.0
 11
256.6837258592435
 21
-117.8312841143348
 31
0.0
 11
255.9462471400725
 21
-117.7659260008582
 31
0.0
 11
255.3549718520036
 21
-117.7235368822893
 31
0.0
 11
254.762970158233
 21
-117.695744455844
 31
0.0
 11
254.1706986971659
 21
-117.6881813438258
 31
0.0
 11
253.6495205963784
 21
-117.7016079322859
 31
0.0
 11
253.1287949935705
 21
-117.7321300478575
 31
0.0
 11
252.6088296081211
 21
-117.7768066532614
 31
0.0
 11
252.089932159409
 21
-117.8326967112184
 31
0.0
 11
251.3779452990092
 21
-117.9225140548792
 31
0.0
 11
250.667272737461
 21
-118.0203279602352
 31
0.0
 11
249.9566245265981
 21
-118.1184745251814
 31
0.0
 11
249.320813238111
 21
-118.2006094133912
 31
0.0
 11
248.6839263972055
 21
-118.2739318243422
 31
0.0
 11
248.045898697166
 21
-118.3354813438259
 31
0.0
 11
247.2004838077719
 21
-118.3959213940523
 31
0.0
 11
246.3536900464188
 21
-118.4367191771971
 31
0.0
 11
245.5062476692808
 21
-118.463995408552
 31
0.0
 11
244.1000660852718
 21
-118.4936254064751
 31
0.0
 11
242.6938755951915
 21
-118.517232615961
 31
0.0
 11
241.4233658144215
 21
-118.5445362285195
 31
0.0
 11
240.153398697166
 21
-118.5844813438259
 31
0.0
 11
238.55004264246
 21
-118.6575826850609
 31
0.0
 11
236.9463244655356
 21
-118.7447626587048
 31
0.0
 11
235.9288102556709
 21
-118.7997343477754
 31
0.0
 11
234.9115966801199
 21
-118.8468407955358
 31
0.0
 11
233.8960986157493
 21
-118.8787598905386
 31
0.0
 11
233.1876869076053
 21
-118.8879382321578
 31
0.0
 11
232.4776411034782
 21
-118.8824156225471
 31
0.0
 11
231.7627986971659
 21
-118.8584813438259
 31
0.0
 11
231.494550386221
 21
-118.8436073810808
 31
0.0
 11
231.2265488909935
 21
-118.8225799275311
 31
0.0
 11
230.9601483398521
 21
-118.7923232741808
 31
0.0
 11
230.6967028611665
 21
-118.7497617120332
 31
0.0
 11
230.4375665833052
 21
-118.6918195320922
 31
0.0
 11
230.1840936346376
 21
-118.6154210253615
 31
0.0
 11
229.9376381435328
 21
-118.5174904828448
 31
0.0
 11
229.7148418656281
 21
-118.4043306958032
 31
0.0
 11
229.5016777317345
 21
-118.2711184251927
 31
0.0
 11
229.3004521089109
 21
-118.1193348431994
 31
0.0
 11
229.113471364215
 21
-117.9504611220099
 31
0.0
 11
228.9430418647062
 21
-117.7659784338102
 31
0.0
 11
228.7914699774428
 21
-117.567367950787
 31
0.0
 11
228.6541491977699
 21
-117.3453492839149
 31
0.0
 11
228.5370344039594
 21
-117.1119779640617
 31
0.0
 11
228.4369901467925
 21
-116.8698491085148
 31
0.0
 11
228.35088097705
 21
-116.6215578345613
 31
0.0
 11
228.275571445513
 21
-116.3696992594886
 31
0.0
 11
228.2079261029624
 21
-116.1168685005839
 31
0.0
 11
228.2050974228483
 21
-116.1058277115807
 31
0.0
 11
228.2022986971659
 21
-116.0947813438259
 31
0.0
 11
228.1995346136999
 21
-116.0836841487804
 31
0.0
 11
228.1968014599938
 21
-116.0725786291914
 31
0.0
 11
228.0759975380616
 21
-115.5307892576809
 31
0.0
 11
227.9757061967164
 21
-114.9846607159671
 31
0.0
 11
227.8922784071339
 21
-114.435243470231
 31
0.0
 11
227.8220651404899
 21
-113.8835879866544
 31
0.0
 11
227.7614173679604
 21
-113.3307447314182
 31
0.0
 11
227.6521842816178
 21
-112.1545440499755
 31
0.0
 11
227.5622129137146
 21
-110.9777135085477
 31
0.0
 11
227.4840221153326
 21
-109.8002438782205
 31
0.0
 11
227.3835374775044
 21
-108.1796315208629
 31
0.0
 11
227.2811986971658
 21
-106.5588813438259
 31
0.0
 11
227.1393189565319
 21
-104.5229626601419
 31
0.0
 11
226.9873787093785
 21
-102.4878346920855
 31
0.0
 11
226.8337649175391
 21
-100.4513476267225
 31
0.0
 11
226.686492082063
 21
-98.41436556935006
 31
0.0
 11
226.5786379676485
 21
-96.78005039143327
 31
0.0
 11
226.4864721519244
 21
-95.14481437389477
 31
0.0
 11
226.4854933394488
 21
-95.12534744034596
 31
0.0
 11
226.4844986971659
 21
-95.10588134382595
 31
0.0
 11
226.4834760905374
 21
-95.08642569334105
 31
0.0
 11
226.4824379557853
 21
-95.06697079796836
 31
0.0
 11
226.437397461781
 21
-94.13551044816856
 31
0.0
 11
226.4035208932744
 21
-93.20349980856978
 31
0.0
 11
226.3834256801267
 21
-92.27113439522327
 31
0.0
 11
226.379729252199
 21
-91.33860972418046
 31
0.0
 11
226.3884108318645
 21
-90.69610097095486
 31
0.0
 11
226.408901076192
 21
-90.05388278798216
 31
0.0
 11
226.4439800319134
 21
-89.41222853058354
 31
0.0
 11
226.4964277457614
 21
-88.77141155408105
 31
0.0
 11
226.5690242644686
 21
-88.13170521379564
 31
0.0
 11
226.6183077823569
 21
-87.78455857943928
 31
0.0
 11
226.676959632914
 21
-87.43890457061604
 31
0.0
 11
226.7475672329066
 21
-87.09582651498497
 31
0.0
 11
226.8327179991018
 21
-86.75640774020397
 31
0.0
 11
226.9349993482659
 21
-86.42173157393136
 31
0.0
 11
227.056998697166
 21
-86.09288134382595
 31
0.0
 11
227.2169986437308
 21
-85.73853671974346
 31
0.0
 11
227.4040094685084
 21
-85.39676747771967
 31
0.0
 11
227.6178848121669
 21
-85.07173684938555
 31
0.0
 11
227.8584783153754
 21
-84.76760806637287
 31
0.0
 11
228.1256436188024
 21
-84.48854436031288
 31
0.0
 11
228.3823836728988
 21
-84.26596633374236
 31
0.0
 11
228.6563681584061
 21
-84.06406965933646
 31
0.0
 11
228.944331951284
 21
-83.88085074643468
 31
0.0
 11
229.2430099274926
 21
-83.71430600437696
 31
0.0
 11
229.5491369629913
 21
-83.56243184250297
 31
0.0
 11
229.9760818682023
 21
-83.37363759849907
 31
0.0
 11
230.4079014073021
 21
-83.19943422632196
 31
0.0
 11
230.8415986971659
 21
-83.03058134382586
 31
0.0
 11
231.6045696159853
 21
-82.72641155942697
 31
0.0
 11
232.3639895785013
 21
-82.41234295587558
 31
0.0
 11
233.1056831301679
 21
-82.09669673822636
 31
0.0
 11
233.844886301481
 21
-81.77553375579416
 31
0.0
 11
234.4545047773623
 21
-81.50737145827756
 31
0.0
 11
235.0635986971659
 21
-81.23798134382596
 31
0.0
  0
LINE
  5
A4D
330
1F
100
AcDbEntity
  8
0
  6
CENTER_DASH_DASH
 62
    30
100
AcDbLine
 10
-280.9000817329301
 20
-3.944679583667038
 30
0.0
 11
-295.4452699834528
 21
-3.944679583667038
 31
0.0
  0
LINE
  5
A4E
330
1F
100
AcDbEntity
  8
0
  6
DASH_CENTER
 62
    30
100
AcDbLine
 10
-138.817202332234
 20
-3.944679583667038
 30
0.0
 11
-122.3456699834531
 21
-3.944679583667038
 31
0.0
  0
LINE
  5
A4F
330
1F
100
AcDbEntity
  8
0
  6
DASH_CENTER
 62
    30
100
AcDbLine
 10
-138.817202332234
 20
82.32262041633294
 30
0.0
 11
-122.3456699834531
 21
82.32262041633294
 31
0.0
  0
LINE
  5
A50
330
1F
100
AcDbEntity
  8
0
  6
Continuous
 62
    30
100
AcDbLine
 10
-124.945269983453
 20
80.67252041633286
 30
0.0
 11
-129.6456699834531
 21
80.67252041633286
 31
0.0
  0
LINE
  5
A51
330
1F
100
AcDbEntity
  8
0
  6
DASH_CENTER
 62
    30
100
AcDbLine
 10
-122.821910217793
 20
76.53332041633301
 30
0.0
 11
-131.869429749113
 21
76.53332041633301
 31
0.0
  0
LINE
  5
A52
330
1F
100
AcDbEntity
  8
0
  6
DASH_CENTER
 62
    30
100
AcDbLine
 10
-127.3456699834532
 20
72.00956065067294
 30
0.0
 11
-127.3456699834532
 21
81.05708018199289
 31
0.0
  0
LINE
  5
A53
330
1F
100
AcDbEntity
  8
0
  6
DASH_CENTER
 62
    30
100
AcDbLine
 10
-253.1456699834531
 20
-21.1108795836671
 30
0.0
 11
-253.1456699834531
 21
-38.81087958366703
 31
0.0
  0
LINE
  5
A54
330
1F
100
AcDbEntity
  8
0
  6
DASH_CENTER
 62
    30
100
AcDbLine
 10
-163.145669983453
 20
-38.81087958366703
 30
0.0
 11
-163.145669983453
 21
-21.1108795836671
 31
0.0
  0
LINE
  5
A55
330
1F
100
AcDbEntity
  8
0
  6
DASH_CENTER
 62
    30
100
AcDbLine
 10
-78.76930151666503
 20
39.18912041633303
 30
0.0
 11
-312.2559617168471
 21
39.18912041633303
 31
0.0
  0
LINE
  5
A56
330
1F
100
AcDbEntity
  8
0
  6
DASH_CENTER
 62
    30
100
AcDbLine
 10
-208.145669983453
 20
117.966277440901
 30
0.0
 11
-208.145669983453
 21
-44.22850726337599
 31
0.0
  0
LINE
  5
A57
330
1F
100
AcDbEntity
  8
0
  6
Continuous
 62
     7
100
AcDbLine
 10
-115.1456699834531
 20
46.18912041633302
 30
0.0
 11
-117.545669983453
 21
46.18912041633302
 31
0.0
  0
LINE
  5
A58
330
1F
100
AcDbEntity
  8
0
  6
Continuous
 62
     7
100
AcDbLine
 10
-115.1456699834531
 20
45.18912041633302
 30
0.0
 11
-115.1456699834531
 21
46.18912041633302
 31
0.0
  0
LINE
  5
A59
330
1F
100
AcDbEntity
  8
0
  6
Continuous
 62
     7
100
AcDbLine
 10
-115.1456699834531
 20
45.18912041633302
 30
0.0
 11
-88.14566998345311
 21
45.18912041633302
 31
0.0
  0
LINE
  5
A5A
330
1F
100
AcDbEntity
  8
0
  6
Continuous
 62
     7
100
AcDbLine
 10
-89.14566998345312
 20
45.18912041633302
 30
0.0
 11
-89.14566998345312
 21
32.18912041633303
 31
0.0
  0
LINE
  5
A5B
330
1F
100
AcDbEntity
  8
0
  6
Continuous
 62
     7
100
AcDbLine
 10
-88.14566998345311
 20
45.18912041633302
 30
0.0
 11
-88.14566998345311
 21
33.18892041633285
 31
0.0
  0
LINE
  5
A5C
330
1F
100
AcDbEntity
  8
0
  6
Continuous
 62
     7
100
AcDbLine
 10
-240.1456699834531
 20
-31.81087958366703
 30
0.0
 11
-240.1456699834531
 21
-31.31087958366703
 31
0.0
  0
LINE
  5
A5D
330
1F
100
AcDbEntity
  8
0
  6
Continuous
 62
     7
100
AcDbLine
 10
-119.9456699834531
 20
68.18912041633303
 30
0.0
 11
-119.9456699834531
 21
10.18892041633284
 31
0.0
  0
LINE
  5
A5E
330
1F
100
AcDbEntity
  8
0
  6
Continuous
 62
     7
100
AcDbLine
 10
-150.1456699834531
 20
-28.6108795836671
 30
0.0
 11
-150.1456699834531
 21
-31.81087958366703
 31
0.0
  0
LINE
  5
A5F
330
1F
100
AcDbEntity
  8
0
  6
Continuous
 62
     7
100
AcDbLine
 10
-266.1456699834531
 20
-28.6108795836671
 30
0.0
 11
-266.1456699834531
 21
-31.81087958366703
 31
0.0
  0
LINE
  5
A60
330
1F
100
AcDbEntity
  8
0
  6
Continuous
 62
     7
100
AcDbLine
 10
-176.1456699834531
 20
-31.81087958366703
 30
0.0
 11
-176.1456699834531
 21
-31.31087958366703
 31
0.0
  0
LINE
  5
A61
330
1F
100
AcDbEntity
  8
0
  6
Continuous
 62
     7
100
AcDbLine
 10
-118.1456699834531
 20
46.68912041633302
 30
0.0
 11
-118.1456699834531
 21
31.68912041633304
 31
0.0
  0
LINE
  5
A62
330
1F
100
AcDbEntity
  8
0
  6
Continuous
 62
     7
100
AcDbLine
 10
-89.14566998345312
 20
32.18912041633303
 30
0.0
 11
-117.545669983453
 21
32.18912041633303
 31
0.0
  0
LINE
  5
A63
330
1F
100
AcDbEntity
  8
0
  6
Continuous
 62
     7
100
AcDbLine
 10
-89.14566998345312
 20
32.18912041633303
 30
0.0
 11
-88.14566998345311
 21
33.18892041633285
 31
0.0
  0
LINE
  5
A64
330
1F
100
AcDbEntity
  8
0
  6
Continuous
 62
     7
100
AcDbLine
 10
-123.3456699834531
 20
80.53332041633302
 30
0.0
 11
-123.3456699834531
 21
72.53332041633303
 31
0.0
  0
LINE
  5
A65
330
1F
100
AcDbEntity
  8
0
  6
Continuous
 62
     7
100
AcDbLine
 10
-131.3456699834532
 20
72.53332041633303
 30
0.0
 11
-123.3456699834531
 21
72.53332041633303
 31
0.0
  0
LINE
  5
A66
330
1F
100
AcDbEntity
  8
0
  6
Continuous
 62
     7
100
AcDbLine
 10
-123.3456699834531
 20
80.53332041633302
 30
0.0
 11
-125.084469983453
 21
80.53332041633302
 31
0.0
  0
LINE
  5
A67
330
1F
100
AcDbEntity
  8
0
  6
Continuous
 62
     7
100
AcDbLine
 10
-131.3456699834532
 20
78.27262041633298
 30
0.0
 11
-131.3456699834532
 21
72.53332041633303
 31
0.0
  0
LINE
  5
A68
330
1F
100
AcDbEntity
  8
0
  6
Continuous
 62
     7
100
AcDbLine
 10
-223.1461699834529
 20
-7.560379583667097
 30
0.0
 11
-223.1461699834529
 21
-6.060379583667097
 31
0.0
  0
LINE
  5
A69
330
1F
100
AcDbEntity
  8
0
  6
Continuous
 62
     7
100
AcDbLine
 10
-225.1461699834529
 20
-9.560379583667099
 30
0.0
 11
-246.1459699834531
 21
-9.560379583667099
 31
0.0
  0
LINE
  5
A6A
330
1F
100
AcDbEntity
  8
0
  6
Continuous
 62
     7
100
AcDbLine
 10
-225.1461699834529
 20
-8.060379583667097
 30
0.0
 11
-246.1459699834531
 21
-8.060379583667097
 31
0.0
  0
LINE
  5
A6B
330
1F
100
AcDbEntity
  8
0
  6
Continuous
 62
     7
100
AcDbLine
 10
-248.1459699834531
 20
-6.060379583667097
 30
0.0
 11
-248.1459699834531
 21
-7.560379583667097
 31
0.0
  0
LINE
  5
A6C
330
1F
100
AcDbEntity
  8
0
  6
Continuous
 62
     7
100
AcDbLine
 10
-122.3456699834531
 20
71.78902041633294
 30
0.0
 11
-132.3456699834532
 21
71.78902041633294
 31
0.0
  0
LINE
  5
A6D
330
1F
100
AcDbEntity
  8
0
  6
Continuous
 62
     7
100
AcDbLine
 10
-302.8451699834531
 20
68.18912041633303
 30
0.0
 11
-302.8451699834531
 21
10.18892041633284
 31
0.0
  0
LINE
  5
A6E
330
1F
100
AcDbEntity
  8
0
  6
Continuous
 62
     7
100
AcDbLine
 10
-302.8451699834531
 20
68.18912041633303
 30
0.0
 11
-300.8451699834531
 21
70.18912041633303
 31
0.0
  0
LINE
  5
A6F
330
1F
100
AcDbEntity
  8
0
  6
Continuous
 62
     7
100
AcDbLine
 10
-300.8451699834531
 20
8.189120416333031
 30
0.0
 11
-302.8451699834531
 21
10.18892041633284
 31
0.0
  0
LINE
  5
A70
330
1F
100
AcDbEntity
  8
0
  6
Continuous
 62
     7
100
AcDbLine
 10
-290.8448699834531
 20
-28.1108795836671
 30
0.0
 11
-240.1456699834531
 21
-28.1108795836671
 31
0.0
  0
LINE
  5
A71
330
1F
100
AcDbEntity
  8
0
  6
Continuous
 62
     7
100
AcDbLine
 10
-293.8451699834531
 20
17.18912041633303
 30
0.0
 11
-293.8451699834531
 21
-25.1108795836671
 31
0.0
  0
LINE
  5
A72
330
1F
100
AcDbEntity
  8
0
  6
Continuous
 62
     7
100
AcDbLine
 10
-266.1456699834531
 20
-31.31087958366703
 30
0.0
 11
-290.8451699834531
 21
-31.31087958366703
 31
0.0
  0
LINE
  5
A73
330
1F
100
AcDbEntity
  8
0
  6
Continuous
 62
     7
100
AcDbLine
 10
-297.0450699834531
 20
17.18912041633303
 30
0.0
 11
-297.0450699834531
 21
-25.1108795836671
 31
0.0
  0
LINE
  5
A74
330
1F
100
AcDbEntity
  8
0
  6
Continuous
 62
     7
100
AcDbLine
 10
-240.1456699834531
 20
-28.6108795836671
 30
0.0
 11
-266.1456699834531
 21
-28.6108795836671
 31
0.0
  0
LINE
  5
A75
330
1F
100
AcDbEntity
  8
0
  6
Continuous
 62
     7
100
AcDbLine
 10
-135.145669983453
 20
-26.41097958366714
 30
0.0
 11
-135.145669983453
 21
104.789020416333
 31
0.0
  0
LINE
  5
A76
330
1F
100
AcDbEntity
  8
0
  6
Continuous
 62
     7
100
AcDbLine
 10
-289.945269983453
 20
104.789020416333
 30
0.0
 11
-132.8456699834532
 21
104.789020416333
 31
0.0
  0
LINE
  5
A77
330
1F
100
AcDbEntity
  8
0
  6
Continuous
 62
     7
100
AcDbLine
 10
-125.2952699834531
 20
-5.944679583667037
 30
0.0
 11
-129.6456699834531
 21
-5.944679583667037
 31
0.0
  0
LINE
  5
A78
330
1F
100
AcDbEntity
  8
0
  6
Continuous
 62
     7
100
AcDbLine
 10
-129.6456699834531
 20
-1.94467958366704
 30
0.0
 11
-125.2952699834531
 21
-1.94467958366704
 31
0.0
  0
LINE
  5
A79
330
1F
100
AcDbEntity
  8
0
  6
Continuous
 62
     7
100
AcDbLine
 10
-132.8456699834532
 20
-0.44467958366704
 30
0.0
 11
-132.528169983453
 21
0.10542041633289
 31
0.0
  0
LINE
  5
A7A
330
1F
100
AcDbEntity
  8
0
  6
Continuous
 62
     7
100
AcDbLine
 10
-129.6456699834531
 20
-0.44467958366704
 30
0.0
 11
-129.963269983453
 21
0.10542041633289
 31
0.0
  0
LINE
  5
A7B
330
1F
100
AcDbEntity
  8
0
  6
Continuous
 62
     7
100
AcDbLine
 10
-132.8456699834532
 20
-7.444379583667108
 30
0.0
 11
-132.528169983453
 21
-7.99447958366704
 31
0.0
  0
LINE
  5
A7C
330
1F
100
AcDbEntity
  8
0
  6
Continuous
 62
     7
100
AcDbLine
 10
-129.963169983453
 20
-1.923879583667029
 30
0.0
 11
-132.8456699834532
 21
-1.923879583667029
 31
0.0
  0
LINE
  5
A7D
330
1F
100
AcDbEntity
  8
0
  6
Continuous
 62
     7
100
AcDbLine
 10
-129.6456699834531
 20
-0.44467958366704
 30
0.0
 11
-129.6456699834531
 21
-7.444379583667108
 31
0.0
  0
LINE
  5
A7E
330
1F
100
AcDbEntity
  8
0
  6
Continuous
 62
     7
100
AcDbLine
 10
-129.963269983453
 20
-7.99447958366704
 30
0.0
 11
-132.528169983453
 21
-7.99447958366704
 31
0.0
  0
LINE
  5
A7F
330
1F
100
AcDbEntity
  8
0
  6
Continuous
 62
     7
100
AcDbLine
 10
-132.528169983453
 20
0.10542041633289
 30
0.0
 11
-129.963269983453
 21
0.10542041633289
 31
0.0
  0
LINE
  5
A80
330
1F
100
AcDbEntity
  8
0
  6
Continuous
 62
     7
100
AcDbLine
 10
-129.6456699834531
 20
-7.444379583667108
 30
0.0
 11
-129.963269983453
 21
-7.99447958366704
 31
0.0
  0
LINE
  5
A81
330
1F
100
AcDbEntity
  8
0
  6
Continuous
 62
     7
100
AcDbLine
 10
-129.963269983453
 20
-5.965179583667117
 30
0.0
 11
-132.8456699834532
 21
-5.965179583667117
 31
0.0
  0
LINE
  5
A82
330
1F
100
AcDbEntity
  8
0
  6
Continuous
 62
    30
100
AcDbLine
 10
-124.945269983453
 20
-5.59457958366716
 30
0.0
 11
-129.6456699834531
 21
-5.59457958366716
 31
0.0
  0
LINE
  5
A83
330
1F
100
AcDbEntity
  8
0
  6
Continuous
 62
    30
100
AcDbLine
 10
-124.945269983453
 20
-2.294479583666999
 30
0.0
 11
-129.6456699834531
 21
-2.294479583666999
 31
0.0
  0
LINE
  5
A84
330
1F
100
AcDbEntity
  8
0
  6
Continuous
 62
     7
100
AcDbLine
 10
-124.945269983453
 20
-2.294479583666999
 30
0.0
 11
-125.2952699834531
 21
-1.94467958366704
 31
0.0
  0
LINE
  5
A85
330
1F
100
AcDbEntity
  8
0
  6
Continuous
 62
     7
100
AcDbLine
 10
-124.945269983453
 20
-5.59457958366716
 30
0.0
 11
-125.2952699834531
 21
-5.944679583667037
 31
0.0
  0
LINE
  5
A86
330
1F
100
AcDbEntity
  8
0
  6
Continuous
 62
     7
100
AcDbLine
 10
-124.945269983453
 20
-2.294479583666999
 30
0.0
 11
-124.945269983453
 21
-5.59457958366716
 31
0.0
  0
LINE
  5
A87
330
1F
100
AcDbEntity
  8
0
  6
Continuous
 62
     7
100
AcDbLine
 10
-125.2952699834531
 20
-5.944679583667037
 30
0.0
 11
-125.2952699834531
 21
-1.94467958366704
 31
0.0
  0
LINE
  5
A88
330
1F
100
AcDbEntity
  8
0
  6
Continuous
 62
     7
100
AcDbLine
 10
-289.944969983453
 20
-0.44467958366704
 30
0.0
 11
-291.3583699834532
 21
-0.56817958366696
 31
0.0
  0
LINE
  5
A89
330
1F
100
AcDbEntity
  8
0
  6
Continuous
 62
     7
100
AcDbLine
 10
-289.944969983453
 20
-7.444679583667037
 30
0.0
 11
-291.3583699834532
 21
-7.320879583666968
 31
0.0
  0
LINE
  5
A8A
330
1F
100
AcDbEntity
  8
0
  6
Continuous
 62
     7
100
AcDbLine
 10
-292.5450699834531
 20
-1.863379583666979
 30
0.0
 11
-292.5450699834531
 21
-6.02597958366709
 31
0.0
  0
LINE
  5
A8B
330
1F
100
AcDbEntity
  8
0
  6
Continuous
 62
     7
100
AcDbLine
 10
-131.9456699834531
 20
-28.1108795836671
 30
0.0
 11
-240.1456699834531
 21
-28.1108795836671
 31
0.0
  0
LINE
  5
A8C
330
1F
100
AcDbEntity
  8
0
  6
Continuous
 62
     7
100
AcDbLine
 10
-240.1456699834531
 20
-31.81087958366703
 30
0.0
 11
-266.1456699834531
 21
-31.81087958366703
 31
0.0
  0
LINE
  5
A8D
330
1F
100
AcDbEntity
  8
0
  6
Continuous
 62
     7
100
AcDbLine
 10
-150.1456699834531
 20
-31.81087958366703
 30
0.0
 11
-176.1456699834531
 21
-31.81087958366703
 31
0.0
  0
LINE
  5
A8E
330
1F
100
AcDbEntity
  8
0
  6
Continuous
 62
     7
100
AcDbLine
 10
-150.1456699834531
 20
-28.6108795836671
 30
0.0
 11
-176.1456699834531
 21
-28.6108795836671
 31
0.0
  0
LINE
  5
A8F
330
1F
100
AcDbEntity
  8
0
  6
Continuous
 62
     7
100
AcDbLine
 10
-128.9456699834531
 20
17.18912041633303
 30
0.0
 11
-128.9456699834531
 21
-1.94467958366704
 31
0.0
  0
LINE
  5
A90
330
1F
100
AcDbEntity
  8
0
  6
Continuous
 62
     7
100
AcDbLine
 10
-125.745669983453
 20
17.18912041633303
 30
0.0
 11
-125.745669983453
 21
-1.94467958366704
 31
0.0
  0
LINE
  5
A91
330
1F
100
AcDbEntity
  8
0
  6
Continuous
 62
     7
100
AcDbLine
 10
-125.745669983453
 20
41.18912041633303
 30
0.0
 11
-125.745669983453
 21
22.18912041633303
 31
0.0
  0
LINE
  5
A92
330
1F
100
AcDbEntity
  8
0
  6
Continuous
 62
     7
100
AcDbLine
 10
-128.9456699834531
 20
22.18912041633303
 30
0.0
 11
-128.9456699834531
 21
41.18912041633303
 31
0.0
  0
LINE
  5
A93
330
1F
100
AcDbEntity
  8
0
  6
Continuous
 62
     7
100
AcDbLine
 10
-128.9456699834531
 20
8.189120416333031
 30
0.0
 11
-132.8456699834532
 21
8.189120416333031
 31
0.0
  0
LINE
  5
A94
330
1F
100
AcDbEntity
  8
0
  6
Continuous
 62
     7
100
AcDbLine
 10
-128.9456699834531
 20
22.18912041633303
 30
0.0
 11
-125.745669983453
 21
22.18912041633303
 31
0.0
  0
LINE
  5
A95
330
1F
100
AcDbEntity
  8
0
  6
Continuous
 62
     7
100
AcDbLine
 10
-128.9456699834531
 20
-5.944679583667037
 30
0.0
 11
-128.9456699834531
 21
-25.1108795836671
 31
0.0
  0
LINE
  5
A96
330
1F
100
AcDbEntity
  8
0
  6
Continuous
 62
     7
100
AcDbLine
 10
-172.1463699834528
 20
39.9396204163329
 30
0.0
 11
-151.146369983453
 21
39.9396204163329
 31
0.0
  0
LINE
  5
A97
330
1F
100
AcDbEntity
  8
0
  6
Continuous
 62
     7
100
AcDbLine
 10
-225.1461699834529
 20
3.13952041633297
 30
0.0
 11
-246.1461699834529
 21
3.13952041633297
 31
0.0
  0
LINE
  5
A98
330
1F
100
AcDbEntity
  8
0
  6
Continuous
 62
     7
100
AcDbLine
 10
-149.146369983453
 20
6.9396204163329
 30
0.0
 11
-149.146369983453
 21
3.939620416332898
 31
0.0
  0
LINE
  5
A99
330
1F
100
AcDbEntity
  8
0
  6
Continuous
 62
     7
100
AcDbLine
 10
-151.146369983453
 20
1.939620416332898
 30
0.0
 11
-172.1463699834528
 21
1.939620416332898
 31
0.0
  0
LINE
  5
A9A
330
1F
100
AcDbEntity
  8
0
  6
Continuous
 62
     7
100
AcDbLine
 10
-151.146369983453
 20
3.13952041633297
 30
0.0
 11
-172.1463699834528
 21
3.13952041633297
 31
0.0
  0
LINE
  5
A9B
330
1F
100
AcDbEntity
  8
0
  6
Continuous
 62
     7
100
AcDbLine
 10
-151.146369983453
 20
-8.060379583667097
 30
0.0
 11
-172.1463699834528
 21
-8.060379583667097
 31
0.0
  0
LINE
  5
A9C
330
1F
100
AcDbEntity
  8
0
  6
Continuous
 62
     7
100
AcDbLine
 10
-151.146369983453
 20
-9.560379583667099
 30
0.0
 11
-172.1463699834528
 21
-9.560379583667099
 31
0.0
  0
LINE
  5
A9D
330
1F
100
AcDbEntity
  8
0
  6
Continuous
 62
     7
100
AcDbLine
 10
-151.146369983453
 20
8.9396204163329
 30
0.0
 11
-172.1463699834528
 21
8.9396204163329
 31
0.0
  0
LINE
  5
A9E
330
1F
100
AcDbEntity
  8
0
  6
Continuous
 62
     7
100
AcDbLine
 10
-151.146369983453
 20
16.9396204163329
 30
0.0
 11
-172.1463699834528
 21
16.9396204163329
 31
0.0
  0
LINE
  5
A9F
330
1F
100
AcDbEntity
  8
0
  6
Continuous
 62
     7
100
AcDbLine
 10
-225.1461699834529
 20
1.939620416332898
 30
0.0
 11
-246.1461699834529
 21
1.939620416332898
 31
0.0
  0
LINE
  5
AA0
330
1F
100
AcDbEntity
  8
0
  6
Continuous
 62
     7
100
AcDbLine
 10
-223.1461699834529
 20
6.9396204163329
 30
0.0
 11
-223.1461699834529
 21
3.939620416332898
 31
0.0
  0
LINE
  5
AA1
330
1F
100
AcDbEntity
  8
0
  6
Continuous
 62
     7
100
AcDbLine
 10
-248.1461699834529
 20
6.9396204163329
 30
0.0
 11
-248.1461699834529
 21
3.939620416332898
 31
0.0
  0
LINE
  5
AA2
330
1F
100
AcDbEntity
  8
0
  6
Continuous
 62
     7
100
AcDbLine
 10
-225.1461699834529
 20
8.9396204163329
 30
0.0
 11
-246.1461699834529
 21
8.9396204163329
 31
0.0
  0
LINE
  5
AA3
330
1F
100
AcDbEntity
  8
0
  6
Continuous
 62
     7
100
AcDbLine
 10
-149.146369983453
 20
37.93932041633297
 30
0.0
 11
-149.146369983453
 21
33.9396204163329
 31
0.0
  0
LINE
  5
AA4
330
1F
100
AcDbEntity
  8
0
  6
Continuous
 62
     7
100
AcDbLine
 10
-174.1463699834528
 20
37.9396204163329
 30
0.0
 11
-174.1463699834528
 21
33.9396204163329
 31
0.0
  0
LINE
  5
AA5
330
1F
100
AcDbEntity
  8
0
  6
Continuous
 62
     7
100
AcDbLine
 10
-151.146369983453
 20
-4.060379583667097
 30
0.0
 11
-172.1463699834528
 21
-4.060379583667097
 31
0.0
  0
LINE
  5
AA6
330
1F
100
AcDbEntity
  8
0
  6
Continuous
 62
     7
100
AcDbLine
 10
-174.1463699834528
 20
21.93962041633289
 30
0.0
 11
-174.1463699834528
 21
17.93962041633289
 31
0.0
  0
LINE
  5
AA7
330
1F
100
AcDbEntity
  8
0
  6
Continuous
 62
     7
100
AcDbLine
 10
-149.146369983453
 20
21.93962041633289
 30
0.0
 11
-149.146369983453
 21
17.93962041633289
 31
0.0
  0
LINE
  5
AA8
330
1F
100
AcDbEntity
  8
0
  6
Continuous
 62
     7
100
AcDbLine
 10
-174.1463699834528
 20
-6.060379583667097
 30
0.0
 11
-174.1463699834528
 21
-7.560379583667097
 31
0.0
  0
LINE
  5
AA9
330
1F
100
AcDbEntity
  8
0
  6
Continuous
 62
     7
100
AcDbLine
 10
-174.1463699834528
 20
6.9396204163329
 30
0.0
 11
-174.1463699834528
 21
3.939620416332898
 31
0.0
  0
LINE
  5
AAA
330
1F
100
AcDbEntity
  8
0
  6
Continuous
 62
     7
100
AcDbLine
 10
-151.146369983453
 20
15.9396204163329
 30
0.0
 11
-172.1463699834528
 21
15.9396204163329
 31
0.0
  0
LINE
  5
AAB
330
1F
100
AcDbEntity
  8
0
  6
Continuous
 62
     7
100
AcDbLine
 10
-172.1463699834528
 20
39.9396204163329
 30
0.0
 11
-151.146369983453
 21
39.9396204163329
 31
0.0
  0
LINE
  5
AAC
330
1F
100
AcDbEntity
  8
0
  6
Continuous
 62
     7
100
AcDbLine
 10
-172.1463699834528
 20
31.93962041633289
 30
0.0
 11
-151.146369983453
 21
31.93962041633289
 31
0.0
  0
LINE
  5
AAD
330
1F
100
AcDbEntity
  8
0
  6
Continuous
 62
     7
100
AcDbLine
 10
-172.1463699834528
 20
23.93962041633288
 30
0.0
 11
-151.146369983453
 21
23.93962041633288
 31
0.0
  0
LINE
  5
AAE
330
1F
100
AcDbEntity
  8
0
  6
Continuous
 62
     7
100
AcDbLine
 10
-149.146369983453
 20
-7.560379583667097
 30
0.0
 11
-149.146369983453
 21
-6.060379583667097
 31
0.0
  0
LINE
  5
AAF
330
1F
100
AcDbEntity
  8
0
  6
Continuous
 62
     7
100
AcDbLine
 10
-225.1461699834529
 20
-4.060379583667097
 30
0.0
 11
-246.1461699834529
 21
-4.060379583667097
 31
0.0
  0
LINE
  5
AB0
330
1F
100
AcDbEntity
  8
0
  6
Continuous
 62
     7
100
AcDbLine
 10
-121.9456699834531
 20
70.18912041633303
 30
0.0
 11
-122.3456699834531
 21
70.18912041633303
 31
0.0
  0
LINE
  5
AB1
330
1F
100
AcDbEntity
  8
0
  6
Continuous
 62
     7
100
AcDbLine
 10
-132.8456699834532
 20
104.789020416333
 30
0.0
 11
-132.8456699834532
 21
-26.41097958366714
 31
0.0
  0
LINE
  5
AB2
330
1F
100
AcDbEntity
  8
0
  6
Continuous
 62
     7
100
AcDbLine
 10
-150.1456699834531
 20
-31.31087958366703
 30
0.0
 11
-131.9455699834531
 21
-31.31087958366703
 31
0.0
  0
LINE
  5
AB3
330
1F
100
AcDbEntity
  8
0
  6
Continuous
 62
     7
100
AcDbLine
 10
-125.3456699834532
 20
41.18912041633303
 30
0.0
 11
-125.3456699834532
 21
24.18912041633304
 31
0.0
  0
LINE
  5
AB4
330
1F
100
AcDbEntity
  8
0
  6
Continuous
 62
     7
100
AcDbLine
 10
-125.2806699834531
 20
84.32262041633293
 30
0.0
 11
-129.6456699834531
 21
84.32262041633293
 31
0.0
  0
LINE
  5
AB5
330
1F
100
AcDbEntity
  8
0
  6
Continuous
 62
     7
100
AcDbLine
 10
-129.6456699834531
 20
80.32262041633293
 30
0.0
 11
-125.2952699834531
 21
80.32262041633293
 31
0.0
  0
LINE
  5
AB6
330
1F
100
AcDbEntity
  8
0
  6
Continuous
 62
     7
100
AcDbLine
 10
-121.9456699834531
 20
8.189120416333031
 30
0.0
 11
-125.745669983453
 21
8.189120416333031
 31
0.0
  0
LINE
  5
AB7
330
1F
100
AcDbEntity
  8
0
  6
Continuous
 62
     7
100
AcDbLine
 10
-289.945269983453
 20
-26.41097958366714
 30
0.0
 11
-132.8456699834532
 21
-26.41097958366714
 31
0.0
  0
LINE
  5
AB8
330
1F
100
AcDbEntity
  8
0
  6
Continuous
 62
     7
100
AcDbLine
 10
-132.8456699834532
 20
78.82262041633294
 30
0.0
 11
-132.528169983453
 21
78.27262041633298
 31
0.0
  0
LINE
  5
AB9
330
1F
100
AcDbEntity
  8
0
  6
Continuous
 62
     7
100
AcDbLine
 10
-129.6456699834531
 20
78.82262041633294
 30
0.0
 11
-129.963269983453
 21
78.27262041633298
 31
0.0
  0
LINE
  5
ABA
330
1F
100
AcDbEntity
  8
0
  6
Continuous
 62
     7
100
AcDbLine
 10
-132.8456699834532
 20
85.82242041633298
 30
0.0
 11
-132.528169983453
 21
86.37242041633291
 31
0.0
  0
LINE
  5
ABB
330
1F
100
AcDbEntity
  8
0
  6
Continuous
 62
     7
100
AcDbLine
 10
-129.963169983453
 20
80.3019204163329
 30
0.0
 11
-132.8456699834532
 21
80.3019204163329
 31
0.0
  0
LINE
  5
ABC
330
1F
100
AcDbEntity
  8
0
  6
Continuous
 62
     7
100
AcDbLine
 10
-129.6456699834531
 20
78.82262041633294
 30
0.0
 11
-129.6456699834531
 21
85.82242041633298
 31
0.0
  0
LINE
  5
ABD
330
1F
100
AcDbEntity
  8
0
  6
Continuous
 62
     7
100
AcDbLine
 10
-129.963269983453
 20
86.37242041633291
 30
0.0
 11
-132.528169983453
 21
86.37242041633291
 31
0.0
  0
LINE
  5
ABE
330
1F
100
AcDbEntity
  8
0
  6
Continuous
 62
     7
100
AcDbLine
 10
-132.528169983453
 20
78.27262041633298
 30
0.0
 11
-129.963269983453
 21
78.27262041633298
 31
0.0
  0
LINE
  5
ABF
330
1F
100
AcDbEntity
  8
0
  6
Continuous
 62
     7
100
AcDbLine
 10
-129.6456699834531
 20
85.82242041633298
 30
0.0
 11
-129.963269983453
 21
86.37242041633291
 31
0.0
  0
LINE
  5
AC0
330
1F
100
AcDbEntity
  8
0
  6
Continuous
 62
     7
100
AcDbLine
 10
-129.963269983453
 20
84.34322041633299
 30
0.0
 11
-132.8456699834532
 21
84.34322041633299
 31
0.0
  0
LINE
  5
AC1
330
1F
100
AcDbEntity
  8
0
  6
Continuous
 62
    30
100
AcDbLine
 10
-124.945269983453
 20
83.97252041633306
 30
0.0
 11
-129.6456699834531
 21
83.97252041633306
 31
0.0
  0
LINE
  5
AC2
330
1F
100
AcDbEntity
  8
0
  6
Continuous
 62
     7
100
AcDbLine
 10
-124.945269983453
 20
80.67252041633286
 30
0.0
 11
-125.2952699834531
 21
80.32262041633293
 31
0.0
  0
LINE
  5
AC3
330
1F
100
AcDbEntity
  8
0
  6
Continuous
 62
     7
100
AcDbLine
 10
-124.945269983453
 20
83.97252041633306
 30
0.0
 11
-125.2952699834531
 21
84.32262041633293
 31
0.0
  0
LINE
  5
AC4
330
1F
100
AcDbEntity
  8
0
  6
Continuous
 62
     7
100
AcDbLine
 10
-124.945269983453
 20
80.67252041633286
 30
0.0
 11
-124.945269983453
 21
83.97252041633306
 31
0.0
  0
LINE
  5
AC5
330
1F
100
AcDbEntity
  8
0
  6
Continuous
 62
     7
100
AcDbLine
 10
-125.2952699834531
 20
84.32262041633293
 30
0.0
 11
-125.2952699834531
 21
80.32262041633293
 31
0.0
  0
LINE
  5
AC6
330
1F
100
AcDbEntity
  8
0
  6
Continuous
 62
     7
100
AcDbLine
 10
-125.3456699834532
 20
8.189120416333031
 30
0.0
 11
-125.3456699834532
 21
17.18912041633303
 31
0.0
  0
LINE
  5
AC7
330
1F
100
AcDbEntity
  8
0
  6
Continuous
 62
     7
100
AcDbLine
 10
-129.3456699834532
 20
8.189120416333031
 30
0.0
 11
-129.3456699834532
 21
17.18912041633303
 31
0.0
  0
LINE
  5
AC8
330
1F
100
AcDbEntity
  8
0
  6
Continuous
 62
     7
100
AcDbLine
 10
-121.9456699834531
 20
8.189120416333031
 30
0.0
 11
-119.9456699834531
 21
10.18892041633284
 31
0.0
  0
LINE
  5
AC9
330
1F
100
AcDbEntity
  8
0
  6
Continuous
 62
     7
100
AcDbLine
 10
-119.9456699834531
 20
68.18912041633303
 30
0.0
 11
-121.9456699834531
 21
70.18912041633303
 31
0.0
  0
LINE
  5
ACA
330
1F
100
AcDbEntity
  8
0
  6
Continuous
 62
     7
100
AcDbLine
 10
-122.3456699834531
 20
8.189120416333031
 30
0.0
 11
-122.3456699834531
 21
81.53312041633284
 31
0.0
  0
LINE
  5
ACB
330
1F
100
AcDbEntity
  8
0
  6
Continuous
 62
     7
100
AcDbLine
 10
-129.3456699834532
 20
41.18912041633303
 30
0.0
 11
-129.3456699834532
 21
24.18912041633304
 31
0.0
  0
LINE
  5
ACC
330
1F
100
AcDbEntity
  8
0
  6
Continuous
 62
     7
100
AcDbLine
 10
-125.3456699834532
 20
41.18912041633303
 30
0.0
 11
-129.3456699834532
 21
41.18912041633303
 31
0.0
  0
LINE
  5
ACD
330
1F
100
AcDbEntity
  8
0
  6
Continuous
 62
     7
100
AcDbLine
 10
-132.3456699834532
 20
8.189120416333031
 30
0.0
 11
-132.3456699834532
 21
78.27262041633298
 31
0.0
  0
LINE
  5
ACE
330
1F
100
AcDbEntity
  8
0
  6
Continuous
 62
     7
100
AcDbLine
 10
-119.9456699834531
 20
31.68912041633304
 30
0.0
 11
-118.1456699834531
 21
31.68912041633304
 31
0.0
  0
LINE
  5
ACF
330
1F
100
AcDbEntity
  8
0
  6
Continuous
 62
     7
100
AcDbLine
 10
-119.9456699834531
 20
46.68912041633302
 30
0.0
 11
-118.1456699834531
 21
46.68912041633302
 31
0.0
  0
LINE
  5
AD2
330
1F
100
AcDbEntity
  8
0
  6
Continuous
 62
     7
100
AcDbLine
 10
-124.945269983453
 20
81.53312041633284
 30
0.0
 11
-122.3456699834531
 21
81.53312041633284
 31
0.0
  0
LINE
  5
AD3
330
1F
100
AcDbEntity
  8
0
  6
Continuous
 62
     7
100
AcDbLine
 10
-240.1456699834531
 20
-28.6108795836671
 30
0.0
 11
-240.1456699834531
 21
-28.1108795836671
 31
0.0
  0
LINE
  5
AD4
330
1F
100
AcDbEntity
  8
0
  6
Continuous
 62
     7
100
AcDbLine
 10
-176.1456699834531
 20
-28.6108795836671
 30
0.0
 11
-176.1456699834531
 21
-28.1108795836671
 31
0.0
  0
LINE
  5
AD5
330
1F
100
AcDbEntity
  8
0
  6
Continuous
 62
     7
100
AcDbLine
 10
-132.3456699834532
 20
17.18912041633303
 30
0.0
 11
-122.3456699834531
 21
17.18912041633303
 31
0.0
  0
LINE
  5
AD6
330
1F
100
AcDbEntity
  8
0
  6
Continuous
 62
     7
100
AcDbLine
 10
-125.745669983453
 20
-25.1108795836671
 30
0.0
 11
-125.745669983453
 21
-5.944679583667037
 31
0.0
  0
LINE
  5
AD7
330
1F
100
AcDbEntity
  8
0
  6
Continuous
 62
     7
100
AcDbLine
 10
-128.9456699834531
 20
24.18912041633304
 30
0.0
 11
-129.3456699834532
 21
24.18912041633304
 31
0.0
  0
LINE
  5
AD8
330
1F
100
AcDbEntity
  8
0
  6
Continuous
 62
     7
100
AcDbLine
 10
-125.3456699834532
 20
24.18912041633304
 30
0.0
 11
-125.745669983453
 21
24.18912041633304
 31
0.0
  0
LINE
  5
AD9
330
1F
100
AcDbEntity
  8
0
  6
Continuous
 62
     7
100
AcDbLine
 10
-176.1456699834531
 20
-31.31087958366703
 30
0.0
 11
-240.1456699834531
 21
-31.31087958366703
 31
0.0
  0
LINE
  5
ADC
330
1F
100
AcDbEntity
  8
0
  6
Continuous
 62
     7
100
AcDbLine
 10
-291.4452699834531
 20
78.95672041633304
 30
0.0
 11
-291.4452699834531
 21
72.5333204163329
 31
0.0
  0
LINE
  5
ADD
330
1F
100
AcDbEntity
  8
0
  6
Continuous
 62
     7
100
AcDbLine
 10
-299.4452699834528
 20
80.53332041633302
 30
0.0
 11
-299.4452699834528
 21
72.53332041633303
 31
0.0
  0
LINE
  5
ADE
330
1F
100
AcDbEntity
  8
0
  6
Continuous
 62
     7
100
AcDbLine
 10
-299.4452699834528
 20
72.53332041633303
 30
0.0
 11
-291.4452699834531
 21
72.5333204163329
 31
0.0
  0
LINE
  5
ADF
330
1F
100
AcDbEntity
  8
0
  6
Continuous
 62
     7
100
AcDbLine
 10
-299.4452699834528
 20
80.53332041633302
 30
0.0
 11
-292.5450699834531
 21
80.53332041633289
 31
0.0
  0
LINE
  5
AE0
330
1F
100
AcDbEntity
  8
0
  6
Continuous
 62
     7
100
AcDbLine
 10
-293.8451699834531
 20
24.18912041633304
 30
0.0
 11
-293.4452699834531
 21
24.18912041633304
 31
0.0
  0
LINE
  5
AE1
330
1F
100
AcDbEntity
  8
0
  6
Continuous
 62
     7
100
AcDbLine
 10
-290.4449699834529
 20
17.18912041633303
 30
0.0
 11
-300.444969983453
 21
17.18912041633303
 31
0.0
  0
LINE
  5
AE2
330
1F
100
AcDbEntity
  8
0
  6
Continuous
 62
     7
100
AcDbLine
 10
-293.444969983453
 20
8.189120416333031
 30
0.0
 11
-293.444969983453
 21
17.18912041633303
 31
0.0
  0
LINE
  5
AE3
330
1F
100
AcDbEntity
  8
0
  6
Continuous
 62
     7
100
AcDbLine
 10
-297.444969983453
 20
8.189120416333031
 30
0.0
 11
-297.444969983453
 21
17.18912041633303
 31
0.0
  0
LINE
  5
AE4
330
1F
100
AcDbEntity
  8
0
  6
Continuous
 62
     7
100
AcDbLine
 10
-300.8451699834531
 20
8.189120416333031
 30
0.0
 11
-297.0450699834531
 21
8.189120416333031
 31
0.0
  0
LINE
  5
AE5
330
1F
100
AcDbEntity
  8
0
  6
Continuous
 62
     7
100
AcDbLine
 10
-297.4452699834531
 20
41.18912041633303
 30
0.0
 11
-297.4452699834528
 21
24.18912041633304
 31
0.0
  0
LINE
  5
AE6
330
1F
100
AcDbEntity
  8
0
  6
Continuous
 62
     7
100
AcDbLine
 10
-293.8451699834531
 20
22.18912041633303
 30
0.0
 11
-297.0450699834531
 21
22.18912041633303
 31
0.0
  0
LINE
  5
AE7
330
1F
100
AcDbEntity
  8
0
  6
Continuous
 62
     7
100
AcDbLine
 10
-293.8451699834531
 20
8.189120416333031
 30
0.0
 11
-290.4452699834528
 21
8.189120416333031
 31
0.0
  0
LINE
  5
AE8
330
1F
100
AcDbEntity
  8
0
  6
Continuous
 62
     7
100
AcDbLine
 10
-297.0450699834531
 20
41.18912041633303
 30
0.0
 11
-297.0450699834531
 21
22.18912041633303
 31
0.0
  0
LINE
  5
AE9
330
1F
100
AcDbEntity
  8
0
  6
Continuous
 62
     7
100
AcDbLine
 10
-300.444969983453
 20
8.189120416333031
 30
0.0
 11
-300.444969983453
 21
81.53312041633284
 31
0.0
  0
LINE
  5
AEA
330
1F
100
AcDbEntity
  8
0
  6
Continuous
 62
     7
100
AcDbLine
 10
-292.5450699834531
 20
81.53312041633295
 30
0.0
 11
-300.444969983453
 21
81.53312041633284
 31
0.0
  0
LINE
  5
AEB
330
1F
100
AcDbEntity
  8
0
  6
Continuous
 62
     7
100
AcDbLine
 10
-300.444969983453
 20
71.78902041633306
 30
0.0
 11
-290.4449699834529
 21
71.78902041633306
 31
0.0
  0
LINE
  5
AEC
330
1F
100
AcDbEntity
  8
0
  6
Continuous
 62
     7
100
AcDbLine
 10
-300.8451699834531
 20
70.18912041633303
 30
0.0
 11
-300.444969983453
 21
70.18912041633303
 31
0.0
  0
LINE
  5
AED
330
1F
100
AcDbEntity
  8
0
  6
Continuous
 62
     7
100
AcDbLine
 10
-289.944969983453
 20
78.82262041633305
 30
0.0
 11
-291.3583699834532
 21
78.94622041633295
 31
0.0
  0
LINE
  5
AEE
330
1F
100
AcDbEntity
  8
0
  6
Continuous
 62
     7
100
AcDbLine
 10
-289.944969983453
 20
85.82262041633304
 30
0.0
 11
-291.3583699834532
 21
85.69892041633295
 31
0.0
  0
LINE
  5
AEF
330
1F
100
AcDbEntity
  8
0
  6
Continuous
 62
     7
100
AcDbLine
 10
-292.5450699834531
 20
80.24132041633299
 30
0.0
 11
-292.5450699834531
 21
84.40392041633311
 31
0.0
  0
LINE
  5
AF0
330
1F
100
AcDbEntity
  8
0
  6
Continuous
 62
     7
100
AcDbLine
 10
-297.4452699834528
 20
24.18912041633304
 30
0.0
 11
-297.0450699834531
 21
24.18912041633304
 31
0.0
  0
LINE
  5
AF1
330
1F
100
AcDbEntity
  8
0
  6
Continuous
 62
     7
100
AcDbLine
 10
-290.4449699834529
 20
78.866320416333
 30
0.0
 11
-290.4449699834529
 21
44.18912041633314
 31
0.0
  0
LINE
  5
AF2
330
1F
100
AcDbEntity
  8
0
  6
Continuous
 62
     7
100
AcDbLine
 10
-290.4448506286143
 20
34.18912041633304
 30
0.0
 11
-290.4452699834528
 21
8.189120416333031
 31
0.0
  0
LINE
  5
AF3
330
1F
100
AcDbEntity
  8
0
  6
Continuous
 62
     7
100
AcDbLine
 10
-290.4452699834528
 20
8.189120416333031
 30
0.0
 11
-289.944969983453
 21
8.189120416333031
 31
0.0
  0
LINE
  5
AF4
330
1F
100
AcDbEntity
  8
0
  6
Continuous
 62
     7
100
AcDbLine
 10
-287.6454699834528
 20
104.789020416333
 30
0.0
 11
-287.6454699834528
 21
-26.41097958366714
 31
0.0
  0
LINE
  5
AF5
330
1F
100
AcDbEntity
  8
0
  6
Continuous
 62
     7
100
AcDbLine
 10
-289.945269983453
 20
104.789020416333
 30
0.0
 11
-289.945269983453
 21
-26.41097958366714
 31
0.0
  0
LINE
  5
AF6
330
1F
100
AcDbEntity
  8
0
  6
DASH_CENTER
 62
    30
100
AcDbLine
 10
-295.4452699834528
 20
82.32262041633305
 30
0.0
 11
-280.9000817329301
 21
82.32262041633305
 31
0.0
  0
LINE
  5
AF7
330
1F
100
AcDbEntity
  8
0
  6
DASH_CENTER
 62
    30
100
AcDbLine
 10
-299.9690297491127
 20
76.53332041633301
 30
0.0
 11
-290.9215102177931
 21
76.5333204163329
 31
0.0
  0
LINE
  5
AF8
330
1F
100
AcDbEntity
  8
0
  6
DASH_CENTER
 62
    30
100
AcDbLine
 10
-295.4452699834531
 20
81.05708018199289
 30
0.0
 11
-295.4452699834531
 21
72.00956065067316
 31
0.0
  0
LINE
  5
AF9
330
1F
100
AcDbEntity
  8
0
  6
Continuous
 62
     7
100
AcDbLine
 10
-250.645169983453
 20
17.71140083013039
 30
0.0
 11
-250.645169983453
 21
40.88962041633306
 31
0.0
  0
LINE
  5
AFA
330
1F
100
AcDbEntity
  8
0
  6
Continuous
 62
     7
100
AcDbLine
 10
-247.5450699834529
 20
17.71140083013039
 30
0.0
 11
-247.5450699834529
 21
40.88962041633306
 31
0.0
  0
LINE
  5
AFB
330
1F
100
AcDbEntity
  8
0
  6
Continuous
 62
     7
100
AcDbLine
 10
-257.0400050652061
 20
18.91046510904346
 30
0.0
 11
-252.395169983453
 21
39.18912041633303
 31
0.0
  0
LINE
  5
AFC
330
1F
100
AcDbEntity
  8
0
  6
Continuous
 62
     7
100
AcDbLine
 10
-241.2112832016479
 20
19.17437038479432
 30
0.0
 11
-245.7955699834529
 21
39.18912041633303
 31
0.0
  0
LINE
  5
AFD
330
1F
100
AcDbEntity
  8
0
  6
Continuous
 62
     7
100
AcDbLine
 10
-247.5450699834529
 20
33.39032800098987
 30
0.0
 11
-244.1355573379861
 21
18.50457879366945
 31
0.0
  0
LINE
  5
AFE
330
1F
100
AcDbEntity
  8
0
  6
Continuous
 62
     7
100
AcDbLine
 10
-250.645169983453
 20
33.39262356470644
 30
0.0
 11
-254.115734130144
 21
18.24065954147
 31
0.0
  0
LINE
  5
AFF
330
1F
100
AcDbEntity
  8
0
  6
Continuous
 62
     7
100
AcDbLine
 10
-292.9452317769309
 20
41.3057079585335
 30
0.0
 11
-292.9452305728498
 21
39.18912041633347
 31
0.0
  0
LINE
  5
B00
330
1F
100
AcDbEntity
  8
0
  6
Continuous
 62
     7
100
AcDbLine
 10
-290.7453611166078
 20
44.18937554649459
 30
0.0
 11
-290.7452070275827
 21
39.18912041633347
 31
0.0
  0
LINE
  5
B01
330
1F
100
AcDbEntity
  8
0
  6
Continuous
 62
     7
100
AcDbLine
 10
-291.7585875833998
 20
42.60083816355654
 30
0.0
 11
-290.745220000301
 21
42.68954983992558
 31
0.0
  0
LINE
  5
B02
330
1F
100
AcDbEntity
  8
0
  6
Continuous
 62
     7
100
AcDbLine
 10
-292.9452305728498
 20
39.18912041633347
 30
0.0
 11
-292.9452317769309
 21
37.07253287413255
 31
0.0
  0
LINE
  5
B03
330
1F
100
AcDbEntity
  8
0
  6
Continuous
 62
     7
100
AcDbLine
 10
-290.7452070275827
 20
39.18912041633347
 30
0.0
 11
-290.7453611166078
 21
34.18886528617145
 31
0.0
  0
LINE
  5
B04
330
1F
100
AcDbEntity
  8
0
  6
Continuous
 62
     7
100
AcDbLine
 10
-290.745220000301
 20
35.68869099274047
 30
0.0
 11
-291.7585875833998
 21
35.7774026691095
 31
0.0
  0
LINE
  5
B05
330
1F
100
AcDbEntity
  8
0
  6
Continuous
 62
     7
100
AcDbLine
 10
-289.945269983453
 20
44.18953227910566
 30
0.0
 11
-289.945269983453
 21
34.18870855356038
 31
0.0
  0
LINE
  5
B06
330
1F
100
AcDbEntity
  8
0
  6
Continuous
 62
     7
100
AcDbLine
 10
-289.945269983453
 20
44.18953227910566
 30
0.0
 11
-290.7453611166078
 21
44.18937554649459
 31
0.0
  0
LINE
  5
B07
330
1F
100
AcDbEntity
  8
0
  6
Continuous
 62
     7
100
AcDbLine
 10
-289.945269983453
 20
34.18870855356038
 30
0.0
 11
-290.7453611166078
 21
34.18886528617145
 31
0.0
  0
LINE
  5
B08
330
1F
100
AcDbEntity
  8
0
  6
Continuous
 62
     7
100
AcDbLine
 10
-293.8451699834531
 20
41.18912041633303
 30
0.0
 11
-293.8451699834531
 21
22.18912041633303
 31
0.0
  0
LINE
  5
B09
330
1F
100
AcDbEntity
  8
0
  6
Continuous
 62
     7
100
AcDbLine
 10
-293.4452699834531
 20
41.18912041633303
 30
0.0
 11
-297.4452699834531
 21
41.18912041633303
 31
0.0
  0
LINE
  5
B0A
330
1F
100
AcDbEntity
  8
0
  6
Continuous
 62
     7
100
AcDbLine
 10
-293.4452699834531
 20
41.18912041633303
 30
0.0
 11
-293.4452699834531
 21
24.18912041633304
 31
0.0
  0
ARC
  5
B0B
330
1F
100
AcDbEntity
  8
0
  6
Continuous
 62
     7
100
AcDbCircle
 10
-117.5456032777294
 20
31.58899687605496
 30
0.0
 40
0.6000235439859722
100
AcDbArc
 50
90.00636967743664
 51
160.5170614409838
  0
ARC
  5
B0C
330
1F
100
AcDbEntity
  8
0
  6
Continuous
 62
     7
100
AcDbCircle
 10
-117.5456227950733
 20
46.78905776816129
 30
0.0
 40
0.6000373536837415
100
AcDbArc
 50
199.4636147998161
 51
269.9954941221842
  0
ARC
  5
B0D
330
1F
100
AcDbEntity
  8
0
  6
Continuous
 62
     7
100
AcDbCircle
 10
-225.1461699834529
 20
-6.060379583667097
 30
0.0
 40
2.0
100
AcDbArc
 50
0.0
 51
90.0
  0
ARC
  5
B0E
330
1F
100
AcDbEntity
  8
0
  6
Continuous
 62
     7
100
AcDbCircle
 10
-225.1461699834529
 20
-7.560379583667097
 30
0.0
 40
2.0
100
AcDbArc
 50
270.0
 51
0.0
  0
ARC
  5
B0F
330
1F
100
AcDbEntity
  8
0
  6
Continuous
 62
     7
100
AcDbCircle
 10
-225.1461699834529
 20
-6.060379583667097
 30
0.0
 40
2.0
100
AcDbArc
 50
270.0
 51
0.0
  0
ARC
  5
B10
330
1F
100
AcDbEntity
  8
0
  6
Continuous
 62
     7
100
AcDbCircle
 10
-246.1459699834531
 20
-6.060379583667097
 30
0.0
 40
2.0
100
AcDbArc
 50
180.0
 51
270.0
  0
ARC
  5
B11
330
1F
100
AcDbEntity
  8
0
  6
Continuous
 62
     7
100
AcDbCircle
 10
-246.1459699834531
 20
-6.060379583667097
 30
0.0
 40
2.0
100
AcDbArc
 50
90.0
 51
180.0
  0
ARC
  5
B12
330
1F
100
AcDbEntity
  8
0
  6
Continuous
 62
     7
100
AcDbCircle
 10
-246.1459699834531
 20
-7.560379583667097
 30
0.0
 40
2.0
100
AcDbArc
 50
180.0
 51
270.0
  0
ARC
  5
B13
330
1F
100
AcDbEntity
  8
0
  6
Continuous
 62
     7
100
AcDbCircle
 10
-290.8451699838564
 20
-25.11087958326386
 30
0.0
 40
6.200000000403199
100
AcDbArc
 50
180.0009241292027
 51
270.0000000037265
  0
ARC
  5
B14
330
1F
100
AcDbEntity
  8
0
  6
Continuous
 62
     7
100
AcDbCircle
 10
-290.8451699842863
 20
-25.11087958283377
 30
0.0
 40
3.000000000833312
100
AcDbArc
 50
180.0019098752328
 51
270.0000000159163
  0
ARC
  5
B15
330
1F
100
AcDbEntity
  8
0
  6
Continuous
 62
     7
100
AcDbCircle
 10
-136.2339699820878
 20
-3.9443244208523
 30
0.0
 40
6.588287642624369
100
AcDbArc
 50
342.1374535162648
 51
17.85971104158705
  0
ARC
  5
B16
330
1F
100
AcDbEntity
  8
0
  6
Continuous
 62
     7
100
AcDbCircle
 10
-136.2339595647584
 20
0.09687332092533
 30
0.0
 40
6.588277034786307
100
AcDbArc
 50
342.1374444196873
 51
355.5807522366336
  0
ARC
  5
B17
330
1F
100
AcDbEntity
  8
0
  6
Continuous
 62
     7
100
AcDbCircle
 10
-136.2339342432597
 20
-7.986061055098269
 30
0.0
 40
6.588261696440956
100
AcDbArc
 50
4.420379507665927
 51
17.86285958685709
  0
ARC
  5
B18
330
1F
100
AcDbEntity
  8
0
  6
Continuous
 62
     7
100
AcDbCircle
 10
-291.2450467343638
 20
-1.863354210872557
 30
0.0
 40
1.300023249336687
100
AcDbArc
 50
95.00082984248439
 51
180.0011182523357
  0
ARC
  5
B19
330
1F
100
AcDbEntity
  8
0
  6
Continuous
 62
     7
100
AcDbCircle
 10
-291.2450965442573
 20
-6.025950598884318
 30
0.0
 40
1.299973439518822
100
AcDbArc
 50
180.0012774920418
 51
265.0011817930995
  0
ARC
  5
B1A
330
1F
100
AcDbEntity
  8
0
  6
Continuous
 62
     7
100
AcDbCircle
 10
-131.9455699834531
 20
-25.1108795836671
 30
0.0
 40
3.000000001666666
100
AcDbArc
 50
269.998090140684
 51
359.9980901406829
  0
ARC
  5
B1B
330
1F
100
AcDbEntity
  8
0
  6
Continuous
 62
     7
100
AcDbCircle
 10
-225.1461699834529
 20
6.9396204163329
 30
0.0
 40
2.0
100
AcDbArc
 50
0.0
 51
90.0
  0
ARC
  5
B1C
330
1F
100
AcDbEntity
  8
0
  6
Continuous
 62
     7
100
AcDbCircle
 10
-246.1461699834529
 20
5.139520416332968
 30
0.0
 40
2.0
100
AcDbArc
 50
180.0
 51
270.0
  0
ARC
  5
B1D
330
1F
100
AcDbEntity
  8
0
  6
Continuous
 62
     7
100
AcDbCircle
 10
-225.1461699834529
 20
3.939620416332898
 30
0.0
 40
2.0
100
AcDbArc
 50
270.0
 51
0.0
  0
ARC
  5
B1E
330
1F
100
AcDbEntity
  8
0
  6
Continuous
 62
     7
100
AcDbCircle
 10
-151.146369983453
 20
3.939620416332898
 30
0.0
 40
2.0
100
AcDbArc
 50
270.0
 51
0.0
  0
ARC
  5
B1F
330
1F
100
AcDbEntity
  8
0
  6
Continuous
 62
     7
100
AcDbCircle
 10
-151.146369983453
 20
-6.060379583667097
 30
0.0
 40
2.0
100
AcDbArc
 50
0.0
 51
90.0
  0
ARC
  5
B20
330
1F
100
AcDbEntity
  8
0
  6
Continuous
 62
     7
100
AcDbCircle
 10
-151.146369983453
 20
37.93932041633297
 30
0.0
 40
2.0
100
AcDbArc
 50
0.0
 51
90.0
  0
ARC
  5
B21
330
1F
100
AcDbEntity
  8
0
  6
Continuous
 62
     7
100
AcDbCircle
 10
-172.1463699834528
 20
37.9396204163329
 30
0.0
 40
2.0
100
AcDbArc
 50
90.0
 51
180.0
  0
ARC
  5
B22
330
1F
100
AcDbEntity
  8
0
  6
Continuous
 62
     7
100
AcDbCircle
 10
-225.1461699834529
 20
5.139520416332968
 30
0.0
 40
2.0
100
AcDbArc
 50
270.0
 51
0.0
  0
ARC
  5
B23
330
1F
100
AcDbEntity
  8
0
  6
Continuous
 62
     7
100
AcDbCircle
 10
-246.1461699834529
 20
6.9396204163329
 30
0.0
 40
2.0
100
AcDbArc
 50
90.0
 51
180.0
  0
ARC
  5
B24
330
1F
100
AcDbEntity
  8
0
  6
Continuous
 62
     7
100
AcDbCircle
 10
-172.1463699834528
 20
33.9396204163329
 30
0.0
 40
2.0
100
AcDbArc
 50
180.0
 51
270.0
  0
ARC
  5
B25
330
1F
100
AcDbEntity
  8
0
  6
Continuous
 62
     7
100
AcDbCircle
 10
-151.146369983453
 20
33.9396204163329
 30
0.0
 40
2.0
100
AcDbArc
 50
270.0
 51
0.0
  0
ARC
  5
B26
330
1F
100
AcDbEntity
  8
0
  6
Continuous
 62
     7
100
AcDbCircle
 10
-151.146369983453
 20
21.93962041633289
 30
0.0
 40
2.0
100
AcDbArc
 50
0.0
 51
90.0
  0
ARC
  5
B27
330
1F
100
AcDbEntity
  8
0
  6
Continuous
 62
     7
100
AcDbCircle
 10
-151.146369983453
 20
17.93962041633289
 30
0.0
 40
2.0
100
AcDbArc
 50
270.0
 51
0.0
  0
ARC
  5
B28
330
1F
100
AcDbEntity
  8
0
  6
Continuous
 62
     7
100
AcDbCircle
 10
-172.1463699834528
 20
17.93962041633289
 30
0.0
 40
2.0
100
AcDbArc
 50
180.0
 51
270.0
  0
ARC
  5
B29
330
1F
100
AcDbEntity
  8
0
  6
Continuous
 62
     7
100
AcDbCircle
 10
-172.1463699834528
 20
21.93962041633289
 30
0.0
 40
2.0
100
AcDbArc
 50
90.0
 51
180.0
  0
ARC
  5
B2A
330
1F
100
AcDbEntity
  8
0
  6
Continuous
 62
     7
100
AcDbCircle
 10
-172.1463699834528
 20
6.9396204163329
 30
0.0
 40
2.0
100
AcDbArc
 50
90.0
 51
180.0
  0
ARC
  5
B2B
330
1F
100
AcDbEntity
  8
0
  6
Continuous
 62
     7
100
AcDbCircle
 10
-151.146369983453
 20
6.9396204163329
 30
0.0
 40
2.0
100
AcDbArc
 50
0.0
 51
90.0
  0
ARC
  5
B2C
330
1F
100
AcDbEntity
  8
0
  6
Continuous
 62
     7
100
AcDbCircle
 10
-151.146369983453
 20
-7.560379583667097
 30
0.0
 40
2.0
100
AcDbArc
 50
270.0
 51
0.0
  0
ARC
  5
B2D
330
1F
100
AcDbEntity
  8
0
  6
Continuous
 62
     7
100
AcDbCircle
 10
-172.1463699834528
 20
-7.560379583667097
 30
0.0
 40
2.0
100
AcDbArc
 50
180.0
 51
270.0
  0
ARC
  5
B2E
330
1F
100
AcDbEntity
  8
0
  6
Continuous
 62
     7
100
AcDbCircle
 10
-172.1463699834528
 20
5.139520416332968
 30
0.0
 40
2.0
100
AcDbArc
 50
180.0
 51
270.0
  0
ARC
  5
B2F
330
1F
100
AcDbEntity
  8
0
  6
Continuous
 62
     7
100
AcDbCircle
 10
-172.1463699834528
 20
18.93962041633288
 30
0.0
 40
2.0
100
AcDbArc
 50
180.0
 51
270.0
  0
ARC
  5
B30
330
1F
100
AcDbEntity
  8
0
  6
Continuous
 62
     7
100
AcDbCircle
 10
-151.146369983453
 20
-6.060379583667097
 30
0.0
 40
2.0
100
AcDbArc
 50
270.0
 51
0.0
  0
ARC
  5
B31
330
1F
100
AcDbEntity
  8
0
  6
Continuous
 62
     7
100
AcDbCircle
 10
-151.146369983453
 20
5.139520416332968
 30
0.0
 40
2.0
100
AcDbArc
 50
270.0
 51
0.0
  0
ARC
  5
B32
330
1F
100
AcDbEntity
  8
0
  6
Continuous
 62
     7
100
AcDbCircle
 10
-172.1463699834528
 20
-6.060379583667097
 30
0.0
 40
2.0
100
AcDbArc
 50
180.0
 51
270.0
  0
ARC
  5
B33
330
1F
100
AcDbEntity
  8
0
  6
Continuous
 62
     7
100
AcDbCircle
 10
-151.146369983453
 20
18.93962041633288
 30
0.0
 40
2.0
100
AcDbArc
 50
270.0
 51
0.0
  0
ARC
  5
B34
330
1F
100
AcDbEntity
  8
0
  6
Continuous
 62
     7
100
AcDbCircle
 10
-246.1461699834529
 20
3.939620416332898
 30
0.0
 40
2.0
100
AcDbArc
 50
180.0
 51
270.0
  0
ARC
  5
B35
330
1F
100
AcDbEntity
  8
0
  6
Continuous
 62
     7
100
AcDbCircle
 10
-172.1463699834528
 20
3.939620416332898
 30
0.0
 40
2.0
100
AcDbArc
 50
180.0
 51
270.0
  0
ARC
  5
B36
330
1F
100
AcDbEntity
  8
0
  6
Continuous
 62
     7
100
AcDbCircle
 10
-172.1463699834528
 20
-6.060379583667097
 30
0.0
 40
2.0
100
AcDbArc
 50
90.0
 51
180.0
  0
ARC
  5
B37
330
1F
100
AcDbEntity
  8
0
  6
Continuous
 62
     7
100
AcDbCircle
 10
-136.233969980851
 20
82.32231525735747
 30
0.0
 40
6.588302977166542
100
AcDbArc
 50
342.1398750480697
 51
17.86296032392037
  0
ARC
  5
B38
330
1F
100
AcDbEntity
  8
0
  6
Continuous
 62
     7
100
AcDbCircle
 10
-136.2339595647584
 20
78.28106751174056
 30
0.0
 40
6.588277034786307
100
AcDbArc
 50
4.41924776336633
 51
17.86255558031264
  0
ARC
  5
B39
330
1F
100
AcDbEntity
  8
0
  6
Continuous
 62
     7
100
AcDbCircle
 10
-136.2339595647584
 20
86.36397332092535
 30
0.0
 40
6.588277034786307
100
AcDbArc
 50
342.1374444196873
 51
355.5807522366336
  0
ARC
  5
B3A
330
1F
100
AcDbEntity
  8
0
  6
Continuous
 62
     7
100
AcDbCircle
 10
-131.9455699834531
 20
-25.1108795836671
 30
0.0
 40
6.200000000806384
100
AcDbArc
 50
269.9990758745243
 51
359.9990758745239
  0
ARC
  5
B3B
330
1F
100
AcDbEntity
  8
0
  6
Continuous
 62
     7
100
AcDbCircle
 10
-249.0954199834531
 20
40.88962041633306
 30
0.0
 40
1.550049999999996
100
AcDbArc
 50
0.0
 51
180.0
  0
ARC
  5
B3C
330
1F
100
AcDbEntity
  8
0
  6
Continuous
 62
     7
100
AcDbCircle
 10
-249.145469983453
 20
39.18912041633303
 30
0.0
 40
3.25
100
AcDbArc
 50
0.0
 51
180.0
  0
ARC
  5
B3D
330
1F
100
AcDbEntity
  8
0
  6
Continuous
 62
     7
100
AcDbCircle
 10
-250.8453786216909
 20
39.18911283029907
 30
0.0
 40
1.550091361780923
100
AcDbArc
 50
82.57898867795979
 51
179.9997195986382
  0
ARC
  5
B3E
330
1F
100
AcDbEntity
  8
0
  6
Continuous
 62
     7
100
AcDbCircle
 10
-249.145814381933
 20
39.18917847433368
 30
0.0
 40
13.49998940455209
100
AcDbArc
 50
257.239371113736
 51
263.6229496551806
  0
ARC
  5
B3F
330
1F
100
AcDbEntity
  8
0
  6
Continuous
 62
     7
100
AcDbCircle
 10
-249.1454127539276
 20
39.18913050016535
 30
0.0
 40
13.50000112468975
100
AcDbArc
 50
276.8080743069555
 51
283.1777936727036
  0
ARC
  5
B40
330
1F
100
AcDbEntity
  8
0
  6
Continuous
 62
     7
100
AcDbCircle
 10
-247.3454113444013
 20
39.18915674127505
 30
0.0
 40
1.550041361373749
100
AcDbArc
 50
359.9986572836566
 51
97.41938827285864
  0
ARC
  5
B41
330
1F
100
AcDbEntity
  8
0
  6
Continuous
 62
     7
100
AcDbCircle
 10
-249.1453825664224
 20
39.1891207429168
 30
0.0
 40
13.50000470008656
100
AcDbArc
 50
296.8997234066666
 51
243.528380463158
  0
ARC
  5
B42
330
1F
100
AcDbEntity
  8
0
  6
Continuous
 62
     7
100
AcDbCircle
 10
-291.2450965442573
 20
80.24134940111563
 30
0.0
 40
1.299973439518882
100
AcDbArc
 50
180.0012774920351
 51
265.0011817931024
  0
ARC
  5
B43
330
1F
100
AcDbEntity
  8
0
  6
Continuous
 62
     7
100
AcDbCircle
 10
-291.2450467343642
 20
84.40394578912743
 30
0.0
 40
1.300023249336529
100
AcDbArc
 50
95.00082984246992
 51
180.0011182523314
  0
ARC
  5
B44
330
1F
100
AcDbEntity
  8
0
  6
Continuous
 62
   171
100
AcDbCircle
 10
-249.8701449834529
 20
16.36901815299439
 30
0.0
 40
1.550049999999949
100
AcDbArc
 50
59.99999999999896
 51
120.000000000001
  0
ARC
  5
B45
330
1F
100
AcDbEntity
  8
0
  6
Continuous
 62
   171
100
AcDbCircle
 10
-248.3200949834531
 20
19.05378350726642
 30
0.0
 40
1.550049999999914
100
AcDbArc
 50
240.0000000000018
 51
300.0000000000036
  0
ARC
  5
B46
330
1F
100
AcDbEntity
  8
0
  6
Continuous
 62
   171
100
AcDbCircle
 10
-249.8701449834531
 20
19.05378350726642
 30
0.0
 40
1.550049999999914
100
AcDbArc
 50
240.0000000000018
 51
300.0000000000036
  0
ARC
  5
B47
330
1F
100
AcDbEntity
  8
0
  6
Continuous
 62
   171
100
AcDbCircle
 10
-256.598971649998
 20
17.47676725849407
 30
0.0
 40
1.500000000000049
100
AcDbArc
 50
47.09891807570128
 51
107.0989180757035
  0
ARC
  5
B48
330
1F
100
AcDbEntity
  8
0
  6
Continuous
 62
   171
100
AcDbCircle
 10
-254.5567675453521
 20
19.67435739201937
 30
0.0
 40
1.49999999999995
100
AcDbArc
 50
227.0989180756992
 51
287.0989180756993
  0
ARC
  5
B49
330
1F
100
AcDbEntity
  8
0
  6
Continuous
 62
   171
100
AcDbCircle
 10
-256.0189030128831
 20
20.00926017580614
 30
0.0
 40
1.500000000000046
100
AcDbArc
 50
227.0989180757012
 51
287.0989180757035
  0
ARC
  5
B4A
330
1F
100
AcDbEntity
  8
0
  6
Continuous
 62
   171
100
AcDbCircle
 10
-242.2323800023101
 20
20.27317033186248
 30
0.0
 40
1.499999999999945
100
AcDbArc
 50
252.9008080813178
 51
312.9008080813178
  0
ARC
  5
B4B
330
1F
100
AcDbEntity
  8
0
  6
Continuous
 62
   171
100
AcDbCircle
 10
-243.1144605373241
 20
17.40577884660115
 30
0.0
 40
1.499999999999999
100
AcDbArc
 50
72.90080808131282
 51
132.9008080813116
  0
ARC
  5
B4C
330
1F
100
AcDbEntity
  8
0
  6
Continuous
 62
   171
100
AcDbCircle
 10
-243.6945170704793
 20
19.93827453630013
 30
0.0
 40
1.500000000000003
100
AcDbArc
 50
252.9008080813127
 51
312.9008080813115
  0
ARC
  5
B4D
330
1F
100
AcDbEntity
  8
0
  6
Continuous
 62
     7
100
AcDbCircle
 10
-291.6453305717446
 20
41.30568135263195
 30
0.0
 40
1.299958478640407
100
AcDbArc
 50
94.99705614833741
 51
180.0024403938465
  0
ARC
  5
B4E
330
1F
100
AcDbEntity
  8
0
  6
Continuous
 62
     7
100
AcDbCircle
 10
-291.6453305717448
 20
37.07255948003495
 30
0.0
 40
1.299958478640294
100
AcDbArc
 50
179.9975596061914
 51
265.0029438516674
  0
CIRCLE
  5
B4F
330
1F
100
AcDbEntity
  8
0
  6
Continuous
 62
     7
100
AcDbCircle
 10
-127.3456699834532
 20
76.53332041633301
 30
0.0
 40
2.5
  0
CIRCLE
  5
B50
330
1F
100
AcDbEntity
  8
0
  6
Continuous
 62
    30
100
AcDbCircle
 10
-127.3456699834532
 20
76.53332041633301
 30
0.0
 40
2.100000000000207
  0
CIRCLE
  5
B51
330
1F
100
AcDbEntity
  8
0
  6
Continuous
 62
     7
100
AcDbCircle
 10
-295.4452699834528
 20
76.53332041633301
 30
0.0
 40
2.499999999999884
  0
CIRCLE
  5
B52
330
1F
100
AcDbEntity
  8
0
  6
Continuous
 62
    30
100
AcDbCircle
 10
-295.4452699834528
 20
76.53332041633301
 30
0.0
 40
2.099999999999965
  0
TEXT
  5
E82
330
1F
100
AcDbEntity
  8
0
 62
     2
100
AcDbText
 10
196.4464475683498
 20
136.3062506564729
 30
0.0
 40
2.5
  1
 
 50
0.000138888888892
 41
0.7565
  7
CONVERTER_20
100
AcDbText
1001
ACAD
1000
MTEXTBEGIN
1070
    73
1070
     1
1070
    44
1040
1.0
1070
    74
1070
     0
1000
MTEXTEND
  0
LINE
  5
EA3
330
1F
100
AcDbEntity
  8
0
  6
DASHED
 62
   171
100
AcDbLine
 10
-176.6454699834528
 20
97.50912041633295
 30
0.0
 11
-176.6455699834532
 21
69.2249204163329
 31
0.0
  0
LINE
  5
EA4
330
1F
100
AcDbEntity
  8
0
  6
DASHED
 62
   171
100
AcDbLine
 10
-239.645669983453
 20
69.2249204163329
 30
0.0
 11
-176.6455699834532
 21
69.2249204163329
 31
0.0
  0
LINE
  5
EA5
330
1F
100
AcDbEntity
  8
0
  6
DASHED
 62
   171
100
AcDbLine
 10
-239.645669983453
 20
97.50912041633295
 30
0.0
 11
-176.6454699834528
 21
97.50912041633295
 31
0.0
  0
LINE
  5
EA6
330
1F
100
AcDbEntity
  8
0
  6
DASHED
 62
   171
100
AcDbLine
 10
-239.645669983453
 20
69.2249204163329
 30
0.0
 11
-239.645669983453
 21
97.50912041633295
 31
0.0
  0
TEXT
  5
EB3
330
1F
100
AcDbEntity
  8
0
 62
     7
100
AcDbText
 10
-49.4017169612881
 20
-115.8964437564401
 30
0.0
 40
8.0
  1
AEM-DEH 4P 0.25kW
 41
0.73514
  7
CONVERTER_8
100
AcDbText
  0
TEXT
  5
EB4
330
1F
100
AcDbEntity
  8
0
 62
     7
100
AcDbText
 10
-49.03091889230939
 20
-101.8145920542367
 30
0.0
 40
8.0
  1
AEM-DEH 4P 0.2kW
 41
0.73514
  7
CONVERTER_8
100
AcDbText
  0
ENDSEC
  0
SECTION
  2
OBJECTS
  0
DICTIONARY
  5
C
330
0
100
AcDbDictionary
281
     1
  3
ACAD_COLOR
350
5F8
  3
ACAD_GROUP
350
D
  3
ACAD_LAYOUT
350
1A
  3
ACAD_MATERIAL
350
5F7
  3
ACAD_MLINESTYLE
350
17
  3
ACAD_PLOTSETTINGS
350
19
  3
ACAD_PLOTSTYLENAME
350
E
  3
AcDbVariableDictionary
350
DA0
  0
DICTIONARY
  5
5F8
102
{ACAD_REACTORS
330
C
102
}
330
C
100
AcDbDictionary
281
     1
  0
DICTIONARY
  5
D
102
{ACAD_REACTORS
330
C
102
}
330
C
100
AcDbDictionary
281
     1
  0
DICTIONARY
  5
1A
102
{ACAD_REACTORS
330
C
102
}
330
C
100
AcDbDictionary
281
     1
  3
Layout1
350
1E
  3
Layout2
350
26
  3
Model
350
22
  0
DICTIONARY
  5
5F7
102
{ACAD_REACTORS
330
C
102
}
330
C
100
AcDbDictionary
281
     1
  0
DICTIONARY
  5
17
102
{ACAD_REACTORS
330
C
102
}
330
C
100
AcDbDictionary
281
     1
  3
Standard
350
18
  0
DICTIONARY
  5
19
102
{ACAD_REACTORS
330
C
102
}
330
C
100
AcDbDictionary
281
     1
  0
ACDBDICTIONARYWDFLT
  5
E
102
{ACAD_REACTORS
330
C
102
}
330
C
100
AcDbDictionary
281
     1
  3
Normal
350
F
100
AcDbDictionaryWithDefault
340
F
  0
DICTIONARY
  5
DA0
102
{ACAD_REACTORS
330
C
102
}
330
C
100
AcDbDictionary
281
     1
  3
DIMASSOC
350
DA1
  3
PROJECTNAME
350
DA2
  0
LAYOUT
  5
1E
102
{ACAD_XDICTIONARY
360
DB5
102
}
102
{ACAD_REACTORS
330
1A
102
}
330
1A
100
AcDbPlotSettings
  1

  2

  4

  6

 40
0.0
 41
0.0
 42
0.0
 43
0.0
 44
0.0
 45
0.0
 46
0.0
 47
0.0
 48
0.0
 49
0.0
140
0.0
141
0.0
142
1.0
143
1.0
 70
   688
 72
     0
 73
     0
 74
     5
  7
P社図面.ctb
 75
    16
147
1.0
148
0.0
149
0.0
100
AcDbLayout
  1
Layout1
 70
     1
 71
     1
 10
0.0
 20
0.0
 11
12.0
 21
9.0
 12
0.0
 22
0.0
 32
0.0
 14
1.000000000000000E+20
 24
1.000000000000000E+20
 34
1.000000000000000E+20
 15
-1.000000000000000E+20
 25
-1.000000000000000E+20
 35
-1.000000000000000E+20
146
0.0
 13
0.0
 23
0.0
 33
0.0
 16
1.0
 26
0.0
 36
0.0
 17
0.0
 27
1.0
 37
0.0
 76
     0
330
1B
  0
LAYOUT
  5
26
102
{ACAD_XDICTIONARY
360
DB9
102
}
102
{ACAD_REACTORS
330
1A
102
}
330
1A
100
AcDbPlotSettings
  1

  2

  4

  6

 40
0.0
 41
0.0
 42
0.0
 43
0.0
 44
0.0
 45
0.0
 46
0.0
 47
0.0
 48
0.0
 49
0.0
140
0.0
141
0.0
142
1.0
143
1.0
 70
   688
 72
     0
 73
     0
 74
     5
  7
P社図面.ctb
 75
    16
147
1.0
148
0.0
149
0.0
100
AcDbLayout
  1
Layout2
 70
     1
 71
     2
 10
0.0
 20
0.0
 11
0.0
 21
0.0
 12
0.0
 22
0.0
 32
0.0
 14
0.0
 24
0.0
 34
0.0
 15
0.0
 25
0.0
 35
0.0
146
0.0
 13
0.0
 23
0.0
 33
0.0
 16
1.0
 26
0.0
 36
0.0
 17
0.0
 27
1.0
 37
0.0
 76
     0
330
23
  0
LAYOUT
  5
22
102
{ACAD_XDICTIONARY
360
DB7
102
}
102
{ACAD_REACTORS
330
1A
102
}
330
1A
100
AcDbPlotSettings
  1

  2
Adobe PDF
  4
A3
  6

 40
3.174999952316282
 41
3.174999952316282
 42
3.17498779296875
 43
3.17498779296875
 44
297.0318298339843
 45
420.1583251953125
 46
0.0
 47
0.0
 48
0.0
 49
0.0
140
0.0
141
0.0
142
1.0
143
1.97941777499143
 70
 11952
 72
     1
 73
     1
 74
     1
  7
P社図面.ctb
 75
     0
147
0.5051990603672985
148
428.0497854802381
149
286.0351105111847
100
AcDbLayout
  1
Model
 70
     1
 71
     0
 10
0.0
 20
0.0
 11
0.0
 21
0.0
 12
0.0
 22
0.0
 32
0.0
 14
-427.9997999999998
 24
-286.0002
 34
0.0
 15
390.9997999999998
 25
285.9998
 35
0.0
146
0.0
 13
0.0
 23
0.0
 33
0.0
 16
1.0
 26
0.0
 36
0.0
 17
0.0
 27
1.0
 37
0.0
 76
     0
330
1F
  0
MLINESTYLE
  5
18
102
{ACAD_REACTORS
330
17
102
}
330
17
100
AcDbMlineStyle
  2
STANDARD
 70
     0
  3

 62
   256
 51
90.0
 52
90.0
 71
     2
 49
0.5
 62
   256
  6
BYLAYER
 49
-0.5
 62
   256
  6
BYLAYER
  0
ACDBPLACEHOLDER
  5
F
102
{ACAD_REACTORS
330
E
102
}
330
E
  0
DICTIONARYVAR
  5
DA1
102
{ACAD_REACTORS
330
DA0
102
}
330
DA0
100
DictionaryVariables
280
     0
  1
1
  0
DICTIONARYVAR
  5
DA2
102
{ACAD_REACTORS
330
DA0
102
}
330
DA0
100
DictionaryVariables
280
     0
  1

  0
DICTIONARY
  5
DB5
330
1E
100
AcDbDictionary
280
     1
281
     1
  3
ACAD_XREC_ROUNDTRIP
360
DB6
  0
DICTIONARY
  5
DB9
330
26
100
AcDbDictionary
280
     1
281
     1
  3
ACAD_XREC_ROUNDTRIP
360
DBA
  0
DICTIONARY
  5
DB7
330
22
100
AcDbDictionary
280
     1
281
     1
  3
ACAD_XREC_ROUNDTRIP
360
DB8
  0
XRECORD
  5
DB6
102
{ACAD_REACTORS
330
DB5
102
}
330
DB5
100
AcDbXrecord
280
     1
102
SHADEPLOT
 70
     0
102
SHADEPLOTRESLEVEL
 70
     2
102
SHADEPLOTCUSTOMDPI
 70
   300
  0
XRECORD
  5
DBA
102
{ACAD_REACTORS
330
DB9
102
}
330
DB9
100
AcDbXrecord
280
     1
102
SHADEPLOT
 70
     0
102
SHADEPLOTRESLEVEL
 70
     2
102
SHADEPLOTCUSTOMDPI
 70
   300
  0
XRECORD
  5
DB8
102
{ACAD_REACTORS
330
DB7
102
}
330
DB7
100
AcDbXrecord
280
     1
102
SHADEPLOT
 70
     0
102
SHADEPLOTRESLEVEL
 70
     2
102
SHADEPLOTCUSTOMDPI
 70
   300
  0
ENDSEC
  0
EOF
