  0
SECTION
  2
HEADER
  9
$ACADVER
  1
AC1015
  9
$ACADMAINTVER
 70
    14
  9
$DWGCODEPAGE
  3
ANSI_932
  9
$INSBASE
 10
0.0
 20
0.0
 30
0.0
  9
$EXTMIN
 10
-320.8865596809687
 20
-161.6518581048154
 30
-0.0000000349181948
  9
$EXTMAX
 10
297.9319938612113
 20
123.0372934999284
 30
0.0000000814935747
  9
$LIMMIN
 10
0.0
 20
0.0
  9
$LIMMAX
 10
420.0
 20
297.0
  9
$ORTHOMODE
 70
     0
  9
$REGENMODE
 70
     1
  9
$FILLMODE
 70
     1
  9
$QTEXTMODE
 70
     0
  9
$MIRRTEXT
 70
     1
  9
$LTSCALE
 40
1.0
  9
$ATTMODE
 70
     1
  9
$TEXTSIZE
 40
2.5
  9
$TRACEWID
 40
1.0
  9
$TEXTSTYLE
  7
Standard
  9
$CLAYER
  8
0
  9
$CELTYPE
  6
ByLayer
  9
$CECOLOR
 62
   256
  9
$CELTSCALE
 40
1.0
  9
$DISPSILH
 70
     0
  9
$DIMSCALE
 40
1.0
  9
$DIMASZ
 40
2.5
  9
$DIMEXO
 40
0.625
  9
$DIMDLI
 40
3.75
  9
$DIMRND
 40
0.0
  9
$DIMDLE
 40
0.0
  9
$DIMEXE
 40
1.25
  9
$DIMTP
 40
0.0
  9
$DIMTM
 40
0.0
  9
$DIMTXT
 40
2.5
  9
$DIMCEN
 40
2.5
  9
$DIMTSZ
 40
0.0
  9
$DIMTOL
 70
     0
  9
$DIMLIM
 70
     0
  9
$DIMTIH
 70
     0
  9
$DIMTOH
 70
     0
  9
$DIMSE1
 70
     0
  9
$DIMSE2
 70
     0
  9
$DIMTAD
 70
     1
  9
$DIMZIN
 70
     8
  9
$DIMBLK
  1

  9
$DIMASO
 70
     1
  9
$DIMSHO
 70
     1
  9
$DIMPOST
  1

  9
$DIMAPOST
  1

  9
$DIMALT
 70
     0
  9
$DIMALTD
 70
     3
  9
$DIMALTF
 40
0.03937007874016
  9
$DIMLFAC
 40
1.0
  9
$DIMTOFL
 70
     1
  9
$DIMTVP
 40
0.0
  9
$DIMTIX
 70
     0
  9
$DIMSOXD
 70
     0
  9
$DIMSAH
 70
     0
  9
$DIMBLK1
  1

  9
$DIMBLK2
  1

  9
$DIMSTYLE
  2
ISO-25
  9
$DIMCLRD
 70
     0
  9
$DIMCLRE
 70
     0
  9
$DIMCLRT
 70
     0
  9
$DIMTFAC
 40
1.0
  9
$DIMGAP
 40
0.625
  9
$DIMJUST
 70
     0
  9
$DIMSD1
 70
     0
  9
$DIMSD2
 70
     0
  9
$DIMTOLJ
 70
     0
  9
$DIMTZIN
 70
     8
  9
$DIMALTZ
 70
     0
  9
$DIMALTTZ
 70
     0
  9
$DIMUPT
 70
     0
  9
$DIMDEC
 70
     2
  9
$DIMTDEC
 70
     2
  9
$DIMALTU
 70
     2
  9
$DIMALTTD
 70
     3
  9
$DIMTXSTY
  7
Standard
  9
$DIMAUNIT
 70
     0
  9
$DIMADEC
 70
     0
  9
$DIMALTRND
 40
0.0
  9
$DIMAZIN
 70
     0
  9
$DIMDSEP
 70
    44
  9
$DIMATFIT
 70
     3
  9
$DIMFRAC
 70
     0
  9
$DIMLDRBLK
  1

  9
$DIMLUNIT
 70
     2
  9
$DIMLWD
 70
    -2
  9
$DIMLWE
 70
    -2
  9
$DIMTMOVE
 70
     0
  9
$LUNITS
 70
     2
  9
$LUPREC
 70
     4
  9
$SKETCHINC
 40
1.0
  9
$FILLETRAD
 40
10.0
  9
$AUNITS
 70
     0
  9
$AUPREC
 70
     0
  9
$MENU
  1
.
  9
$ELEVATION
 40
0.0
  9
$PELEVATION
 40
0.0
  9
$THICKNESS
 40
0.0
  9
$LIMCHECK
 70
     0
  9
$CHAMFERA
 40
10.0
  9
$CHAMFERB
 40
10.0
  9
$CHAMFERC
 40
20.0
  9
$CHAMFERD
 40
0.0
  9
$SKPOLY
 70
     0
  9
$TDCREATE
 40
2456040.618146516
  9
$TDUCREATE
 40
2456040.243146516
  9
$TDUPDATE
 40
2456044.448259004
  9
$TDUUPDATE
 40
2456044.073259004
  9
$TDINDWG
 40
0.0038297569
  9
$TDUSRTIMER
 40
0.0038297569
  9
$USRTIMER
 70
     1
  9
$ANGBASE
 50
0.0
  9
$ANGDIR
 70
     0
  9
$PDMODE
 70
     0
  9
$PDSIZE
 40
0.0
  9
$PLINEWID
 40
0.0
  9
$SPLFRAME
 70
     0
  9
$SPLINETYPE
 70
     6
  9
$SPLINESEGS
 70
     8
  9
$HANDSEED
  5
AD8
  9
$SURFTAB1
 70
     6
  9
$SURFTAB2
 70
     6
  9
$SURFTYPE
 70
     6
  9
$SURFU
 70
     6
  9
$SURFV
 70
     6
  9
$UCSBASE
  2

  9
$UCSNAME
  2

  9
$UCSORG
 10
0.0
 20
0.0
 30
0.0
  9
$UCSXDIR
 10
1.0
 20
0.0
 30
0.0
  9
$UCSYDIR
 10
0.0
 20
1.0
 30
0.0
  9
$UCSORTHOREF
  2

  9
$UCSORTHOVIEW
 70
     0
  9
$UCSORGTOP
 10
0.0
 20
0.0
 30
0.0
  9
$UCSORGBOTTOM
 10
0.0
 20
0.0
 30
0.0
  9
$UCSORGLEFT
 10
0.0
 20
0.0
 30
0.0
  9
$UCSORGRIGHT
 10
0.0
 20
0.0
 30
0.0
  9
$UCSORGFRONT
 10
0.0
 20
0.0
 30
0.0
  9
$UCSORGBACK
 10
0.0
 20
0.0
 30
0.0
  9
$PUCSBASE
  2

  9
$PUCSNAME
  2

  9
$PUCSORG
 10
0.0
 20
0.0
 30
0.0
  9
$PUCSXDIR
 10
1.0
 20
0.0
 30
0.0
  9
$PUCSYDIR
 10
0.0
 20
1.0
 30
0.0
  9
$PUCSORTHOREF
  2

  9
$PUCSORTHOVIEW
 70
     0
  9
$PUCSORGTOP
 10
0.0
 20
0.0
 30
0.0
  9
$PUCSORGBOTTOM
 10
0.0
 20
0.0
 30
0.0
  9
$PUCSORGLEFT
 10
0.0
 20
0.0
 30
0.0
  9
$PUCSORGRIGHT
 10
0.0
 20
0.0
 30
0.0
  9
$PUCSORGFRONT
 10
0.0
 20
0.0
 30
0.0
  9
$PUCSORGBACK
 10
0.0
 20
0.0
 30
0.0
  9
$USERI1
 70
     0
  9
$USERI2
 70
     0
  9
$USERI3
 70
     0
  9
$USERI4
 70
     0
  9
$USERI5
 70
     0
  9
$USERR1
 40
0.0
  9
$USERR2
 40
0.0
  9
$USERR3
 40
0.0
  9
$USERR4
 40
0.0
  9
$USERR5
 40
0.0
  9
$WORLDVIEW
 70
     1
  9
$SHADEDGE
 70
     3
  9
$SHADEDIF
 70
    70
  9
$TILEMODE
 70
     1
  9
$MAXACTVP
 70
    64
  9
$PINSBASE
 10
0.0
 20
0.0
 30
0.0
  9
$PLIMCHECK
 70
     0
  9
$PEXTMIN
 10
26.66076962115562
 20
20.31135699206657
 30
-0.0015258207003583
  9
$PEXTMAX
 10
240.039213369355
 20
182.8886381005154
 30
0.0000000349246037
  9
$PLIMMIN
 10
-6.350006103515625
 20
-6.349999904632567
  9
$PLIMMAX
 10
273.0499877929687
 20
209.5499939918517
  9
$UNITMODE
 70
     0
  9
$VISRETAIN
 70
     1
  9
$PLINEGEN
 70
     0
  9
$PSLTSCALE
 70
     1
  9
$TREEDEPTH
 70
  3020
  9
$CMLSTYLE
  2
Standard
  9
$CMLJUST
 70
     0
  9
$CMLSCALE
 40
20.0
  9
$PROXYGRAPHICS
 70
     1
  9
$MEASUREMENT
 70
     1
  9
$CELWEIGHT
370
    -1
  9
$ENDCAPS
280
     0
  9
$JOINSTYLE
280
     0
  9
$LWDISPLAY
290
     0
  9
$INSUNITS
 70
     4
  9
$HYPERLINKBASE
  1

  9
$STYLESHEET
  1

  9
$XEDIT
290
     1
  9
$CEPSNTYPE
380
     0
  9
$PSTYLEMODE
290
     1
  9
$FINGERPRINTGUID
  2
{FDEAD578-A652-11D2-9A35-0060089B3A3F}
  9
$VERSIONGUID
  2
{9EBD3918-DE02-4729-9F04-294D7A64C5DF}
  9
$EXTNAMES
290
     1
  9
$PSVPSCALE
 40
0.0
  9
$OLESTARTUP
290
     0
  0
ENDSEC
  0
SECTION
  2
CLASSES
  0
CLASS
  1
ACDBDICTIONARYWDFLT
  2
AcDbDictionaryWithDefault
  3
AutoCAD 2000
 90
        0
280
     0
281
     0
  0
CLASS
  1
ACDBPLACEHOLDER
  2
AcDbPlaceHolder
  3
AutoCAD 2000
 90
        0
280
     0
281
     0
  0
CLASS
  1
LAYOUT
  2
AcDbLayout
  3
AutoCAD 2000
 90
        0
280
     0
281
     0
  0
CLASS
  1
DICTIONARYVAR
  2
AcDbDictionaryVar
  3
AutoCAD 2000
 90
        0
280
     0
281
     0
  0
ENDSEC
  0
SECTION
  2
TABLES
  0
TABLE
  2
VPORT
  5
8
330
0
100
AcDbSymbolTable
 70
     2
  0
VPORT
  5
AD7
330
8
100
AcDbSymbolTableRecord
100
AcDbViewportTableRecord
  2
*Active
 70
     0
 10
0.0
 20
0.0
 11
1.0
 21
1.0
 12
-11.47728290987868
 22
-19.30728230244352
 13
0.0
 23
0.0
 14
10.0
 24
10.0
 15
10.0
 25
10.0
 16
0.0
 26
0.0
 36
1.0
 17
0.0
 27
0.0
 37
0.0
 40
315.2121095342872
 41
1.97051597051597
 42
50.0
 43
0.0
 44
0.0
 50
0.0
 51
0.0
 71
     0
 72
   100
 73
     1
 74
     3
 75
     0
 76
     0
 77
     0
 78
     0
281
     0
 65
     1
110
0.0
120
0.0
130
0.0
111
1.0
121
0.0
131
0.0
112
0.0
122
1.0
132
0.0
 79
     0
146
0.0
  0
ENDTAB
  0
TABLE
  2
LTYPE
  5
5
330
0
100
AcDbSymbolTable
 70
     3
  0
LTYPE
  5
14
330
5
100
AcDbSymbolTableRecord
100
AcDbLinetypeTableRecord
  2
ByBlock
 70
     0
  3

 72
    65
 73
     0
 40
0.0
  0
LTYPE
  5
15
330
5
100
AcDbSymbolTableRecord
100
AcDbLinetypeTableRecord
  2
ByLayer
 70
     0
  3

 72
    65
 73
     0
 40
0.0
  0
LTYPE
  5
16
330
5
100
AcDbSymbolTableRecord
100
AcDbLinetypeTableRecord
  2
Continuous
 70
     0
  3
Solid line
 72
    65
 73
     0
 40
0.0
  0
LTYPE
  5
86
330
5
100
AcDbSymbolTableRecord
100
AcDbLinetypeTableRecord
  2
DASH_CENTER
 70
     0
  3
Dash_Center
 72
    65
 73
     4
 40
14.0
 49
11.0
 74
     0
 49
-1.0
 74
     0
 49
1.0
 74
     0
 49
-1.0
 74
     0
  0
LTYPE
  5
87
330
5
100
AcDbSymbolTableRecord
100
AcDbLinetypeTableRecord
  2
PHANTOM
 70
     0
  3
Phantom
 72
    65
 73
     6
 40
13.0
 49
10.0
 74
     0
 49
-1.0
 74
     0
 49
0.0
 74
     0
 49
-1.0
 74
     0
 49
0.0
 74
     0
 49
-1.0
 74
     0
  0
ENDTAB
  0
TABLE
  2
LAYER
  5
2
330
0
100
AcDbSymbolTable
 70
     1
  0
LAYER
  5
10
330
2
100
AcDbSymbolTableRecord
100
AcDbLayerTableRecord
  2
0
 70
     0
 62
     7
  6
Continuous
370
    -3
390
F
  0
ENDTAB
  0
TABLE
  2
STYLE
  5
3
330
0
100
AcDbSymbolTable
 70
    20
  0
STYLE
  5
11
330
3
100
AcDbSymbolTableRecord
100
AcDbTextStyleTableRecord
  2
Standard
 70
     0
 40
0.0
 41
1.0
 50
0.0
 71
     0
 42
2.5
  3
txt
  4

  0
STYLE
  5
88
330
3
100
AcDbSymbolTableRecord
100
AcDbTextStyleTableRecord
  2
CONVERTER_1
 70
     0
 40
0.0
 41
0.89
 50
0.0
 71
     0
 42
0.2
  3
txt.shx
  4
bigfont.shx
  0
STYLE
  5
89
330
3
100
AcDbSymbolTableRecord
100
AcDbTextStyleTableRecord
  2
CONVERTER_2
 70
     0
 40
0.0
 41
0.7565
 50
0.0
 71
     0
 42
0.2
  3
simplex.shx
  4
bigfont.shx
  0
STYLE
  5
8A
330
3
100
AcDbSymbolTableRecord
100
AcDbTextStyleTableRecord
  2
CONVERTER_3
 70
     0
 40
0.0
 41
0.7565
 50
0.0
 71
     0
 42
0.2
  3
simplex.shx
  4
bigfont.shx
  0
STYLE
  5
8B
330
3
100
AcDbSymbolTableRecord
100
AcDbTextStyleTableRecord
  2
CONVERTER_4
 70
     0
 40
0.0
 41
0.8009999999999999
 50
0.0
 71
     0
 42
0.2
  3
simplex.shx
  4
bigfont.shx
  0
STYLE
  5
8C
330
3
100
AcDbSymbolTableRecord
100
AcDbTextStyleTableRecord
  2
CONVERTER_5
 70
     0
 40
0.0
 41
0.7120000000000001
 50
0.0
 71
     0
 42
0.2
  3
simplex.shx
  4
bigfont.shx
  0
STYLE
  5
8D
330
3
100
AcDbSymbolTableRecord
100
AcDbTextStyleTableRecord
  2
CONVERTER_6
 70
     0
 40
0.0
 41
1.008666666666669
 50
0.0
 71
     0
 42
0.2
  3
txt.shx
  4
bigfont.shx
  0
STYLE
  5
8E
330
3
100
AcDbSymbolTableRecord
100
AcDbTextStyleTableRecord
  2
CONVERTER_7
 70
     0
 40
0.0
 41
0.9761290322580599
 50
0.0
 71
     0
 42
0.2
  3
txt.shx
  4
bigfont.shx
  0
STYLE
  5
8F
330
3
100
AcDbSymbolTableRecord
100
AcDbTextStyleTableRecord
  2
CONVERTER_9
 70
     0
 40
0.0
 41
1.0235
 50
0.0
 71
     0
 42
0.2
  3
simplex.shx
  4
bigfont.shx
  0
STYLE
  5
90
330
3
100
AcDbSymbolTableRecord
100
AcDbTextStyleTableRecord
  2
CONVERTER_10
 70
     0
 40
0.0
 41
0.8009999999999999
 50
0.0
 71
     0
 42
0.2
  3
simplex.shx
  4
bigfont.shx
  0
STYLE
  5
91
330
3
100
AcDbSymbolTableRecord
100
AcDbTextStyleTableRecord
  2
CONVERTER_11
 70
     0
 40
0.0
 41
0.7758974358974399
 50
0.0
 71
     0
 42
0.2
  3
txt.shx
  4
bigfont.shx
  0
STYLE
  5
92
330
3
100
AcDbSymbolTableRecord
100
AcDbTextStyleTableRecord
  2
CONVERTER_14
 70
     0
 40
0.0
 41
1.87368421052632
 50
0.0
 71
     0
 42
0.2
  3
txt.shx
  4

  0
STYLE
  5
93
330
3
100
AcDbSymbolTableRecord
100
AcDbTextStyleTableRecord
  2
CONVERTER_15
 70
     0
 40
0.0
 41
0.7120000000000001
 50
0.0
 71
     0
 42
0.2
  3
simplex.shx
  4
bigfont.shx
  0
STYLE
  5
94
330
3
100
AcDbSymbolTableRecord
100
AcDbTextStyleTableRecord
  2
CONVERTER_16
 70
     0
 40
0.0
 41
1.080714285714289
 50
0.0
 71
     0
 42
0.2
  3
txt.shx
  4
bigfont.shx
  0
STYLE
  5
95
330
3
100
AcDbSymbolTableRecord
100
AcDbTextStyleTableRecord
  2
CONVERTER_17
 70
     0
 40
0.0
 41
0.945625
 50
0.0
 71
     0
 42
0.2
  3
txt.shx
  4
bigfont.shx
  0
STYLE
  5
96
330
3
100
AcDbSymbolTableRecord
100
AcDbTextStyleTableRecord
  2
CONVERTER_18
 70
     0
 40
0.0
 41
0.73514
 50
0.0
 71
     0
 42
0.2
  3
simplex.shx
  4
bigfont.shx
  0
STYLE
  5
97
330
3
100
AcDbSymbolTableRecord
100
AcDbTextStyleTableRecord
  2
CONVERTER_20
 70
     0
 40
0.0
 41
1.62688172043011
 50
0.0
 71
     0
 42
0.2
  3
txt.shx
  4
bigfont.shx
  0
STYLE
  5
98
330
3
100
AcDbSymbolTableRecord
100
AcDbTextStyleTableRecord
  2
CONVERTER_21
 70
     0
 40
0.0
 41
1.68111111111111
 50
0.0
 71
     0
 42
0.2
  3
txt.shx
  4
bigfont.shx
  0
STYLE
  5
99
330
3
100
AcDbSymbolTableRecord
100
AcDbTextStyleTableRecord
  2
CONVERTER_22
 70
     0
 40
0.0
 41
0.61981853492747
 50
0.0
 71
     0
 42
0.2
  3
simplex.shx
  4
bigfont.shx
  0
STYLE
  5
9A
330
3
100
AcDbSymbolTableRecord
100
AcDbTextStyleTableRecord
  2
社名
 70
     0
 40
2.5
 41
0.8
 50
0.0
 71
     0
 42
2.5
  3

  4

1001
ACAD
1000
Swis721 Blk BT
1071
       34
  0
ENDTAB
  0
TABLE
  2
VIEW
  5
6
330
0
100
AcDbSymbolTable
 70
     0
  0
ENDTAB
  0
TABLE
  2
UCS
  5
7
330
0
100
AcDbSymbolTable
 70
     0
  0
ENDTAB
  0
TABLE
  2
APPID
  5
9
330
0
100
AcDbSymbolTable
 70
     1
  0
APPID
  5
12
330
9
100
AcDbSymbolTableRecord
100
AcDbRegAppTableRecord
  2
ACAD
 70
     0
  0
ENDTAB
  0
TABLE
  2
DIMSTYLE
  5
A
330
0
100
AcDbSymbolTable
 70
     2
100
AcDbDimStyleTable
 71
     0
  0
DIMSTYLE
105
27
330
A
100
AcDbSymbolTableRecord
100
AcDbDimStyleTableRecord
  2
ISO-25
 70
     0
 41
2.5
 42
0.625
 43
3.75
 44
1.25
 73
     0
 74
     0
 77
     1
 78
     8
140
2.5
141
2.5
143
0.03937007874016
147
0.625
171
     3
172
     1
271
     2
272
     2
274
     3
278
    44
283
     0
284
     8
340
11
  0
DIMSTYLE
105
9B
330
A
100
AcDbSymbolTableRecord
100
AcDbDimStyleTableRecord
  2
Standard
 70
     0
340
11
  0
ENDTAB
  0
TABLE
  2
BLOCK_RECORD
  5
1
330
0
100
AcDbSymbolTable
 70
     1
  0
BLOCK_RECORD
  5
1F
330
1
100
AcDbSymbolTableRecord
100
AcDbBlockTableRecord
  2
*Model_Space
340
22
  0
BLOCK_RECORD
  5
55
330
1
100
AcDbSymbolTableRecord
100
AcDbBlockTableRecord
  2
*Paper_Space
340
56
  0
BLOCK_RECORD
  5
50
330
1
100
AcDbSymbolTableRecord
100
AcDbBlockTableRecord
  2
*Paper_Space0
340
51
  0
ENDTAB
  0
ENDSEC
  0
SECTION
  2
BLOCKS
  0
BLOCK
  5
20
330
1F
100
AcDbEntity
  8
0
100
AcDbBlockBegin
  2
*Model_Space
 70
     0
 10
0.0
 20
0.0
 30
0.0
  3
*Model_Space
  1

  0
ENDBLK
  5
21
330
1F
100
AcDbEntity
  8
0
100
AcDbBlockEnd
  0
BLOCK
  5
57
330
55
100
AcDbEntity
 67
     1
  8
0
100
AcDbBlockBegin
  2
*Paper_Space
 70
     0
 10
0.0
 20
0.0
 30
0.0
  3
*Paper_Space
  1

  0
ENDBLK
  5
58
330
55
100
AcDbEntity
 67
     1
  8
0
100
AcDbBlockEnd
  0
BLOCK
  5
52
330
50
100
AcDbEntity
  8
0
100
AcDbBlockBegin
  2
*Paper_Space0
 70
     0
 10
0.0
 20
0.0
 30
0.0
  3
*Paper_Space0
  1

  0
VIEWPORT
  5
6B
330
50
100
AcDbEntity
  8
0
100
AcDbViewport
 10
133.3499908447265
 20
101.5999970436096
 30
0.0
 40
381.3957395593833
 41
218.2856291881582
 69
     0
 12
133.3499908447265
 22
101.5999970436096
 13
0.0
 23
0.0
 14
10.0
 24
10.0
 15
10.0
 25
10.0
 16
0.0
 26
0.0
 36
1.0
 17
0.0
 27
0.0
 37
0.0
 42
50.0
 43
0.0
 44
0.0
 45
218.2856291881582
 50
0.0
 51
0.0
 72
   100
 90
    32800
  1

281
     0
 71
     1
 74
     0
110
0.0
120
0.0
130
0.0
111
1.0
121
0.0
131
0.0
112
0.0
122
1.0
132
0.0
 79
     0
146
0.0
  0
VIEWPORT
  5
6D
330
50
100
AcDbEntity
  8
0
100
AcDbViewport
 10
133.3499939441679
 20
101.5999939441679
 30
0.0
 40
213.3599903106689
 41
162.5599903106689
 69
     0
 12
210.0
 22
148.5
 13
0.0
 23
0.0
 14
10.0
 24
10.0
 15
10.0
 25
10.0
 16
0.0
 26
0.0
 36
1.0
 17
0.0
 27
0.0
 37
0.0
 42
50.0
 43
0.0
 44
0.0
 45
324.0677920111345
 50
0.0
 51
0.0
 72
   100
 90
    32864
  1

281
     0
 71
     1
 74
     0
110
0.0
120
0.0
130
0.0
111
1.0
121
0.0
131
0.0
112
0.0
122
1.0
132
0.0
 79
     0
146
0.0
  0
ENDBLK
  5
53
330
50
100
AcDbEntity
  8
0
100
AcDbBlockEnd
  0
ENDSEC
  0
SECTION
  2
ENTITIES
  0
LINE
  5
5BC
330
1F
100
AcDbEntity
  8
0
  6
DASH_CENTER
 62
    30
100
AcDbLine
 10
-25.2006
 20
40.3391
 30
0.0
 11
3.095400000000012
 21
40.3391
 31
0.0
  0
ARC
  5
5C0
330
1F
100
AcDbEntity
  8
0
  6
Continuous
 62
     7
100
AcDbCircle
 10
-121.7978232490889
 20
-0.7129746272055613
 30
0.0
 40
1.300023249336594
100
AcDbArc
 50
359.9988817476631
 51
84.99917015752547
  0
ARC
  5
5C1
330
1F
100
AcDbEntity
  8
0
  6
Continuous
 62
     7
100
AcDbCircle
 10
688.6012993472396
 20
40.33900124705399
 30
0.0
 40
1000.000010756685
100
AcDbArc
 50
176.2110997412224
 51
183.601313580138
  0
LINE
  5
5C2
330
1F
100
AcDbEntity
  8
0
  6
DASH_CENTER
 62
    30
100
AcDbLine
 10
-195.3978999999999
 20
-49.28789999999999
 30
0.0
 11
-195.3978999999999
 21
117.5424
 31
0.0
  0
LINE
  5
5C3
330
1F
100
AcDbEntity
  8
0
  6
Continuous
 62
     7
100
AcDbLine
 10
-123.0979
 20
0.7057000000000003
 30
0.0
 11
-123.0979
 21
-6.294299999999998
 31
0.0
  0
LINE
  5
5C4
330
1F
100
AcDbEntity
  8
0
  6
Continuous
 62
     7
100
AcDbLine
 10
-262.3986999999999
 20
112.7643999999999
 30
0.0
 11
-262.3986999999999
 21
-27.1606
 31
0.0
  0
LINE
  5
5C5
330
1F
100
AcDbEntity
  8
0
  6
Continuous
 62
     7
100
AcDbLine
 10
-123.0979
 20
40.3394
 30
0.0
 11
-123.0979
 21
-25.16059999999999
 31
0.0
  0
LINE
  5
5C6
330
1F
100
AcDbEntity
  8
0
  6
Continuous
 62
     7
100
AcDbLine
 10
-125.3979
 20
40.3394
 30
0.0
 11
-125.3979
 21
-25.26059999999999
 31
0.0
  0
LINE
  5
5C7
330
1F
100
AcDbEntity
  8
0
  6
Continuous
 62
     7
100
AcDbLine
 10
-120.0979
 20
40.3394
 30
0.0
 11
-120.0978
 21
-14.9983
 31
0.0
  0
LINE
  5
5C8
330
1F
100
AcDbEntity
  8
0
  6
Continuous
 62
     7
100
AcDbLine
 10
-262.3986999999999
 20
-27.1606
 30
0.0
 11
-304.4335999999999
 21
-27.1606
 31
0.0
  0
ARC
  5
5CF
330
1F
100
AcDbEntity
  8
0
  6
Continuous
 62
     7
100
AcDbCircle
 10
-304.4335803646575
 20
-22.1606184391451
 30
0.0
 40
4.999981560893456
100
AcDbArc
 50
183.5991976599171
 51
269.9997749947206
  0
ARC
  5
5D6
330
1F
100
AcDbEntity
  8
0
  6
Continuous
 62
     7
100
AcDbCircle
 10
-150.8362814323086
 20
-24.16021462488826
 30
0.0
 40
5.000014624922731
100
AcDbArc
 50
13.54813833423643
 51
90.00021276944583
  0
LINE
  5
5D7
330
1F
100
AcDbEntity
  8
0
  6
Continuous
 62
     7
100
AcDbLine
 10
-170.3978999999999
 20
-30.66039999999999
 30
0.0
 11
-140.3978999999999
 21
-30.66039999999999
 31
0.0
  0
LINE
  5
5D8
330
1F
100
AcDbEntity
  8
0
  6
Continuous
 62
     7
100
AcDbLine
 10
-167.8978999999999
 20
-27.4602
 30
0.0
 11
-140.3978999999999
 21
-27.4602
 31
0.0
  0
LINE
  5
5E0
330
1F
100
AcDbEntity
  8
0
  6
Continuous
 62
     7
100
AcDbLine
 10
-176.2164999999999
 20
-3.660400000000001
 30
0.0
 11
-214.5789999999999
 21
-3.660200000000002
 31
0.0
  0
LINE
  5
5E1
330
1F
100
AcDbEntity
  8
0
  6
Continuous
 62
     7
100
AcDbLine
 10
-195.3976
 20
-26.4602
 30
0.0
 11
-221.8976
 21
-26.4602
 31
0.0
  0
LINE
  5
5E2
330
1F
100
AcDbEntity
  8
0
  6
Continuous
 62
     7
100
AcDbLine
 10
-195.3978999999999
 20
-29.6602
 30
0.0
 11
-220.3976
 21
-29.66039999999999
 31
0.0
  0
LINE
  5
5E3
330
1F
100
AcDbEntity
  8
0
  6
Continuous
 62
     7
100
AcDbLine
 10
-181.2696999999999
 20
-29.6606
 30
0.0
 11
-217.8869
 21
-29.6606
 31
0.0
  0
ARC
  5
5F7
330
1F
100
AcDbEntity
  8
0
  6
Continuous
 62
     7
100
AcDbCircle
 10
-239.959218567691
 20
-24.16021462488826
 30
0.0
 40
5.000014624922743
100
AcDbArc
 50
89.99978723055418
 51
166.4518616657634
  0
LINE
  5
5F8
330
1F
100
AcDbEntity
  8
0
  6
Continuous
 62
     7
100
AcDbLine
 10
-222.8976
 20
-27.4602
 30
0.0
 11
-247.4730999999999
 21
-27.4602
 31
0.0
  0
LINE
  5
5F9
330
1F
100
AcDbEntity
  8
0
  6
Continuous
 62
     7
100
AcDbLine
 10
-250.3976
 20
-30.66019999999999
 30
0.0
 11
-220.3976
 21
-30.66019999999999
 31
0.0
  0
LINE
  5
5FA
330
1F
100
AcDbEntity
  8
0
  6
Continuous
 62
     7
100
AcDbLine
 10
-262.3986999999999
 20
-25.26059999999999
 30
0.0
 11
-245.4830999999999
 21
-25.26059999999999
 31
0.0
  0
ARC
  5
5FB
330
1F
100
AcDbEntity
  8
0
  6
Continuous
 62
     7
100
AcDbCircle
 10
-247.4730708618525
 20
-25.46017704943789
 30
0.0
 40
2.000022950774368
100
AcDbArc
 50
269.9991652631409
 51
346.4520651527846
  0
LINE
  5
5FC
330
1F
100
AcDbEntity
  8
0
  6
Continuous
 62
     7
100
AcDbLine
 10
-250.3976
 20
-27.4602
 30
0.0
 11
-250.3976
 21
-30.66019999999999
 31
0.0
  0
LINE
  5
5FD
330
1F
100
AcDbEntity
  8
0
  6
Continuous
 62
     7
100
AcDbLine
 10
-247.4730999999999
 20
-27.4602
 30
0.0
 11
-250.3976
 21
-27.4602
 31
0.0
  0
LINE
  5
5FE
330
1F
100
AcDbEntity
  8
0
  6
Continuous
 62
     7
100
AcDbLine
 10
-244.8202999999999
 20
-22.989
 30
0.0
 11
-245.5286999999999
 21
-25.9287
 31
0.0
  0
LINE
  5
5FF
330
1F
100
AcDbEntity
  8
0
  6
Continuous
 62
     7
100
AcDbLine
 10
-224.5006999999999
 20
-12.4097
 30
0.0
 11
-226.0667999999999
 21
-24.8354
 31
0.0
  0
ARC
  5
600
330
1F
100
AcDbEntity
  8
0
  6
Continuous
 62
     7
100
AcDbCircle
 10
-229.0431619794742
 20
-24.46016647208919
 30
0.0
 40
3.000033528551033
100
AcDbArc
 50
270.0011837075354
 51
352.8129046517641
  0
LINE
  5
601
330
1F
100
AcDbEntity
  8
0
  6
DASH_CENTER
 62
    40
100
AcDbLine
 10
-240.3976
 20
-33.9795
 30
0.0
 11
-240.3976
 21
-25.21509999999999
 31
0.0
  0
ARC
  5
602
330
1F
100
AcDbEntity
  8
0
  6
Continuous
 62
     7
100
AcDbCircle
 10
-222.8976
 20
-26.9602
 30
0.0
 40
0.5
100
AcDbArc
 50
270.0
 51
0.0
  0
ARC
  5
603
330
1F
100
AcDbEntity
  8
0
  6
Continuous
 62
     7
100
AcDbCircle
 10
-221.8976
 20
-26.9602
 30
0.0
 40
0.5
100
AcDbArc
 50
90.0
 51
180.0
  0
LINE
  5
604
330
1F
100
AcDbEntity
  8
0
  6
Continuous
 62
     7
100
AcDbLine
 10
-220.3976
 20
-29.66039999999999
 30
0.0
 11
-220.3976
 21
-30.66039999999999
 31
0.0
  0
ARC
  5
605
330
1F
100
AcDbEntity
  8
0
  6
Continuous
 62
     7
100
AcDbCircle
 10
-234.5150000897681
 20
-4.255357394478791
 30
0.0
 40
14.99998758793494
100
AcDbArc
 50
276.4567646095786
 51
309.7337212786832
  0
LINE
  5
606
330
1F
100
AcDbEntity
  8
0
  6
Continuous
 62
     7
100
AcDbLine
 10
-232.8283
 20
-19.16019999999999
 30
0.0
 11
-239.9592
 21
-19.16019999999999
 31
0.0
  0
ARC
  5
607
330
1F
100
AcDbEntity
  8
0
  6
Continuous
 62
     7
100
AcDbCircle
 10
-214.579011700908
 20
-13.66021031847564
 30
0.0
 40
10.0000103184825
100
AcDbArc
 50
89.99993295880406
 51
172.8151496547118
  0
LINE
  5
60C
330
1F
100
AcDbEntity
  8
0
  6
DASH_CENTER
 62
    30
100
AcDbLine
 10
-195.3978999999999
 20
-37.373
 30
0.0
 11
-195.3978999999999
 21
-50.6606
 31
0.0
  0
LINE
  5
621
330
1F
100
AcDbEntity
  8
0
  6
Continuous
 62
     7
100
AcDbLine
 10
-195.3978999999999
 20
-26.4602
 30
0.0
 11
-168.8978999999999
 21
-26.4602
 31
0.0
  0
LINE
  5
622
330
1F
100
AcDbEntity
  8
0
  6
Continuous
 62
     7
100
AcDbLine
 10
-195.3978999999999
 20
-29.6602
 30
0.0
 11
-170.3978999999999
 21
-29.66039999999999
 31
0.0
  0
CIRCLE
  5
623
330
1F
100
AcDbEntity
  8
0
  6
Continuous
 62
     7
100
AcDbCircle
 10
-195.3978999999999
 20
-15.66039999999999
 30
0.0
 40
3.5
  0
CIRCLE
  5
624
330
1F
100
AcDbEntity
  8
0
  6
Continuous
 62
     7
100
AcDbCircle
 10
-195.3978999999999
 20
-15.66039999999999
 30
0.0
 40
5.0
  0
ARC
  5
625
330
1F
100
AcDbEntity
  8
0
  6
Continuous
 62
     7
100
AcDbCircle
 10
-193.9836999999999
 20
-15.66039999999999
 30
0.0
 40
0.4999952099770523
100
AcDbArc
 50
134.991897075501
 51
225.0081029244986
  0
LINE
  5
626
330
1F
100
AcDbEntity
  8
0
  6
Continuous
 62
     7
100
AcDbLine
 10
-194.2311999999999
 20
-17.5342
 30
0.0
 11
-195.0442999999999
 21
-16.72109999999999
 31
0.0
  0
LINE
  5
627
330
1F
100
AcDbEntity
  8
0
  6
Continuous
 62
     7
100
AcDbLine
 10
-194.2311999999999
 20
-13.78659999999999
 30
0.0
 11
-195.0442999999999
 21
-14.5997
 31
0.0
  0
LINE
  5
628
330
1F
100
AcDbEntity
  8
0
  6
DASH_CENTER
 62
    30
100
AcDbLine
 10
-202.3978999999999
 20
-15.66039999999999
 30
0.0
 11
-187.8078999999999
 21
-15.66039999999999
 31
0.0
  0
ARC
  5
62A
330
1F
100
AcDbEntity
  8
0
  6
Continuous
 62
     7
100
AcDbCircle
 10
-195.3978499999999
 20
-17.0746
 30
0.0
 40
0.4999598508880581
100
AcDbArc
 50
44.99594825122549
 51
135.0040517487722
  0
ARC
  5
62B
330
1F
100
AcDbEntity
  8
0
  6
Continuous
 62
     7
100
AcDbCircle
 10
-195.3978499999999
 20
-14.24619999999999
 30
0.0
 40
0.499959850888038
100
AcDbArc
 50
224.9959482512276
 51
315.0040517487743
  0
ARC
  5
62C
330
1F
100
AcDbEntity
  8
0
  6
Continuous
 62
     7
100
AcDbCircle
 10
-196.8121
 20
-15.66039999999999
 30
0.0
 40
0.5000659156551266
100
AcDbArc
 50
315.0000000000003
 51
44.99999999999971
  0
LINE
  5
62D
330
1F
100
AcDbEntity
  8
0
  6
Continuous
 62
     7
100
AcDbLine
 10
-196.4584999999999
 20
-15.3068
 30
0.0
 11
-197.2718
 21
-14.4936
 31
0.0
  0
LINE
  5
62E
330
1F
100
AcDbEntity
  8
0
  6
Continuous
 62
     7
100
AcDbLine
 10
-195.7513999999999
 20
-14.5997
 30
0.0
 11
-196.5646999999999
 21
-13.7865
 31
0.0
  0
LINE
  5
62F
330
1F
100
AcDbEntity
  8
0
  6
Continuous
 62
     7
100
AcDbLine
 10
-195.7513999999999
 20
-16.72109999999999
 30
0.0
 11
-196.5644999999999
 21
-17.5342
 31
0.0
  0
LINE
  5
630
330
1F
100
AcDbEntity
  8
0
  6
Continuous
 62
     7
100
AcDbLine
 10
-196.4584999999999
 20
-16.0139
 30
0.0
 11
-197.2716
 21
-16.8271
 31
0.0
  0
LINE
  5
631
330
1F
100
AcDbEntity
  8
0
  6
Continuous
 62
     7
100
AcDbLine
 10
-196.5644999999999
 20
-17.5342
 30
0.0
 11
-197.2716
 21
-16.8271
 31
0.0
  0
LINE
  5
632
330
1F
100
AcDbEntity
  8
0
  6
Continuous
 62
     7
100
AcDbLine
 10
-196.5646999999999
 20
-13.7865
 30
0.0
 11
-197.2718
 21
-14.4936
 31
0.0
  0
LINE
  5
633
330
1F
100
AcDbEntity
  8
0
  6
Continuous
 62
     7
100
AcDbLine
 10
-193.5240999999999
 20
-16.8271
 30
0.0
 11
-194.3371999999999
 21
-16.0139
 31
0.0
  0
LINE
  5
634
330
1F
100
AcDbEntity
  8
0
  6
Continuous
 62
     7
100
AcDbLine
 10
-193.5240999999999
 20
-14.4937
 30
0.0
 11
-194.3371999999999
 21
-15.3068
 31
0.0
  0
LINE
  5
635
330
1F
100
AcDbEntity
  8
0
  6
Continuous
 62
     7
100
AcDbLine
 10
-193.5240999999999
 20
-14.4937
 30
0.0
 11
-194.2311999999999
 21
-13.78659999999999
 31
0.0
  0
LINE
  5
636
330
1F
100
AcDbEntity
  8
0
  6
Continuous
 62
     7
100
AcDbLine
 10
-193.5240999999999
 20
-16.8271
 30
0.0
 11
-194.2311999999999
 21
-17.5342
 31
0.0
  0
LINE
  5
725
330
1F
100
AcDbEntity
  8
0
  6
Continuous
 62
     7
100
AcDbLine
 10
-166.3081
 20
-12.30709999999999
 30
0.0
 11
-164.7288
 21
-24.8354
 31
0.0
  0
ARC
  5
726
330
1F
100
AcDbEntity
  8
0
  6
Continuous
 62
     7
100
AcDbCircle
 10
-161.752430928021
 20
-24.46017272640013
 30
0.0
 40
3.000027273759291
100
AcDbArc
 50
187.1850650563239
 51
270.0005906763244
  0
ARC
  5
727
330
1F
100
AcDbEntity
  8
0
  6
Continuous
 62
     7
100
AcDbCircle
 10
-168.8978999999999
 20
-26.9602
 30
0.0
 40
0.5
100
AcDbArc
 50
0.0
 51
90.0
  0
ARC
  5
728
330
1F
100
AcDbEntity
  8
0
  6
Continuous
 62
     7
100
AcDbCircle
 10
-167.8978999999999
 20
-26.9602
 30
0.0
 40
0.5
100
AcDbArc
 50
180.0
 51
270.0
  0
LINE
  5
729
330
1F
100
AcDbEntity
  8
0
  6
Continuous
 62
     7
100
AcDbLine
 10
-170.3978999999999
 20
-29.66039999999999
 30
0.0
 11
-170.3978999999999
 21
-30.66039999999999
 31
0.0
  0
LINE
  5
72A
330
1F
100
AcDbEntity
  8
0
  6
DASH_CENTER
 62
    40
100
AcDbLine
 10
-150.398
 20
-33.9795
 30
0.0
 11
-150.398
 21
-25.21509999999999
 31
0.0
  0
ARC
  5
72C
330
1F
100
AcDbEntity
  8
0
  6
Continuous
 62
     7
100
AcDbCircle
 10
-156.2803972334368
 20
-4.255401179782651
 30
0.0
 40
14.99995562710073
100
AcDbArc
 50
230.2661639499547
 51
263.5428268728907
  0
ARC
  5
72D
330
1F
100
AcDbEntity
  8
0
  6
Continuous
 62
     7
100
AcDbCircle
 10
-176.2164953901591
 20
-13.66040406524624
 30
0.0
 40
10.00000406524726
100
AcDbArc
 50
7.184241258198169
 51
90.00002641243177
  0
LINE
  5
72E
330
1F
100
AcDbEntity
  8
0
  6
Continuous
 62
     7
100
AcDbLine
 10
-157.9672999999999
 20
-19.16019999999999
 30
0.0
 11
-150.8362999999999
 21
-19.16019999999999
 31
0.0
  0
LINE
  5
73B
330
1F
100
AcDbEntity
  8
0
  6
Continuous
 62
     7
100
AcDbLine
 10
-125.3979
 20
-25.26059999999999
 30
0.0
 11
-145.3125
 21
-25.26059999999999
 31
0.0
  0
ARC
  5
73C
330
1F
100
AcDbEntity
  8
0
  6
Continuous
 62
     7
100
AcDbCircle
 10
-143.3225291381475
 20
-25.46017704943789
 30
0.0
 40
2.000022950774392
100
AcDbArc
 50
193.5479348472154
 51
270.000834736859
  0
LINE
  5
73D
330
1F
100
AcDbEntity
  8
0
  6
Continuous
 62
     7
100
AcDbLine
 10
-140.3978999999999
 20
-27.4602
 30
0.0
 11
-140.3978999999999
 21
-30.66039999999999
 31
0.0
  0
LINE
  5
73E
330
1F
100
AcDbEntity
  8
0
  6
Continuous
 62
     7
100
AcDbLine
 10
-145.9751999999999
 20
-22.989
 30
0.0
 11
-145.2667999999999
 21
-25.9287
 31
0.0
  0
LINE
  5
73F
330
1F
100
AcDbEntity
  8
0
  6
Continuous
 62
     7
100
AcDbLine
 10
-123.0979
 20
-25.16059999999999
 30
0.0
 11
-125.3979
 21
-25.16059999999999
 31
0.0
  0
ARC
  5
740
330
1F
100
AcDbEntity
  8
0
  6
Continuous
 62
     7
100
AcDbCircle
 10
-123.0979021133299
 20
-14.99830243233541
 30
0.0
 40
3.000002113330861
100
AcDbArc
 50
278.0285932176834
 51
0.0000464541516866
  0
ARC
  5
741
330
1F
100
AcDbEntity
  8
0
  6
Continuous
 62
     7
100
AcDbCircle
 10
-122.3979991071462
 20
-18.66529876134485
 30
0.0
 40
0.7000008928549081
100
AcDbArc
 50
108.4298735020762
 51
180.000101385173
  0
LINE
  5
742
330
1F
100
AcDbEntity
  8
0
  6
Continuous
 62
     7
100
AcDbLine
 10
-123.0979
 20
-6.294299999999998
 30
0.0
 11
-121.6846
 21
-6.170499999999996
 31
0.0
  0
LINE
  5
743
330
1F
100
AcDbEntity
  8
0
  6
DASH_CENTER
 62
    30
100
AcDbLine
 10
-114.5082
 20
-2.794299999999998
 30
0.0
 11
-130.3828999999999
 21
-2.794299999999998
 31
0.0
  0
ARC
  5
744
330
1F
100
AcDbEntity
  8
0
  6
Continuous
 62
     7
100
AcDbCircle
 10
-121.7977734391957
 20
-4.875571015217346
 30
0.0
 40
1.299973439518822
100
AcDbArc
 50
274.9988182068966
 51
359.9987225079638
  0
LINE
  5
745
330
1F
100
AcDbEntity
  8
0
  6
Continuous
 62
     7
100
AcDbLine
 10
-120.4978
 20
-0.7130000000000011
 30
0.0
 11
-120.4978
 21
-4.875599999999998
 31
0.0
  0
CIRCLE
  5
749
330
1F
100
AcDbEntity
  8
0
  6
Continuous
 62
     7
100
AcDbCircle
 10
-273.8986999999998
 20
33.45409999999999
 30
0.0
 40
3.500037145517169
  0
LINE
  5
74A
330
1F
100
AcDbEntity
  8
0
  6
DASH_CENTER
 62
    30
100
AcDbLine
 10
-62.82250000000002
 20
40.3394
 30
0.0
 11
-320.8600999999998
 21
40.3394
 31
0.0
  0
LINE
  5
74B
330
1F
100
AcDbEntity
  8
0
  6
Continuous
 62
     7
100
AcDbLine
 10
-274.2523999999999
 20
34.5146
 30
0.0
 11
-275.0656999999999
 21
35.3279
 31
0.0
  0
LINE
  5
74C
330
1F
100
AcDbEntity
  8
0
  6
Continuous
 62
     7
100
AcDbLine
 10
-274.2523999999999
 20
32.39330000000001
 30
0.0
 11
-275.0653999999999
 21
31.5803
 31
0.0
  0
LINE
  5
74D
330
1F
100
AcDbEntity
  8
0
  6
Continuous
 62
     7
100
AcDbLine
 10
-262.3986999999999
 20
112.8389
 30
0.0
 11
-278.8986999999999
 21
112.8389
 31
0.0
  0
LINE
  5
74E
330
1F
100
AcDbEntity
  8
0
  6
Continuous
 62
     7
100
AcDbLine
 10
-275.98
 20
115.4384999999999
 30
0.0
 11
-271.8174
 21
115.4384999999999
 31
0.0
  0
LINE
  5
74F
330
1F
100
AcDbEntity
  8
0
  6
Continuous
 62
     7
100
AcDbLine
 10
-275.98
 20
115.4384999999999
 30
0.0
 11
-271.8174
 21
115.4384999999999
 31
0.0
  0
LINE
  5
750
330
1F
100
AcDbEntity
  8
0
  6
DASH_CENTER
 62
    30
100
AcDbLine
 10
-268.2895999999999
 20
33.45409999999999
 30
0.0
 11
-281.5165999999998
 21
33.45409999999999
 31
0.0
  0
POINT
  5
754
330
1F
100
AcDbEntity
  8
0
 62
     2
100
AcDbPoint
 10
-311.3978999999998
 20
42.6844
 30
0.0
  0
ARC
  5
755
330
1F
100
AcDbEntity
  8
0
  6
Continuous
 62
     7
100
AcDbCircle
 10
-275.313
 20
33.45409999999999
 30
0.0
 40
0.5000659156551066
100
AcDbArc
 50
314.9999999999978
 51
45.00000000000201
  0
ARC
  5
756
330
1F
100
AcDbEntity
  8
0
  6
Continuous
 62
     7
100
AcDbCircle
 10
-279.3569
 20
33.45409999999999
 30
0.0
 40
2.541660655949178
100
AcDbArc
 50
79.61188128797501
 51
280.388118712025
  0
LINE
  5
757
330
1F
100
AcDbEntity
  8
0
  6
Continuous
 62
     7
100
AcDbLine
 10
-278.8986999999999
 20
30.9541
 30
0.0
 11
-278.8986999999999
 21
35.95409999999999
 31
0.0
  0
LINE
  5
758
330
1F
100
AcDbEntity
  8
0
  6
Continuous
 62
     7
100
AcDbLine
 10
-274.9594999999999
 20
33.10029999999999
 30
0.0
 11
-275.7724999999999
 21
32.2874
 31
0.0
  0
LINE
  5
759
330
1F
100
AcDbEntity
  8
0
  6
Continuous
 62
     7
100
AcDbLine
 10
-275.0653999999999
 20
31.5803
 30
0.0
 11
-275.7724999999999
 21
32.2874
 31
0.0
  0
LINE
  5
75A
330
1F
100
AcDbEntity
  8
0
  6
Continuous
 62
     7
100
AcDbLine
 10
-274.9594999999999
 20
33.8076
 30
0.0
 11
-275.7727
 21
34.6208
 31
0.0
  0
LINE
  5
75B
330
1F
100
AcDbEntity
  8
0
  6
Continuous
 62
     7
100
AcDbLine
 10
-275.0656999999999
 20
35.3279
 30
0.0
 11
-275.7727
 21
34.6208
 31
0.0
  0
ARC
  5
75C
330
1F
100
AcDbEntity
  8
0
  6
Continuous
 62
     7
100
AcDbCircle
 10
-303.2257844742171
 20
106.0229150259119
 30
0.0
 40
6.000036429433838
100
AcDbArc
 50
91.91512719244164
 51
176.2101525004583
  0
LINE
  5
760
330
1F
100
AcDbEntity
  8
0
  6
Continuous
 62
     7
100
AcDbLine
 10
-278.8986999999999
 20
112.8389
 30
0.0
 11
-303.4262999999999
 21
112.0195
 31
0.0
  0
ARC
  5
761
330
1F
100
AcDbEntity
  8
0
  6
Continuous
 62
     7
100
AcDbCircle
 10
-275.9799710152174
 20
114.1384265608041
 30
0.0
 40
1.299973439518797
100
AcDbArc
 50
90.00127749203693
 51
175.0011817931045
  0
LINE
  5
762
330
1F
100
AcDbEntity
  8
0
  6
Continuous
 62
     7
100
AcDbLine
 10
-277.3986999999999
 20
112.8384
 30
0.0
 11
-277.2750999999999
 21
114.2517
 31
0.0
  0
LINE
  5
769
330
1F
100
AcDbEntity
  8
0
  6
Continuous
 62
     7
100
AcDbLine
 10
-262.3986999999999
 20
105.9393
 30
0.0
 11
-125.3979
 21
105.9393
 31
0.0
  0
ARC
  5
76A
330
1F
100
AcDbEntity
  8
0
  6
Continuous
 62
     7
100
AcDbCircle
 10
-239.3978
 20
51.7307
 30
0.0
 40
12.00000411749928
100
AcDbArc
 50
294.4358936679883
 51
245.5641063320114
  0
LINE
  5
76B
330
1F
100
AcDbEntity
  8
0
  6
Continuous
 62
     7
100
AcDbLine
 10
-237.4336999999999
 20
26.6748
 30
0.0
 11
-237.4336999999999
 21
49.7305
 31
0.0
  0
LINE
  5
76C
330
1F
100
AcDbEntity
  8
0
  6
Continuous
 62
     7
100
AcDbLine
 10
-234.4338
 20
26.6748
 30
0.0
 11
-234.4336999999999
 21
49.7305
 31
0.0
  0
LINE
  5
76D
330
1F
100
AcDbEntity
  8
0
  6
Continuous
 62
     7
100
AcDbLine
 10
-244.3617999999999
 20
26.6748
 30
0.0
 11
-244.3617999999999
 21
49.7305
 31
0.0
  0
LINE
  5
76E
330
1F
100
AcDbEntity
  8
0
  6
Continuous
 62
     7
100
AcDbLine
 10
-241.3619
 20
26.6748
 30
0.0
 11
-241.3619
 21
49.7305
 31
0.0
  0
LINE
  5
76F
330
1F
100
AcDbEntity
  8
0
  6
Continuous
 62
     7
100
AcDbLine
 10
-240.8977999999999
 20
55.7307
 30
0.0
 11
-240.8977999999999
 21
26.6748
 31
0.0
  0
LINE
  5
770
330
1F
100
AcDbEntity
  8
0
  6
Continuous
 62
     7
100
AcDbLine
 10
-237.8978999999999
 20
55.7307
 30
0.0
 11
-237.8978999999999
 21
26.6748
 31
0.0
  0
ARC
  5
771
330
1F
100
AcDbEntity
  8
0
  6
Continuous
 62
    54
100
AcDbCircle
 10
-242.1117999999999
 20
27.9739
 30
0.0
 40
1.500053602375594
100
AcDbArc
 50
240.0011820522605
 51
299.9988179477393
  0
ARC
  5
772
330
1F
100
AcDbEntity
  8
0
  6
Continuous
 62
     7
100
AcDbCircle
 10
-272.4845999999999
 20
33.45409999999999
 30
0.0
 40
0.5000659156551066
100
AcDbArc
 50
134.9999999999978
 51
225.0000000000019
  0
LINE
  5
773
330
1F
100
AcDbEntity
  8
0
  6
DASH_CENTER
 62
    30
100
AcDbLine
 10
-273.8986999999998
 20
26.8184
 30
0.0
 11
-273.8986999999998
 21
41.16649999999999
 31
0.0
  0
ARC
  5
774
330
1F
100
AcDbEntity
  8
0
  6
Continuous
 62
     7
100
AcDbCircle
 10
-273.8986499999999
 20
32.0398
 30
0.0
 40
0.4999598508880406
100
AcDbArc
 50
44.99594825122779
 51
135.0040517487767
  0
LINE
  5
775
330
1F
100
AcDbEntity
  8
0
  6
Continuous
 62
     7
100
AcDbLine
 10
-272.7321999999999
 20
31.5803
 30
0.0
 11
-273.5452
 21
32.39330000000001
 31
0.0
  0
LINE
  5
776
330
1F
100
AcDbEntity
  8
0
  6
Continuous
 62
     7
100
AcDbLine
 10
-272.0250999999998
 20
32.2874
 30
0.0
 11
-272.8380999999999
 21
33.10029999999999
 31
0.0
  0
LINE
  5
777
330
1F
100
AcDbEntity
  8
0
  6
Continuous
 62
     7
100
AcDbLine
 10
-272.0250999999998
 20
32.2874
 30
0.0
 11
-272.7321999999999
 21
31.5803
 31
0.0
  0
ARC
  5
778
330
1F
100
AcDbEntity
  8
0
  6
Continuous
 62
     7
100
AcDbCircle
 10
-273.8986499999999
 20
34.8682
 30
0.0
 40
0.5000305615660201
100
AcDbArc
 50
225.0040511758021
 51
314.9959488241932
  0
LINE
  5
779
330
1F
100
AcDbEntity
  8
0
  6
Continuous
 62
     7
100
AcDbLine
 10
-272.0250999999998
 20
34.62060000000001
 30
0.0
 11
-272.8380999999999
 21
33.8076
 31
0.0
  0
LINE
  5
77A
330
1F
100
AcDbEntity
  8
0
  6
Continuous
 62
     7
100
AcDbLine
 10
-272.7321999999999
 20
35.32759999999999
 30
0.0
 11
-273.5452
 21
34.5146
 31
0.0
  0
LINE
  5
77B
330
1F
100
AcDbEntity
  8
0
  6
Continuous
 62
     7
100
AcDbLine
 10
-272.0250999999998
 20
34.62060000000001
 30
0.0
 11
-272.7321999999999
 21
35.32759999999999
 31
0.0
  0
ARC
  5
77C
330
1F
100
AcDbEntity
  8
0
  6
Continuous
 62
    54
100
AcDbCircle
 10
-243.6118
 20
25.3757
 30
0.0
 40
1.500053602375598
100
AcDbArc
 50
60.00118205226051
 51
119.9988179477395
  0
ARC
  5
77D
330
1F
100
AcDbEntity
  8
0
  6
Continuous
 62
    54
100
AcDbCircle
 10
-235.1836999999999
 20
27.9739
 30
0.0
 40
1.500053602375594
100
AcDbArc
 50
240.0011820522605
 51
299.9988179477393
  0
ARC
  5
77E
330
1F
100
AcDbEntity
  8
0
  6
Continuous
 62
    54
100
AcDbCircle
 10
-236.6836999999999
 20
25.3757
 30
0.0
 40
1.500053602375598
100
AcDbArc
 50
60.00118205226051
 51
119.9988179477395
  0
ARC
  5
77F
330
1F
100
AcDbEntity
  8
0
  6
Continuous
 62
    54
100
AcDbCircle
 10
-238.6477999999999
 20
27.9739
 30
0.0
 40
1.500053602375594
100
AcDbArc
 50
240.0011820522605
 51
299.9988179477393
  0
ARC
  5
780
330
1F
100
AcDbEntity
  8
0
  6
Continuous
 62
    54
100
AcDbCircle
 10
-240.1478
 20
25.3757
 30
0.0
 40
1.500053602375598
100
AcDbArc
 50
60.00118205226051
 51
119.9988179477395
  0
ARC
  5
781
330
1F
100
AcDbEntity
  8
0
  6
Continuous
 62
     7
100
AcDbCircle
 10
-239.399757783078
 20
51.73042865641384
 30
0.0
 40
11.99998210436227
100
AcDbArc
 50
277.1897070305736
 51
279.4297610049978
  0
ARC
  5
782
330
1F
100
AcDbEntity
  8
0
  6
Continuous
 62
     7
100
AcDbCircle
 10
-239.3977105313148
 20
51.73067235553881
 30
0.0
 40
12.00001520783775
100
AcDbArc
 50
260.5793078518343
 51
262.8183415692523
  0
ARC
  5
783
330
1F
100
AcDbEntity
  8
0
  6
Continuous
 62
     7
100
AcDbCircle
 10
-242.8618999999999
 20
49.7305
 30
0.0
 40
1.5
100
AcDbArc
 50
0.0
 51
180.0
  0
ARC
  5
784
330
1F
100
AcDbEntity
  8
0
  6
Continuous
 62
     7
100
AcDbCircle
 10
-239.3978999999999
 20
55.7307
 30
0.0
 40
1.5
100
AcDbArc
 50
0.0
 51
180.0
  0
ARC
  5
785
330
1F
100
AcDbEntity
  8
0
  6
Continuous
 62
     7
100
AcDbCircle
 10
-235.9336999999999
 20
49.7305
 30
0.0
 40
1.5
100
AcDbArc
 50
0.0
 51
180.0
  0
LINE
  5
786
330
1F
100
AcDbEntity
  8
0
  6
DASH_CENTER
 62
    30
100
AcDbLine
 10
-273.8986999999998
 20
105.584
 30
0.0
 11
-273.8986999999998
 21
123.0342
 31
0.0
  0
ARC
  5
787
330
1F
100
AcDbEntity
  8
0
  6
Continuous
 62
     7
100
AcDbCircle
 10
-271.8173746272053
 20
114.138376750911
 30
0.0
 40
1.300023249336613
100
AcDbArc
 50
5.00082984247662
 51
90.00111825233805
  0
LINE
  5
788
330
1F
100
AcDbEntity
  8
0
  6
Continuous
 62
     7
100
AcDbLine
 10
-270.3986999999999
 20
112.8384
 30
0.0
 11
-270.5224999999999
 21
114.2517
 31
0.0
  0
LINE
  5
79F
330
1F
100
AcDbEntity
  8
0
  6
Continuous
 62
     7
100
AcDbLine
 10
-120.0979
 20
40.3394
 30
0.0
 11
-120.0978
 21
95.677
 31
0.0
  0
LINE
  5
7A0
330
1F
100
AcDbEntity
  8
0
  6
Continuous
 62
     7
100
AcDbLine
 10
-125.3979
 20
40.3394
 30
0.0
 11
-125.398
 21
105.9393
 31
0.0
  0
LINE
  5
7A1
330
1F
100
AcDbEntity
  8
0
  6
Continuous
 62
     7
100
AcDbLine
 10
-123.0979
 20
40.3394
 30
0.0
 11
-123.0979
 21
105.8392999999999
 31
0.0
  0
LINE
  5
7A2
330
1F
100
AcDbEntity
  8
0
  6
Continuous
 62
     7
100
AcDbLine
 10
-75.39790000000002
 20
49.3391
 30
0.0
 11
-97.39790000000002
 21
49.3391
 31
0.0
  0
LINE
  5
7A3
330
1F
100
AcDbEntity
  8
0
  6
Continuous
 62
     7
100
AcDbLine
 10
-76.39790000000002
 20
47.3391
 30
0.0
 11
-102.3979
 21
47.3391
 31
0.0
  0
LINE
  5
7A4
330
1F
100
AcDbEntity
  8
0
  6
Continuous
 62
     7
100
AcDbLine
 10
-76.39790000000002
 20
33.33959999999999
 30
0.0
 11
-102.3979
 21
33.33959999999999
 31
0.0
  0
LINE
  5
7A5
330
1F
100
AcDbEntity
  8
0
  6
Continuous
 62
     7
100
AcDbLine
 10
-105.3978999999999
 20
48.73899999999999
 30
0.0
 11
-105.3978999999999
 21
40.3394
 31
0.0
  0
LINE
  5
7A6
330
1F
100
AcDbEntity
  8
0
  6
Continuous
 62
     7
100
AcDbLine
 10
-108.5979
 20
40.3394
 30
0.0
 11
-108.5979
 21
55.8394
 31
0.0
  0
LINE
  5
7A7
330
1F
100
AcDbEntity
  8
0
  6
Continuous
 62
     7
100
AcDbLine
 10
-110.0978999999999
 20
60.1394
 30
0.0
 11
-110.0978999999999
 21
40.3394
 31
0.0
  0
LINE
  5
7A8
330
1F
100
AcDbEntity
  8
0
  6
Continuous
 62
     7
100
AcDbLine
 10
-112.5979
 20
18.0393
 30
0.0
 11
-120.0979
 21
18.0393
 31
0.0
  0
LINE
  5
7A9
330
1F
100
AcDbEntity
  8
0
  6
Continuous
 62
     7
100
AcDbLine
 10
-123.0979
 20
0.7057000000000003
 30
0.0
 11
-121.6846
 21
0.5822000000000003
 31
0.0
  0
LINE
  5
7AA
330
1F
100
AcDbEntity
  8
0
  6
Continuous
 62
     7
100
AcDbLine
 10
-121.7560999999999
 20
5.656500000000001
 30
0.0
 11
-123.0979
 21
4.985399999999998
 31
0.0
  0
ARC
  5
7AB
330
1F
100
AcDbEntity
  8
0
  6
Continuous
 62
     7
100
AcDbCircle
 10
-123.0978991208324
 20
8.339401422497836
 30
0.0
 40
2.999999120832736
100
AcDbArc
 50
296.5641698937941
 51
359.9999728322844
  0
ARC
  5
7AD
330
1F
100
AcDbEntity
  8
0
  6
Continuous
 62
     7
100
AcDbCircle
 10
-112.3980315789334
 20
24.8393363136772
 30
0.0
 40
3.800031579467045
100
AcDbArc
 50
307.2499111537027
 51
0.0009602439960475
  0
LINE
  5
7AE
330
1F
100
AcDbEntity
  8
0
  6
Continuous
 62
     7
100
AcDbLine
 10
-110.0978999999999
 20
20.5393
 30
0.0
 11
-110.0978999999999
 21
40.3394
 31
0.0
  0
ARC
  5
7AF
330
1F
100
AcDbEntity
  8
0
  6
Continuous
 62
     7
100
AcDbCircle
 10
-112.5979
 20
20.5393
 30
0.0
 40
2.5
100
AcDbArc
 50
270.0
 51
0.0
  0
ARC
  5
7B1
330
1F
100
AcDbEntity
  8
0
  6
Continuous
 62
     7
100
AcDbCircle
 10
-103.3979073548257
 20
31.38959445452791
 30
0.0
 40
2.000005556221068
100
AcDbArc
 50
89.99405973830311
 51
164.037866128768
  0
LINE
  5
7B2
330
1F
100
AcDbEntity
  8
0
  6
Continuous
 62
     7
100
AcDbLine
 10
-108.5979
 20
40.3394
 30
0.0
 11
-108.5979
 21
24.8394
 31
0.0
  0
LINE
  5
7B3
330
1F
100
AcDbEntity
  8
0
  6
Continuous
 62
     7
100
AcDbLine
 10
-105.3978999999999
 20
31.9397
 30
0.0
 11
-105.3978999999999
 21
40.3394
 31
0.0
  0
LINE
  5
7B4
330
1F
100
AcDbEntity
  8
0
  6
Continuous
 62
     7
100
AcDbLine
 10
-108.5979
 20
31.9397
 30
0.0
 11
-105.3978999999999
 21
31.9397
 31
0.0
  0
LINE
  5
7B8
330
1F
100
AcDbEntity
  8
0
  6
Continuous
 62
     7
100
AcDbLine
 10
-102.3979
 20
33.33959999999999
 30
0.0
 11
-103.3978999999999
 21
33.3896
 31
0.0
  0
LINE
  5
7BA
330
1F
100
AcDbEntity
  8
0
  6
Continuous
 62
     7
100
AcDbLine
 10
-112.5979
 20
62.6394
 30
0.0
 11
-120.0979
 21
62.6394
 31
0.0
  0
LINE
  5
7BB
330
1F
100
AcDbEntity
  8
0
  6
Continuous
 62
     7
100
AcDbLine
 10
-121.7560999999999
 20
75.0222
 30
0.0
 11
-123.0979
 21
75.6934
 31
0.0
  0
ARC
  5
7BC
330
1F
100
AcDbEntity
  8
0
  6
Continuous
 62
     7
100
AcDbCircle
 10
-123.097854397492
 20
72.33932621765018
 30
0.0
 40
2.999954398399508
100
AcDbArc
 50
0.001409160502889
 51
63.43635802626559
  0
LINE
  5
7BD
330
1F
100
AcDbEntity
  8
0
  6
Continuous
 62
     7
100
AcDbLine
 10
-123.0979
 20
79.973
 30
0.0
 11
-121.6846
 21
80.09650000000002
 31
0.0
  0
LINE
  5
7BE
330
1F
100
AcDbEntity
  8
0
  6
Continuous
 62
     7
100
AcDbLine
 10
-123.0979
 20
86.973
 30
0.0
 11
-121.6846
 21
86.84919999999998
 31
0.0
  0
LINE
  5
7BF
330
1F
100
AcDbEntity
  8
0
  6
DASH_CENTER
 62
    30
100
AcDbLine
 10
-114.5082
 20
83.473
 30
0.0
 11
-130.3828999999999
 21
83.473
 31
0.0
  0
LINE
  5
7C0
330
1F
100
AcDbEntity
  8
0
  6
Continuous
 62
     7
100
AcDbLine
 10
-123.0979
 20
79.973
 30
0.0
 11
-123.0979
 21
86.973
 31
0.0
  0
ARC
  5
7C1
330
1F
100
AcDbEntity
  8
0
  6
Continuous
 62
     7
100
AcDbCircle
 10
-121.7977734391957
 20
85.55427101521734
 30
0.0
 40
1.299973439518822
100
AcDbArc
 50
0.0012774920365318
 51
85.00118179310334
  0
ARC
  5
7C2
330
1F
100
AcDbEntity
  8
0
  6
Continuous
 62
     7
100
AcDbCircle
 10
-121.7978232490889
 20
81.39167462720555
 30
0.0
 40
1.300023249336595
100
AcDbArc
 50
275.0008298424761
 51
0.0011182523368251
  0
LINE
  5
7C3
330
1F
100
AcDbEntity
  8
0
  6
Continuous
 62
     7
100
AcDbLine
 10
-120.4978
 20
81.3917
 30
0.0
 11
-120.4978
 21
85.55429999999999
 31
0.0
  0
ARC
  5
7C4
330
1F
100
AcDbEntity
  8
0
  6
Continuous
 62
     7
100
AcDbCircle
 10
-112.3979917792935
 20
55.83938342101808
 30
0.0
 40
3.799991780209203
100
AcDbArc
 50
359.99874218879
 51
52.75038641351226
  0
LINE
  5
7C5
330
1F
100
AcDbEntity
  8
0
  6
Continuous
 62
     7
100
AcDbLine
 10
-108.5979
 20
48.73899999999999
 30
0.0
 11
-105.3978999999999
 21
48.73899999999999
 31
0.0
  0
ARC
  5
7C6
330
1F
100
AcDbEntity
  8
0
  6
Continuous
 62
     7
100
AcDbCircle
 10
-103.3979073548257
 20
49.2891055454721
 30
0.0
 40
2.000005556221065
100
AcDbArc
 50
195.9621338712318
 51
270.0059402616968
  0
LINE
  5
7C7
330
1F
100
AcDbEntity
  8
0
  6
Continuous
 62
     7
100
AcDbLine
 10
-102.3979
 20
47.3391
 30
0.0
 11
-103.3978999999999
 21
47.28909999999999
 31
0.0
  0
ARC
  5
7C8
330
1F
100
AcDbEntity
  8
0
  6
Continuous
 62
     7
100
AcDbCircle
 10
-112.5979
 20
60.1394
 30
0.0
 40
2.5
100
AcDbArc
 50
0.0
 51
90.0
  0
LINE
  5
7C9
330
1F
100
AcDbEntity
  8
0
  6
Continuous
 62
     7
100
AcDbLine
 10
-97.39790000000002
 20
47.3391
 30
0.0
 11
-97.39790000000002
 21
49.3391
 31
0.0
  0
LINE
  5
7CB
330
1F
100
AcDbEntity
  8
0
  6
Continuous
 62
     7
100
AcDbLine
 10
-76.39790000000002
 20
47.3391
 30
0.0
 11
-76.39790000000002
 21
33.33959999999999
 31
0.0
  0
LINE
  5
7CC
330
1F
100
AcDbEntity
  8
0
  6
Continuous
 62
     7
100
AcDbLine
 10
-75.39790000000002
 20
49.3391
 30
0.0
 11
-75.39790000000002
 21
34.33959999999999
 31
0.0
  0
LINE
  5
7D2
330
1F
100
AcDbEntity
  8
0
  6
Continuous
 62
     7
100
AcDbLine
 10
-76.39790000000002
 20
33.33959999999999
 30
0.0
 11
-75.39790000000002
 21
34.33959999999999
 31
0.0
  0
LINE
  5
7D3
330
1F
100
AcDbEntity
  8
0
  6
Continuous
 62
     7
100
AcDbLine
 10
-75.39790000000002
 20
46.3391
 30
0.0
 11
-76.39790000000002
 21
47.3391
 31
0.0
  0
ARC
  5
7E0
330
1F
100
AcDbEntity
  8
0
  6
Continuous
 62
     7
100
AcDbCircle
 10
-123.0978944108082
 20
95.67699336248395
 30
0.0
 40
2.999994410815571
100
AcDbArc
 50
0.0001267674548574
 51
80.19870406409463
  0
ARC
  5
7E1
330
1F
100
AcDbEntity
  8
0
  6
Continuous
 62
     7
100
AcDbCircle
 10
-122.3979991071462
 20
99.34399876134484
 30
0.0
 40
0.7000008928549039
100
AcDbArc
 50
179.9998986148273
 51
251.5701264979238
  0
LINE
  5
7E2
330
1F
100
AcDbEntity
  8
0
  6
Continuous
 62
     7
100
AcDbLine
 10
-123.0979
 20
105.8392999999999
 30
0.0
 11
-125.3979
 21
105.8392999999999
 31
0.0
  0
LINE
  5
803
330
1F
100
AcDbEntity
  8
0
  6
Continuous
 62
     7
100
AcDbLine
 10
223.076
 20
8.982699999999997
 30
0.0
 11
223.076
 21
-0.9673000000000016
 31
0.0
  0
LINE
  5
804
330
1F
100
AcDbEntity
  8
0
  6
Continuous
 62
     7
100
AcDbLine
 10
211.0759999999999
 20
8.982699999999997
 30
0.0
 11
211.0759999999999
 21
-0.9673000000000016
 31
0.0
  0
LINE
  5
805
330
1F
100
AcDbEntity
  8
0
  6
Continuous
 62
     7
100
AcDbLine
 10
210.076
 20
9.987299999999995
 30
0.0
 11
210.076
 21
-0.9673000000000016
 31
0.0
  0
LINE
  5
806
330
1F
100
AcDbEntity
  8
0
  6
Continuous
 62
     7
100
AcDbLine
 10
224.0759999999999
 20
9.987299999999995
 30
0.0
 11
224.0759999999999
 21
-0.9673000000000016
 31
0.0
  0
LINE
  5
807
330
1F
100
AcDbEntity
  8
0
  6
DASH_CENTER
 62
    30
100
AcDbLine
 10
251.7084
 20
5.706699999999997
 30
0.0
 11
268.408
 21
-10.9928
 31
0.0
  0
CIRCLE
  5
80B
330
1F
100
AcDbEntity
  8
0
  6
Continuous
 62
     7
100
AcDbCircle
 10
217.076
 20
40.3394
 30
0.0
 40
65.59999999999999
  0
CIRCLE
  5
80C
330
1F
100
AcDbEntity
  8
0
  6
Continuous
 62
     7
100
AcDbCircle
 10
260.2094
 20
-2.794299999999998
 30
0.0
 40
3.5
  0
CIRCLE
  5
80D
330
1F
100
AcDbEntity
  8
0
  6
Continuous
 62
     7
100
AcDbCircle
 10
173.9422
 20
-2.794299999999998
 30
0.0
 40
3.5
  0
ARC
  5
80E
330
1F
100
AcDbEntity
  8
0
  6
DASH_CENTER
 62
    30
100
AcDbCircle
 10
217.0756827898141
 20
40.33898342077621
 30
0.0
 40
60.99998101460913
100
AcDbArc
 50
307.0447193383348
 51
322.6460162280789
  0
ARC
  5
80F
330
1F
100
AcDbEntity
  8
0
  6
DASH_CENTER
 62
    30
100
AcDbCircle
 10
217.0756407718156
 20
40.33925846507254
 30
0.0
 40
61.00001097307402
100
AcDbArc
 50
217.0445112897388
 51
232.6457336138491
  0
ARC
  5
810
330
1F
100
AcDbEntity
  8
0
  6
Continuous
 62
     7
100
AcDbCircle
 10
217.0760060123865
 20
40.33937853348088
 30
0.0
 40
71.49999689524124
100
AcDbArc
 50
173.2079586505485
 51
218.0852517285775
  0
ARC
  5
811
330
1F
100
AcDbEntity
  8
0
  6
Continuous
 62
     7
100
AcDbCircle
 10
217.0760094313767
 20
40.33936598977131
 30
0.0
 40
72.5000672827878
100
AcDbArc
 50
173.1636757749032
 51
217.8347773085373
  0
ARC
  5
812
330
1F
100
AcDbEntity
  8
0
  6
Continuous
 62
     7
100
AcDbCircle
 10
260.0328
 20
-2.617399999999995
 30
0.0
 40
7.999958411141897
100
AcDbArc
 50
86.82775786736252
 51
183.1722421326371
  0
ARC
  5
813
330
1F
100
AcDbEntity
  8
0
  6
Continuous
 62
     7
100
AcDbCircle
 10
260.0327552504576
 20
-2.61744474832919
 30
0.0
 40
6.999975398956424
100
AcDbArc
 50
86.82708895803308
 51
183.1713575951345
  0
ARC
  5
814
330
1F
100
AcDbEntity
  8
0
  6
Continuous
 62
     7
100
AcDbCircle
 10
174.1190026253203
 20
-2.617402625351409
 30
0.0
 40
7.999955644563671
100
AcDbArc
 50
356.8277756008571
 51
93.17154476212255
  0
ARC
  5
815
330
1F
100
AcDbEntity
  8
0
  6
Continuous
 62
     7
100
AcDbCircle
 10
174.1190499999999
 20
-2.617450000000011
 30
0.0
 40
6.999975398885338
100
AcDbArc
 50
356.8278656866818
 51
93.17213431331843
  0
ARC
  5
816
330
1F
100
AcDbEntity
  8
0
  6
Continuous
 62
     7
100
AcDbCircle
 10
217.07605
 20
40.33935
 30
0.0
 40
45.49999068928474
100
AcDbArc
 50
193.6089215519412
 51
256.3910784480587
  0
ARC
  5
817
330
1F
100
AcDbEntity
  8
0
  6
Continuous
 62
     7
100
AcDbCircle
 10
217.0760159711356
 20
40.33941597108893
 30
0.0
 40
46.50004066465416
100
AcDbArc
 50
283.608958082742
 51
346.3908746461837
  0
ARC
  5
818
330
1F
100
AcDbEntity
  8
0
  6
Continuous
 62
     7
100
AcDbCircle
 10
217.0760159711158
 20
40.33941597106815
 30
0.0
 40
45.50006281495106
100
AcDbArc
 50
283.6089436528967
 51
346.3908853998883
  0
ARC
  5
819
330
1F
100
AcDbEntity
  8
0
  6
Continuous
 62
     7
100
AcDbCircle
 10
217.076
 20
40.3394
 30
0.0
 40
46.50000537053733
100
AcDbArc
 50
193.6088620823967
 51
256.3911379176027
  0
ARC
  5
81A
330
1F
100
AcDbEntity
  8
0
  6
Continuous
 62
     7
100
AcDbCircle
 10
217.076009549358
 20
40.33939532339315
 30
0.0
 40
72.49999130675732
100
AcDbArc
 50
322.1651467066801
 51
165.6501000353254
  0
ARC
  5
81B
330
1F
100
AcDbEntity
  8
0
  6
Continuous
 62
     7
100
AcDbCircle
 10
217.0760193891883
 20
40.33939043913103
 30
0.0
 40
71.49998424562437
100
AcDbArc
 50
321.9147282063548
 51
165.5891728198195
  0
LINE
  5
81C
330
1F
100
AcDbEntity
  8
0
  6
DASH_CENTER
 62
    30
100
AcDbLine
 10
217.076
 20
-57.75660000000002
 30
0.0
 11
217.076
 21
120.9724
 31
0.0
  0
LINE
  5
81D
330
1F
100
AcDbEntity
  8
0
  6
DASH_CENTER
 62
    30
100
AcDbLine
 10
182.4431999999999
 20
5.706800000000001
 30
0.0
 11
165.7435999999998
 21
-10.9928
 31
0.0
  0
LINE
  5
81E
330
1F
100
AcDbEntity
  8
0
  6
Continuous
 62
     7
100
AcDbLine
 10
123.8677
 20
0.4390000000000002
 30
0.0
 11
122.6879999999999
 21
-5.183300000000001
 31
0.0
  0
LINE
  5
81F
330
1F
100
AcDbEntity
  8
0
  6
Continuous
 62
     7
100
AcDbLine
 10
127.9675
 20
0.4390000000000002
 30
0.0
 11
129.1471999999999
 21
-5.183300000000001
 31
0.0
  0
LINE
  5
820
330
1F
100
AcDbEntity
  8
0
  6
DASH_CENTER
 62
    30
100
AcDbLine
 10
125.9176999999999
 20
-13.81879999999999
 30
0.0
 11
125.9176999999999
 21
0.694099999999999
 31
0.0
  0
LINE
  5
829
330
1F
100
AcDbEntity
  8
0
  6
Continuous
 62
     7
100
AcDbLine
 10
247.0758
 20
-29.6606
 30
0.0
 11
187.0759999999999
 21
-29.6606
 31
0.0
  0
LINE
  5
82A
330
1F
100
AcDbEntity
  8
0
  6
Continuous
 62
     7
100
AcDbLine
 10
248.6009
 20
-26.46069999999999
 30
0.0
 11
185.5508
 21
-26.46069999999999
 31
0.0
  0
ARC
  5
82E
330
1F
100
AcDbEntity
  8
0
  6
Continuous
 62
     7
100
AcDbCircle
 10
217.0755928763844
 20
40.33931420577443
 30
0.0
 40
64.25004432500212
100
AcDbArc
 50
284.8978902957462
 51
300.1024945005431
  0
ARC
  5
82F
330
1F
100
AcDbEntity
  8
0
  6
Continuous
 62
     7
100
AcDbCircle
 10
217.0757736141885
 20
40.3393890706337
 30
0.0
 40
61.25001891472511
100
AcDbArc
 50
284.5230420048946
 51
300.4769779902003
  0
ARC
  5
830
330
1F
100
AcDbEntity
  8
0
  6
Continuous
 62
     7
100
AcDbCircle
 10
217.076090825114
 20
40.33939999972719
 30
0.0
 40
57.50000627492793
100
AcDbArc
 50
234.6212435499665
 51
305.3784122397581
  0
ARC
  5
831
330
1F
100
AcDbEntity
  8
0
  6
Continuous
 62
     7
100
AcDbCircle
 10
217.0760908251808
 20
40.33939999973184
 30
0.0
 40
58.50006535309809
100
AcDbArc
 50
234.6212593012564
 51
305.3784023726378
  0
LINE
  5
886
330
1F
100
AcDbEntity
  8
0
  6
Continuous
 62
     7
100
AcDbLine
 10
173.4422
 20
-0.6443999999999975
 30
0.0
 11
174.4422
 21
-0.6443999999999975
 31
0.0
  0
LINE
  5
887
330
1F
100
AcDbEntity
  8
0
  6
Continuous
 62
     7
100
AcDbLine
 10
173.4422
 20
-4.9444
 30
0.0
 11
174.4422
 21
-4.9444
 31
0.0
  0
LINE
  5
888
330
1F
100
AcDbEntity
  8
0
  6
Continuous
 62
     7
100
AcDbLine
 10
184.5508
 20
-27.4607
 30
0.0
 11
142.076
 21
-27.4607
 31
0.0
  0
LINE
  5
889
330
1F
100
AcDbEntity
  8
0
  6
Continuous
 62
     7
100
AcDbLine
 10
187.0759999999999
 20
-30.6606
 30
0.0
 11
142.076
 21
-30.6606
 31
0.0
  0
ARC
  5
88C
330
1F
100
AcDbEntity
  8
0
  6
Continuous
 62
     7
100
AcDbCircle
 10
172.9422
 20
-1.794299999999999
 30
0.0
 40
0.5
100
AcDbArc
 50
270.0
 51
0.0
  0
ARC
  5
88D
330
1F
100
AcDbEntity
  8
0
  6
Continuous
 62
     7
100
AcDbCircle
 10
172.9422
 20
-3.794299999999998
 30
0.0
 40
0.5
100
AcDbArc
 50
0.0
 51
90.0
  0
CIRCLE
  5
89B
330
1F
100
AcDbEntity
  8
0
  6
Continuous
 62
     7
100
AcDbCircle
 10
125.9176999999999
 20
-5.860799999999997
 30
0.0
 40
2.149999999999999
  0
ARC
  5
89C
330
1F
100
AcDbEntity
  8
0
  6
Continuous
 62
     7
100
AcDbCircle
 10
125.91775
 20
-5.860799999999997
 30
0.0
 40
3.299966800211791
100
AcDbArc
 50
168.1508663061885
 51
11.84913369381134
  0
LINE
  5
89D
330
1F
100
AcDbEntity
  8
0
  6
DASH_CENTER
 62
    30
100
AcDbLine
 10
133.1734999999999
 20
-5.860799999999997
 30
0.0
 11
117.2994
 21
-5.860799999999997
 31
0.0
  0
LINE
  5
89F
330
1F
100
AcDbEntity
  8
0
  6
Continuous
 62
     7
100
AcDbLine
 10
145.6471
 20
-25.43029999999999
 30
0.0
 11
155.0570999999998
 21
-8.453900000000004
 31
0.0
  0
LINE
  5
8A0
330
1F
100
AcDbEntity
  8
0
  6
DASH_CENTER
 62
    30
100
AcDbLine
 10
161.0759999999999
 20
-21.9924
 30
0.0
 11
161.0759999999999
 21
-35.23190000000001
 31
0.0
  0
LINE
  5
8A1
330
1F
100
AcDbEntity
  8
0
  6
Continuous
 62
     7
100
AcDbLine
 10
142.076
 20
-26.46069999999999
 30
0.0
 11
143.8978999999999
 21
-26.46069999999999
 31
0.0
  0
ARC
  5
8A2
330
1F
100
AcDbEntity
  8
0
  6
Continuous
 62
     7
100
AcDbCircle
 10
143.897862821129
 20
-24.46072190093096
 30
0.0
 40
1.999978099414606
100
AcDbArc
 50
270.0010651078548
 51
331.0009998037528
  0
LINE
  5
8A3
330
1F
100
AcDbEntity
  8
0
  6
Continuous
 62
     7
100
AcDbLine
 10
142.076
 20
-26.46069999999999
 30
0.0
 11
142.076
 21
-30.6606
 31
0.0
  0
ARC
  5
8A5
330
1F
100
AcDbEntity
  8
0
  6
Continuous
 62
     7
100
AcDbCircle
 10
163.8034746989753
 20
-13.30200360031106
 30
0.0
 40
9.999984019204587
100
AcDbArc
 50
45.19762225190589
 51
150.9999007826472
  0
LINE
  5
8A6
330
1F
100
AcDbEntity
  8
0
  6
Continuous
 62
     7
100
AcDbLine
 10
152.7867999999999
 20
-10.89969999999999
 30
0.0
 11
153.4866
 21
-11.28739999999999
 31
0.0
  0
LINE
  5
8A7
330
1F
100
AcDbEntity
  8
0
  6
Continuous
 62
     7
100
AcDbLine
 10
147.9387
 20
-19.6458
 30
0.0
 11
152.7867999999999
 21
-10.89969999999999
 31
0.0
  0
LINE
  5
8A8
330
1F
100
AcDbEntity
  8
0
  6
Continuous
 62
     7
100
AcDbLine
 10
147.4127
 20
-16.0569
 30
0.0
 11
149.4647
 21
-12.355
 31
0.0
  0
LINE
  5
8A9
330
1F
100
AcDbEntity
  8
0
  6
DASH_CENTER
 62
    30
100
AcDbLine
 10
145.0998
 20
-12.35549999999999
 30
0.0
 11
154.3035
 21
-17.4573
 31
0.0
  0
ARC
  5
8AA
330
1F
100
AcDbEntity
  8
0
  6
Continuous
 62
     7
100
AcDbCircle
 10
150.601765002988
 20
-12.98541170909216
 30
0.0
 40
1.299993180227539
100
AcDbArc
 50
66.00095838785714
 51
150.9968499901779
  0
LINE
  5
8AB
330
1F
100
AcDbEntity
  8
0
  6
Continuous
 62
     7
100
AcDbLine
 10
148.6658999999999
 20
-18.3337
 30
0.0
 11
147.8226999999999
 21
-17.7651
 31
0.0
  0
LINE
  5
8AC
330
1F
100
AcDbEntity
  8
0
  6
Continuous
 62
     7
100
AcDbLine
 10
147.9387
 20
-19.6458
 30
0.0
 11
148.6385
 21
-20.03369999999998
 31
0.0
  0
ARC
  5
8AD
330
1F
100
AcDbEntity
  8
0
  6
Continuous
 62
     7
100
AcDbCircle
 10
148.5496849680533
 20
-16.68723739438014
 30
0.0
 40
1.299974611619224
100
AcDbArc
 50
151.0001412715288
 51
236.0027436949095
  0
LINE
  5
8AE
330
1F
100
AcDbEntity
  8
0
  6
Continuous
 62
     7
100
AcDbLine
 10
152.0595999999999
 20
-12.21139999999999
 30
0.0
 11
151.1305
 21
-11.79789999999999
 31
0.0
  0
LINE
  5
8AF
330
1F
100
AcDbEntity
  8
0
  6
Continuous
 62
     7
100
AcDbLine
 10
171.7923
 20
-2.294299999999998
 30
0.0
 11
171.7923
 21
-3.294299999999998
 31
0.0
  0
LINE
  5
8B0
330
1F
100
AcDbEntity
  8
0
  6
Continuous
 62
     7
100
AcDbLine
 10
173.4422
 20
-0.6443999999999975
 30
0.0
 11
173.4422
 21
-1.794299999999999
 31
0.0
  0
LINE
  5
8B1
330
1F
100
AcDbEntity
  8
0
  6
Continuous
 62
     7
100
AcDbLine
 10
173.4422
 20
-3.794299999999998
 30
0.0
 11
173.4422
 21
-4.9444
 31
0.0
  0
LINE
  5
8B2
330
1F
100
AcDbEntity
  8
0
  6
Continuous
 62
     7
100
AcDbLine
 10
171.7923
 20
-2.294299999999998
 30
0.0
 11
172.9422
 21
-2.294299999999998
 31
0.0
  0
LINE
  5
8B3
330
1F
100
AcDbEntity
  8
0
  6
Continuous
 62
     7
100
AcDbLine
 10
171.7923
 20
-3.294299999999998
 30
0.0
 11
172.9422
 21
-3.294299999999998
 31
0.0
  0
ARC
  5
8C2
330
1F
100
AcDbEntity
  8
0
  6
Continuous
 62
     7
100
AcDbCircle
 10
188.232010021888
 20
-24.09959532760453
 30
0.0
 40
4.99998973897724
100
AcDbArc
 50
65.88692036242747
 51
164.1047415881561
  0
LINE
  5
8C3
330
1F
100
AcDbEntity
  8
0
  6
Continuous
 62
     7
100
AcDbLine
 10
182.0759999999999
 20
-27.4607
 30
0.0
 11
183.4232
 21
-22.73019999999998
 31
0.0
  0
ARC
  5
8C4
330
1F
100
AcDbEntity
  8
0
  6
Continuous
 62
     7
100
AcDbCircle
 10
184.550899995
 20
-26.96070000499899
 30
0.0
 40
0.5000000050000086
100
AcDbArc
 50
269.9885414170928
 51
0.000000572842223
  0
ARC
  5
8C5
330
1F
100
AcDbEntity
  8
0
  6
Continuous
 62
     7
100
AcDbCircle
 10
185.5509000049999
 20
-26.96069999499899
 30
0.0
 40
0.5000000049999942
100
AcDbArc
 50
90.01145972882367
 51
180.000000573073
  0
LINE
  5
8C6
330
1F
100
AcDbEntity
  8
0
  6
Continuous
 62
     7
100
AcDbLine
 10
187.0759999999999
 20
-29.6606
 30
0.0
 11
187.0759999999999
 21
-30.6606
 31
0.0
  0
ARC
  5
8C7
330
1F
100
AcDbEntity
  8
0
  6
Continuous
 62
     7
100
AcDbCircle
 10
217.0758801704439
 20
40.33936679229838
 30
0.0
 40
64.25006250469696
100
AcDbArc
 50
239.8977488376776
 51
255.1022311672269
  0
ARC
  5
8C8
330
1F
100
AcDbEntity
  8
0
  6
Continuous
 62
     7
100
AcDbCircle
 10
217.0758263858114
 20
40.33938907063367
 30
0.0
 40
61.25001891472511
100
AcDbArc
 50
239.5230220097996
 51
255.4769579951053
  0
LINE
  5
8C9
330
1F
100
AcDbEntity
  8
0
  6
Continuous
 62
     7
100
AcDbLine
 10
184.8517
 20
-15.2454
 30
0.0
 11
186.0103999999999
 21
-12.4478
 31
0.0
  0
ARC
  5
8CA
330
1F
100
AcDbEntity
  8
0
  6
Continuous
 62
     7
100
AcDbCircle
 10
186.1007137747766
 20
-3.281528591166348
 30
0.0
 40
4.999977553848886
100
AcDbArc
 50
176.8272885250602
 51
234.6207905424119
  0
LINE
  5
8CB
330
1F
100
AcDbEntity
  8
0
  6
Continuous
 62
     7
100
AcDbLine
 10
174.9422
 20
-2.294299999999998
 30
0.0
 11
176.0920999999999
 21
-2.294299999999998
 31
0.0
  0
LINE
  5
8CC
330
1F
100
AcDbEntity
  8
0
  6
Continuous
 62
     7
100
AcDbLine
 10
174.9422
 20
-3.294299999999998
 30
0.0
 11
176.0920999999999
 21
-3.294299999999998
 31
0.0
  0
LINE
  5
8CD
330
1F
100
AcDbEntity
  8
0
  6
Continuous
 62
     7
100
AcDbLine
 10
176.0920999999999
 20
-2.294299999999998
 30
0.0
 11
176.0920999999999
 21
-3.294299999999998
 31
0.0
  0
LINE
  5
8CE
330
1F
100
AcDbEntity
  8
0
  6
Continuous
 62
     7
100
AcDbLine
 10
174.4422
 20
-0.6443999999999975
 30
0.0
 11
174.4422
 21
-1.794299999999999
 31
0.0
  0
LINE
  5
8CF
330
1F
100
AcDbEntity
  8
0
  6
Continuous
 62
     7
100
AcDbLine
 10
174.4422
 20
-3.794299999999998
 30
0.0
 11
174.4422
 21
-4.9444
 31
0.0
  0
ARC
  5
8D0
330
1F
100
AcDbEntity
  8
0
  6
Continuous
 62
     7
100
AcDbCircle
 10
174.9422
 20
-1.794299999999999
 30
0.0
 40
0.5
100
AcDbArc
 50
180.0
 51
270.0
  0
ARC
  5
8D1
330
1F
100
AcDbEntity
  8
0
  6
Continuous
 62
     7
100
AcDbCircle
 10
174.9422
 20
-3.794299999999998
 30
0.0
 40
0.5
100
AcDbArc
 50
90.0
 51
180.0
  0
ARC
  5
8D2
330
1F
100
AcDbEntity
  8
0
  6
Continuous
 62
     7
100
AcDbCircle
 10
186.1006950524155
 20
-3.28148973125635
 30
0.0
 40
4.000020854304396
100
AcDbArc
 50
176.8286555370652
 51
234.62181718504
  0
LINE
  5
8D3
330
1F
100
AcDbEntity
  8
0
  6
Continuous
 62
     7
100
AcDbLine
 10
200.5577
 20
-21.751
 30
0.0
 11
201.7164
 21
-18.9534
 31
0.0
  0
LINE
  5
8D4
330
1F
100
AcDbEntity
  8
0
  6
Continuous
 62
     7
100
AcDbLine
 10
206.3177
 20
-24.43259999999999
 30
0.0
 11
209.6870999999999
 21
-26.3318
 31
0.0
  0
LINE
  5
8D5
330
1F
100
AcDbEntity
  8
0
  6
Continuous
 62
     7
100
AcDbLine
 10
227.8342
 20
-24.43259999999999
 30
0.0
 11
224.4647
 21
-26.3318
 31
0.0
  0
ARC
  5
8D6
330
1F
100
AcDbEntity
  8
0
  6
Continuous
 62
     7
100
AcDbCircle
 10
207.0760074687725
 20
-0.9672941235054608
 30
0.0
 40
3.999992531231736
100
AcDbArc
 50
256.3920303988496
 51
359.999915825259
  0
ARC
  5
8D7
330
1F
100
AcDbEntity
  8
0
  6
Continuous
 62
     7
100
AcDbCircle
 10
207.0759963933404
 20
-0.9673028377943282
 30
0.0
 40
3.000003606660978
100
AcDbArc
 50
256.3927451678981
 51
0.000054197814074
  0
LINE
  5
8D8
330
1F
100
AcDbEntity
  8
0
  6
Continuous
 62
     7
100
AcDbLine
 10
233.5942999999999
 20
-21.751
 30
0.0
 11
232.4357
 21
-18.9534
 31
0.0
  0
ARC
  5
8D9
330
1F
100
AcDbEntity
  8
0
  6
Continuous
 62
     7
100
AcDbCircle
 10
227.0760153707056
 20
-0.9673120936625494
 30
0.0
 40
3.000015370730201
100
AcDbArc
 50
179.9997690292426
 51
283.6089342938436
  0
ARC
  5
8DA
330
1F
100
AcDbEntity
  8
0
  6
Continuous
 62
     7
100
AcDbCircle
 10
227.0760042956173
 20
-0.9673033797604515
 30
0.0
 40
4.00000429561897
100
AcDbArc
 50
179.9999515885498
 51
283.6092291969686
  0
SPLINE
  5
8E1
330
1F
100
AcDbEntity
  8
0
  6
Continuous
 62
    54
100
AcDbSpline
210
0.0
220
0.0
230
1.0
 70
     8
 71
     3
 72
   151
 73
   147
 74
   145
 42
0.0000000001
 43
0.0000000001
 44
0.00000001
 40
0.0
 40
0.0
 40
0.0
 40
0.0
 40
0.2626235944194336
 40
0.5252449559840072
 40
0.7878692862911806
 40
1.075430096121937
 40
1.363029141684497
 40
1.65060210031619
 40
1.927558755935029
 40
2.204531516310295
 40
2.481406186297114
 40
2.486919999442084
 40
2.492433771891129
 40
2.497959999381549
 40
2.503486230621323
 40
2.805299671975658
 40
3.107202524415576
 40
3.409227184615552
 40
3.711279267080653
 40
4.144246900442994
 40
4.577076967216162
 40
5.009884796825984
 40
5.510803468295412
 40
6.011742183040052
 40
6.017525569529984
 40
6.023308871575098
 40
6.029068820842033
 40
6.034828856084192
 40
6.392465510503366
 40
6.750096508384062
 40
7.107696613741558
 40
7.45865439810772
 40
7.809656293115788
 40
8.160662402155248
 40
8.655335542636418
 40
9.149986415030568
 40
9.156708054274766
 40
9.163429685989742
 40
9.170219926153778
 40
9.177010167590724
 40
9.680278778800257
 40
10.18356834988274
 40
10.68687567866696
 40
11.55217514452582
 40
12.41743808739862
 40
13.15990425481444
 40
13.90241065735115
 40
14.34335818711761
 40
14.78428729716174
 40
15.22524667620212
 40
15.66645583700468
 40
15.94496031496457
 40
16.22352845315194
 40
16.50202999410961
 40
16.78042738492398
 40
17.05878953019332
 40
17.33730548450924
 40
17.60530576230212
 40
17.87341001405196
 40
18.14140403854968
 40
18.40920956778499
 40
18.67690093759852
 40
18.95172183511173
 40
19.22682816043943
 40
19.50226533621146
 40
19.77797012364177
 40
20.05378385806109
 40
20.32946525905966
 40
20.62903528141262
 40
20.92836488797315
 40
21.22763511933699
 40
21.52692778779834
 40
21.82623337420236
 40
22.12545904421802
 40
22.45486528638397
 40
22.78413484511518
 40
23.11334950777749
 40
23.44251379286859
 40
23.77156085182119
 40
24.13284912942865
 40
24.4941317061782
 40
24.85556799800912
 40
25.21719213004763
 40
25.57892872947336
 40
25.94060863884617
 40
26.40093514933065
 40
26.86099127489821
 40
27.32092599065546
 40
27.78082763423609
 40
28.24073669569388
 40
29.19426853829171
 40
30.14785670197519
 40
30.86893813664658
 40
31.59001269996355
 40
32.31109076985713
 40
32.81960493576095
 40
33.32812665954572
 40
33.8366449283281
 40
34.34519394163177
 40
34.75193636442305
 40
35.15867141449779
 40
35.56534328691383
 40
35.97192215141472
 40
36.4545974073327
 40
36.93735197099705
 40
37.42023935628643
 40
37.90319813539808
 40
38.41316697282575
 40
38.92303904767723
 40
39.43281684905402
 40
39.94259646945308
 40
40.41604001447808
 40
40.88956247321593
 40
41.36307015562283
 40
41.83649390704768
 40
42.35230370459432
 40
42.8681565965578
 40
43.38413296904963
 40
43.90020983135143
 40
44.41628088703908
 40
45.30512372484418
 40
46.19375749852792
 40
47.08238521394869
 40
47.76056812613531
 40
48.43875533442343
 40
49.11694036185799
 40
49.61221990792267
 40
50.10751570722309
 40
50.60281979354861
 40
51.09817285561502
 40
51.47000932328747
 40
51.84182719502751
 40
52.21357711716919
 40
52.58526801875259
 40
52.88703234088606
 40
53.18882437904274
 40
53.49074248296691
 40
53.67845104781122
 40
53.86612373352921
 40
54.05371072203671
 40
54.24130452750731
 40
54.4115582328602
 40
54.58178812905288
 40
54.75187995604023
 40
54.92293927649555
 40
55.09404590772031
 40
55.09404590772031
 40
55.09404590772031
 40
55.09404590772031
 10
253.8726
 20
-140.0716999999999
 30
0.0
 10
253.8553593165571
 20
-140.1575269254808
 30
0.0
 10
253.8208781040079
 20
-140.329180048271
 30
0.0
 10
253.7721681249598
 20
-140.5872580287047
 30
0.0
 10
253.727872811243
 20
-140.8545841573562
 30
0.0
 10
253.6918305781632
 20
-141.1315816951036
 30
0.0
 10
253.666116837589
 20
-141.4180890389701
 30
0.0
 10
253.653060273256
 20
-141.7019330863296
 30
0.0
 10
253.6531803156488
 20
-141.982527727486
 30
0.0
 10
253.6651088231977
 20
-142.2592802618134
 30
0.0
 10
253.6805645720605
 20
-142.4451465526799
 30
0.0
 10
253.6903338921015
 20
-142.5406153424935
 30
0.0
 10
253.6908997272154
 20
-142.5461041936188
 30
0.0
 10
253.691470152827
 20
-142.5515967302396
 30
0.0
 10
253.7023165839813
 20
-142.6553197558678
 30
0.0
 10
253.727137388646
 20
-142.8569232771899
 30
0.0
 10
253.7730719735635
 20
-143.1553566301253
 30
0.0
 10
253.8263080199026
 20
-143.4526452168203
 30
0.0
 10
253.8936165712064
 20
-143.7917237490878
 30
0.0
 10
253.9754908914323
 20
-144.1723188305855
 30
0.0
 10
254.0726138216717
 20
-144.5941613584336
 30
0.0
 10
254.1792488927165
 20
-145.0370274659911
 30
0.0
 10
254.2939978039055
 20
-145.5012794132791
 30
0.0
 10
254.3752788037118
 20
-145.8271765171211
 30
0.0
 10
254.4164312658677
 20
-145.9929809497348
 30
0.0
 10
254.4178042367722
 20
-145.9985909609984
 30
0.0
 10
254.419138966268
 20
-146.0042021919537
 30
0.0
 10
254.4472339980919
 20
-146.1240041614534
 30
0.0
 10
254.5030023242452
 20
-146.357787536681
 30
0.0
 10
254.5850704625777
 20
-146.7058674952568
 30
0.0
 10
254.6622061378363
 20
-147.0528138822956
 30
0.0
 10
254.7310143981996
 20
-147.3992650706123
 30
0.0
 10
254.7919164202215
 20
-147.7449557443546
 30
0.0
 10
254.852918766997
 20
-148.1391854017791
 30
0.0
 10
254.910546817255
 20
-148.5822827069
 30
0.0
 10
254.9457873103019
 20
-148.9124471822083
 30
0.0
 10
254.9622509100958
 20
-149.0810097692538
 30
0.0
 10
254.9629030845379
 20
-149.0877226681141
 30
0.0
 10
254.9635521495786
 20
-149.0944588416118
 30
0.0
 10
254.9799910812493
 20
-149.2659557894955
 30
0.0
 10
255.0097438337755
 20
-149.6024365965852
 30
0.0
 10
255.0488328907043
 20
-150.1042096497685
 30
0.0
 10
255.093340252459
 20
-150.7265876574275
 30
0.0
 10
255.144168732638
 20
-151.4694736681156
 30
0.0
 10
255.2016750323199
 20
-152.2918106328462
 30
0.0
 10
255.2613323310376
 20
-153.0729550479844
 30
0.0
 10
255.3162227565735
 20
-153.7125911137525
 30
0.0
 10
255.3680373051693
 20
-154.2515759562014
 30
0.0
 10
255.4163646417213
 20
-154.6898869289441
 30
0.0
 10
255.4736065042382
 20
-155.1272276746208
 30
0.0
 10
255.534045436805
 20
-155.5094321419717
 30
0.0
 10
255.5948381405177
 20
-155.8366194354954
 30
0.0
 10
255.652443827299
 20
-156.1091556119831
 30
0.0
 10
255.717778627805
 20
-156.3799162146898
 30
0.0
 10
255.7918352572542
 20
-156.6483636721204
 30
0.0
 10
255.8756077026023
 20
-156.9139583914293
 30
0.0
 10
255.9688526706225
 20
-157.1727123834223
 30
0.0
 10
256.0719291245991
 20
-157.4240224808924
 30
0.0
 10
256.184880394601
 20
-157.6672035869036
 30
0.0
 10
256.3095766674012
 20
-157.9045205116588
 30
0.0
 10
256.4465014246161
 20
-158.1348571445803
 30
0.0
 10
256.5974493832365
 20
-158.3590352275321
 30
0.0
 10
256.7632436924933
 20
-158.5755592264737
 30
0.0
 10
256.9431952511872
 20
-158.7838683273945
 30
0.0
 10
257.1348228801945
 20
-158.9818847270225
 30
0.0
 10
257.3370637286064
 20
-159.1693789086509
 30
0.0
 10
257.54885919807
 20
-159.3461222233077
 30
0.0
 10
257.7756316711655
 20
-159.5167635856219
 30
0.0
 10
258.0173194921702
 20
-159.6800213761328
 30
0.0
 10
258.2737203577497
 20
-159.8348323421099
 30
0.0
 10
258.5372470708306
 20
-159.9769591236864
 30
0.0
 10
258.8070587862643
 20
-160.1067161760656
 30
0.0
 10
259.0823173755956
 20
-160.224418446128
 30
0.0
 10
259.3716706689758
 20
-160.3339721886553
 30
0.0
 10
259.674893056475
 20
-160.4343413744997
 30
0.0
 10
259.9917002337073
 20
-160.5245142692897
 30
0.0
 10
260.3118046808465
 20
-160.6017973994589
 30
0.0
 10
260.6345657660875
 20
-160.6666874763194
 30
0.0
 10
260.9700344079509
 20
-160.7214268420887
 30
0.0
 10
261.3179131181547
 20
-160.7651796565473
 30
0.0
 10
261.6778342020485
 20
-160.7978357436398
 30
0.0
 10
262.0386901135008
 20
-160.8193771153497
 30
0.0
 10
262.4001360637984
 20
-160.8311352277558
 30
0.0
 10
262.7618292579299
 20
-160.8344399437856
 30
0.0
 10
263.1564081232248
 20
-160.8302713259817
 30
0.0
 10
263.5836112119599
 20
-160.8179520455183
 30
0.0
 10
264.0432433919814
 20
-160.7966655036461
 30
0.0
 10
264.5023735900882
 20
-160.7687694402542
 30
0.0
 10
264.9611030312116
 20
-160.7356672124311
 30
0.0
 10
265.5835422784609
 20
-160.6855582720479
 30
0.0
 10
266.3694739873407
 20
-160.6159161901572
 30
0.0
 10
267.2422921126068
 20
-160.540402446922
 30
0.0
 10
268.0387637114819
 20
-160.4820595008859
 30
0.0
 10
268.7586210443054
 20
-160.4396392999364
 30
0.0
 10
269.4083189894041
 20
-160.4125425600415
 30
0.0
 10
269.9875362632953
 20
-160.3983190355371
 30
0.0
 10
270.4960590011806
 20
-160.3938932260757
 30
0.0
 10
271.0045969397613
 20
-160.3983855998332
 30
0.0
 10
271.4790466096035
 20
-160.4117037968412
 30
0.0
 10
271.9192588672729
 20
-160.4323596582696
 30
0.0
 10
272.3251469566921
 20
-160.4586656042072
 30
0.0
 10
272.7304114663739
 20
-160.4926544755216
 30
0.0
 10
273.1600956879704
 20
-160.5373978299772
 30
0.0
 10
273.613790292132
 20
-160.5953184591242
 30
0.0
 10
274.0914620870908
 20
-160.6654318280543
 30
0.0
 10
274.5683171588401
 20
-160.7414309417137
 30
0.0
 10
275.0536621329462
 20
-160.8217026734827
 30
0.0
 10
275.5479303606701
 20
-160.9031488852282
 30
0.0
 10
276.0515123089582
 20
-160.9830355629051
 30
0.0
 10
276.555917149227
 20
-161.0571833293736
 30
0.0
 10
277.0494694653017
 20
-161.1213058001842
 30
0.0
 10
277.5322658084883
 20
-161.173583015311
 30
0.0
 10
278.0040205475597
 20
-161.2145255892612
 30
0.0
 10
278.4765598474212
 20
-161.2450508183197
 30
0.0
 10
278.9637623555174
 20
-161.265355897067
 30
0.0
 10
279.4654368607159
 20
-161.2738429455764
 30
0.0
 10
279.9813441974475
 20
-161.2711098203445
 30
0.0
 10
280.4971896903803
 20
-161.2587719014557
 30
0.0
 10
281.012854882367
 20
-161.2386816046838
 30
0.0
 10
281.6523814651026
 20
-161.2064287543548
 30
0.0
 10
282.4154873925971
 20
-161.1597259505437
 30
0.0
 10
283.3020136351746
 20
-161.0975091096305
 30
0.0
 10
284.1182340853164
 20
-161.0367131222271
 30
0.0
 10
284.8645187351487
 20
-160.981376403099
 30
0.0
 10
285.5411497039264
 20
-160.9353763712751
 30
0.0
 10
286.1574282755082
 20
-160.9008932153705
 30
0.0
 10
286.713244306213
 20
-160.8783866685288
 30
0.0
 10
287.2083971168756
 20
-160.865747151829
 30
0.0
 10
287.7037221935045
 20
-160.8614705016836
 30
0.0
 10
288.1578940755645
 20
-160.8661008075856
 30
0.0
 10
288.5707486201237
 20
-160.8778160832509
 30
0.0
 10
288.9421722702857
 20
-160.8950858570433
 30
0.0
 10
289.3131181392112
 20
-160.9200090389367
 30
0.0
 10
289.6601371558314
 20
-160.9514152180589
 30
0.0
 10
289.9831524323254
 20
-160.9882540817642
 30
0.0
 10
290.2821369947126
 20
-161.0298156584723
 30
0.0
 10
290.5423411933884
 20
-161.0735146751799
 30
0.0
 10
290.7639655133365
 20
-161.1166573569198
 30
0.0
 10
290.9471545317094
 20
-161.1574962625405
 30
0.0
 10
291.1288066093305
 20
-161.2046098539818
 30
0.0
 10
291.3027943830941
 20
-161.2575913088551
 30
0.0
 10
291.4686617454196
 20
-161.3167181018421
 30
0.0
 10
291.6260177502752
 20
-161.381753780989
 30
0.0
 10
291.7798378098788
 20
-161.4554549545528
 30
0.0
 10
291.9291632779871
 20
-161.5384181646788
 30
0.0
 10
292.0269832483748
 20
-161.5970700225146
 30
0.0
 10
292.0758999999998
 20
-161.6263999999999
 30
0.0
 11
253.8726
 21
-140.0716999999999
 31
0.0
 11
253.8213799474707
 21
-140.3292804012517
 31
0.0
 11
253.7731305688958
 21
-140.5874314761588
 31
0.0
 11
253.7306703846936
 21
-140.8466006716873
 31
0.0
 11
253.6937322864243
 21
-141.1317792057285
 31
0.0
 11
253.6681987610291
 21
-141.4182425539679
 31
0.0
 11
253.6551630775493
 21
-141.7055199063709
 31
0.0
 11
253.6551487486481
 21
-141.9824765611243
 31
0.0
 11
253.6669487313053
 21
-142.2591978471804
 31
0.0
 11
253.6897732811095
 21
-142.5351301262002
 31
0.0
 11
253.6903345853739
 21
-142.5406152946433
 31
0.0
 11
253.6909
 21
-142.5460999999999
 31
0.0
 11
253.6914708079154
 21
-142.5515966688573
 31
0.0
 11
253.6920455120685
 21
-142.5570929354793
 31
0.0
 11
253.728638747391
 21
-142.8566797982226
 31
0.0
 11
253.7742800875743
 21
-143.15511270567
 31
0.0
 11
253.8272341114113
 21
-143.4524589123736
 31
0.0
 11
253.8857653976946
 21
-143.748785672886
 31
0.0
 11
253.9765145579262
 21
-144.1721360731705
 31
0.0
 11
254.0733170790855
 21
-144.594002329966
 31
0.0
 11
254.174325506402
 21
-145.0148584990371
 31
0.0
 11
254.2941669176303
 21
-145.5012303235773
 31
0.0
 11
254.4150380954053
 21
-145.9873679115794
 31
0.0
 11
254.4164282250663
 21
-145.99298174261
 31
0.0
 11
254.4178
 21
-145.9986
 31
0.0
 11
254.4191359959574
 21
-146.0042028680499
 31
0.0
 11
254.4204541990259
 21
-146.0098100372721
 31
0.0
 11
254.5028505154505
 21
-146.3578255882493
 31
0.0
 11
254.5843312379008
 21
-146.7060508352004
 31
0.0
 11
254.6613499671024
 21
-147.0552584393727
 31
0.0
 11
254.7297653898661
 21
-147.3994832154259
 31
0.0
 11
254.7907118516515
 21
-147.7451533749913
 31
0.0
 11
254.8444324463535
 21
-148.0920242247421
 31
0.0
 11
254.9086642642904
 21
-148.5825094841544
 31
0.0
 11
254.9615972483095
 21
-149.0743200014819
 31
0.0
 11
254.9622503412986
 21
-149.0810098373326
 31
0.0
 11
254.9628999999999
 21
-149.0876999999999
 31
0.0
 11
254.963551595018
 21
-149.0944589041603
 31
0.0
 11
254.964199844076
 21
-149.1012181313323
 31
0.0
 11
255.008869631818
 21
-149.6025003923794
 31
0.0
 11
255.0483008469507
 21
-150.1042429276789
 31
0.0
 11
255.0845439449675
 21
-150.6062436299685
 31
0.0
 11
255.1443858215758
 21
-151.469471360865
 31
0.0
 11
255.2055224313669
 21
-152.33257174615
 31
0.0
 11
255.2624885378854
 21
-153.0728493105022
 31
0.0
 11
255.3263999999999
 21
-153.8125999999999
 31
0.0
 11
255.369059838664
 21
-154.2514790973575
 31
0.0
 11
255.4178472956418
 21
-154.6897008038619
 31
0.0
 11
255.4755373056943
 21
-155.1268701493472
 31
0.0
 11
255.5449048035823
 21
-155.5625921636474
 31
0.0
 11
255.5959542920589
 21
-155.8363780178205
 31
0.0
 11
255.6537383521134
 21
-156.1088871185754
 31
0.0
 11
255.7192437894274
 21
-156.3795754005125
 31
0.0
 11
255.793457409682
 21
-156.6478987982321
 31
0.0
 11
255.8773660185583
 21
-156.9133132463349
 31
0.0
 11
255.9719564217382
 21
-157.1752746794218
 31
0.0
 11
256.0737830740905
 21
-157.4231768410955
 31
0.0
 11
256.1868593364603
 21
-157.6662686934755
 31
0.0
 11
256.3116566304797
 21
-157.9034319970767
 31
0.0
 11
256.4486463777819
 21
-158.1335485124133
 31
0.0
 11
256.5983
 21
-158.3555
 31
0.0
 11
256.765280194613
 21
-158.5737753772987
 31
0.0
 11
256.9450337053985
 21
-158.7820352284898
 31
0.0
 11
257.1365001353274
 21
-158.9800408951612
 31
0.0
 11
257.338619087369
 21
-159.1675537189024
 31
0.0
 11
257.550330164494
 21
-159.3443350413019
 31
0.0
 11
257.7705729696723
 21
-159.5101462039487
 31
0.0
 11
258.0187530212858
 21
-159.6779224248994
 31
0.0
 11
258.2749383900852
 21
-159.8327360878015
 31
0.0
 11
258.5382890515285
 21
-159.9748948038316
 31
0.0
 11
258.8079649810741
 21
-160.1047061841659
 31
0.0
 11
259.0831261541803
 21
-160.2224778399814
 31
0.0
 11
259.3629325463055
 21
-160.3285173824545
 31
0.0
 11
259.6756186584788
 21
-160.4321314147409
 31
0.0
 11
259.9922804513906
 21
-160.5223741500194
 31
0.0
 11
260.3122759335852
 21
-160.5997381309092
 31
0.0
 11
260.6349631136067
 21
-160.6647159000294
 31
0.0
 11
260.9596999999999
 21
-160.7178
 31
0.0
 11
261.3181362926295
 21
-160.7631061112709
 31
0.0
 11
261.6779202895771
 21
-160.79597822493
 31
0.0
 11
262.0387007064554
 21
-160.8177425052961
 31
0.0
 11
262.4001262588783
 21
-160.829725116688
 31
0.0
 11
262.761845662459
 21
-160.8332522234238
 31
0.0
 11
263.1235076328109
 21
-160.8296499898228
 31
0.0
 11
263.5836494448123
 21
-160.816611233519
 31
0.0
 11
264.043223714546
 21
-160.7955605962601
 31
0.0
 11
264.5023259506584
 21
-160.7679005238009
 31
0.0
 11
264.9610516617959
 21
-160.7350334618959
 31
0.0
 11
265.4194963566049
 21
-160.6983618562995
 31
0.0
 11
266.3694858649758
 21
-160.6162466384638
 31
0.0
 11
267.3197
 21
-160.5360999999998
 31
0.0
 11
268.0388800526046
 21
-160.4837694407415
 31
0.0
 11
268.7587264142651
 21
-160.4417011447545
 31
0.0
 11
269.4791926725014
 21
-160.4120034398533
 31
0.0
 11
269.9875570586259
 21
-160.3996621324824
 31
0.0
 11
270.4960607492694
 21
-160.395379588544
 31
0.0
 11
271.0045578898253
 21
-160.4000150765089
 31
0.0
 11
271.5129026256869
 21
-160.4144278648483
 31
0.0
 11
271.9191945132134
 21
-160.4335668469345
 31
0.0
 11
272.3250730857013
 21
-160.4599483813816
 31
0.0
 11
272.7303157717601
 21
-160.49401269135
 31
0.0
 11
273.1346999999999
 21
-160.5362
 31
0.0
 11
273.613554717959
 21
-160.5968099147195
 31
0.0
 11
274.0912666307279
 21
-160.6664037156794
 31
0.0
 11
274.5682170019981
 21
-160.7418925904098
 31
0.0
 11
275.044787095461
 21
-160.82018772644
 31
0.0
 11
275.5480443729944
 21
-160.9026518261508
 31
0.0
 11
276.051690907342
 21
-160.9820854533808
 31
0.0
 11
276.5561148559199
 21
-161.0557732193793
 31
0.0
 11
277.0617043761449
 21
-161.1209997353959
 31
0.0
 11
277.5324029043318
 21
-161.1719083384886
 31
0.0
 11
278.0041573221345
 21
-161.2127897302397
 31
0.0
 11
278.4766841729064
 21
-161.2432511907196
 31
0.0
 11
278.9497
 21
-161.2629
 31
0.0
 11
279.4654306967528
 21
-161.2719330303359
 31
0.0
 11
279.9812778974276
 21
-161.2695098788169
 31
0.0
 11
280.497114042419
 21
-161.2574812278023
 31
0.0
 11
281.0128115721211
 21
-161.2376977596523
 31
0.0
 11
281.5282429269286
 21
-161.2120101567269
 31
0.0
 11
282.4154675577907
 21
-161.1584000408734
 31
0.0
 11
283.301969018629
 21
-161.0968765214153
 31
0.0
 11
284.1881928963973
 21
-161.031558416446
 31
0.0
 11
284.8645676229313
 21
-160.9820680989868
 31
0.0
 11
285.5412375391203
 21
-160.9367281185433
 31
0.0
 11
286.2183999999998
 21
-160.8994999999999
 31
0.0
 11
286.7132804145338
 21
-160.8796202629565
 31
0.0
 11
287.2084189795121
 21
-160.8671410741879
 31
0.0
 11
287.7037059623264
 21
-160.8630249530476
 31
0.0
 11
288.1990316303683
 21
-160.8682344188885
 31
0.0
 11
288.5707140414356
 21
-160.8789369376155
 31
0.0
 11
288.9421233237151
 21
-160.8963632019301
 31
0.0
 11
289.3130263685213
 21
-160.9214417956684
 31
0.0
 11
289.6831900671687
 21
-160.9551013026663
 31
0.0
 11
289.9829897858355
 21
-160.9894791257115
 31
0.0
 11
290.2818819512086
 21
-161.0312152932439
 31
0.0
 11
290.5796
 21
-161.0813999999999
 31
0.0
 11
290.7638064957713
 21
-161.117489779463
 31
0.0
 11
290.9469323502811
 21
-161.1585502022304
 31
0.0
 11
291.1284531633771
 21
-161.2058690420997
 31
0.0
 11
291.3078445349073
 21
-161.2607340728678
 31
0.0
 11
291.4681666608316
 21
-161.3180327645045
 31
0.0
 11
291.6254301897261
 21
-161.3831971717629
 31
0.0
 11
291.7787590474251
 21
-161.4568279462649
 31
0.0
 11
291.9286688756542
 21
-161.539219296678
 31
0.0
 11
292.0758999999998
 21
-161.6263999999999
 31
0.0
  0
LINE
  5
8E2
330
1F
100
AcDbEntity
  8
0
  6
Continuous
 62
     7
100
AcDbLine
 10
263.0758999999999
 20
-153.5717999999999
 30
0.0
 11
283.0759
 21
-153.5717999999999
 31
0.0
  0
LINE
  5
8E3
330
1F
100
AcDbEntity
  8
0
  6
Continuous
 62
     7
100
AcDbLine
 10
263.0758999999999
 20
-146.5718
 30
0.0
 11
283.0759
 21
-146.5718
 31
0.0
  0
LINE
  5
8E4
330
1F
100
AcDbEntity
  8
0
  6
DASH_CENTER
 62
    30
100
AcDbLine
 10
289.6431999999998
 20
-150.0717999999999
 30
0.0
 11
253.7803
 21
-150.0717999999999
 31
0.0
  0
LINE
  5
8E5
330
1F
100
AcDbEntity
  8
0
  6
Continuous
 62
     7
100
AcDbLine
 10
253.8726
 20
-140.0717999999999
 30
0.0
 11
282.0761999999998
 21
-140.0717999999999
 31
0.0
  0
ARC
  5
8F1
330
1F
100
AcDbEntity
  8
0
  6
Continuous
 62
     7
100
AcDbCircle
 10
263.0758999999999
 20
-150.0717999999999
 30
0.0
 40
3.5
100
AcDbArc
 50
90.0
 51
270.0
  0
LINE
  5
8F3
330
1F
100
AcDbEntity
  8
0
  6
Continuous
 62
     7
100
AcDbLine
 10
292.0758
 20
-150.0717999999999
 30
0.0
 11
292.0758
 21
-161.6264999999999
 31
0.0
  0
LINE
  5
8F4
330
1F
100
AcDbEntity
  8
0
  6
DASH_CENTER
 62
    30
100
AcDbLine
 10
273.0758
 20
-142.4746
 30
0.0
 11
273.0758
 21
-158.0973999999999
 31
0.0
  0
ARC
  5
8F5
330
1F
100
AcDbEntity
  8
0
  6
Continuous
 62
     7
100
AcDbCircle
 10
282.075999999
 20
-150.0717999989998
 30
0.0
 40
10.00000000099999
100
AcDbArc
 50
359.9999999942703
 51
89.99885407868044
  0
ARC
  5
8F6
330
1F
100
AcDbEntity
  8
0
  6
Continuous
 62
     7
100
AcDbCircle
 10
283.0759
 20
-150.0717999999999
 30
0.0
 40
3.5
100
AcDbArc
 50
270.0
 51
90.0
  0
ARC
  5
917
330
1F
100
AcDbEntity
  8
0
  6
Continuous
 62
     7
100
AcDbCircle
 10
270.3483253010245
 20
-13.30200360031106
 30
0.0
 40
9.999984019204584
100
AcDbArc
 50
29.0000992173524
 51
134.8023777480941
  0
LINE
  5
918
330
1F
100
AcDbEntity
  8
0
  6
Continuous
 62
     7
100
AcDbLine
 10
249.601
 20
-27.4607
 30
0.0
 11
292.0758
 21
-27.4607
 31
0.0
  0
LINE
  5
919
330
1F
100
AcDbEntity
  8
0
  6
Continuous
 62
     7
100
AcDbLine
 10
247.0758
 20
-30.6606
 30
0.0
 11
292.0758
 21
-30.6606
 31
0.0
  0
ARC
  5
91A
330
1F
100
AcDbEntity
  8
0
  6
Continuous
 62
     7
100
AcDbCircle
 10
245.919865487214
 20
-24.09958390971564
 30
0.0
 40
5.000010166344656
100
AcDbArc
 50
15.89505571271119
 51
114.1139228566977
  0
LINE
  5
91B
330
1F
100
AcDbEntity
  8
0
  6
Continuous
 62
     7
100
AcDbLine
 10
252.0757999999999
 20
-27.4607
 30
0.0
 11
250.7287
 21
-22.73019999999998
 31
0.0
  0
ARC
  5
91C
330
1F
100
AcDbEntity
  8
0
  6
Continuous
 62
     7
100
AcDbCircle
 10
248.600899995
 20
-26.96069999499902
 30
0.0
 40
0.500000005000004
100
AcDbArc
 50
359.9999994269284
 51
89.98854027117634
  0
ARC
  5
91D
330
1F
100
AcDbEntity
  8
0
  6
Continuous
 62
     7
100
AcDbCircle
 10
249.6009000049999
 20
-26.96070000499901
 30
0.0
 40
0.500000005000004
100
AcDbArc
 50
179.999999427156
 51
270.0114585829071
  0
LINE
  5
91E
330
1F
100
AcDbEntity
  8
0
  6
Continuous
 62
     7
100
AcDbLine
 10
247.0758
 20
-29.6606
 30
0.0
 11
247.0758
 21
-30.6606
 31
0.0
  0
ARC
  5
91F
330
1F
100
AcDbEntity
  8
0
  6
Continuous
 62
     7
100
AcDbCircle
 10
248.0511310673735
 20
-3.281435519092205
 30
0.0
 40
5.000027476912215
100
AcDbArc
 50
305.3781729955318
 51
3.171611606204986
  0
LINE
  5
920
330
1F
100
AcDbEntity
  8
0
  6
Continuous
 62
     7
100
AcDbLine
 10
249.3002
 20
-15.2451
 30
0.0
 11
248.1415
 21
-12.4478
 31
0.0
  0
ARC
  5
921
330
1F
100
AcDbEntity
  8
0
  6
Continuous
 62
     7
100
AcDbCircle
 10
248.0511049475842
 20
-3.28148973125635
 30
0.0
 40
4.000020854304392
100
AcDbArc
 50
305.37818281496
 51
3.171344462935104
  0
LINE
  5
922
330
1F
100
AcDbEntity
  8
0
  6
Continuous
 62
     7
100
AcDbLine
 10
261.2094
 20
-2.294299999999998
 30
0.0
 11
262.3595
 21
-2.294299999999998
 31
0.0
  0
LINE
  5
923
330
1F
100
AcDbEntity
  8
0
  6
Continuous
 62
     7
100
AcDbLine
 10
261.2094
 20
-3.294299999999998
 30
0.0
 11
262.3595
 21
-3.294299999999998
 31
0.0
  0
LINE
  5
924
330
1F
100
AcDbEntity
  8
0
  6
Continuous
 62
     7
100
AcDbLine
 10
258.0595
 20
-2.294299999999998
 30
0.0
 11
259.2094
 21
-2.294299999999998
 31
0.0
  0
LINE
  5
925
330
1F
100
AcDbEntity
  8
0
  6
Continuous
 62
     7
100
AcDbLine
 10
258.0595
 20
-3.294299999999998
 30
0.0
 11
259.2094
 21
-3.294299999999998
 31
0.0
  0
LINE
  5
926
330
1F
100
AcDbEntity
  8
0
  6
Continuous
 62
     7
100
AcDbLine
 10
259.7094
 20
-4.944200000000002
 30
0.0
 11
259.7094
 21
-3.794299999999998
 31
0.0
  0
LINE
  5
927
330
1F
100
AcDbEntity
  8
0
  6
Continuous
 62
     7
100
AcDbLine
 10
260.7094
 20
-4.944200000000002
 30
0.0
 11
260.7094
 21
-3.794299999999998
 31
0.0
  0
LINE
  5
928
330
1F
100
AcDbEntity
  8
0
  6
Continuous
 62
     7
100
AcDbLine
 10
259.7094
 20
-1.794299999999999
 30
0.0
 11
259.7094
 21
-0.6443999999999975
 31
0.0
  0
LINE
  5
929
330
1F
100
AcDbEntity
  8
0
  6
Continuous
 62
     7
100
AcDbLine
 10
260.7094
 20
-1.794299999999999
 30
0.0
 11
260.7094
 21
-0.6443999999999975
 31
0.0
  0
LINE
  5
92A
330
1F
100
AcDbEntity
  8
0
  6
Continuous
 62
     7
100
AcDbLine
 10
259.7094
 20
-0.6443999999999975
 30
0.0
 11
260.7094
 21
-0.6443999999999975
 31
0.0
  0
LINE
  5
92B
330
1F
100
AcDbEntity
  8
0
  6
Continuous
 62
     7
100
AcDbLine
 10
259.7094
 20
-4.944200000000002
 30
0.0
 11
260.7094
 21
-4.944200000000002
 31
0.0
  0
LINE
  5
92C
330
1F
100
AcDbEntity
  8
0
  6
Continuous
 62
     7
100
AcDbLine
 10
258.0595
 20
-3.294299999999998
 30
0.0
 11
258.0595
 21
-2.294299999999998
 31
0.0
  0
ARC
  5
92D
330
1F
100
AcDbEntity
  8
0
  6
Continuous
 62
     7
100
AcDbCircle
 10
259.2094
 20
-1.794299999999999
 30
0.0
 40
0.5
100
AcDbArc
 50
270.0
 51
0.0
  0
ARC
  5
92E
330
1F
100
AcDbEntity
  8
0
  6
Continuous
 62
     7
100
AcDbCircle
 10
259.2094
 20
-3.794299999999998
 30
0.0
 40
0.5
100
AcDbArc
 50
0.0
 51
90.0
  0
ARC
  5
92F
330
1F
100
AcDbEntity
  8
0
  6
Continuous
 62
     7
100
AcDbCircle
 10
261.2094
 20
-3.794299999999998
 30
0.0
 40
0.5
100
AcDbArc
 50
90.0
 51
180.0
  0
ARC
  5
930
330
1F
100
AcDbEntity
  8
0
  6
Continuous
 62
     7
100
AcDbCircle
 10
261.2094
 20
-1.794299999999999
 30
0.0
 40
0.5
100
AcDbArc
 50
180.0
 51
270.0
  0
LINE
  5
931
330
1F
100
AcDbEntity
  8
0
  6
Continuous
 62
     7
100
AcDbLine
 10
262.3595
 20
-3.294299999999998
 30
0.0
 11
262.3595
 21
-2.294299999999998
 31
0.0
  0
LINE
  5
932
330
1F
100
AcDbEntity
  8
0
  6
Continuous
 62
     7
100
AcDbLine
 10
288.5047
 20
-25.4302
 30
0.0
 11
279.0946
 21
-8.453900000000004
 31
0.0
  0
LINE
  5
933
330
1F
100
AcDbEntity
  8
0
  6
DASH_CENTER
 62
    30
100
AcDbLine
 10
273.0759999999999
 20
-21.9924
 30
0.0
 11
273.0759999999999
 21
-35.23190000000001
 31
0.0
  0
LINE
  5
934
330
1F
100
AcDbEntity
  8
0
  6
Continuous
 62
     7
100
AcDbLine
 10
292.0758
 20
-26.46069999999999
 30
0.0
 11
290.254
 21
-26.46069999999999
 31
0.0
  0
ARC
  5
935
330
1F
100
AcDbEntity
  8
0
  6
Continuous
 62
     7
100
AcDbCircle
 10
290.2539629388708
 20
-24.46067816967506
 30
0.0
 40
2.000021830668353
100
AcDbArc
 50
208.9997381660082
 51
270.0010617115509
  0
LINE
  5
936
330
1F
100
AcDbEntity
  8
0
  6
Continuous
 62
     7
100
AcDbLine
 10
292.0758
 20
-26.46069999999999
 30
0.0
 11
292.0758
 21
-30.6606
 31
0.0
  0
CIRCLE
  5
94B
330
1F
100
AcDbEntity
  8
0
  6
Continuous
 62
     7
100
AcDbCircle
 10
217.076
 20
40.3394
 30
0.0
 40
22.29999999999999
  0
ARC
  5
94C
330
1F
100
AcDbEntity
  8
0
  6
Continuous
 62
     7
100
AcDbCircle
 10
217.0757654304984
 20
40.33943456965938
 30
0.0
 40
39.99996801901986
100
AcDbArc
 50
22.23318265938725
 51
67.76655560669357
  0
ARC
  5
94D
330
1F
100
AcDbEntity
  8
0
  6
Continuous
 62
     7
100
AcDbCircle
 10
217.07585
 20
40.33935
 30
0.0
 40
38.99996077799311
100
AcDbArc
 50
22.23328462862383
 51
67.76671537137585
  0
ARC
  5
94E
330
1F
100
AcDbEntity
  8
0
  6
Continuous
 62
     7
100
AcDbCircle
 10
217.0757052456034
 20
40.33949475576473
 30
0.0
 40
29.99995295399715
100
AcDbArc
 50
25.94410984423321
 51
64.05506286948689
  0
ARC
  5
94F
330
1F
100
AcDbEntity
  8
0
  6
Continuous
 62
     7
100
AcDbCircle
 10
217.0757052457449
 20
40.33949475567037
 30
0.0
 40
28.99996950915714
100
AcDbArc
 50
25.94408117486334
 51
64.0550630128082
  0
ARC
  5
950
330
1F
100
AcDbEntity
  8
0
  6
Continuous
 62
     7
100
AcDbCircle
 10
217.076018349813
 20
40.33939999989163
 30
0.0
 40
58.49995487091991
100
AcDbArc
 50
54.62107336012599
 51
125.3782499866652
  0
ARC
  5
951
330
1F
100
AcDbEntity
  8
0
  6
Continuous
 62
     7
100
AcDbCircle
 10
217.076038762554
 20
40.33939999982535
 30
0.0
 40
57.49996550841137
100
AcDbArc
 50
54.62112865163209
 51
125.3783550329559
  0
ARC
  5
952
330
1F
100
AcDbEntity
  8
0
  6
Continuous
 62
     7
100
AcDbCircle
 10
217.0759499999999
 20
40.33935
 30
0.0
 40
29.00003634523583
100
AcDbArc
 50
295.9445546927828
 51
334.055445307217
  0
ARC
  5
953
330
1F
100
AcDbEntity
  8
0
  6
Continuous
 62
     7
100
AcDbCircle
 10
217.0760473777206
 20
40.33944737737878
 30
0.0
 40
30.00006475093864
100
AcDbArc
 50
295.9443189795226
 51
334.0552673788296
  0
ARC
  5
954
330
1F
100
AcDbEntity
  8
0
  6
Continuous
 62
     7
100
AcDbCircle
 10
217.076
 20
40.3394
 30
0.0
 40
40.00007950304599
100
AcDbArc
 50
292.2333256224291
 51
337.7666743775701
  0
ARC
  5
955
330
1F
100
AcDbEntity
  8
0
  6
Continuous
 62
     7
100
AcDbCircle
 10
217.0759499999999
 20
40.33935000000001
 30
0.0
 40
39.00005334310455
100
AcDbArc
 50
292.2332290402487
 51
337.7667709597513
  0
ARC
  5
956
330
1F
100
AcDbEntity
  8
0
  6
Continuous
 62
     7
100
AcDbCircle
 10
217.0761777976618
 20
40.33932635422964
 30
0.0
 40
61.24995278008763
100
AcDbArc
 50
59.52309868366818
 51
75.4771392754329
  0
ARC
  5
957
330
1F
100
AcDbEntity
  8
0
  6
Continuous
 62
     7
100
AcDbCircle
 10
217.076130310317
 20
40.33934602401635
 30
0.0
 40
64.24999600591511
100
AcDbArc
 50
59.89782834055289
 51
75.10240961854899
  0
ARC
  5
958
330
1F
100
AcDbEntity
  8
0
  6
Continuous
 62
     7
100
AcDbCircle
 10
217.07605
 20
40.33934999999996
 30
0.0
 40
45.49999068928477
100
AcDbArc
 50
13.60892155194119
 51
76.39107844805872
  0
ARC
  5
959
330
1F
100
AcDbEntity
  8
0
  6
Continuous
 62
     7
100
AcDbCircle
 10
217.07605
 20
40.33934999999996
 30
0.0
 40
46.49996853896788
100
AcDbArc
 50
13.60893645711665
 51
76.39106354288315
  0
LINE
  5
95A
330
1F
100
AcDbEntity
  8
0
  6
DASH_CENTER
 62
    30
100
AcDbLine
 10
139.2131999999999
 20
40.3394
 30
0.0
 11
297.1913999999998
 21
40.3394
 31
0.0
  0
ARC
  5
95E
330
1F
100
AcDbEntity
  8
0
  6
Continuous
 62
     7
100
AcDbCircle
 10
-11.27215
 20
40.3391
 30
0.0
 40
7.000066039867048
100
AcDbArc
 50
110.9250638953738
 51
69.07493610462613
  0
LINE
  5
95F
330
1F
100
AcDbEntity
  8
0
  6
Continuous
 62
     7
100
AcDbLine
 10
-8.772199999999997
 20
44.3391
 30
0.0
 11
-8.772199999999997
 21
49.0891
 31
0.0
  0
LINE
  5
960
330
1F
100
AcDbEntity
  8
0
  6
Continuous
 62
     7
100
AcDbLine
 10
-13.77219999999999
 20
44.3391
 30
0.0
 11
-13.77219999999999
 21
49.0891
 31
0.0
  0
LINE
  5
961
330
1F
100
AcDbEntity
  8
0
  6
DASH_CENTER
 62
    30
100
AcDbLine
 10
-11.27219999999999
 20
55.9525
 30
0.0
 11
-11.27219999999999
 21
27.1736
 31
0.0
  0
LINE
  5
972
330
1F
100
AcDbEntity
  8
0
  6
Continuous
 62
     7
100
AcDbLine
 10
-8.772199999999997
 20
44.3391
 30
0.0
 11
-11.27219999999999
 21
44.3391
 31
0.0
  0
LINE
  5
973
330
1F
100
AcDbEntity
  8
0
  6
Continuous
 62
     7
100
AcDbLine
 10
-9.022199999999996
 20
44.3391
 30
0.0
 11
-11.27219999999999
 21
44.3391
 31
0.0
  0
LINE
  5
974
330
1F
100
AcDbEntity
  8
0
  6
Continuous
 62
     7
100
AcDbLine
 10
-11.27219999999999
 20
44.3391
 30
0.0
 11
-13.77219999999999
 21
44.3391
 31
0.0
  0
LINE
  5
975
330
1F
100
AcDbEntity
  8
0
  6
Continuous
 62
     7
100
AcDbLine
 10
-11.27219999999999
 20
44.3391
 30
0.0
 11
-13.52219999999999
 21
44.3391
 31
0.0
  0
LINE
  5
976
330
1F
100
AcDbEntity
  8
0
  6
Continuous
 62
     7
100
AcDbLine
 10
-13.77219999999999
 20
44.5891
 30
0.0
 11
-13.52219999999999
 21
44.3391
 31
0.0
  0
LINE
  5
978
330
1F
100
AcDbEntity
  8
0
  6
Continuous
 62
     7
100
AcDbLine
 10
-9.022199999999996
 20
44.3391
 30
0.0
 11
-8.772199999999997
 21
44.5891
 31
0.0
  0
LINE
  5
983
330
1F
100
AcDbEntity
  8
0
  6
Continuous
 62
     7
100
AcDbLine
 10
-13.52219999999999
 20
49.3391
 30
0.0
 11
-9.022199999999996
 21
49.3391
 31
0.0
  0
ARC
  5
984
330
1F
100
AcDbEntity
  8
0
  6
Continuous
 62
    30
100
AcDbCircle
 10
-11.2723304642229
 20
40.33907591108589
 30
0.0
 40
7.000024090129892
100
AcDbArc
 50
89.99893213948203
 51
110.9236137803572
  0
LINE
  5
985
330
1F
100
AcDbEntity
  8
0
  6
Continuous
 62
     7
100
AcDbLine
 10
-13.52219999999999
 20
49.3391
 30
0.0
 11
-13.77219999999999
 21
49.0891
 31
0.0
  0
LINE
  5
986
330
1F
100
AcDbEntity
  8
0
  6
Continuous
 62
     7
100
AcDbLine
 10
-8.772199999999997
 20
49.0891
 30
0.0
 11
-9.022199999999996
 21
49.3391
 31
0.0
  0
ARC
  5
996
330
1F
100
AcDbEntity
  8
0
  6
DASH_CENTER
 62
    30
100
AcDbCircle
 10
217.075866940303
 20
40.33966657995224
 30
0.0
 40
61.00005088162699
100
AcDbArc
 50
127.0447283285013
 51
142.6460072379136
  0
ARC
  5
997
330
1F
100
AcDbEntity
  8
0
  6
Continuous
 62
     7
100
AcDbCircle
 10
217.0759840290104
 20
40.33938402905703
 30
0.0
 40
46.49991994277505
100
AcDbArc
 50
103.6088673176444
 51
166.3909654112811
  0
LINE
  5
998
330
1F
100
AcDbEntity
  8
0
  6
DASH_CENTER
 62
    30
100
AcDbLine
 10
182.4431999999999
 20
74.97199999999998
 30
0.0
 11
165.7435999999998
 21
91.67149999999999
 31
0.0
  0
CIRCLE
  5
999
330
1F
100
AcDbEntity
  8
0
  6
Continuous
 62
     7
100
AcDbCircle
 10
173.9422
 20
83.473
 30
0.0
 40
3.5
  0
ARC
  5
99A
330
1F
100
AcDbEntity
  8
0
  6
Continuous
 62
     7
100
AcDbCircle
 10
175.769126140983
 20
30.33943322559576
 30
0.0
 40
2.999966774518136
100
AcDbArc
 50
90.00049926153305
 51
193.6101139300714
  0
ARC
  5
99B
330
1F
100
AcDbEntity
  8
0
  6
Continuous
 62
     7
100
AcDbCircle
 10
175.7690966207109
 20
30.33939570509196
 30
0.0
 40
4.000004296243946
100
AcDbArc
 50
89.99851920235137
 51
193.6092292052581
  0
ARC
  5
99C
330
1F
100
AcDbEntity
  8
0
  6
Continuous
 62
     7
100
AcDbCircle
 10
175.769144111799
 20
50.33934393435271
 30
0.0
 40
3.999943934595937
100
AcDbArc
 50
166.3911456750381
 51
269.9993681361644
  0
ARC
  5
99D
330
1F
100
AcDbEntity
  8
0
  6
Continuous
 62
     7
100
AcDbCircle
 10
175.7691353980511
 20
50.33935500974096
 30
0.0
 40
2.999955009949798
100
AcDbArc
 50
166.3915655481857
 51
269.9993239368821
  0
ARC
  5
99E
330
1F
100
AcDbEntity
  8
0
  6
Continuous
 62
     7
100
AcDbCircle
 10
173.4552102687437
 20
71.31470494758431
 30
0.0
 40
4.00002085430438
100
AcDbArc
 50
86.82865553706525
 51
144.621817185041
  0
ARC
  5
99F
330
1F
100
AcDbEntity
  8
0
  6
Continuous
 62
     7
100
AcDbCircle
 10
173.4551662507174
 20
71.31468373975022
 30
0.0
 40
4.999974787296083
100
AcDbArc
 50
86.82837524898415
 51
144.6207330976672
  0
ARC
  5
9A0
330
1F
100
AcDbEntity
  8
0
  6
Continuous
 62
     7
100
AcDbCircle
 10
173.4551562977251
 20
9.364321054942116
 30
0.0
 40
4.00004980314581
100
AcDbArc
 50
215.3801019646018
 51
273.1720957423324
  0
ARC
  5
9A1
330
1F
100
AcDbEntity
  8
0
  6
Continuous
 62
     7
100
AcDbCircle
 10
173.4552644809078
 20
9.36426893262643
 30
0.0
 40
5.00002747691221
100
AcDbArc
 50
215.3781729955317
 51
273.1716116062044
  0
ARC
  5
9A2
330
1F
100
AcDbEntity
  8
0
  6
Continuous
 62
     7
100
AcDbCircle
 10
217.0759840290334
 20
40.339384029081
 30
0.0
 40
45.4999420930894
100
AcDbArc
 50
103.6088508929702
 51
166.3909781598152
  0
ARC
  5
9A3
330
1F
100
AcDbEntity
  8
0
  6
Continuous
 62
     7
100
AcDbCircle
 10
172.9422
 20
84.473
 30
0.0
 40
0.5
100
AcDbArc
 50
270.0
 51
0.0
  0
ARC
  5
9A4
330
1F
100
AcDbEntity
  8
0
  6
Continuous
 62
     7
100
AcDbCircle
 10
172.9422
 20
82.473
 30
0.0
 40
0.5
100
AcDbArc
 50
0.0
 51
90.0
  0
LINE
  5
9A5
330
1F
100
AcDbEntity
  8
0
  6
Continuous
 62
     7
100
AcDbLine
 10
174.4422
 20
81.3231
 30
0.0
 11
173.4422
 21
81.3231
 31
0.0
  0
LINE
  5
9A6
330
1F
100
AcDbEntity
  8
0
  6
Continuous
 62
     7
100
AcDbLine
 10
174.4422
 20
85.6229
 30
0.0
 11
173.4422
 21
85.6229
 31
0.0
  0
LINE
  5
9A7
330
1F
100
AcDbEntity
  8
0
  6
Continuous
 62
     7
100
AcDbLine
 10
136.5758999999999
 20
24.9719
 30
0.0
 11
136.5759999999999
 21
45.1079
 31
0.0
  0
ARC
  5
9A8
330
1F
100
AcDbEntity
  8
0
  6
Continuous
 62
     7
100
AcDbCircle
 10
140.4175973263105
 20
43.19289775653962
 30
0.0
 40
12.99999732788386
100
AcDbArc
 50
80.00010370288732
 51
179.9991086385311
  0
ARC
  5
9A9
330
1F
100
AcDbEntity
  8
0
  6
Continuous
 62
     7
100
AcDbCircle
 10
140.4175936828083
 20
43.19259469888524
 30
0.0
 40
15.99999368280913
100
AcDbArc
 50
80.00386684779694
 51
179.9999810167735
  0
ARC
  5
9AA
330
1F
100
AcDbEntity
  8
0
  6
Continuous
 62
     7
100
AcDbCircle
 10
140.4175653612239
 20
43.19337093441343
 30
0.0
 40
6.499965361288887
100
AcDbArc
 50
80.00064893971394
 51
179.9997437931824
  0
ARC
  5
9AB
330
1F
100
AcDbEntity
  8
0
  6
Continuous
 62
     7
100
AcDbCircle
 10
217.0759969891604
 20
40.33938292371682
 30
0.0
 40
68.09999706233255
100
AcDbArc
 50
160.5651684393524
 51
179.4359369878615
  0
ARC
  5
9AC
330
1F
100
AcDbEntity
  8
0
  6
Continuous
 62
     7
100
AcDbCircle
 10
217.0759999995178
 20
40.33931834981296
 30
0.0
 40
58.49995487043845
100
AcDbArc
 50
144.6210733597919
 51
215.3782499869998
  0
ARC
  5
9AD
330
1F
100
AcDbEntity
  8
0
  6
Continuous
 62
     7
100
AcDbCircle
 10
217.0759999999494
 20
40.33938876223674
 30
0.0
 40
57.49993655939866
100
AcDbArc
 50
144.6211692735658
 51
215.3783144102453
  0
ARC
  5
9AE
330
1F
100
AcDbEntity
  8
0
  6
Continuous
 62
     7
100
AcDbCircle
 10
140.4175992826315
 20
43.19339939804613
 30
0.0
 40
9.499999282631515
100
AcDbArc
 50
80.00096055032354
 51
179.9999963695346
  0
LINE
  5
9AF
330
1F
100
AcDbEntity
  8
0
  6
DASH_CENTER
 62
    30
100
AcDbLine
 10
154.8241999999999
 20
34.8928
 30
0.0
 11
138.4439999999998
 21
33.4596
 31
0.0
  0
ARC
  5
9B0
330
1F
100
AcDbEntity
  8
0
  6
Continuous
 62
    30
100
AcDbCircle
 10
125.1676
 20
20.8271
 30
0.0
 40
1.499966999636991
100
AcDbArc
 50
59.99927221917328
 51
120.0007277808265
  0
LINE
  5
9B1
330
1F
100
AcDbEntity
  8
0
  6
Continuous
 62
     7
100
AcDbLine
 10
123.8677
 20
0.4390000000000002
 30
0.0
 11
127.9675
 21
0.4390000000000002
 31
0.0
  0
LINE
  5
9B2
330
1F
100
AcDbEntity
  8
0
  6
Continuous
 62
     7
100
AcDbLine
 10
127.9675
 20
5.238999999999997
 30
0.0
 11
123.8677
 21
5.238999999999997
 31
0.0
  0
LINE
  5
9B3
330
1F
100
AcDbEntity
  8
0
  6
Continuous
 62
     7
100
AcDbLine
 10
124.4175999999999
 20
22.1262
 30
0.0
 11
124.4175999999999
 21
5.238999999999997
 31
0.0
  0
LINE
  5
9B4
330
1F
100
AcDbEntity
  8
0
  6
Continuous
 62
     7
100
AcDbLine
 10
123.8677
 20
5.238999999999997
 30
0.0
 11
123.8677
 21
0.4390000000000002
 31
0.0
  0
LINE
  5
9B5
330
1F
100
AcDbEntity
  8
0
  6
Continuous
 62
     7
100
AcDbLine
 10
127.4175999999999
 20
22.1261
 30
0.0
 11
127.4175999999999
 21
5.238999999999997
 31
0.0
  0
LINE
  5
9B6
330
1F
100
AcDbEntity
  8
0
  6
Continuous
 62
     7
100
AcDbLine
 10
127.9675
 20
5.238999999999997
 30
0.0
 11
127.9675
 21
0.4390000000000002
 31
0.0
  0
ARC
  5
9B7
330
1F
100
AcDbEntity
  8
0
  6
Continuous
 62
    30
100
AcDbCircle
 10
126.6675999999999
 20
23.42519999999999
 30
0.0
 40
1.500053602375594
100
AcDbArc
 50
240.0011820522605
 51
299.9988179477393
  0
ARC
  5
9B8
330
1F
100
AcDbEntity
  8
0
  6
Continuous
 62
    30
100
AcDbCircle
 10
125.1676
 20
23.8173
 30
0.0
 40
1.499966999636991
100
AcDbArc
 50
59.99927221917328
 51
120.0007277808265
  0
LINE
  5
9B9
330
1F
100
AcDbEntity
  8
0
  6
Continuous
 62
     7
100
AcDbLine
 10
124.4175999999999
 20
25.1163
 30
0.0
 11
124.4175999999999
 21
43.19259999999998
 31
0.0
  0
LINE
  5
9BA
330
1F
100
AcDbEntity
  8
0
  6
Continuous
 62
     7
100
AcDbLine
 10
130.9175999999999
 20
25.1163
 30
0.0
 11
130.9175999999999
 21
43.19339999999999
 31
0.0
  0
LINE
  5
9BB
330
1F
100
AcDbEntity
  8
0
  6
Continuous
 62
     7
100
AcDbLine
 10
133.9175999999999
 20
43.19339999999999
 30
0.0
 11
133.9175999999999
 21
25.1163
 31
0.0
  0
LINE
  5
9BC
330
1F
100
AcDbEntity
  8
0
  6
Continuous
 62
     7
100
AcDbLine
 10
127.4175999999999
 20
25.1163
 30
0.0
 11
127.4175999999999
 21
43.1931
 31
0.0
  0
ARC
  5
9BD
330
1F
100
AcDbEntity
  8
0
  6
Continuous
 62
    30
100
AcDbCircle
 10
133.1675999999999
 20
26.41529999999999
 30
0.0
 40
1.499966999636991
100
AcDbArc
 50
239.9992722191732
 51
300.0007277808267
  0
ARC
  5
9BE
330
1F
100
AcDbEntity
  8
0
  6
Continuous
 62
    30
100
AcDbCircle
 10
126.6675999999999
 20
26.41529999999999
 30
0.0
 40
1.499966999636991
100
AcDbArc
 50
239.9992722191732
 51
300.0007277808267
  0
ARC
  5
9BF
330
1F
100
AcDbEntity
  8
0
  6
Continuous
 62
    30
100
AcDbCircle
 10
131.6675999999999
 20
23.8173
 30
0.0
 40
1.499966999636991
100
AcDbArc
 50
59.99927221917328
 51
120.0007277808265
  0
ARC
  5
9C0
330
1F
100
AcDbEntity
  8
0
  6
Continuous
 62
    30
100
AcDbCircle
 10
134.6675999999999
 20
23.8173
 30
0.0
 40
1.499966999636991
100
AcDbArc
 50
59.99927221917328
 51
120.0007277808265
  0
ARC
  5
9C1
330
1F
100
AcDbEntity
  8
0
  6
Continuous
 62
    30
100
AcDbCircle
 10
136.1675671760922
 20
26.41530408917368
 30
0.0
 40
1.499954128933897
100
AcDbArc
 50
240.0004361521115
 51
285.7970203968593
  0
ARC
  5
9C2
330
1F
100
AcDbEntity
  8
0
  6
Continuous
 62
     7
100
AcDbCircle
 10
217.0758167923231
 20
40.33935945976585
 30
0.0
 40
64.25000886080153
100
AcDbArc
 50
194.8977624479639
 51
210.1022575471318
  0
ARC
  5
9C3
330
1F
100
AcDbEntity
  8
0
  6
Continuous
 62
     7
100
AcDbCircle
 10
217.0758590012562
 20
40.33925755753035
 30
0.0
 40
61.25004427415728
100
AcDbArc
 50
194.5228727180699
 51
210.4768893228279
  0
LINE
  5
9C4
330
1F
100
AcDbEntity
  8
0
  6
Continuous
 62
     7
100
AcDbLine
 10
161.4915
 20
8.115200000000001
 30
0.0
 11
164.2889
 21
9.273899999999995
 31
0.0
  0
LINE
  5
9C5
330
1F
100
AcDbEntity
  8
0
  6
Continuous
 62
     7
100
AcDbLine
 10
154.9858
 20
23.82099999999998
 30
0.0
 11
157.7831999999999
 21
24.9797
 31
0.0
  0
LINE
  5
9C6
330
1F
100
AcDbEntity
  8
0
  6
Continuous
 62
     7
100
AcDbLine
 10
142.4435
 20
31.7205
 30
0.0
 11
142.0807
 21
35.86719999999999
 31
0.0
  0
LINE
  5
9C7
330
1F
100
AcDbEntity
  8
0
  6
Continuous
 62
     7
100
AcDbLine
 10
142.4435
 20
31.7205
 30
0.0
 11
142.0807
 21
35.86719999999999
 31
0.0
  0
LINE
  5
9C8
330
1F
100
AcDbEntity
  8
0
  6
Continuous
 62
     7
100
AcDbLine
 10
149.9508999999999
 20
28.44359999999999
 30
0.0
 11
146.6221999999999
 21
28.1523
 31
0.0
  0
ARC
  5
9C9
330
1F
100
AcDbEntity
  8
0
  6
Continuous
 62
     7
100
AcDbCircle
 10
143.7386289847827
 20
31.8336734391957
 30
0.0
 40
1.299973439518821
100
AcDbArc
 50
184.9988182068966
 51
269.998722507963
  0
LINE
  5
9CA
330
1F
100
AcDbEntity
  8
0
  6
Continuous
 62
     7
100
AcDbLine
 10
145.1576
 20
30.5337
 30
0.0
 11
143.7389
 21
30.5337
 31
0.0
  0
ARC
  5
9CB
330
1F
100
AcDbEntity
  8
0
  6
Continuous
 62
     7
100
AcDbCircle
 10
150.2124441885448
 20
25.45527553735418
 30
0.0
 40
3.000038206831515
100
AcDbArc
 50
27.06294136201393
 51
94.99949445979295
  0
ARC
  5
9CC
330
1F
100
AcDbEntity
  8
0
  6
Continuous
 62
     7
100
AcDbCircle
 10
149.9792573739289
 20
40.99983093467515
 30
0.0
 40
1.000007065944132
100
AcDbArc
 50
179.42880920596
 51
260.005354234365
  0
LINE
  5
9CD
330
1F
100
AcDbEntity
  8
0
  6
Continuous
 62
     7
100
AcDbLine
 10
145.5764
 20
40.1067
 30
0.0
 11
149.1640999999999
 21
40.42049999999997
 31
0.0
  0
ARC
  5
9CE
330
1F
100
AcDbEntity
  8
0
  6
Continuous
 62
     7
100
AcDbCircle
 10
148.6448999001746
 20
43.38696881150003
 30
0.0
 40
2.99996555426262
100
AcDbArc
 50
274.9738478104296
 51
279.8247602865608
  0
ARC
  5
9CF
330
1F
100
AcDbEntity
  8
0
  6
Continuous
 62
     7
100
AcDbCircle
 10
143.3757983779814
 20
35.98049788620335
 30
0.0
 40
1.299945079606399
100
AcDbArc
 50
99.99844626552423
 51
185.0000091699509
  0
LINE
  5
9D0
330
1F
100
AcDbEntity
  8
0
  6
Continuous
 62
     7
100
AcDbLine
 10
144.5475
 20
37.5071
 30
0.0
 11
143.1503
 21
37.26069999999999
 31
0.0
  0
POINT
  5
9D1
330
1F
100
AcDbEntity
  8
0
 62
     2
100
AcDbPoint
 10
144.5759999999999
 20
42.68439999999997
 30
0.0
  0
LINE
  5
9D2
330
1F
100
AcDbEntity
  8
0
  6
Continuous
 62
     7
100
AcDbLine
 10
149.8057
 20
40.015
 30
0.0
 11
151.3035999999999
 21
39.75099999999999
 31
0.0
  0
LINE
  5
9D3
330
1F
100
AcDbEntity
  8
0
  6
DASH_CENTER
 62
    30
100
AcDbLine
 10
127.3168999999999
 20
56.1655
 30
0.0
 11
169.4903
 21
48.73
 31
0.0
  0
ARC
  5
9D4
330
1F
100
AcDbEntity
  8
0
  6
Continuous
 62
     7
100
AcDbCircle
 10
141.076021920929
 20
45.1079183945206
 30
0.0
 40
4.500021920966721
100
AcDbArc
 50
80.00184269031787
 51
180.0002342051694
  0
ARC
  5
9D6
330
1F
100
AcDbEntity
  8
0
  6
Continuous
 62
     7
100
AcDbCircle
 10
217.0757814369717
 20
40.33935518490742
 30
0.0
 40
64.24997092880778
100
AcDbArc
 50
149.897737938117
 51
165.102242066787
  0
ARC
  5
9D7
330
1F
100
AcDbEntity
  8
0
  6
Continuous
 62
     7
100
AcDbCircle
 10
217.0757890706337
 20
40.33937361418868
 30
0.0
 40
61.25001891472511
100
AcDbArc
 50
149.5230220097998
 51
165.4769579951054
  0
LINE
  5
9D8
330
1F
100
AcDbEntity
  8
0
  6
Continuous
 62
     7
100
AcDbLine
 10
154.9858
 20
56.8577
 30
0.0
 11
157.7831999999999
 21
55.699
 31
0.0
  0
LINE
  5
9D9
330
1F
100
AcDbEntity
  8
0
  6
Continuous
 62
     7
100
AcDbLine
 10
142.675
 20
55.9958
 30
0.0
 11
150.4735
 21
54.6208
 31
0.0
  0
LINE
  5
9DA
330
1F
100
AcDbEntity
  8
0
  6
Continuous
 62
     7
100
AcDbLine
 10
142.0671
 20
52.5491
 30
0.0
 11
149.8386
 21
51.17869999999999
 31
0.0
  0
LINE
  5
9DB
330
1F
100
AcDbEntity
  8
0
  6
Continuous
 62
     7
100
AcDbLine
 10
141.5464
 20
49.5945
 30
0.0
 11
149.4625
 21
48.1985
 31
0.0
  0
ARC
  5
9DC
330
1F
100
AcDbEntity
  8
0
  6
Continuous
 62
     7
100
AcDbCircle
 10
217.0759240265383
 20
40.33899406880356
 30
0.0
 40
71.50002462967719
100
AcDbArc
 50
167.9967107925835
 51
170.8017882912912
  0
ARC
  5
9DD
330
1F
100
AcDbEntity
  8
0
  6
Continuous
 62
     7
100
AcDbCircle
 10
217.076005273576
 20
40.33942820059938
 30
0.0
 40
72.50002213812887
100
AcDbArc
 50
168.0246656498423
 51
170.791127685108
  0
LINE
  5
9DE
330
1F
100
AcDbEntity
  8
0
  6
Continuous
 62
     7
100
AcDbLine
 10
143.1948999999999
 20
58.95
 30
0.0
 11
151.2263
 21
57.5344
 31
0.0
  0
LINE
  5
9DF
330
1F
100
AcDbEntity
  8
0
  6
Continuous
 62
     7
100
AcDbLine
 10
153.9729999999998
 20
63.65059999999999
 30
0.0
 11
155.4709
 21
63.3864
 31
0.0
  0
ARC
  5
9E0
330
1F
100
AcDbEntity
  8
0
  6
Continuous
 62
     7
100
AcDbCircle
 10
153.7992992954355
 20
62.66579958863071
 30
0.0
 40
1.000001892497879
100
AcDbArc
 50
79.9969631140599
 51
160.5612007871951
  0
LINE
  5
9E1
330
1F
100
AcDbEntity
  8
0
  6
Continuous
 62
     7
100
AcDbLine
 10
161.4913999999999
 20
72.5637
 30
0.0
 11
164.2888
 21
71.40479999999998
 31
0.0
  0
LINE
  5
9E2
330
1F
100
AcDbEntity
  8
0
  6
Continuous
 62
     7
100
AcDbLine
 10
172.9422
 20
82.97299999999998
 30
0.0
 11
171.792
 21
82.97299999999998
 31
0.0
  0
LINE
  5
9E3
330
1F
100
AcDbEntity
  8
0
  6
Continuous
 62
     7
100
AcDbLine
 10
172.9422
 20
83.97299999999999
 30
0.0
 11
171.792
 21
83.97299999999999
 31
0.0
  0
LINE
  5
9E4
330
1F
100
AcDbEntity
  8
0
  6
Continuous
 62
     7
100
AcDbLine
 10
173.4422
 20
85.6229
 30
0.0
 11
173.4422
 21
84.473
 31
0.0
  0
LINE
  5
9E5
330
1F
100
AcDbEntity
  8
0
  6
Continuous
 62
     7
100
AcDbLine
 10
173.4422
 20
82.473
 30
0.0
 11
173.4422
 21
81.3231
 31
0.0
  0
LINE
  5
9E6
330
1F
100
AcDbEntity
  8
0
  6
Continuous
 62
     7
100
AcDbLine
 10
171.792
 20
83.97299999999999
 30
0.0
 11
171.792
 21
82.97299999999998
 31
0.0
  0
CIRCLE
  5
9E7
330
1F
100
AcDbEntity
  8
0
  6
Continuous
 62
     7
100
AcDbCircle
 10
217.0757999999999
 20
40.3394
 30
0.0
 40
19.30000000000001
  0
ARC
  5
9E8
330
1F
100
AcDbEntity
  8
0
  6
Continuous
 62
     7
100
AcDbCircle
 10
217.076
 20
40.3394
 30
0.0
 40
8.399950743307963
100
AcDbArc
 50
107.3147583272137
 51
72.68524167278626
  0
ARC
  5
9E9
330
1F
100
AcDbEntity
  8
0
  6
Continuous
 62
     7
100
AcDbCircle
 10
217.076
 20
40.3394
 30
0.0
 40
6.999954777711066
100
AcDbArc
 50
110.9249739588069
 51
69.0750260411929
  0
ARC
  5
9EA
330
1F
100
AcDbEntity
  8
0
  6
Continuous
 62
     7
100
AcDbCircle
 10
186.7237010538142
 20
43.33939883687562
 30
0.0
 40
4.000001163124528
100
AcDbArc
 50
354.3544149652666
 51
90.00001509477206
  0
ARC
  5
9EB
330
1F
100
AcDbEntity
  8
0
  6
Continuous
 62
     7
100
AcDbCircle
 10
185.7191201920251
 20
43.33937778363376
 30
0.0
 40
3.000022216434193
100
AcDbArc
 50
354.5337985434542
 51
90.00038563641673
  0
ARC
  5
9EC
330
1F
100
AcDbEntity
  8
0
  6
Continuous
 62
     7
100
AcDbCircle
 10
217.0758322949999
 20
40.3393999993541
 30
0.0
 40
8.749995291653425
100
AcDbArc
 50
106.6004128787817
 51
73.3972952900381
  0
LINE
  5
9ED
330
1F
100
AcDbEntity
  8
0
  6
Continuous
 62
     7
100
AcDbLine
 10
214.576
 20
44.33939999999998
 30
0.0
 11
214.576
 21
49.0894
 31
0.0
  0
LINE
  5
9EE
330
1F
100
AcDbEntity
  8
0
  6
Continuous
 62
     7
100
AcDbLine
 10
219.5759999999999
 20
44.33939999999998
 30
0.0
 11
219.5759999999999
 21
49.0894
 31
0.0
  0
ARC
  5
9EF
330
1F
100
AcDbEntity
  8
0
  6
Continuous
 62
     7
100
AcDbCircle
 10
203.0758248327408
 20
11.56446030146061
 30
0.0
 40
2.999975167865116
100
AcDbArc
 50
359.998848317403
 51
64.05581691199724
  0
ARC
  5
9F0
330
1F
100
AcDbEntity
  8
0
  6
Continuous
 62
     7
100
AcDbCircle
 10
203.0760311988041
 20
6.090320951357667
 30
0.0
 40
2.999968801269038
100
AcDbArc
 50
247.76656585031
 51
359.9995998543821
  0
ARC
  5
9F1
330
1F
100
AcDbEntity
  8
0
  6
Continuous
 62
     7
100
AcDbCircle
 10
203.0760116775989
 20
6.090307842253031
 30
0.0
 40
1.999988322416444
100
AcDbArc
 50
247.7679866050321
 51
359.9997753346881
  0
ARC
  5
9F2
330
1F
100
AcDbEntity
  8
0
  6
Continuous
 62
     7
100
AcDbCircle
 10
217.07575
 20
40.33944999999999
 30
0.0
 40
40.00001430155992
100
AcDbArc
 50
202.2332864270151
 51
247.7667135729854
  0
ARC
  5
9F3
330
1F
100
AcDbEntity
  8
0
  6
Continuous
 62
     7
100
AcDbCircle
 10
217.0758691389028
 20
40.33933086044931
 30
0.0
 40
39.00002597948414
100
AcDbArc
 50
202.2330563840668
 51
247.7664067263785
  0
ARC
  5
9F4
330
1F
100
AcDbEntity
  8
0
  6
Continuous
 62
     7
100
AcDbCircle
 10
217.0758473773787
 20
40.33935262227918
 30
0.0
 40
30.00006475093861
100
AcDbArc
 50
205.944318979522
 51
244.0552673788311
  0
ARC
  5
9F5
330
1F
100
AcDbEntity
  8
0
  6
Continuous
 62
     7
100
AcDbCircle
 10
217.07575
 20
40.33944999999999
 30
0.0
 40
29.00003634523583
100
AcDbArc
 50
205.9445546927828
 51
244.0554453072169
  0
LINE
  5
9F6
330
1F
100
AcDbEntity
  8
0
  6
Continuous
 62
     7
100
AcDbLine
 10
205.0758
 20
11.5645
 30
0.0
 11
205.0758
 21
6.090299999999999
 31
0.0
  0
ARC
  5
9F7
330
1F
100
AcDbEntity
  8
0
  6
Continuous
 62
     7
100
AcDbCircle
 10
203.075816555414
 20
11.56447353341155
 30
0.0
 40
1.999983445937838
100
AcDbArc
 50
359.9978934054953
 51
64.05581692974803
  0
ARC
  5
9F8
330
1F
100
AcDbEntity
  8
0
  6
Continuous
 62
     7
100
AcDbCircle
 10
188.300873534766
 20
26.33941655548725
 30
0.0
 40
1.999983444687848
100
AcDbArc
 50
25.94418308534008
 51
89.99924182061834
  0
ARC
  5
9F9
330
1F
100
AcDbEntity
  8
0
  6
Continuous
 62
     7
100
AcDbCircle
 10
188.300860302149
 20
26.33942483323087
 30
0.0
 40
2.999975167031792
100
AcDbArc
 50
25.94418308533971
 51
89.9992418206167
  0
ARC
  5
9FA
330
1F
100
AcDbEntity
  8
0
  6
Continuous
 62
     7
100
AcDbCircle
 10
186.7236965978106
 20
37.33939624499357
 30
0.0
 40
3.999996244995021
100
AcDbArc
 50
270.0000487328181
 51
5.644223413184891
  0
LINE
  5
9FB
330
1F
100
AcDbEntity
  8
0
  6
Continuous
 62
     7
100
AcDbLine
 10
186.7237
 20
33.3394
 30
0.0
 11
175.7691
 21
33.3394
 31
0.0
  0
ARC
  5
9FC
330
1F
100
AcDbEntity
  8
0
  6
Continuous
 62
     7
100
AcDbCircle
 10
182.8267951372404
 20
26.33939275878805
 30
0.0
 40
2.000007241217863
100
AcDbArc
 50
89.99986069270319
 51
202.2343012244254
  0
ARC
  5
9FD
330
1F
100
AcDbEntity
  8
0
  6
Continuous
 62
     7
100
AcDbCircle
 10
182.8267771653841
 20
26.33936599722588
 30
0.0
 40
3.000034002861027
100
AcDbArc
 50
89.99956389590376
 51
202.2336431019269
  0
LINE
  5
9FE
330
1F
100
AcDbEntity
  8
0
  6
Continuous
 62
     7
100
AcDbLine
 10
188.3009
 20
28.3394
 30
0.0
 11
182.8267999999999
 21
28.3394
 31
0.0
  0
LINE
  5
9FF
330
1F
100
AcDbEntity
  8
0
  6
Continuous
 62
     7
100
AcDbLine
 10
188.3009
 20
29.3394
 30
0.0
 11
182.8267999999999
 21
29.3394
 31
0.0
  0
LINE
  5
A00
330
1F
100
AcDbEntity
  8
0
  6
Continuous
 62
     7
100
AcDbLine
 10
185.7191
 20
34.33939999999999
 30
0.0
 11
175.7691
 21
34.33939999999999
 31
0.0
  0
ARC
  5
A01
330
1F
100
AcDbEntity
  8
0
  6
Continuous
 62
     7
100
AcDbCircle
 10
217.0757999999999
 20
40.3394
 30
0.0
 40
28.50004727610112
100
AcDbArc
 50
174.5349564423283
 51
185.4650435576715
  0
ARC
  5
A02
330
1F
100
AcDbEntity
  8
0
  6
Continuous
 62
     7
100
AcDbCircle
 10
185.7191158640684
 20
37.33941745398122
 30
0.0
 40
3.000017454023173
100
AcDbArc
 50
269.9996970203732
 51
5.464382960143003
  0
ARC
  5
A03
330
1F
100
AcDbEntity
  8
0
  6
Continuous
 62
     7
100
AcDbCircle
 10
217.0757999999999
 20
40.33945
 30
0.0
 40
26.50000217268859
100
AcDbArc
 50
174.3552389396103
 51
185.6447610603895
  0
ARC
  5
A04
330
1F
100
AcDbEntity
  8
0
  6
Continuous
 62
     7
100
AcDbCircle
 10
220.0760323189689
 20
8.982670626004349
 30
0.0
 40
2.999967681174687
100
AcDbArc
 50
0.0005610080363337
 51
95.46542884043823
  0
ARC
  5
A05
330
1F
100
AcDbEntity
  8
0
  6
Continuous
 62
     7
100
AcDbCircle
 10
220.0760037550064
 20
9.987296597810679
 30
0.0
 40
3.999996244995029
100
AcDbArc
 50
0.0000487328179013
 51
95.64422341318442
  0
LINE
  5
A06
330
1F
100
AcDbEntity
  8
0
  6
Continuous
 62
     7
100
AcDbLine
 10
206.0757999999999
 20
11.5645
 30
0.0
 11
206.076
 21
6.090299999999999
 31
0.0
  0
ARC
  5
A07
330
1F
100
AcDbEntity
  8
0
  6
Continuous
 62
     7
100
AcDbCircle
 10
214.0759724437045
 20
8.982674955455188
 30
0.0
 40
2.999972443809008
100
AcDbArc
 50
84.53275263741714
 51
179.9995216800339
  0
ARC
  5
A08
330
1F
100
AcDbEntity
  8
0
  6
Continuous
 62
     7
100
AcDbCircle
 10
214.0760011631244
 20
9.987301053814247
 30
0.0
 40
4.000001163124522
100
AcDbArc
 50
84.35441496526669
 51
180.0000150947728
  0
ARC
  5
A09
330
1F
100
AcDbEntity
  8
0
  6
Continuous
 62
     7
100
AcDbCircle
 10
217.076
 20
40.3394
 30
0.0
 40
26.50000709075376
100
AcDbArc
 50
264.3551313586129
 51
275.6448686413869
  0
ARC
  5
A0A
330
1F
100
AcDbEntity
  8
0
  6
Continuous
 62
     7
100
AcDbCircle
 10
217.076
 20
40.3394
 30
0.0
 40
28.50004727610114
100
AcDbArc
 50
264.534956442329
 51
275.4650435576708
  0
LINE
  5
A0B
330
1F
100
AcDbEntity
  8
0
  6
Continuous
 62
     7
100
AcDbLine
 10
228.0759999999999
 20
11.5645
 30
0.0
 11
228.0759999999999
 21
6.090299999999999
 31
0.0
  0
LINE
  5
A0C
330
1F
100
AcDbEntity
  8
0
  6
Continuous
 62
     7
100
AcDbLine
 10
229.076
 20
11.5645
 30
0.0
 11
229.076
 21
6.090299999999999
 31
0.0
  0
ARC
  5
A0D
330
1F
100
AcDbEntity
  8
0
  6
Continuous
 62
     7
100
AcDbCircle
 10
231.076007241212
 20
6.090295137240388
 30
0.0
 40
2.00000724121787
100
AcDbArc
 50
179.9998606927031
 51
292.2343012244248
  0
ARC
  5
A0E
330
1F
100
AcDbEntity
  8
0
  6
Continuous
 62
     7
100
AcDbCircle
 10
231.0759877207604
 20
6.090308245845527
 30
0.0
 40
2.999987720771734
100
AcDbArc
 50
180.0001574846934
 51
292.2349593624198
  0
ARC
  5
A0F
330
1F
100
AcDbEntity
  8
0
  6
Continuous
 62
     7
100
AcDbCircle
 10
231.0759834445128
 20
11.56447353476597
 30
0.0
 40
1.999983444687859
100
AcDbArc
 50
115.9441830853408
 51
179.9992418206175
  0
ARC
  5
A10
330
1F
100
AcDbEntity
  8
0
  6
Continuous
 62
     7
100
AcDbCircle
 10
231.0759751667691
 20
11.56446030214898
 30
0.0
 40
2.999975167031788
100
AcDbArc
 50
115.9441830853408
 51
179.9992418206175
  0
LINE
  5
A11
330
1F
100
AcDbEntity
  8
0
  6
Continuous
 62
     7
100
AcDbLine
 10
219.5759999999999
 20
44.33939999999998
 30
0.0
 11
214.576
 21
44.33939999999998
 31
0.0
  0
LINE
  5
A12
330
1F
100
AcDbEntity
  8
0
  6
Continuous
 62
     7
100
AcDbLine
 10
219.3259999999999
 20
44.33939999999998
 30
0.0
 11
214.826
 21
44.33939999999998
 31
0.0
  0
LINE
  5
A13
330
1F
100
AcDbEntity
  8
0
  6
Continuous
 62
     7
100
AcDbLine
 10
214.576
 20
44.5894
 30
0.0
 11
214.826
 21
44.33939999999998
 31
0.0
  0
LINE
  5
A14
330
1F
100
AcDbEntity
  8
0
  6
Continuous
 62
     7
100
AcDbLine
 10
219.3259999999999
 20
44.33939999999998
 30
0.0
 11
219.5759999999999
 21
44.5894
 31
0.0
  0
ARC
  5
A15
330
1F
100
AcDbEntity
  8
0
  6
Continuous
 62
     7
100
AcDbCircle
 10
203.0758116775989
 20
74.58839215774695
 30
0.0
 40
1.999988322416438
100
AcDbArc
 50
0.000224665311859
 51
112.2320133949678
  0
ARC
  5
A16
330
1F
100
AcDbEntity
  8
0
  6
Continuous
 62
     7
100
AcDbCircle
 10
203.075831198804
 20
74.58837904864231
 30
0.0
 40
2.999968801269066
100
AcDbArc
 50
0.0004001456178613
 51
112.2334341496897
  0
ARC
  5
A17
330
1F
100
AcDbEntity
  8
0
  6
Continuous
 62
     7
100
AcDbCircle
 10
203.0757798719075
 20
69.1142678236788
 30
0.0
 40
3.000020128859066
100
AcDbArc
 50
295.9447202341151
 51
359.9987046718423
  0
ARC
  5
A18
330
1F
100
AcDbEntity
  8
0
  6
Continuous
 62
     7
100
AcDbCircle
 10
217.0757654303405
 20
40.33936543049852
 30
0.0
 40
39.99996801901982
100
AcDbArc
 50
112.2331826593882
 51
157.7665556066935
  0
ARC
  5
A19
330
1F
100
AcDbEntity
  8
0
  6
Continuous
 62
     7
100
AcDbCircle
 10
217.0757654305038
 20
40.33936543066574
 30
0.0
 40
39.00000706054564
100
AcDbArc
 50
112.2331226122649
 51
157.766608943587
  0
ARC
  5
A1A
330
1F
100
AcDbEntity
  8
0
  6
Continuous
 62
     7
100
AcDbCircle
 10
217.0757526219371
 20
40.33935262227918
 30
0.0
 40
29.99997482916461
100
AcDbArc
 50
115.9444025345832
 51
154.0551838207843
  0
ARC
  5
A1B
330
1F
100
AcDbEntity
  8
0
  6
Continuous
 62
     7
100
AcDbCircle
 10
217.0757052443295
 20
40.33930524574495
 30
0.0
 40
28.99996950915712
100
AcDbArc
 50
115.9440811748638
 51
154.0550630128089
  0
ARC
  5
A1C
330
1F
100
AcDbEntity
  8
0
  6
Continuous
 62
     7
100
AcDbCircle
 10
188.300860302149
 20
54.33937516676912
 30
0.0
 40
2.999975167031772
100
AcDbArc
 50
270.0007581793832
 51
334.0558169146603
  0
ARC
  5
A1D
330
1F
100
AcDbEntity
  8
0
  6
Continuous
 62
     7
100
AcDbCircle
 10
188.300873534766
 20
54.33938344451274
 30
0.0
 40
1.999983444687854
100
AcDbArc
 50
270.0007581793816
 51
334.0558169146599
  0
LINE
  5
A1E
330
1F
100
AcDbEntity
  8
0
  6
Continuous
 62
     7
100
AcDbLine
 10
185.7191
 20
46.33939999999999
 30
0.0
 11
175.7691
 21
46.33939999999999
 31
0.0
  0
LINE
  5
A1F
330
1F
100
AcDbEntity
  8
0
  6
Continuous
 62
     7
100
AcDbLine
 10
186.7237
 20
47.33939999999999
 30
0.0
 11
175.7691
 21
47.33939999999999
 31
0.0
  0
ARC
  5
A20
330
1F
100
AcDbEntity
  8
0
  6
Continuous
 62
     7
100
AcDbCircle
 10
182.8267898707308
 20
54.33941508356094
 30
0.0
 40
3.000015084907055
100
AcDbArc
 50
157.7678821005905
 51
269.9982836041007
  0
ARC
  5
A21
330
1F
100
AcDbEntity
  8
0
  6
Continuous
 62
     7
100
AcDbCircle
 10
182.826807842932
 20
54.33938832075888
 30
0.0
 40
1.999988323666419
100
AcDbArc
 50
157.7679865688458
 51
269.9969105095289
  0
LINE
  5
A22
330
1F
100
AcDbEntity
  8
0
  6
Continuous
 62
     7
100
AcDbLine
 10
188.3009
 20
51.33939999999999
 30
0.0
 11
182.8267999999999
 21
51.33939999999999
 31
0.0
  0
LINE
  5
A23
330
1F
100
AcDbEntity
  8
0
  6
Continuous
 62
     7
100
AcDbLine
 10
188.3009
 20
52.3394
 30
0.0
 11
182.8267999999999
 21
52.3394
 31
0.0
  0
ARC
  5
A24
330
1F
100
AcDbEntity
  8
0
  6
Continuous
 62
     7
100
AcDbCircle
 10
174.1191973746795
 20
83.29639737471085
 30
0.0
 40
8.000055491369176
100
AcDbArc
 50
266.8278152329223
 51
3.171505138120198
  0
ARC
  5
A25
330
1F
100
AcDbEntity
  8
0
  6
Continuous
 62
     7
100
AcDbCircle
 10
174.1192
 20
83.29640000000003
 30
0.0
 40
7.000022555677946
100
AcDbArc
 50
266.8282969603257
 51
3.171703039674681
  0
ARC
  5
A26
330
1F
100
AcDbEntity
  8
0
  6
Continuous
 62
     7
100
AcDbCircle
 10
186.1008877729055
 20
83.96017462243998
 30
0.0
 40
4.999948605156506
100
AcDbArc
 50
125.377674130252
 51
183.1721104714846
  0
LINE
  5
A27
330
1F
100
AcDbEntity
  8
0
  6
Continuous
 62
     7
100
AcDbLine
 10
176.0920999999999
 20
82.97299999999998
 30
0.0
 11
174.9422
 21
82.97299999999998
 31
0.0
  0
LINE
  5
A28
330
1F
100
AcDbEntity
  8
0
  6
Continuous
 62
     7
100
AcDbLine
 10
176.0920999999999
 20
83.97299999999999
 30
0.0
 11
174.9422
 21
83.97299999999999
 31
0.0
  0
ARC
  5
A29
330
1F
100
AcDbEntity
  8
0
  6
Continuous
 62
     7
100
AcDbCircle
 10
174.9422
 20
82.473
 30
0.0
 40
0.5
100
AcDbArc
 50
90.0
 51
180.0
  0
ARC
  5
A2A
330
1F
100
AcDbEntity
  8
0
  6
Continuous
 62
     7
100
AcDbCircle
 10
174.9422
 20
84.473
 30
0.0
 40
0.5
100
AcDbArc
 50
180.0
 51
270.0
  0
LINE
  5
A2B
330
1F
100
AcDbEntity
  8
0
  6
Continuous
 62
     7
100
AcDbLine
 10
174.4422
 20
85.6229
 30
0.0
 11
174.4422
 21
84.473
 31
0.0
  0
LINE
  5
A2C
330
1F
100
AcDbEntity
  8
0
  6
Continuous
 62
     7
100
AcDbLine
 10
174.4422
 20
82.473
 30
0.0
 11
174.4422
 21
81.3231
 31
0.0
  0
LINE
  5
A2D
330
1F
100
AcDbEntity
  8
0
  6
Continuous
 62
     7
100
AcDbLine
 10
176.0920999999999
 20
83.97299999999999
 30
0.0
 11
176.0920999999999
 21
82.97299999999998
 31
0.0
  0
ARC
  5
A2E
330
1F
100
AcDbEntity
  8
0
  6
Continuous
 62
     7
100
AcDbCircle
 10
186.1009398935746
 20
83.96028280431023
 30
0.0
 40
3.999970930088359
100
AcDbArc
 50
125.3794783927995
 51
183.1727193141366
  0
LINE
  5
A2F
330
1F
100
AcDbEntity
  8
0
  6
Continuous
 62
     7
100
AcDbLine
 10
205.0758
 20
69.1143
 30
0.0
 11
205.0758
 21
74.58839999999998
 31
0.0
  0
ARC
  5
A30
330
1F
100
AcDbEntity
  8
0
  6
Continuous
 62
     7
100
AcDbCircle
 10
203.0757715951843
 20
69.11425459016818
 30
0.0
 40
2.000028405331061
100
AcDbArc
 50
295.9449887873773
 51
0.0013008773798353
  0
ARC
  5
A31
330
1F
100
AcDbEntity
  8
0
  6
Continuous
 62
     7
100
AcDbCircle
 10
231.0760201278532
 20
69.11446782286843
 30
0.0
 40
3.000020128025751
100
AcDbArc
 50
179.9993854661783
 51
244.0552797632227
  0
ARC
  5
A32
330
1F
100
AcDbEntity
  8
0
  6
Continuous
 62
     7
100
AcDbCircle
 10
220.0760037550064
 20
70.69140340218931
 30
0.0
 40
3.999996244995026
100
AcDbArc
 50
264.3557765868154
 51
359.9999512671816
  0
ARC
  5
A33
330
1F
100
AcDbEntity
  8
0
  6
Continuous
 62
     7
100
AcDbCircle
 10
214.0760509200695
 20
70.69165386422641
 30
0.0
 40
4.000050920335727
100
AcDbArc
 50
179.9993391621345
 51
275.6447984003191
  0
LINE
  5
A34
330
1F
100
AcDbEntity
  8
0
  6
Continuous
 62
     7
100
AcDbLine
 10
214.826
 20
49.33939999999999
 30
0.0
 11
219.3259999999999
 21
49.33939999999999
 31
0.0
  0
LINE
  5
A35
330
1F
100
AcDbEntity
  8
0
  6
Continuous
 62
     7
100
AcDbLine
 10
219.5759999999999
 20
49.0894
 30
0.0
 11
219.3259999999999
 21
49.33939999999999
 31
0.0
  0
LINE
  5
A36
330
1F
100
AcDbEntity
  8
0
  6
Continuous
 62
     7
100
AcDbLine
 10
214.826
 20
49.33939999999999
 30
0.0
 11
214.576
 21
49.0894
 31
0.0
  0
ARC
  5
A37
330
1F
100
AcDbEntity
  8
0
  6
Continuous
 62
     7
100
AcDbCircle
 10
217.0753441311314
 20
40.33940000874467
 30
0.0
 40
26.49995241131923
100
AcDbArc
 50
84.35412923136469
 51
95.64367262244578
  0
ARC
  5
A38
330
1F
100
AcDbEntity
  8
0
  6
Continuous
 62
     7
100
AcDbCircle
 10
220.0759825460188
 20
71.69628413593159
 30
0.0
 40
3.000017454023178
100
AcDbArc
 50
264.5356170398561
 51
0.000302979625523
  0
LINE
  5
A39
330
1F
100
AcDbEntity
  8
0
  6
Continuous
 62
     7
100
AcDbLine
 10
211.0757999999999
 20
71.69629999999997
 30
0.0
 11
211.0757999999999
 21
81.64619999999997
 31
0.0
  0
LINE
  5
A3A
330
1F
100
AcDbEntity
  8
0
  6
Continuous
 62
     7
100
AcDbLine
 10
210.076
 20
70.69169999999998
 30
0.0
 11
210.076
 21
81.64619999999997
 31
0.0
  0
ARC
  5
A3B
330
1F
100
AcDbEntity
  8
0
  6
Continuous
 62
     7
100
AcDbCircle
 10
214.076017453981
 20
71.69628413593159
 30
0.0
 40
3.000017454023173
100
AcDbArc
 50
179.9996970203744
 51
275.4643829601438
  0
LINE
  5
A3C
330
1F
100
AcDbEntity
  8
0
  6
Continuous
 62
     7
100
AcDbLine
 10
206.0757999999999
 20
69.1143
 30
0.0
 11
206.0757999999999
 21
74.58839999999998
 31
0.0
  0
ARC
  5
A3D
330
1F
100
AcDbEntity
  8
0
  6
Continuous
 62
     7
100
AcDbCircle
 10
217.0758999999999
 20
40.33940000000001
 30
0.0
 40
28.49994773065382
100
AcDbArc
 50
84.53493729576463
 51
95.46506270423536
  0
ARC
  5
A3E
330
1F
100
AcDbEntity
  8
0
  6
Continuous
 62
     7
100
AcDbCircle
 10
207.075996394079
 20
81.64620283711576
 30
0.0
 40
3.000003607494345
100
AcDbArc
 50
0.0018556721664678
 51
103.607254842766
  0
ARC
  5
A3F
330
1F
100
AcDbEntity
  8
0
  6
Continuous
 62
     7
100
AcDbCircle
 10
207.0758074695445
 20
81.64619412304928
 30
0.0
 40
3.999992531856743
100
AcDbArc
 50
0.001516578437723
 51
103.6079696103585
  0
LINE
  5
A40
330
1F
100
AcDbEntity
  8
0
  6
Continuous
 62
     7
100
AcDbLine
 10
223.076
 20
71.69629999999997
 30
0.0
 11
223.076
 21
81.64619999999997
 31
0.0
  0
LINE
  5
A41
330
1F
100
AcDbEntity
  8
0
  6
Continuous
 62
     7
100
AcDbLine
 10
224.0759999999999
 20
70.6914
 30
0.0
 11
224.0759999999999
 21
81.64619999999997
 31
0.0
  0
ARC
  5
A42
330
1F
100
AcDbEntity
  8
0
  6
Continuous
 62
     7
100
AcDbCircle
 10
231.0759877207604
 20
74.58839175415447
 30
0.0
 40
2.999987720771748
100
AcDbArc
 50
67.76504063758014
 51
179.9998425153066
  0
ARC
  5
A43
330
1F
100
AcDbEntity
  8
0
  6
Continuous
 62
     7
100
AcDbCircle
 10
231.0759834445128
 20
69.11452646523402
 30
0.0
 40
1.999983444687868
100
AcDbArc
 50
180.0007581793823
 51
244.0558169146591
  0
ARC
  5
A44
330
1F
100
AcDbEntity
  8
0
  6
Continuous
 62
     7
100
AcDbCircle
 10
231.076007241212
 20
74.58840486275959
 30
0.0
 40
2.000007241217879
100
AcDbArc
 50
67.76569877557523
 51
180.0001393072968
  0
LINE
  5
A45
330
1F
100
AcDbEntity
  8
0
  6
Continuous
 62
     7
100
AcDbLine
 10
228.0759999999999
 20
69.11450000000001
 30
0.0
 11
228.0759999999999
 21
74.5886
 31
0.0
  0
LINE
  5
A46
330
1F
100
AcDbEntity
  8
0
  6
Continuous
 62
     7
100
AcDbLine
 10
229.076
 20
69.11450000000001
 30
0.0
 11
229.076
 21
74.58839999999998
 31
0.0
  0
ARC
  5
A47
330
1F
100
AcDbEntity
  8
0
  6
Continuous
 62
     7
100
AcDbCircle
 10
227.076004295077
 20
81.64620337924825
 30
0.0
 40
4.000004296243953
100
AcDbArc
 50
76.39077079723242
 51
179.9986160111641
  0
ARC
  5
A48
330
1F
100
AcDbEntity
  8
0
  6
Continuous
 62
     7
100
AcDbCircle
 10
227.0760153702755
 20
81.64621209290929
 30
0.0
 40
3.000015371563542
100
AcDbArc
 50
76.39106570155552
 51
179.9983211068399
  0
ARC
  5
A4C
330
1F
100
AcDbEntity
  8
0
  6
Continuous
 62
     7
100
AcDbCircle
 10
217.0760448150925
 20
40.33941856302832
 30
0.0
 40
64.24997092880778
100
AcDbArc
 50
104.8977579332118
 51
120.1022620618835
  0
ARC
  5
A4D
330
1F
100
AcDbEntity
  8
0
  6
Continuous
 62
     7
100
AcDbCircle
 10
217.0760763857867
 20
40.33943164004443
 30
0.0
 40
61.2498895226609
100
AcDbArc
 50
104.5230250435998
 51
120.4769949514947
  0
LINE
  5
A4E
330
1F
100
AcDbEntity
  8
0
  6
Continuous
 62
     7
100
AcDbLine
 10
184.8517
 20
95.92409999999999
 30
0.0
 11
186.0103999999999
 21
93.12649999999999
 31
0.0
  0
LINE
  5
A4F
330
1F
100
AcDbEntity
  8
0
  6
Continuous
 62
     7
100
AcDbLine
 10
200.5574999999999
 20
102.4297
 30
0.0
 11
201.7164
 21
99.63230000000001
 31
0.0
  0
LINE
  5
A50
330
1F
100
AcDbEntity
  8
0
  6
Continuous
 62
     7
100
AcDbLine
 10
211.0759999999999
 20
108.2455
 30
0.0
 11
211.0759999999999
 21
111.5868999999999
 31
0.0
  0
ARC
  5
A51
330
1F
100
AcDbEntity
  8
0
  6
Continuous
 62
     7
100
AcDbCircle
 10
208.0759211396438
 20
108.2455313765489
 30
0.0
 40
2.999978860520295
100
AcDbArc
 50
292.0611293372581
 51
359.9994007478326
  0
LINE
  5
A52
330
1F
100
AcDbEntity
  8
0
  6
Continuous
 62
     7
100
AcDbLine
 10
233.5941
 20
102.4297
 30
0.0
 11
232.4354
 21
99.63230000000001
 31
0.0
  0
LINE
  5
A53
330
1F
100
AcDbEntity
  8
0
  6
Continuous
 62
     7
100
AcDbLine
 10
223.076
 20
108.2455
 30
0.0
 11
223.076
 21
111.5866999999999
 31
0.0
  0
ARC
  5
A54
330
1F
100
AcDbEntity
  8
0
  6
Continuous
 62
     7
100
AcDbCircle
 10
226.0758976416607
 20
108.2455035005555
 30
0.0
 40
2.999997641662782
100
AcDbArc
 50
180.0000668557393
 51
247.9365682362935
  0
LINE
  5
A55
330
1F
100
AcDbEntity
  8
0
  6
Continuous
 62
     7
100
AcDbLine
 10
214.9947
 20
115.439
 30
0.0
 11
219.1572999999999
 21
115.439
 31
0.0
  0
ARC
  5
A56
330
1F
100
AcDbEntity
  8
0
  6
Continuous
 62
     7
100
AcDbCircle
 10
214.9946746272055
 20
114.138876750911
 30
0.0
 40
1.300023249336594
100
AcDbArc
 50
89.99888174766359
 51
174.9991701575245
  0
ARC
  5
A57
330
1F
100
AcDbEntity
  8
0
  6
Continuous
 62
     7
100
AcDbCircle
 10
219.1572710152173
 20
114.1389265608041
 30
0.0
 40
1.299973439518821
100
AcDbArc
 50
4.998818206896688
 51
89.99872250796469
  0
LINE
  5
A58
330
1F
100
AcDbEntity
  8
0
  6
Continuous
 62
     7
100
AcDbLine
 10
220.576
 20
112.8389
 30
0.0
 11
220.4522
 21
114.2522
 31
0.0
  0
LINE
  5
A59
330
1F
100
AcDbEntity
  8
0
  6
Continuous
 62
     7
100
AcDbLine
 10
214.9947
 20
115.439
 30
0.0
 11
219.1572999999999
 21
115.439
 31
0.0
  0
LINE
  5
A5A
330
1F
100
AcDbEntity
  8
0
  6
Continuous
 62
     7
100
AcDbLine
 10
213.5759999999999
 20
112.8389
 30
0.0
 11
213.6995
 21
114.2522
 31
0.0
  0
POINT
  5
A5B
330
1F
100
AcDbEntity
  8
0
 62
     2
100
AcDbPoint
 10
219.4209999999999
 20
112.8393999999999
 30
0.0
  0
ARC
  5
A64
330
1F
100
AcDbEntity
  8
0
  6
Continuous
 62
     7
100
AcDbCircle
 10
217.0760132230653
 20
40.339086777075
 30
0.0
 40
66.60002092563221
100
AcDbArc
 50
27.52468233241976
 51
62.47592538155094
  0
LINE
  5
A65
330
1F
100
AcDbEntity
  8
0
  6
DASH_CENTER
 62
    30
100
AcDbLine
 10
251.7084
 20
74.97199999999998
 30
0.0
 11
268.408
 21
91.67149999999999
 31
0.0
  0
ARC
  5
A67
330
1F
100
AcDbEntity
  8
0
  6
Continuous
 62
     7
100
AcDbCircle
 10
247.4280989461856
 20
43.3393988368756
 30
0.0
 40
4.000001163124535
100
AcDbArc
 50
89.99998490522632
 51
185.6455850347328
  0
ARC
  5
A68
330
1F
100
AcDbEntity
  8
0
  6
Continuous
 62
     7
100
AcDbCircle
 10
248.4327293739955
 20
43.33943231896911
 30
0.0
 40
2.999967681174693
100
AcDbArc
 50
90.00056100803551
 51
185.465428840438
  0
ARC
  5
A69
330
1F
100
AcDbEntity
  8
0
  6
Continuous
 62
     7
100
AcDbCircle
 10
217.0759999996068
 20
40.33931123786167
 30
0.0
 40
58.49999563792397
100
AcDbArc
 50
324.6211862948566
 51
35.37830621523708
  0
ARC
  5
A6A
330
1F
100
AcDbEntity
  8
0
  6
Continuous
 62
     7
100
AcDbCircle
 10
217.0759999998251
 20
40.3393612378966
 30
0.0
 40
57.50004704283726
100
AcDbArc
 50
324.6211863436389
 51
35.37829734094788
  0
ARC
  5
A6B
330
1F
100
AcDbEntity
  8
0
  6
Continuous
 62
     7
100
AcDbCircle
 10
260.6968137284254
 20
9.363958432291424
 30
0.0
 40
3.999980086304091
100
AcDbArc
 50
266.829713516535
 51
324.6220458607631
  0
ARC
  5
A6C
330
1F
100
AcDbEntity
  8
0
  6
Continuous
 62
     7
100
AcDbCircle
 10
260.6969285911663
 20
9.364013774776559
 30
0.0
 40
4.999977553848879
100
AcDbArc
 50
266.8272885250597
 51
324.6207905424131
  0
LINE
  5
A6D
330
1F
100
AcDbEntity
  8
0
  6
Continuous
 62
     7
100
AcDbLine
 10
248.4326999999999
 20
34.33939999999999
 30
0.0
 11
258.3826999999999
 21
34.33939999999999
 31
0.0
  0
LINE
  5
A6E
330
1F
100
AcDbEntity
  8
0
  6
Continuous
 62
     7
100
AcDbLine
 10
247.4280999999999
 20
33.3394
 30
0.0
 11
258.3826999999999
 21
33.3394
 31
0.0
  0
ARC
  5
A6F
330
1F
100
AcDbEntity
  8
0
  6
Continuous
 62
     7
100
AcDbCircle
 10
251.3251048627596
 20
26.33939275878804
 30
0.0
 40
2.00000724121787
100
AcDbArc
 50
337.7656987755741
 51
90.0001393072968
  0
ARC
  5
A70
330
1F
100
AcDbEntity
  8
0
  6
Continuous
 62
     7
100
AcDbCircle
 10
251.3250917541545
 20
26.33941227923958
 30
0.0
 40
2.999987720771745
100
AcDbArc
 50
337.7650406375797
 51
89.99984251530618
  0
ARC
  5
A71
330
1F
100
AcDbEntity
  8
0
  6
Continuous
 62
     7
100
AcDbCircle
 10
247.4281034021893
 20
37.3393962449936
 30
0.0
 40
3.99999624499504
100
AcDbArc
 50
174.3557765868153
 51
269.9999512671817
  0
ARC
  5
A72
330
1F
100
AcDbEntity
  8
0
  6
Continuous
 62
     7
100
AcDbCircle
 10
245.8509746640693
 20
26.33944670759664
 30
0.0
 40
2.999953292510343
100
AcDbArc
 50
89.99951611183483
 51
154.0582021656879
  0
ARC
  5
A73
330
1F
100
AcDbEntity
  8
0
  6
Continuous
 62
     7
100
AcDbCircle
 10
245.8509264652339
 20
26.33941655548726
 30
0.0
 40
1.999983444687843
100
AcDbArc
 50
90.00075817938329
 51
154.0558169146605
  0
LINE
  5
A74
330
1F
100
AcDbEntity
  8
0
  6
Continuous
 62
     7
100
AcDbLine
 10
245.8508999999998
 20
29.3394
 30
0.0
 11
251.3250999999999
 21
29.3394
 31
0.0
  0
LINE
  5
A75
330
1F
100
AcDbEntity
  8
0
  6
Continuous
 62
     7
100
AcDbLine
 10
245.8508999999998
 20
28.3394
 30
0.0
 11
251.3250999999999
 21
28.3394
 31
0.0
  0
ARC
  5
A76
330
1F
100
AcDbEntity
  8
0
  6
Continuous
 62
     7
100
AcDbCircle
 10
248.4327293739955
 20
37.33936768103088
 30
0.0
 40
2.999967681174683
100
AcDbArc
 50
174.5345711595618
 51
269.9994389919644
  0
ARC
  5
A77
330
1F
100
AcDbEntity
  8
0
  6
Continuous
 62
     7
100
AcDbCircle
 10
217.076
 20
40.33924999999999
 30
0.0
 40
26.50000217268859
100
AcDbArc
 50
354.3552389396102
 51
5.644761060389655
  0
ARC
  5
A78
330
1F
100
AcDbEntity
  8
0
  6
Continuous
 62
     7
100
AcDbCircle
 10
217.076
 20
40.3393
 30
0.0
 40
28.50004727610112
100
AcDbArc
 50
354.5349564423283
 51
5.465043557671631
  0
ARC
  5
A79
330
1F
100
AcDbEntity
  8
0
  6
Continuous
 62
     7
100
AcDbCircle
 10
258.3827033797604
 20
30.33939570438247
 30
0.0
 40
4.000004295618976
100
AcDbArc
 50
346.3907708030304
 51
90.00004841144976
  0
ARC
  5
A7A
330
1F
100
AcDbEntity
  8
0
  6
Continuous
 62
     7
100
AcDbCircle
 10
258.3826738590169
 20
30.33943322559576
 30
0.0
 40
2.999966774518115
100
AcDbArc
 50
346.3898860699281
 51
89.99950073846857
  0
ARC
  5
A7B
330
1F
100
AcDbEntity
  8
0
  6
Continuous
 62
     7
100
AcDbCircle
 10
217.0757832076767
 20
40.33935945976574
 30
0.0
 40
64.25000886080153
100
AcDbArc
 50
329.897742452868
 51
345.1022375520358
  0
ARC
  5
A7C
330
1F
100
AcDbEntity
  8
0
  6
Continuous
 62
     7
100
AcDbCircle
 10
217.0758944037469
 20
40.3396279071905
 30
0.0
 40
61.25001372072619
100
AcDbArc
 50
329.5226918759496
 51
345.4766653707586
  0
LINE
  5
A7D
330
1F
100
AcDbEntity
  8
0
  6
Continuous
 62
     7
100
AcDbLine
 10
272.6605
 20
8.115200000000001
 30
0.0
 11
269.8630999999999
 21
9.273899999999995
 31
0.0
  0
LINE
  5
A7E
330
1F
100
AcDbEntity
  8
0
  6
Continuous
 62
     7
100
AcDbLine
 10
284.2006999999998
 20
28.443
 30
0.0
 11
287.5296
 21
28.1519
 31
0.0
  0
LINE
  5
A7F
330
1F
100
AcDbEntity
  8
0
  6
Continuous
 62
     7
100
AcDbLine
 10
285.2466999999998
 20
40.39789999999999
 30
0.0
 11
288.5754999999998
 21
40.1067
 31
0.0
  0
LINE
  5
A80
330
1F
100
AcDbEntity
  8
0
  6
DASH_CENTER
 62
    30
100
AcDbLine
 10
297.9067999999998
 20
33.2671
 30
0.0
 11
278.3159999999999
 21
34.981
 31
0.0
  0
LINE
  5
A81
330
1F
100
AcDbEntity
  8
0
  6
Continuous
 62
     7
100
AcDbLine
 10
279.1660999999999
 20
23.82099999999998
 30
0.0
 11
276.3688
 21
24.9797
 31
0.0
  0
ARC
  5
A82
330
1F
100
AcDbEntity
  8
0
  6
Continuous
 62
     7
100
AcDbCircle
 10
283.9394255310413
 20
25.45531413438982
 30
0.0
 40
2.999993681518068
100
AcDbArc
 50
85.00176778267105
 51
152.937451960785
  0
ARC
  5
A83
330
1F
100
AcDbEntity
  8
0
  6
Continuous
 62
     7
100
AcDbCircle
 10
285.5081925985388
 20
43.38680598704792
 30
0.0
 40
3.000024020722074
100
AcDbArc
 50
197.0615979528841
 51
264.9995537520795
  0
LINE
  5
A84
330
1F
100
AcDbEntity
  8
0
  6
Continuous
 62
     7
100
AcDbLine
 10
292.0713999999998
 20
35.86719999999999
 30
0.0
 11
291.7085999999999
 21
31.72019999999999
 31
0.0
  0
LINE
  5
A85
330
1F
100
AcDbEntity
  8
0
  6
Continuous
 62
     7
100
AcDbLine
 10
292.0713999999998
 20
35.86719999999999
 30
0.0
 11
291.7085999999999
 21
31.72019999999999
 31
0.0
  0
ARC
  5
A86
330
1F
100
AcDbEntity
  8
0
  6
Continuous
 62
     7
100
AcDbCircle
 10
290.4134253727945
 20
31.83352324908901
 30
0.0
 40
1.30002324933661
100
AcDbArc
 50
269.9988817476635
 51
354.9991701575236
  0
LINE
  5
A87
330
1F
100
AcDbEntity
  8
0
  6
Continuous
 62
     7
100
AcDbLine
 10
288.9947
 20
30.5337
 30
0.0
 11
290.4134
 21
30.5337
 31
0.0
  0
ARC
  5
A88
330
1F
100
AcDbEntity
  8
0
  6
Continuous
 62
     7
100
AcDbCircle
 10
290.7762386823682
 20
35.9804495895632
 30
0.0
 40
1.300003571519102
100
AcDbArc
 50
355.0023531029063
 51
79.99919146161828
  0
LINE
  5
A89
330
1F
100
AcDbEntity
  8
0
  6
Continuous
 62
     7
100
AcDbLine
 10
289.6048
 20
37.5071
 30
0.0
 11
291.0021
 21
37.26069999999999
 31
0.0
  0
POINT
  5
A8A
330
1F
100
AcDbEntity
  8
0
 62
     2
100
AcDbPoint
 10
289.5759999999999
 20
42.68439999999997
 30
0.0
  0
LINE
  5
A8B
330
1F
100
AcDbEntity
  8
0
  6
Continuous
 62
     7
100
AcDbLine
 10
248.4326999999999
 20
46.33939999999999
 30
0.0
 11
258.3826999999999
 21
46.33939999999999
 31
0.0
  0
LINE
  5
A8C
330
1F
100
AcDbEntity
  8
0
  6
Continuous
 62
     7
100
AcDbLine
 10
247.4280999999999
 20
47.33939999999999
 30
0.0
 11
258.3826999999999
 21
47.33939999999999
 31
0.0
  0
ARC
  5
A8D
330
1F
100
AcDbEntity
  8
0
  6
Continuous
 62
     7
100
AcDbCircle
 10
251.325092157747
 20
54.33938832240106
 30
0.0
 40
1.999988322416434
100
AcDbArc
 50
270.0002246653121
 51
22.23201339496857
  0
ARC
  5
A8E
330
1F
100
AcDbEntity
  8
0
  6
Continuous
 62
     7
100
AcDbCircle
 10
251.3250790486423
 20
54.33936880119588
 30
0.0
 40
2.999968801269058
100
AcDbArc
 50
270.0004001456182
 51
22.23343414969058
  0
ARC
  5
A8F
330
1F
100
AcDbEntity
  8
0
  6
Continuous
 62
     7
100
AcDbCircle
 10
245.8508914928923
 20
54.33940532119963
 30
0.0
 40
2.000005321217755
100
AcDbArc
 50
205.9477610331986
 51
270.0002437100348
  0
ARC
  5
A90
330
1F
100
AcDbEntity
  8
0
  6
Continuous
 62
     7
100
AcDbCircle
 10
245.8509047267583
 20
54.33939704332297
 30
0.0
 40
2.999997043326697
100
AcDbArc
 50
205.9465683798884
 51
269.9999097254776
  0
LINE
  5
A91
330
1F
100
AcDbEntity
  8
0
  6
Continuous
 62
     7
100
AcDbLine
 10
245.8508999999998
 20
52.3394
 30
0.0
 11
251.3250999999999
 21
52.3394
 31
0.0
  0
LINE
  5
A92
330
1F
100
AcDbEntity
  8
0
  6
Continuous
 62
     7
100
AcDbLine
 10
245.8508999999998
 20
51.33939999999999
 30
0.0
 11
251.3250999999999
 21
51.33939999999999
 31
0.0
  0
ARC
  5
A93
330
1F
100
AcDbEntity
  8
0
  6
Continuous
 62
     7
100
AcDbCircle
 10
258.3827028377941
 20
50.33940360665964
 30
0.0
 40
3.000003606660988
100
AcDbArc
 50
269.9999458021855
 51
13.60725483210219
  0
ARC
  5
A94
330
1F
100
AcDbEntity
  8
0
  6
Continuous
 62
     7
100
AcDbCircle
 10
258.3826941235055
 20
50.33939253122742
 30
0.0
 40
3.999992531231736
100
AcDbArc
 50
270.0000841747408
 51
13.60796960114983
  0
ARC
  5
A95
330
1F
100
AcDbEntity
  8
0
  6
Continuous
 62
     7
100
AcDbCircle
 10
248.0513862252233
 20
83.96022859116634
 30
0.0
 40
4.999977553848887
100
AcDbArc
 50
356.8272885250598
 51
54.620790542412
  0
ARC
  5
A96
330
1F
100
AcDbEntity
  8
0
  6
Continuous
 62
     7
100
AcDbCircle
 10
260.0328
 20
83.2961
 30
0.0
 40
7.999958411141916
100
AcDbArc
 50
176.8277578673628
 51
273.1722421326375
  0
ARC
  5
A97
330
1F
100
AcDbEntity
  8
0
  6
Continuous
 62
     7
100
AcDbCircle
 10
260.03275
 20
83.29614999999998
 30
0.0
 40
6.999975398885369
100
AcDbArc
 50
176.827865686682
 51
273.1721343133183
  0
ARC
  5
A98
330
1F
100
AcDbEntity
  8
0
  6
Continuous
 62
     7
100
AcDbCircle
 10
248.0513601064255
 20
83.96028280431023
 30
0.0
 40
3.999970930088341
100
AcDbArc
 50
356.8272806858633
 51
54.62052160720215
  0
ARC
  5
A99
330
1F
100
AcDbEntity
  8
0
  6
DASH_CENTER
 62
    30
100
AcDbCircle
 10
217.0761165792239
 20
40.33928278981406
 30
0.0
 40
60.99998101460911
100
AcDbArc
 50
37.04471933833528
 51
52.64601622808044
  0
ARC
  5
A9A
330
1F
100
AcDbEntity
  8
0
  6
Continuous
 62
     7
100
AcDbCircle
 10
260.6969828043101
 20
71.31446010642545
 30
0.0
 40
3.999970930088376
100
AcDbArc
 50
35.37947839279761
 51
93.17271931413712
  0
ARC
  5
A9B
330
1F
100
AcDbEntity
  8
0
  6
Continuous
 62
     7
100
AcDbCircle
 10
260.69687462244
 20
71.31451222709427
 30
0.0
 40
4.999948605156498
100
AcDbArc
 50
35.37767413025333
 51
93.17211047148381
  0
CIRCLE
  5
A9C
330
1F
100
AcDbEntity
  8
0
  6
Continuous
 62
     7
100
AcDbCircle
 10
260.2094
 20
83.473
 30
0.0
 40
3.5
  0
LINE
  5
A9D
330
1F
100
AcDbEntity
  8
0
  6
Continuous
 62
     7
100
AcDbLine
 10
262.3593
 20
82.97299999999998
 30
0.0
 11
261.2094
 21
82.97299999999998
 31
0.0
  0
LINE
  5
A9E
330
1F
100
AcDbEntity
  8
0
  6
Continuous
 62
     7
100
AcDbLine
 10
262.3593
 20
83.97299999999999
 30
0.0
 11
261.2094
 21
83.97299999999999
 31
0.0
  0
ARC
  5
A9F
330
1F
100
AcDbEntity
  8
0
  6
Continuous
 62
     7
100
AcDbCircle
 10
259.2094
 20
82.473
 30
0.0
 40
0.5
100
AcDbArc
 50
0.0
 51
90.0
  0
ARC
  5
AA0
330
1F
100
AcDbEntity
  8
0
  6
Continuous
 62
     7
100
AcDbCircle
 10
261.2094
 20
82.473
 30
0.0
 40
0.5
100
AcDbArc
 50
90.0
 51
180.0
  0
ARC
  5
AA1
330
1F
100
AcDbEntity
  8
0
  6
Continuous
 62
     7
100
AcDbCircle
 10
261.2094
 20
84.473
 30
0.0
 40
0.5
100
AcDbArc
 50
180.0
 51
270.0
  0
ARC
  5
AA2
330
1F
100
AcDbEntity
  8
0
  6
Continuous
 62
     7
100
AcDbCircle
 10
259.2094
 20
84.473
 30
0.0
 40
0.5
100
AcDbArc
 50
270.0
 51
0.0
  0
LINE
  5
AA3
330
1F
100
AcDbEntity
  8
0
  6
Continuous
 62
     7
100
AcDbLine
 10
259.7094
 20
81.3231
 30
0.0
 11
259.7094
 21
82.473
 31
0.0
  0
LINE
  5
AA4
330
1F
100
AcDbEntity
  8
0
  6
Continuous
 62
     7
100
AcDbLine
 10
260.7094
 20
81.3231
 30
0.0
 11
260.7094
 21
82.473
 31
0.0
  0
LINE
  5
AA5
330
1F
100
AcDbEntity
  8
0
  6
Continuous
 62
     7
100
AcDbLine
 10
259.7094
 20
84.473
 30
0.0
 11
259.7094
 21
85.62309999999998
 31
0.0
  0
LINE
  5
AA6
330
1F
100
AcDbEntity
  8
0
  6
Continuous
 62
     7
100
AcDbLine
 10
260.7094
 20
84.473
 30
0.0
 11
260.7094
 21
85.62309999999998
 31
0.0
  0
LINE
  5
AA7
330
1F
100
AcDbEntity
  8
0
  6
Continuous
 62
     7
100
AcDbLine
 10
259.2094
 20
82.97299999999998
 30
0.0
 11
258.0595
 21
82.97299999999998
 31
0.0
  0
LINE
  5
AA8
330
1F
100
AcDbEntity
  8
0
  6
Continuous
 62
     7
100
AcDbLine
 10
259.2094
 20
83.97299999999999
 30
0.0
 11
258.0595
 21
83.97299999999999
 31
0.0
  0
LINE
  5
AA9
330
1F
100
AcDbEntity
  8
0
  6
Continuous
 62
     7
100
AcDbLine
 10
258.0595
 20
82.97299999999998
 30
0.0
 11
258.0595
 21
83.97299999999999
 31
0.0
  0
LINE
  5
AAA
330
1F
100
AcDbEntity
  8
0
  6
Continuous
 62
     7
100
AcDbLine
 10
260.7094
 20
81.3231
 30
0.0
 11
259.7094
 21
81.3231
 31
0.0
  0
LINE
  5
AAB
330
1F
100
AcDbEntity
  8
0
  6
Continuous
 62
     7
100
AcDbLine
 10
260.7094
 20
85.62309999999998
 30
0.0
 11
259.7094
 21
85.62309999999998
 31
0.0
  0
LINE
  5
AAC
330
1F
100
AcDbEntity
  8
0
  6
Continuous
 62
     7
100
AcDbLine
 10
262.3593
 20
82.97299999999998
 30
0.0
 11
262.3593
 21
83.97299999999999
 31
0.0
  0
ARC
  5
AAD
330
1F
100
AcDbEntity
  8
0
  6
Continuous
 62
     7
100
AcDbCircle
 10
217.0760185630283
 20
40.33935518490753
 30
0.0
 40
64.24997092880778
100
AcDbArc
 50
14.89775793321297
 51
30.10226206188293
  0
ARC
  5
AAE
330
1F
100
AcDbEntity
  8
0
  6
Continuous
 62
     7
100
AcDbCircle
 10
217.075976353936
 20
40.33945708698364
 30
0.0
 40
61.25000637629503
100
AcDbArc
 50
14.52286775023223
 51
30.47689429066692
  0
LINE
  5
AAF
330
1F
100
AcDbEntity
  8
0
  6
Continuous
 62
     7
100
AcDbLine
 10
279.1660999999999
 20
56.8577
 30
0.0
 11
276.3688
 21
55.699
 31
0.0
  0
LINE
  5
AB0
330
1F
100
AcDbEntity
  8
0
  6
Continuous
 62
     7
100
AcDbLine
 10
272.6605
 20
72.5637
 30
0.0
 11
269.8630999999999
 21
71.40479999999998
 31
0.0
  0
LINE
  5
AB2
330
1F
100
AcDbEntity
  8
0
  6
Continuous
 62
     7
100
AcDbLine
 10
275.3959
 20
70.37510000000001
 30
0.0
 11
276.1376999999999
 21
71.1169
 31
0.0
  0
LINE
  5
ABB
330
1F
100
AcDbEntity
  8
0
  6
Continuous
 62
     7
100
AcDbLine
 10
249.3002
 20
95.92409999999999
 30
0.0
 11
248.1415
 21
93.1267
 31
0.0
  0
LINE
  5
ABC
330
1F
100
AcDbEntity
  8
0
  6
Continuous
 62
     7
100
AcDbLine
 10
247.8531999999999
 20
99.4011
 30
0.0
 11
247.1115
 21
98.65940000000001
 31
0.0
  0
MTEXT
  5
AC7
330
1F
100
AcDbEntity
  8
0
100
AcDbMText
 10
-59.64737258233805
 20
-94.12752384817292
 30
0.0
 40
8.0
 41
123.6401381021524
 71
     1
 72
     1
  1
AEM-FBH 2P 0.4kW
 73
     1
 44
1.0
  0
MTEXT
  5
ACA
330
1F
100
AcDbEntity
  8
0
100
AcDbMText
 10
-60.42133242637323
 20
-109.597373204636
 30
0.0
 40
8.0
 41
127.4
 71
     1
 72
     1
  1
AEM-FBH 4P 0.4kW
 73
     1
 44
1.0
  0
MTEXT
  5
ACC
330
1F
100
AcDbEntity
  8
0
100
AcDbMText
 10
-60.42133242637323
 20
-124.6804762747516
 30
0.0
 40
8.0
 41
127.4
 71
     1
 72
     1
  1
AEM-FBH 6P 0.2kW
 73
     1
 44
1.0
  0
VIEWPORT
  5
71
330
55
100
AcDbEntity
 67
     1
  8
0
100
AcDbViewport
 10
133.3499908447265
 20
101.5999970436096
 30
0.0
 40
381.3957395593833
 41
218.2856291881582
 68
     1
 69
     1
 12
133.3499908447265
 22
101.5999970436096
 13
0.0
 23
0.0
 14
10.0
 24
10.0
 15
10.0
 25
10.0
 16
0.0
 26
0.0
 36
1.0
 17
0.0
 27
0.0
 37
0.0
 42
50.0
 43
0.0
 44
0.0
 45
218.2856291881582
 50
0.0
 51
0.0
 72
   100
 90
    32800
  1

281
     0
 71
     1
 74
     0
110
0.0
120
0.0
130
0.0
111
1.0
121
0.0
131
0.0
112
0.0
122
1.0
132
0.0
 79
     0
146
0.0
  0
VIEWPORT
  5
73
330
55
100
AcDbEntity
 67
     1
  8
0
100
AcDbViewport
 10
133.3499939441679
 20
101.5999939441679
 30
0.0
 40
213.3599903106689
 41
162.5599903106689
 68
     2
 69
     2
 12
210.0
 22
148.5
 13
0.0
 23
0.0
 14
10.0
 24
10.0
 15
10.0
 25
10.0
 16
0.0
 26
0.0
 36
1.0
 17
0.0
 27
0.0
 37
0.0
 42
50.0
 43
0.0
 44
0.0
 45
324.0677920111345
 50
0.0
 51
0.0
 72
   100
 90
    32864
  1

281
     0
 71
     1
 74
     0
110
0.0
120
0.0
130
0.0
111
1.0
121
0.0
131
0.0
112
0.0
122
1.0
132
0.0
 79
     0
146
0.0
  0
ENDSEC
  0
SECTION
  2
OBJECTS
  0
DICTIONARY
  5
C
330
0
100
AcDbDictionary
281
     1
  3
ACAD_GROUP
350
D
  3
ACAD_LAYOUT
350
1A
  3
ACAD_MLINESTYLE
350
17
  3
ACAD_PLOTSETTINGS
350
19
  3
ACAD_PLOTSTYLENAME
350
E
  3
AcDbVariableDictionary
350
5E
  0
DICTIONARY
  5
D
102
{ACAD_REACTORS
330
C
102
}
330
C
100
AcDbDictionary
281
     1
  0
DICTIONARY
  5
1A
102
{ACAD_REACTORS
330
C
102
}
330
C
100
AcDbDictionary
281
     1
  3
Model
350
22
  3
ﾚｲｱｳﾄ1
350
51
  3
ﾚｲｱｳﾄ2
350
56
  0
DICTIONARY
  5
17
102
{ACAD_REACTORS
330
C
102
}
330
C
100
AcDbDictionary
281
     1
  3
Standard
350
18
  0
DICTIONARY
  5
19
102
{ACAD_REACTORS
330
C
102
}
330
C
100
AcDbDictionary
281
     1
  0
ACDBDICTIONARYWDFLT
  5
E
102
{ACAD_REACTORS
330
C
102
}
330
C
100
AcDbDictionary
281
     1
  3
Normal
350
F
100
AcDbDictionaryWithDefault
340
F
  0
DICTIONARY
  5
5E
102
{ACAD_REACTORS
330
C
102
}
330
C
100
AcDbDictionary
281
     1
  3
DIMASSOC
350
5F
  3
HIDETEXT
350
63
  0
LAYOUT
  5
22
102
{ACAD_REACTORS
330
1A
102
}
330
1A
100
AcDbPlotSettings
  1

  2
none_device
  4
ANSI_A_(8.50_x_11.00_Inches)
  6

 40
6.349999904632567
 41
19.04999923706053
 42
6.350006103515625
 43
19.04998779296875
 44
215.8999938964842
 45
279.3999938964843
 46
0.0
 47
0.0
 48
0.0
 49
0.0
140
0.0
141
0.0
142
1.0
143
78.436453180766
 70
 11952
 72
     0
 73
     1
 74
     0
  7

 75
     0
147
0.0127491741332998
148
0.0
149
0.0
100
AcDbLayout
  1
Model
 70
     1
 71
     0
 10
0.0
 20
0.0
 11
12.0
 21
9.0
 12
0.0
 22
0.0
 32
0.0
 14
0.0
 24
0.0
 34
0.0
 15
0.0
 25
0.0
 35
0.0
146
0.0
 13
0.0
 23
0.0
 33
0.0
 16
1.0
 26
0.0
 36
0.0
 17
0.0
 27
1.0
 37
0.0
 76
     0
330
1F
  0
LAYOUT
  5
51
102
{ACAD_REACTORS
330
1A
102
}
330
1A
100
AcDbPlotSettings
  1

  2
none_device
  4
Letter_(8.50_x_11.00_Inches)
  6

 40
6.349999904632567
 41
6.349999904632567
 42
6.350006103515625
 43
6.350006103515625
 44
215.8999938964842
 45
279.3999938964843
 46
0.0
 47
0.0
 48
0.0
 49
0.0
140
0.0
141
0.0
142
1.0
143
1.0
 70
   688
 72
     1
 73
     1
 74
     5
  7

 75
    16
147
1.0
148
0.0
149
0.0
100
AcDbLayout
  1
ﾚｲｱｳﾄ1
 70
     1
 71
     1
 10
-6.350006103515625
 20
-6.349999904632567
 11
273.0499877929687
 21
209.5499939918517
 12
0.0
 22
0.0
 32
0.0
 14
26.66076962115562
 24
20.31135699206657
 34
-0.0015258207003583
 15
240.039213369355
 25
182.8886381005154
 35
0.0000000349246037
146
0.0
 13
0.0
 23
0.0
 33
0.0
 16
1.0
 26
0.0
 36
0.0
 17
0.0
 27
1.0
 37
0.0
 76
     0
330
50
331
6B
  0
LAYOUT
  5
56
102
{ACAD_REACTORS
330
1A
102
}
330
1A
100
AcDbPlotSettings
  1

  2
none_device
  4
Letter_(8.50_x_11.00_Inches)
  6

 40
6.349999904632567
 41
6.349999904632567
 42
6.350006103515625
 43
6.350006103515625
 44
215.8999938964842
 45
279.3999938964843
 46
0.0
 47
0.0
 48
0.0
 49
0.0
140
0.0
141
0.0
142
1.0
143
1.0
 70
   688
 72
     1
 73
     1
 74
     5
  7

 75
    16
147
1.0
148
0.0
149
0.0
100
AcDbLayout
  1
ﾚｲｱｳﾄ2
 70
     1
 71
     2
 10
-6.350006103515625
 20
-6.349999904632567
 11
273.0499877929687
 21
209.5499939918517
 12
0.0
 22
0.0
 32
0.0
 14
26.66076962115562
 24
20.31135699206657
 34
-0.0015258207003583
 15
240.039213369355
 25
182.8886381005154
 35
0.0000000349246037
146
0.0
 13
0.0
 23
0.0
 33
0.0
 16
1.0
 26
0.0
 36
0.0
 17
0.0
 27
1.0
 37
0.0
 76
     0
330
55
331
71
  0
MLINESTYLE
  5
18
102
{ACAD_REACTORS
330
17
102
}
330
17
100
AcDbMlineStyle
  2
STANDARD
 70
     0
  3

 62
   256
 51
90.0
 52
90.0
 71
     2
 49
0.5
 62
   256
  6
BYLAYER
 49
-0.5
 62
   256
  6
BYLAYER
  0
ACDBPLACEHOLDER
  5
F
102
{ACAD_REACTORS
330
E
102
}
330
E
  0
DICTIONARYVAR
  5
5F
102
{ACAD_REACTORS
330
5E
102
}
330
5E
100
DictionaryVariables
280
     0
  1
2
  0
DICTIONARYVAR
  5
63
102
{ACAD_REACTORS
330
5E
102
}
330
5E
100
DictionaryVariables
280
     0
  1
1
  0
ENDSEC
  0
EOF
