  0
SECTION
  2
HEADER
  9
$ACADVER
  1
AC1015
  9
$ACADMAINTVER
 70
    14
  9
$DWGCODEPAGE
  3
ANSI_932
  9
$INSBASE
 10
0.0
 20
0.0
 30
0.0
  9
$EXTMIN
 10
-319.8255672876207
 20
-103.9397429870518
 30
-0.0000000349181948
  9
$EXTMAX
 10
260.0370777048853
 20
166.2156212751171
 30
0.0000000814935747
  9
$LIMMIN
 10
0.0
 20
0.0
  9
$LIMMAX
 10
420.0
 20
297.0
  9
$ORTHOMODE
 70
     0
  9
$REGENMODE
 70
     1
  9
$FILLMODE
 70
     1
  9
$QTEXTMODE
 70
     0
  9
$MIRRTEXT
 70
     1
  9
$LTSCALE
 40
1.0
  9
$ATTMODE
 70
     1
  9
$TEXTSIZE
 40
2.5
  9
$TRACEWID
 40
1.0
  9
$TEXTSTYLE
  7
Standard
  9
$CLAYER
  8
0
  9
$CELTYPE
  6
ByLayer
  9
$CECOLOR
 62
   256
  9
$CELTSCALE
 40
1.0
  9
$DISPSILH
 70
     0
  9
$DIMSCALE
 40
1.0
  9
$DIMASZ
 40
2.5
  9
$DIMEXO
 40
0.625
  9
$DIMDLI
 40
3.75
  9
$DIMRND
 40
0.0
  9
$DIMDLE
 40
0.0
  9
$DIMEXE
 40
1.25
  9
$DIMTP
 40
0.0
  9
$DIMTM
 40
0.0
  9
$DIMTXT
 40
2.5
  9
$DIMCEN
 40
2.5
  9
$DIMTSZ
 40
0.0
  9
$DIMTOL
 70
     0
  9
$DIMLIM
 70
     0
  9
$DIMTIH
 70
     0
  9
$DIMTOH
 70
     0
  9
$DIMSE1
 70
     0
  9
$DIMSE2
 70
     0
  9
$DIMTAD
 70
     1
  9
$DIMZIN
 70
     8
  9
$DIMBLK
  1

  9
$DIMASO
 70
     1
  9
$DIMSHO
 70
     1
  9
$DIMPOST
  1

  9
$DIMAPOST
  1

  9
$DIMALT
 70
     0
  9
$DIMALTD
 70
     3
  9
$DIMALTF
 40
0.03937007874016
  9
$DIMLFAC
 40
1.0
  9
$DIMTOFL
 70
     1
  9
$DIMTVP
 40
0.0
  9
$DIMTIX
 70
     0
  9
$DIMSOXD
 70
     0
  9
$DIMSAH
 70
     0
  9
$DIMBLK1
  1

  9
$DIMBLK2
  1

  9
$DIMSTYLE
  2
ISO-25
  9
$DIMCLRD
 70
     0
  9
$DIMCLRE
 70
     0
  9
$DIMCLRT
 70
     0
  9
$DIMTFAC
 40
1.0
  9
$DIMGAP
 40
0.625
  9
$DIMJUST
 70
     0
  9
$DIMSD1
 70
     0
  9
$DIMSD2
 70
     0
  9
$DIMTOLJ
 70
     0
  9
$DIMTZIN
 70
     8
  9
$DIMALTZ
 70
     0
  9
$DIMALTTZ
 70
     0
  9
$DIMUPT
 70
     0
  9
$DIMDEC
 70
     2
  9
$DIMTDEC
 70
     2
  9
$DIMALTU
 70
     2
  9
$DIMALTTD
 70
     3
  9
$DIMTXSTY
  7
Standard
  9
$DIMAUNIT
 70
     0
  9
$DIMADEC
 70
     0
  9
$DIMALTRND
 40
0.0
  9
$DIMAZIN
 70
     0
  9
$DIMDSEP
 70
    44
  9
$DIMATFIT
 70
     3
  9
$DIMFRAC
 70
     0
  9
$DIMLDRBLK
  1

  9
$DIMLUNIT
 70
     2
  9
$DIMLWD
 70
    -2
  9
$DIMLWE
 70
    -2
  9
$DIMTMOVE
 70
     0
  9
$LUNITS
 70
     2
  9
$LUPREC
 70
     4
  9
$SKETCHINC
 40
1.0
  9
$FILLETRAD
 40
10.0
  9
$AUNITS
 70
     0
  9
$AUPREC
 70
     0
  9
$MENU
  1
.
  9
$ELEVATION
 40
0.0
  9
$PELEVATION
 40
0.0
  9
$THICKNESS
 40
0.0
  9
$LIMCHECK
 70
     0
  9
$CHAMFERA
 40
10.0
  9
$CHAMFERB
 40
10.0
  9
$CHAMFERC
 40
20.0
  9
$CHAMFERD
 40
0.0
  9
$SKPOLY
 70
     0
  9
$TDCREATE
 40
2456042.403848020
  9
$TDUCREATE
 40
2456042.028848020
  9
$TDUPDATE
 40
2456044.457788264
  9
$TDUUPDATE
 40
2456044.082788264
  9
$TDINDWG
 40
0.0032550231
  9
$TDUSRTIMER
 40
0.0032550231
  9
$USRTIMER
 70
     1
  9
$ANGBASE
 50
0.0
  9
$ANGDIR
 70
     0
  9
$PDMODE
 70
     0
  9
$PDSIZE
 40
0.0
  9
$PLINEWID
 40
0.0
  9
$SPLFRAME
 70
     0
  9
$SPLINETYPE
 70
     6
  9
$SPLINESEGS
 70
     8
  9
$HANDSEED
  5
9AD
  9
$SURFTAB1
 70
     6
  9
$SURFTAB2
 70
     6
  9
$SURFTYPE
 70
     6
  9
$SURFU
 70
     6
  9
$SURFV
 70
     6
  9
$UCSBASE
  2

  9
$UCSNAME
  2

  9
$UCSORG
 10
0.0
 20
0.0
 30
0.0
  9
$UCSXDIR
 10
1.0
 20
0.0
 30
0.0
  9
$UCSYDIR
 10
0.0
 20
1.0
 30
0.0
  9
$UCSORTHOREF
  2

  9
$UCSORTHOVIEW
 70
     0
  9
$UCSORGTOP
 10
0.0
 20
0.0
 30
0.0
  9
$UCSORGBOTTOM
 10
0.0
 20
0.0
 30
0.0
  9
$UCSORGLEFT
 10
0.0
 20
0.0
 30
0.0
  9
$UCSORGRIGHT
 10
0.0
 20
0.0
 30
0.0
  9
$UCSORGFRONT
 10
0.0
 20
0.0
 30
0.0
  9
$UCSORGBACK
 10
0.0
 20
0.0
 30
0.0
  9
$PUCSBASE
  2

  9
$PUCSNAME
  2

  9
$PUCSORG
 10
0.0
 20
0.0
 30
0.0
  9
$PUCSXDIR
 10
1.0
 20
0.0
 30
0.0
  9
$PUCSYDIR
 10
0.0
 20
1.0
 30
0.0
  9
$PUCSORTHOREF
  2

  9
$PUCSORTHOVIEW
 70
     0
  9
$PUCSORGTOP
 10
0.0
 20
0.0
 30
0.0
  9
$PUCSORGBOTTOM
 10
0.0
 20
0.0
 30
0.0
  9
$PUCSORGLEFT
 10
0.0
 20
0.0
 30
0.0
  9
$PUCSORGRIGHT
 10
0.0
 20
0.0
 30
0.0
  9
$PUCSORGFRONT
 10
0.0
 20
0.0
 30
0.0
  9
$PUCSORGBACK
 10
0.0
 20
0.0
 30
0.0
  9
$USERI1
 70
     0
  9
$USERI2
 70
     0
  9
$USERI3
 70
     0
  9
$USERI4
 70
     0
  9
$USERI5
 70
     0
  9
$USERR1
 40
0.0
  9
$USERR2
 40
0.0
  9
$USERR3
 40
0.0
  9
$USERR4
 40
0.0
  9
$USERR5
 40
0.0
  9
$WORLDVIEW
 70
     1
  9
$SHADEDGE
 70
     3
  9
$SHADEDIF
 70
    70
  9
$TILEMODE
 70
     1
  9
$MAXACTVP
 70
    64
  9
$PINSBASE
 10
0.0
 20
0.0
 30
0.0
  9
$PLIMCHECK
 70
     0
  9
$PEXTMIN
 10
26.66076962115562
 20
20.31135699206657
 30
-0.0015258207003583
  9
$PEXTMAX
 10
240.039213369355
 20
182.8886381005154
 30
0.0000000349246037
  9
$PLIMMIN
 10
-6.350006103515625
 20
-6.349999904632567
  9
$PLIMMAX
 10
273.0499877929687
 20
209.5499939918517
  9
$UNITMODE
 70
     0
  9
$VISRETAIN
 70
     1
  9
$PLINEGEN
 70
     0
  9
$PSLTSCALE
 70
     1
  9
$TREEDEPTH
 70
  3020
  9
$CMLSTYLE
  2
Standard
  9
$CMLJUST
 70
     0
  9
$CMLSCALE
 40
20.0
  9
$PROXYGRAPHICS
 70
     1
  9
$MEASUREMENT
 70
     1
  9
$CELWEIGHT
370
    -1
  9
$ENDCAPS
280
     0
  9
$JOINSTYLE
280
     0
  9
$LWDISPLAY
290
     0
  9
$INSUNITS
 70
     4
  9
$HYPERLINKBASE
  1

  9
$STYLESHEET
  1

  9
$XEDIT
290
     1
  9
$CEPSNTYPE
380
     0
  9
$PSTYLEMODE
290
     1
  9
$FINGERPRINTGUID
  2
{FDEAD578-A652-11D2-9A35-0060089B3A3F}
  9
$VERSIONGUID
  2
{7E3E06FC-3AC9-47EA-BAD0-AABD12EE7814}
  9
$EXTNAMES
290
     1
  9
$PSVPSCALE
 40
0.0
  9
$OLESTARTUP
290
     0
  0
ENDSEC
  0
SECTION
  2
CLASSES
  0
CLASS
  1
ACDBDICTIONARYWDFLT
  2
AcDbDictionaryWithDefault
  3
AutoCAD 2000
 90
        0
280
     0
281
     0
  0
CLASS
  1
ACDBPLACEHOLDER
  2
AcDbPlaceHolder
  3
AutoCAD 2000
 90
        0
280
     0
281
     0
  0
CLASS
  1
LAYOUT
  2
AcDbLayout
  3
AutoCAD 2000
 90
        0
280
     0
281
     0
  0
CLASS
  1
DICTIONARYVAR
  2
AcDbDictionaryVar
  3
AutoCAD 2000
 90
        0
280
     0
281
     0
  0
ENDSEC
  0
SECTION
  2
TABLES
  0
TABLE
  2
VPORT
  5
8
330
0
100
AcDbSymbolTable
 70
     2
  0
VPORT
  5
9AC
330
8
100
AcDbSymbolTableRecord
100
AcDbViewportTableRecord
  2
*Active
 70
     0
 10
0.0
 20
0.0
 11
1.0
 21
1.0
 12
-29.89424479136767
 22
31.13793914403264
 13
0.0
 23
0.0
 14
10.0
 24
10.0
 15
10.0
 25
10.0
 16
0.0
 26
0.0
 36
1.0
 17
0.0
 27
0.0
 37
0.0
 40
295.3688549284272
 41
1.97051597051597
 42
50.0
 43
0.0
 44
0.0
 50
0.0
 51
0.0
 71
     0
 72
   100
 73
     1
 74
     3
 75
     0
 76
     0
 77
     0
 78
     0
281
     0
 65
     1
110
0.0
120
0.0
130
0.0
111
1.0
121
0.0
131
0.0
112
0.0
122
1.0
132
0.0
 79
     0
146
0.0
  0
ENDTAB
  0
TABLE
  2
LTYPE
  5
5
330
0
100
AcDbSymbolTable
 70
     4
  0
LTYPE
  5
14
330
5
100
AcDbSymbolTableRecord
100
AcDbLinetypeTableRecord
  2
ByBlock
 70
     0
  3

 72
    65
 73
     0
 40
0.0
  0
LTYPE
  5
15
330
5
100
AcDbSymbolTableRecord
100
AcDbLinetypeTableRecord
  2
ByLayer
 70
     0
  3

 72
    65
 73
     0
 40
0.0
  0
LTYPE
  5
16
330
5
100
AcDbSymbolTableRecord
100
AcDbLinetypeTableRecord
  2
Continuous
 70
     0
  3
Solid line
 72
    65
 73
     0
 40
0.0
  0
LTYPE
  5
86
330
5
100
AcDbSymbolTableRecord
100
AcDbLinetypeTableRecord
  2
DASHED
 70
     0
  3
Dashed
 72
    65
 73
     2
 40
15.0
 49
7.0
 74
     0
 49
-8.0
 74
     0
  0
LTYPE
  5
87
330
5
100
AcDbSymbolTableRecord
100
AcDbLinetypeTableRecord
  2
DASH_CENTER
 70
     0
  3
Dash_Center
 72
    65
 73
     4
 40
14.0
 49
11.0
 74
     0
 49
-1.0
 74
     0
 49
1.0
 74
     0
 49
-1.0
 74
     0
  0
LTYPE
  5
88
330
5
100
AcDbSymbolTableRecord
100
AcDbLinetypeTableRecord
  2
PHANTOM
 70
     0
  3
Phantom
 72
    65
 73
     6
 40
13.0
 49
10.0
 74
     0
 49
-1.0
 74
     0
 49
0.0
 74
     0
 49
-1.0
 74
     0
 49
0.0
 74
     0
 49
-1.0
 74
     0
  0
ENDTAB
  0
TABLE
  2
LAYER
  5
2
330
0
100
AcDbSymbolTable
 70
     1
  0
LAYER
  5
10
330
2
100
AcDbSymbolTableRecord
100
AcDbLayerTableRecord
  2
0
 70
     0
 62
     7
  6
Continuous
370
    -3
390
F
  0
ENDTAB
  0
TABLE
  2
STYLE
  5
3
330
0
100
AcDbSymbolTable
 70
    20
  0
STYLE
  5
11
330
3
100
AcDbSymbolTableRecord
100
AcDbTextStyleTableRecord
  2
Standard
 70
     0
 40
0.0
 41
1.0
 50
0.0
 71
     0
 42
2.5
  3
txt
  4

  0
STYLE
  5
89
330
3
100
AcDbSymbolTableRecord
100
AcDbTextStyleTableRecord
  2
CONVERTER_1
 70
     0
 40
0.0
 41
0.89
 50
0.0
 71
     0
 42
0.2
  3
simplex.shx
  4
bigfont.shx
  0
STYLE
  5
8A
330
3
100
AcDbSymbolTableRecord
100
AcDbTextStyleTableRecord
  2
CONVERTER_2
 70
     0
 40
0.0
 41
0.7565
 50
0.0
 71
     0
 42
0.2
  3
simplex.shx
  4
bigfont.shx
  0
STYLE
  5
8B
330
3
100
AcDbSymbolTableRecord
100
AcDbTextStyleTableRecord
  2
CONVERTER_3
 70
     0
 40
0.0
 41
0.7565
 50
0.0
 71
     0
 42
0.2
  3
simplex.shx
  4
bigfont.shx
  0
STYLE
  5
8C
330
3
100
AcDbSymbolTableRecord
100
AcDbTextStyleTableRecord
  2
CONVERTER_4
 70
     0
 40
0.0
 41
0.7120000000000001
 50
0.0
 71
     0
 42
0.2
  3
simplex.shx
  4
bigfont.shx
  0
STYLE
  5
8D
330
3
100
AcDbSymbolTableRecord
100
AcDbTextStyleTableRecord
  2
CONVERTER_5
 70
     0
 40
0.0
 41
0.7120000000000001
 50
0.0
 71
     0
 42
0.2
  3
simplex.shx
  4
bigfont.shx
  0
STYLE
  5
8E
330
3
100
AcDbSymbolTableRecord
100
AcDbTextStyleTableRecord
  2
CONVERTER_6
 70
     0
 40
0.0
 41
1.008666666666669
 50
0.0
 71
     0
 42
0.2
  3
txt.shx
  4
bigfont.shx
  0
STYLE
  5
8F
330
3
100
AcDbSymbolTableRecord
100
AcDbTextStyleTableRecord
  2
CONVERTER_7
 70
     0
 40
0.0
 41
0.9761290322580599
 50
0.0
 71
     0
 42
0.2
  3
txt.shx
  4
bigfont.shx
  0
STYLE
  5
90
330
3
100
AcDbSymbolTableRecord
100
AcDbTextStyleTableRecord
  2
CONVERTER_9
 70
     0
 40
0.0
 41
1.0235
 50
0.0
 71
     0
 42
0.2
  3
simplex.shx
  4
bigfont.shx
  0
STYLE
  5
91
330
3
100
AcDbSymbolTableRecord
100
AcDbTextStyleTableRecord
  2
CONVERTER_12
 70
     0
 40
0.0
 41
0.7758974358974399
 50
0.0
 71
     0
 42
0.2
  3
txt.shx
  4
bigfont.shx
  0
STYLE
  5
92
330
3
100
AcDbSymbolTableRecord
100
AcDbTextStyleTableRecord
  2
CONVERTER_14
 70
     0
 40
0.0
 41
1.68111111111111
 50
0.0
 71
     0
 42
0.2
  3
txt.shx
  4
bigfont.shx
  0
STYLE
  5
93
330
3
100
AcDbSymbolTableRecord
100
AcDbTextStyleTableRecord
  2
CONVERTER_15
 70
     0
 40
0.0
 41
1.62688172043011
 50
0.0
 71
     0
 42
0.2
  3
txt.shx
  4
bigfont.shx
  0
STYLE
  5
94
330
3
100
AcDbSymbolTableRecord
100
AcDbTextStyleTableRecord
  2
CONVERTER_16
 70
     0
 40
0.0
 41
0.73514
 50
0.0
 71
     0
 42
0.2
  3
simplex.shx
  4
bigfont.shx
  0
STYLE
  5
95
330
3
100
AcDbSymbolTableRecord
100
AcDbTextStyleTableRecord
  2
CONVERTER_17
 70
     0
 40
0.0
 41
0.945625
 50
0.0
 71
     0
 42
0.2
  3
txt.shx
  4
bigfont.shx
  0
STYLE
  5
96
330
3
100
AcDbSymbolTableRecord
100
AcDbTextStyleTableRecord
  2
CONVERTER_18
 70
     0
 40
0.0
 41
1.080714285714289
 50
0.0
 71
     0
 42
0.2
  3
txt.shx
  4
bigfont.shx
  0
STYLE
  5
97
330
3
100
AcDbSymbolTableRecord
100
AcDbTextStyleTableRecord
  2
CONVERTER_19
 70
     0
 40
0.0
 41
1.87368421052632
 50
0.0
 71
     0
 42
0.2
  3
txt.shx
  4

  0
STYLE
  5
98
330
3
100
AcDbSymbolTableRecord
100
AcDbTextStyleTableRecord
  2
CONVERTER_20
 70
     0
 40
0.0
 41
0.8009999999999999
 50
0.0
 71
     0
 42
0.2
  3
simplex.shx
  4
bigfont.shx
  0
STYLE
  5
99
330
3
100
AcDbSymbolTableRecord
100
AcDbTextStyleTableRecord
  2
CONVERTER_21
 70
     0
 40
0.0
 41
0.8009999999999999
 50
0.0
 71
     0
 42
0.2
  3
txt.shx
  4
bigfont.shx
  0
STYLE
  5
9A
330
3
100
AcDbSymbolTableRecord
100
AcDbTextStyleTableRecord
  2
CONVERTER_22
 70
     0
 40
0.0
 41
0.61981853492747
 50
0.0
 71
     0
 42
0.2
  3
simplex.shx
  4
bigfont.shx
  0
STYLE
  5
9B
330
3
100
AcDbSymbolTableRecord
100
AcDbTextStyleTableRecord
  2
社名
 70
     0
 40
2.5
 41
0.8
 50
0.0
 71
     0
 42
2.5
  3

  4

1001
ACAD
1000
Swis721 Blk BT
1071
       34
  0
ENDTAB
  0
TABLE
  2
VIEW
  5
6
330
0
100
AcDbSymbolTable
 70
     0
  0
ENDTAB
  0
TABLE
  2
UCS
  5
7
330
0
100
AcDbSymbolTable
 70
     0
  0
ENDTAB
  0
TABLE
  2
APPID
  5
9
330
0
100
AcDbSymbolTable
 70
     1
  0
APPID
  5
12
330
9
100
AcDbSymbolTableRecord
100
AcDbRegAppTableRecord
  2
ACAD
 70
     0
  0
ENDTAB
  0
TABLE
  2
DIMSTYLE
  5
A
330
0
100
AcDbSymbolTable
 70
     2
100
AcDbDimStyleTable
 71
     0
  0
DIMSTYLE
105
27
330
A
100
AcDbSymbolTableRecord
100
AcDbDimStyleTableRecord
  2
ISO-25
 70
     0
 41
2.5
 42
0.625
 43
3.75
 44
1.25
 73
     0
 74
     0
 77
     1
 78
     8
140
2.5
141
2.5
143
0.03937007874016
147
0.625
171
     3
172
     1
271
     2
272
     2
274
     3
278
    44
283
     0
284
     8
340
11
  0
DIMSTYLE
105
9C
330
A
100
AcDbSymbolTableRecord
100
AcDbDimStyleTableRecord
  2
Standard
 70
     0
340
11
  0
ENDTAB
  0
TABLE
  2
BLOCK_RECORD
  5
1
330
0
100
AcDbSymbolTable
 70
     1
  0
BLOCK_RECORD
  5
1F
330
1
100
AcDbSymbolTableRecord
100
AcDbBlockTableRecord
  2
*Model_Space
340
22
  0
BLOCK_RECORD
  5
55
330
1
100
AcDbSymbolTableRecord
100
AcDbBlockTableRecord
  2
*Paper_Space
340
56
  0
BLOCK_RECORD
  5
50
330
1
100
AcDbSymbolTableRecord
100
AcDbBlockTableRecord
  2
*Paper_Space0
340
51
  0
ENDTAB
  0
ENDSEC
  0
SECTION
  2
BLOCKS
  0
BLOCK
  5
20
330
1F
100
AcDbEntity
  8
0
100
AcDbBlockBegin
  2
*Model_Space
 70
     0
 10
0.0
 20
0.0
 30
0.0
  3
*Model_Space
  1

  0
ENDBLK
  5
21
330
1F
100
AcDbEntity
  8
0
100
AcDbBlockEnd
  0
BLOCK
  5
57
330
55
100
AcDbEntity
 67
     1
  8
0
100
AcDbBlockBegin
  2
*Paper_Space
 70
     0
 10
0.0
 20
0.0
 30
0.0
  3
*Paper_Space
  1

  0
ENDBLK
  5
58
330
55
100
AcDbEntity
 67
     1
  8
0
100
AcDbBlockEnd
  0
BLOCK
  5
52
330
50
100
AcDbEntity
  8
0
100
AcDbBlockBegin
  2
*Paper_Space0
 70
     0
 10
0.0
 20
0.0
 30
0.0
  3
*Paper_Space0
  1

  0
VIEWPORT
  5
6B
330
50
100
AcDbEntity
  8
0
100
AcDbViewport
 10
133.3499908447265
 20
101.5999970436096
 30
0.0
 40
381.3957395593833
 41
218.2856291881582
 69
     0
 12
133.3499908447265
 22
101.5999970436096
 13
0.0
 23
0.0
 14
10.0
 24
10.0
 15
10.0
 25
10.0
 16
0.0
 26
0.0
 36
1.0
 17
0.0
 27
0.0
 37
0.0
 42
50.0
 43
0.0
 44
0.0
 45
218.2856291881582
 50
0.0
 51
0.0
 72
   100
 90
    32800
  1

281
     0
 71
     1
 74
     0
110
0.0
120
0.0
130
0.0
111
1.0
121
0.0
131
0.0
112
0.0
122
1.0
132
0.0
 79
     0
146
0.0
  0
VIEWPORT
  5
6D
330
50
100
AcDbEntity
  8
0
100
AcDbViewport
 10
133.3499939441679
 20
101.5999939441679
 30
0.0
 40
213.3599903106689
 41
162.5599903106689
 69
     0
 12
210.0
 22
148.5
 13
0.0
 23
0.0
 14
10.0
 24
10.0
 15
10.0
 25
10.0
 16
0.0
 26
0.0
 36
1.0
 17
0.0
 27
0.0
 37
0.0
 42
50.0
 43
0.0
 44
0.0
 45
324.0677920111345
 50
0.0
 51
0.0
 72
   100
 90
    32864
  1

281
     0
 71
     1
 74
     0
110
0.0
120
0.0
130
0.0
111
1.0
121
0.0
131
0.0
112
0.0
122
1.0
132
0.0
 79
     0
146
0.0
  0
ENDBLK
  5
53
330
50
100
AcDbEntity
  8
0
100
AcDbBlockEnd
  0
ENDSEC
  0
SECTION
  2
ENTITIES
  0
ARC
  5
543
330
1F
100
AcDbEntity
  8
0
  6
Continuous
 62
     7
100
AcDbCircle
 10
-298.7282000014286
 20
44.88400000142859
 30
0.0
 40
14.00000000178572
100
AcDbArc
 50
179.9987722391429
 51
269.9995907502773
  0
LINE
  5
544
330
1F
100
AcDbEntity
  8
0
  6
Continuous
 62
     7
100
AcDbLine
 10
-260.7289
 20
31.3838
 30
0.0
 11
-260.7289
 21
27.1838
 31
0.0
  0
LINE
  5
545
330
1F
100
AcDbEntity
  8
0
  6
Continuous
 62
     7
100
AcDbLine
 10
-160.7289999999998
 20
31.3838
 30
0.0
 11
-160.7289999999998
 21
27.1838
 31
0.0
  0
LINE
  5
546
330
1F
100
AcDbEntity
  8
0
  6
Continuous
 62
     7
100
AcDbLine
 10
-178.7289999999999
 20
28.1838
 30
0.0
 11
-178.7289999999999
 21
27.1838
 31
0.0
  0
LINE
  5
547
330
1F
100
AcDbEntity
  8
0
  6
Continuous
 62
     7
100
AcDbLine
 10
-242.7289999999999
 20
28.1838
 30
0.0
 11
-242.7289999999999
 21
27.1838
 31
0.0
  0
LINE
  5
548
330
1F
100
AcDbEntity
  8
0
  6
DASH_CENTER
 62
    30
100
AcDbLine
 10
-210.7290999999999
 20
14.26689999999999
 30
0.0
 11
-210.7290999999999
 21
90.1838
 31
0.0
  0
LINE
  5
549
330
1F
100
AcDbEntity
  8
0
  6
DASH_CENTER
 62
    30
100
AcDbLine
 10
-250.7290999999999
 20
34.43599999999999
 30
0.0
 11
-250.7290999999999
 21
19.9539
 31
0.0
  0
LINE
  5
54A
330
1F
100
AcDbEntity
  8
0
  6
DASH_CENTER
 62
    30
100
AcDbLine
 10
-170.7290999999998
 20
34.3923
 30
0.0
 11
-170.7290999999998
 21
19.866
 31
0.0
  0
LINE
  5
59A
330
1F
100
AcDbEntity
  8
0
  6
Continuous
 62
     7
100
AcDbLine
 10
-260.7289
 20
27.1838
 30
0.0
 11
-242.7289999999999
 21
27.1838
 31
0.0
  0
LINE
  5
5C8
330
1F
100
AcDbEntity
  8
0
  6
Continuous
 62
     7
100
AcDbLine
 10
-178.7289999999999
 20
27.1838
 30
0.0
 11
-160.7289999999998
 21
27.1838
 31
0.0
  0
LINE
  5
5D6
330
1F
100
AcDbEntity
  8
0
  6
DASH_CENTER
 62
    30
100
AcDbLine
 10
-95.87960000000004
 20
90.1838
 30
0.0
 11
-319.7829
 21
90.1838
 31
0.0
  0
LINE
  5
5D7
330
1F
100
AcDbEntity
  8
0
  6
Continuous
 62
     7
100
AcDbLine
 10
-266.7284
 20
149.4838999999998
 30
0.0
 11
-298.7282
 21
149.4838999999998
 31
0.0
  0
LINE
  5
5D8
330
1F
100
AcDbEntity
  8
0
  6
Continuous
 62
     7
100
AcDbLine
 10
-266.7284
 20
30.8838
 30
0.0
 11
-298.7282
 21
30.8838
 31
0.0
  0
LINE
  5
5DE
330
1F
100
AcDbEntity
  8
0
  6
Continuous
 62
     7
100
AcDbLine
 10
-312.7284
 20
135.4835999999999
 30
0.0
 11
-312.7284
 21
44.88399999999999
 31
0.0
  0
ARC
  5
5DF
330
1F
100
AcDbEntity
  8
0
  6
Continuous
 62
     7
100
AcDbCircle
 10
-298.7282000005357
 20
135.4835999994643
 30
0.0
 40
14.00000000089286
100
AcDbArc
 50
90.00040925337527
 51
180.0008185089431
  0
LINE
  5
5EA
330
1F
100
AcDbEntity
  8
0
  6
Continuous
 62
     7
100
AcDbLine
 10
-148.7290999999999
 20
32.5837
 30
0.0
 11
-167.1827999999998
 21
32.5837
 31
0.0
  0
LINE
  5
5EB
330
1F
100
AcDbEntity
  8
0
  6
Continuous
 62
     7
100
AcDbLine
 10
-266.7284
 20
147.7837
 30
0.0
 11
-148.7289
 21
147.7837
 31
0.0
  0
LINE
  5
5F1
330
1F
100
AcDbEntity
  8
0
  6
Continuous
 62
     7
100
AcDbLine
 10
-260.7289
 20
31.3838
 30
0.0
 11
-160.7289999999998
 21
31.3838
 31
0.0
  0
LINE
  5
5F2
330
1F
100
AcDbEntity
  8
0
  6
DASHED
 62
   171
100
AcDbLine
 10
-242.2285999999999
 20
142.4458
 30
0.0
 11
-179.2285999999999
 21
142.4458
 31
0.0
  0
LINE
  5
5F3
330
1F
100
AcDbEntity
  8
0
  6
DASHED
 62
   171
100
AcDbLine
 10
-179.2289999999999
 20
114.1619
 30
0.0
 11
-242.2285999999999
 21
114.1619
 31
0.0
  0
LINE
  5
5F4
330
1F
100
AcDbEntity
  8
0
  6
Continuous
 62
     7
100
AcDbLine
 10
-242.7289999999999
 20
28.1838
 30
0.0
 11
-178.7289999999999
 21
28.1838
 31
0.0
  0
LINE
  5
5F5
330
1F
100
AcDbEntity
  8
0
  6
Continuous
 62
     7
100
AcDbLine
 10
-226.2741
 20
49.18379999999999
 30
0.0
 11
-195.184
 21
49.18379999999999
 31
0.0
  0
LINE
  5
5F6
330
1F
100
AcDbEntity
  8
0
  6
DASHED
 62
   171
100
AcDbLine
 10
-242.2285999999999
 20
142.4458
 30
0.0
 11
-242.2285999999999
 21
114.1616
 31
0.0
  0
LINE
  5
5F7
330
1F
100
AcDbEntity
  8
0
  6
Continuous
 62
     7
100
AcDbLine
 10
-266.7284
 20
30.8838
 30
0.0
 11
-266.7284
 21
149.4838999999998
 31
0.0
  0
ARC
  5
5F8
330
1F
100
AcDbEntity
  8
0
  6
Continuous
 62
    54
100
AcDbCircle
 10
-253.6930499999999
 20
83.98979999999998
 30
0.0
 40
1.500078602107238
100
AcDbArc
 50
239.9995281325421
 51
300.0004718674578
  0
ARC
  5
5F9
330
1F
100
AcDbEntity
  8
0
  6
Continuous
 62
     7
100
AcDbCircle
 10
-254.4429999999999
 20
103.807
 30
0.0
 40
1.499900000000025
100
AcDbArc
 50
0.0
 51
180.0
  0
ARC
  5
5FA
330
1F
100
AcDbEntity
  8
0
  6
Continuous
 62
     7
100
AcDbCircle
 10
-248.6520187789102
 20
33.68378468761743
 30
0.0
 40
5.000015312417843
100
AcDbArc
 50
89.99978481019786
 51
168.388036993425
  0
LINE
  5
5FB
330
1F
100
AcDbEntity
  8
0
  6
Continuous
 62
     7
100
AcDbLine
 10
-248.7328
 20
115.6239999999999
 30
0.0
 11
-266.7284
 21
115.6238
 31
0.0
  0
LINE
  5
5FC
330
1F
100
AcDbEntity
  8
0
  6
Continuous
 62
     7
100
AcDbLine
 10
-245.7289999999999
 20
30.3838
 30
0.0
 11
-260.7289
 21
30.3838
 31
0.0
  0
LINE
  5
5FD
330
1F
100
AcDbEntity
  8
0
  6
Continuous
 62
     7
100
AcDbLine
 10
-254.2751999999999
 20
32.584
 30
0.0
 11
-266.7284
 21
32.584
 31
0.0
  0
ARC
  5
5FE
330
1F
100
AcDbEntity
  8
0
  6
Continuous
 62
     7
100
AcDbCircle
 10
-256.6752056821492
 20
34.38379536664876
 30
0.0
 40
2.999995366654133
100
AcDbArc
 50
270.0001085212243
 51
348.3890321315708
  0
LINE
  5
5FF
330
1F
100
AcDbEntity
  8
0
  6
Continuous
 62
     7
100
AcDbLine
 10
-253.5496999999999
 20
34.69019999999999
 30
0.0
 11
-253.7366999999999
 21
33.78
 31
0.0
  0
CIRCLE
  5
600
330
1F
100
AcDbEntity
  8
0
  6
Continuous
 62
     7
100
AcDbCircle
 10
-271.2284
 20
90.1838
 30
0.0
 40
3.499966435553341
  0
LINE
  5
601
330
1F
100
AcDbEntity
  8
0
  6
DASH_CENTER
 62
    30
100
AcDbLine
 10
-271.2284
 20
98.2314
 30
0.0
 11
-271.2284
 21
82.71039999999997
 31
0.0
  0
ARC
  5
602
330
1F
100
AcDbEntity
  8
0
  6
Continuous
 62
     7
100
AcDbCircle
 10
-271.2284499999999
 20
88.76949999999999
 30
0.0
 40
0.5000305615659797
100
AcDbArc
 50
45.00405117580654
 51
134.9959488241933
  0
ARC
  5
603
330
1F
100
AcDbEntity
  8
0
  6
Continuous
 62
     7
100
AcDbCircle
 10
-269.8143999999999
 20
90.18385
 30
0.0
 40
0.4999598508880455
100
AcDbArc
 50
134.9959482512254
 51
225.004051748775
  0
ARC
  5
604
330
1F
100
AcDbEntity
  8
0
  6
Continuous
 62
     7
100
AcDbCircle
 10
-271.2284499999999
 20
91.59789999999999
 30
0.0
 40
0.5000305615659797
100
AcDbArc
 50
225.0040511758065
 51
314.9959488241933
  0
ARC
  5
605
330
1F
100
AcDbEntity
  8
0
  6
Continuous
 62
     7
100
AcDbCircle
 10
-272.6427
 20
90.18385
 30
0.0
 40
0.4999598508879752
100
AcDbArc
 50
314.9959482512156
 51
45.00405174878372
  0
LINE
  5
606
330
1F
100
AcDbEntity
  8
0
  6
Continuous
 62
     7
100
AcDbLine
 10
-270.0618999999999
 20
88.31010000000002
 30
0.0
 11
-270.8749
 21
89.12300000000001
 31
0.0
  0
LINE
  5
607
330
1F
100
AcDbEntity
  8
0
  6
Continuous
 62
     7
100
AcDbLine
 10
-269.3548999999999
 20
89.01709999999999
 30
0.0
 11
-270.1678999999999
 21
89.8301
 31
0.0
  0
LINE
  5
608
330
1F
100
AcDbEntity
  8
0
  6
Continuous
 62
     7
100
AcDbLine
 10
-272.2891999999999
 20
90.53740000000001
 30
0.0
 11
-273.1024
 21
91.35060000000001
 31
0.0
  0
LINE
  5
609
330
1F
100
AcDbEntity
  8
0
  6
Continuous
 62
     7
100
AcDbLine
 10
-271.5822
 20
91.24439999999999
 30
0.0
 11
-272.3953999999999
 21
92.05759999999999
 31
0.0
  0
LINE
  5
60A
330
1F
100
AcDbEntity
  8
0
  6
Continuous
 62
     7
100
AcDbLine
 10
-269.3548999999999
 20
91.3503
 30
0.0
 11
-270.1678999999999
 21
90.53740000000001
 31
0.0
  0
LINE
  5
60B
330
1F
100
AcDbEntity
  8
0
  6
Continuous
 62
     7
100
AcDbLine
 10
-270.0618999999999
 20
92.0574
 30
0.0
 11
-270.8749
 21
91.24439999999999
 31
0.0
  0
LINE
  5
60C
330
1F
100
AcDbEntity
  8
0
  6
Continuous
 62
     7
100
AcDbLine
 10
-271.5822
 20
89.12300000000001
 30
0.0
 11
-272.3952000000001
 21
88.31010000000002
 31
0.0
  0
LINE
  5
60D
330
1F
100
AcDbEntity
  8
0
  6
Continuous
 62
     7
100
AcDbLine
 10
-272.2891999999999
 20
89.8301
 30
0.0
 11
-273.1021999999999
 21
89.01709999999999
 31
0.0
  0
LINE
  5
60E
330
1F
100
AcDbEntity
  8
0
  6
Continuous
 62
     7
100
AcDbLine
 10
-272.3952000000001
 20
88.31010000000002
 30
0.0
 11
-273.1021999999999
 21
89.01709999999999
 31
0.0
  0
LINE
  5
60F
330
1F
100
AcDbEntity
  8
0
  6
Continuous
 62
     7
100
AcDbLine
 10
-269.3548999999999
 20
91.3503
 30
0.0
 11
-270.0618999999999
 21
92.0574
 31
0.0
  0
LINE
  5
610
330
1F
100
AcDbEntity
  8
0
  6
Continuous
 62
     7
100
AcDbLine
 10
-269.3548999999999
 20
89.01709999999999
 30
0.0
 11
-270.0618999999999
 21
88.31010000000002
 31
0.0
  0
LINE
  5
611
330
1F
100
AcDbEntity
  8
0
  6
Continuous
 62
     7
100
AcDbLine
 10
-272.3953999999999
 20
92.05759999999999
 30
0.0
 11
-273.1024
 21
91.35060000000001
 31
0.0
  0
LINE
  5
612
330
1F
100
AcDbEntity
  8
0
  6
Continuous
 62
     7
100
AcDbLine
 10
-255.9429999999999
 20
103.807
 30
0.0
 11
-255.9429999999999
 21
82.69069999999997
 31
0.0
  0
LINE
  5
613
330
1F
100
AcDbEntity
  8
0
  6
Continuous
 62
     7
100
AcDbLine
 10
-266.7284
 20
94.4287
 30
0.0
 11
-255.9429999999999
 21
94.4287
 31
0.0
  0
POINT
  5
614
330
1F
100
AcDbEntity
  8
0
 62
     7
100
AcDbPoint
 10
-266.7286999999999
 20
90.18380000000002
 30
0.0
  0
ARC
  5
615
330
1F
100
AcDbEntity
  8
0
  6
Continuous
 62
    54
100
AcDbCircle
 10
-255.19275
 20
81.39140000000002
 30
0.0
 40
1.500078602107224
100
AcDbArc
 50
59.99952813254211
 51
120.0004718674597
  0
LINE
  5
616
330
1F
100
AcDbEntity
  8
0
  6
Continuous
 62
     7
100
AcDbLine
 10
-255.9429999999999
 20
95.9978
 30
0.0
 11
-266.7284
 21
95.9978
 31
0.0
  0
ARC
  5
617
330
1F
100
AcDbEntity
  8
0
  6
Continuous
 62
     7
100
AcDbCircle
 10
-241.2361088930957
 20
46.67799346132389
 30
0.0
 40
7.999982026222197
100
AcDbArc
 50
267.8015099700306
 51
344.8490902224393
  0
ARC
  5
618
330
1F
100
AcDbEntity
  8
0
  6
Continuous
 62
     7
100
AcDbCircle
 10
-240.0759032713377
 20
36.38379715599622
 30
0.0
 40
4.999997155997301
100
AcDbArc
 50
270.0000374867905
 51
352.0054150123024
  0
ARC
  5
619
330
1F
100
AcDbEntity
  8
0
  6
Continuous
 62
     7
100
AcDbCircle
 10
-245.7290113622745
 20
33.38379657411973
 30
0.0
 40
2.999996574141243
100
AcDbArc
 50
270.0002170037063
 51
303.5573294902931
  0
LINE
  5
61A
330
1F
100
AcDbEntity
  8
0
  6
Continuous
 62
     7
100
AcDbLine
 10
-248.652
 20
38.68380000000001
 30
0.0
 11
-241.6587
 21
38.68380000000001
 31
0.0
  0
ARC
  5
61B
330
1F
100
AcDbEntity
  8
0
  6
Continuous
 62
     7
100
AcDbCircle
 10
-242.4123886377254
 20
28.38380342588028
 30
0.0
 40
2.999996574141236
100
AcDbArc
 50
90.00021700370636
 51
123.5573294902926
  0
ARC
  5
61C
330
1F
100
AcDbEntity
  8
0
  6
Continuous
 62
     7
100
AcDbCircle
 10
-226.2741337380442
 20
41.18377066962482
 30
0.0
 40
8.000029330446317
100
AcDbArc
 50
89.99975836994414
 51
172.0047701231951
  0
LINE
  5
61D
330
1F
100
AcDbEntity
  8
0
  6
Continuous
 62
     7
100
AcDbLine
 10
-235.1245
 20
35.68850000000001
 30
0.0
 11
-234.1963999999999
 21
42.29639999999998
 31
0.0
  0
ARC
  5
61E
330
1F
100
AcDbEntity
  8
0
  6
Continuous
 62
     7
100
AcDbCircle
 10
-249.8560109644639
 20
104.2416834701973
 30
0.0
 40
9.877110964477742
100
AcDbArc
 50
292.8860872976846
 51
0.0000958871402542
  0
LINE
  5
61F
330
1F
100
AcDbEntity
  8
0
  6
Continuous
 62
     7
100
AcDbLine
 10
-249.0146999999999
 20
82.69069999999997
 30
0.0
 11
-249.0146999999999
 21
103.807
 31
0.0
  0
LINE
  5
620
330
1F
100
AcDbEntity
  8
0
  6
Continuous
 62
     7
100
AcDbLine
 10
-246.0147999999999
 20
103.807
 30
0.0
 11
-246.0147999999999
 21
82.69069999999997
 31
0.0
  0
LINE
  5
621
330
1F
100
AcDbEntity
  8
0
  6
Continuous
 62
     7
100
AcDbLine
 10
-252.4789999999999
 20
109.8071
 30
0.0
 11
-252.4789999999999
 21
82.69069999999997
 31
0.0
  0
LINE
  5
622
330
1F
100
AcDbEntity
  8
0
  6
Continuous
 62
     7
100
AcDbLine
 10
-249.4790999999999
 20
82.69069999999997
 30
0.0
 11
-249.4790999999999
 21
109.8071
 31
0.0
  0
LINE
  5
623
330
1F
100
AcDbEntity
  8
0
  6
Continuous
 62
     7
100
AcDbLine
 10
-252.9430999999999
 20
82.69069999999997
 30
0.0
 11
-252.9430999999999
 21
103.807
 31
0.0
  0
ARC
  5
624
330
1F
100
AcDbEntity
  8
0
  6
Continuous
 62
    54
100
AcDbCircle
 10
-246.7647499999999
 20
83.98979999999998
 30
0.0
 40
1.500078602107253
100
AcDbArc
 50
239.9995281325401
 51
300.0004718674578
  0
ARC
  5
625
330
1F
100
AcDbEntity
  8
0
  6
Continuous
 62
    54
100
AcDbCircle
 10
-248.26445
 20
81.39140000000002
 30
0.0
 40
1.500078602107238
100
AcDbArc
 50
59.99952813254029
 51
120.0004718674579
  0
ARC
  5
626
330
1F
100
AcDbEntity
  8
0
  6
Continuous
 62
    54
100
AcDbCircle
 10
-250.22885
 20
83.98999999999999
 30
0.0
 40
1.500078602107224
100
AcDbArc
 50
239.9995281325421
 51
300.0004718674596
  0
ARC
  5
627
330
1F
100
AcDbEntity
  8
0
  6
Continuous
 62
    54
100
AcDbCircle
 10
-251.7288499999999
 20
81.3916
 30
0.0
 40
1.500078602107238
100
AcDbArc
 50
59.99952813254029
 51
120.0004718674579
  0
LINE
  5
628
330
1F
100
AcDbEntity
  8
0
  6
Continuous
 62
     7
100
AcDbLine
 10
-252.4789999999999
 20
94.4287
 30
0.0
 11
-252.9430999999999
 21
94.4287
 31
0.0
  0
LINE
  5
629
330
1F
100
AcDbEntity
  8
0
  6
Continuous
 62
     7
100
AcDbLine
 10
-249.4790999999999
 20
94.4287
 30
0.0
 11
-249.0146999999999
 21
94.4287
 31
0.0
  0
ARC
  5
62A
330
1F
100
AcDbEntity
  8
0
  6
Continuous
 62
     7
100
AcDbCircle
 10
-249.8559971497195
 20
105.8107801662266
 30
0.0
 40
9.87710254804506
100
AcDbArc
 50
292.8860209222213
 51
83.46977137026847
  0
ARC
  5
62B
330
1F
100
AcDbEntity
  8
0
  6
Continuous
 62
     7
100
AcDbCircle
 10
-247.5147999999999
 20
103.807
 30
0.0
 40
1.499899999999995
100
AcDbArc
 50
0.0
 51
180.0
  0
ARC
  5
62C
330
1F
100
AcDbEntity
  8
0
  6
Continuous
 62
     7
100
AcDbCircle
 10
-250.9789999999999
 20
109.8071
 30
0.0
 40
1.5
100
AcDbArc
 50
0.0
 51
180.0
  0
LINE
  5
62D
330
1F
100
AcDbEntity
  8
0
  6
Continuous
 62
     7
100
AcDbLine
 10
-252.4789999999999
 20
95.9978
 30
0.0
 11
-252.9430999999999
 21
95.9978
 31
0.0
  0
LINE
  5
62E
330
1F
100
AcDbEntity
  8
0
  6
Continuous
 62
     7
100
AcDbLine
 10
-249.0146999999999
 20
95.9978
 30
0.0
 11
-249.4790999999999
 21
95.9978
 31
0.0
  0
LINE
  5
62F
330
1F
100
AcDbEntity
  8
0
  6
Continuous
 62
     7
100
AcDbLine
 10
-239.9789999999999
 20
104.2416999999999
 30
0.0
 11
-239.9789999999999
 21
105.8108
 31
0.0
  0
ARC
  5
630
330
1F
100
AcDbEntity
  8
0
  6
Continuous
 62
     7
100
AcDbCircle
 10
-269.1471289847827
 20
150.7837265608044
 30
0.0
 40
1.299973439518788
100
AcDbArc
 50
4.998818206894256
 51
89.99872250796142
  0
ARC
  5
631
330
1F
100
AcDbEntity
  8
0
  6
Continuous
 62
     7
100
AcDbCircle
 10
-273.3097253727945
 20
150.783676750911
 30
0.0
 40
1.30002324933661
100
AcDbArc
 50
89.99888174766196
 51
174.9991701575237
  0
LINE
  5
632
330
1F
100
AcDbEntity
  8
0
  6
Continuous
 62
     7
100
AcDbLine
 10
-274.7284
 20
149.4836
 30
0.0
 11
-274.6046
 21
150.897
 31
0.0
  0
LINE
  5
633
330
1F
100
AcDbEntity
  8
0
  6
Continuous
 62
     7
100
AcDbLine
 10
-271.2284
 20
152.0837
 30
0.0
 11
-273.3097
 21
152.0837
 31
0.0
  0
LINE
  5
634
330
1F
100
AcDbEntity
  8
0
  6
Continuous
 62
     7
100
AcDbLine
 10
-271.2284
 20
152.0837
 30
0.0
 11
-269.1471
 21
152.0837
 31
0.0
  0
LINE
  5
635
330
1F
100
AcDbEntity
  8
0
  6
DASH_CENTER
 62
    30
100
AcDbLine
 10
-271.2284
 20
146.8726
 30
0.0
 11
-271.2284
 21
156.2462999999999
 31
0.0
  0
LINE
  5
636
330
1F
100
AcDbEntity
  8
0
  6
Continuous
 62
     7
100
AcDbLine
 10
-267.7284
 20
149.4836
 30
0.0
 11
-267.8522
 21
150.897
 31
0.0
  0
LINE
  5
638
330
1F
100
AcDbEntity
  8
0
  6
DASH_CENTER
 62
    30
100
AcDbLine
 10
-210.7290999999999
 20
166.2007999999999
 30
0.0
 11
-210.7290999999999
 21
90.1838
 31
0.0
  0
LINE
  5
639
330
1F
100
AcDbEntity
  8
0
  6
DASHED
 62
   171
100
AcDbLine
 10
-179.2289999999999
 20
114.1619
 30
0.0
 11
-179.2285999999999
 21
142.4458
 31
0.0
  0
ARC
  5
63A
330
1F
100
AcDbEntity
  8
0
  6
Continuous
 62
     7
100
AcDbCircle
 10
-195.1840232163788
 20
41.18382018355577
 30
0.0
 40
7.999979816477884
100
AcDbArc
 50
7.994921586053377
 51
89.99983372451605
  0
CIRCLE
  5
63B
330
1F
100
AcDbEntity
  8
0
  6
Continuous
 62
     7
100
AcDbCircle
 10
-210.7289999999999
 20
42.18380000000001
 30
0.0
 40
5.0
  0
LINE
  5
63C
330
1F
100
AcDbEntity
  8
0
  6
DASH_CENTER
 62
    30
100
AcDbLine
 10
-217.7289999999999
 20
42.18380000000001
 30
0.0
 11
-203.139
 21
42.18380000000001
 31
0.0
  0
CIRCLE
  5
63E
330
1F
100
AcDbEntity
  8
0
  6
Continuous
 62
     7
100
AcDbCircle
 10
-210.7289999999999
 20
42.18380000000001
 30
0.0
 40
3.499966435553346
  0
ARC
  5
63F
330
1F
100
AcDbEntity
  8
0
  6
Continuous
 62
     7
100
AcDbCircle
 10
-210.7290499999999
 20
40.7695
 30
0.0
 40
0.5000305615659998
100
AcDbArc
 50
45.00405117580423
 51
134.9959488241951
  0
ARC
  5
640
330
1F
100
AcDbEntity
  8
0
  6
Continuous
 62
     7
100
AcDbCircle
 10
-209.3147999999999
 20
42.18385
 30
0.0
 40
0.5000305615659947
100
AcDbArc
 50
135.0040511758058
 51
224.9959488241939
  0
ARC
  5
641
330
1F
100
AcDbEntity
  8
0
  6
Continuous
 62
     7
100
AcDbCircle
 10
-210.7290499999999
 20
43.5979
 30
0.0
 40
0.5000305615659998
100
AcDbArc
 50
225.0040511758041
 51
314.9959488241957
  0
ARC
  5
642
330
1F
100
AcDbEntity
  8
0
  6
Continuous
 62
     7
100
AcDbCircle
 10
-212.1433
 20
42.18385
 30
0.0
 40
0.5000305615659947
100
AcDbArc
 50
315.0040511758059
 51
44.99594882419404
  0
LINE
  5
643
330
1F
100
AcDbEntity
  8
0
  6
Continuous
 62
     7
100
AcDbLine
 10
-209.5623999999999
 20
40.3101
 30
0.0
 11
-210.3755
 21
41.12300000000001
 31
0.0
  0
LINE
  5
644
330
1F
100
AcDbEntity
  8
0
  6
Continuous
 62
     7
100
AcDbLine
 10
-208.8553
 20
41.01709999999999
 30
0.0
 11
-209.6683999999999
 21
41.8303
 31
0.0
  0
LINE
  5
645
330
1F
100
AcDbEntity
  8
0
  6
Continuous
 62
     7
100
AcDbLine
 10
-211.7896999999999
 20
42.53740000000001
 30
0.0
 11
-212.6029999999999
 21
43.3506
 31
0.0
  0
LINE
  5
646
330
1F
100
AcDbEntity
  8
0
  6
Continuous
 62
     7
100
AcDbLine
 10
-211.0826
 20
43.2444
 30
0.0
 11
-211.8959
 21
44.05759999999999
 31
0.0
  0
LINE
  5
647
330
1F
100
AcDbEntity
  8
0
  6
Continuous
 62
     7
100
AcDbLine
 10
-208.8553
 20
43.35029999999998
 30
0.0
 11
-209.6683999999999
 21
42.53740000000001
 31
0.0
  0
LINE
  5
648
330
1F
100
AcDbEntity
  8
0
  6
Continuous
 62
     7
100
AcDbLine
 10
-209.5623999999999
 20
44.05759999999999
 30
0.0
 11
-210.3755
 21
43.2444
 31
0.0
  0
LINE
  5
649
330
1F
100
AcDbEntity
  8
0
  6
Continuous
 62
     7
100
AcDbLine
 10
-211.0826
 20
41.12300000000001
 30
0.0
 11
-211.8956999999999
 21
40.3101
 31
0.0
  0
LINE
  5
64A
330
1F
100
AcDbEntity
  8
0
  6
Continuous
 62
     7
100
AcDbLine
 10
-211.7896999999999
 20
41.8303
 30
0.0
 11
-212.6028
 21
41.01709999999999
 31
0.0
  0
LINE
  5
64B
330
1F
100
AcDbEntity
  8
0
  6
Continuous
 62
     7
100
AcDbLine
 10
-211.8956999999999
 20
40.3101
 30
0.0
 11
-212.6028
 21
41.01709999999999
 31
0.0
  0
LINE
  5
64C
330
1F
100
AcDbEntity
  8
0
  6
Continuous
 62
     7
100
AcDbLine
 10
-208.8553
 20
43.35029999999998
 30
0.0
 11
-209.5623999999999
 21
44.05759999999999
 31
0.0
  0
LINE
  5
64D
330
1F
100
AcDbEntity
  8
0
  6
Continuous
 62
     7
100
AcDbLine
 10
-208.8553
 20
41.01709999999999
 30
0.0
 11
-209.5623999999999
 21
40.3101
 31
0.0
  0
LINE
  5
64E
330
1F
100
AcDbEntity
  8
0
  6
Continuous
 62
     7
100
AcDbLine
 10
-211.8959
 20
44.05759999999999
 30
0.0
 11
-212.6029999999999
 21
43.3506
 31
0.0
  0
LINE
  5
73D
330
1F
100
AcDbEntity
  8
0
  6
Continuous
 62
     7
100
AcDbLine
 10
-172.8060999999999
 20
38.68380000000001
 30
0.0
 11
-179.7993999999999
 21
38.68380000000001
 31
0.0
  0
LINE
  5
73E
330
1F
100
AcDbEntity
  8
0
  6
Continuous
 62
     7
100
AcDbLine
 10
-160.7289999999998
 20
30.3838
 30
0.0
 11
-175.7289999999999
 21
30.3838
 31
0.0
  0
ARC
  5
73F
330
1F
100
AcDbEntity
  8
0
  6
Continuous
 62
     7
100
AcDbCircle
 10
-180.2220535358333
 20
46.67803936189656
 30
0.0
 40
8.000030288104177
100
AcDbArc
 50
195.151156760427
 51
272.1989242025874
  0
ARC
  5
740
330
1F
100
AcDbEntity
  8
0
  6
Continuous
 62
     7
100
AcDbCircle
 10
-181.3821967286623
 20
36.38379715599622
 30
0.0
 40
4.999997155997307
100
AcDbArc
 50
187.9945849876975
 51
269.9999625132094
  0
LINE
  5
741
330
1F
100
AcDbEntity
  8
0
  6
Continuous
 62
     7
100
AcDbLine
 10
-187.2616999999999
 20
42.29639999999998
 30
0.0
 11
-186.3335999999999
 21
35.68850000000001
 31
0.0
  0
ARC
  5
742
330
1F
100
AcDbEntity
  8
0
  6
Continuous
 62
     7
100
AcDbCircle
 10
-179.0457113622746
 20
28.38380342588028
 30
0.0
 40
2.999996574141236
100
AcDbArc
 50
56.44267050970677
 51
89.99978299629367
  0
ARC
  5
743
330
1F
100
AcDbEntity
  8
0
  6
Continuous
 62
     7
100
AcDbCircle
 10
-175.7290803030064
 20
33.38382421098842
 30
0.0
 40
3.000024212063176
100
AcDbArc
 50
236.4428296238492
 51
270.001533662072
  0
ARC
  5
744
330
1F
100
AcDbEntity
  8
0
  6
Continuous
 62
     7
100
AcDbCircle
 10
-164.7827943178508
 20
34.38379536664873
 30
0.0
 40
2.999995366654111
100
AcDbArc
 50
191.6109678684289
 51
269.9998914787756
  0
ARC
  5
745
330
1F
100
AcDbEntity
  8
0
  6
Continuous
 62
     7
100
AcDbCircle
 10
-172.8061412849525
 20
33.68383366456757
 30
0.0
 40
4.999966335602898
100
AcDbArc
 50
11.61150536941154
 51
89.99952690610777
  0
LINE
  5
746
330
1F
100
AcDbEntity
  8
0
  6
Continuous
 62
     7
100
AcDbLine
 10
-167.9085
 20
34.69019999999999
 30
0.0
 11
-167.7213999999999
 21
33.78
 31
0.0
  0
LINE
  5
758
330
1F
100
AcDbEntity
  8
0
  6
Continuous
 62
     7
100
AcDbLine
 10
-146.4291
 20
147.6837999999998
 30
0.0
 11
-146.4291
 21
32.68380000000001
 31
0.0
  0
LINE
  5
759
330
1F
100
AcDbEntity
  8
0
  6
Continuous
 62
     7
100
AcDbLine
 10
-148.7289
 20
147.7837
 30
0.0
 11
-148.7289
 21
33.93380000000001
 31
0.0
  0
LINE
  5
75F
330
1F
100
AcDbEntity
  8
0
  6
Continuous
 62
     7
100
AcDbLine
 10
-129.7289
 20
95.68380000000001
 30
0.0
 11
-127.7288999999999
 21
95.68380000000001
 31
0.0
  0
LINE
  5
760
330
1F
100
AcDbEntity
  8
0
  6
Continuous
 62
     7
100
AcDbLine
 10
-108.7288999999999
 20
84.68380000000001
 30
0.0
 11
-129.7289
 21
84.68380000000001
 31
0.0
  0
LINE
  5
764
330
1F
100
AcDbEntity
  8
0
  6
Continuous
 62
     7
100
AcDbLine
 10
-136.329
 20
72.9512
 30
0.0
 11
-136.329
 21
72.13380000000002
 31
0.0
  0
ARC
  5
765
330
1F
100
AcDbEntity
  8
0
  6
Continuous
 62
     7
100
AcDbCircle
 10
-145.1291276083306
 20
55.49563013277346
 30
0.0
 40
1.300027608679811
100
AcDbArc
 50
359.9986719660932
 51
84.99456998062067
  0
ARC
  5
766
330
1F
100
AcDbEntity
  8
0
  6
Continuous
 62
     7
100
AcDbCircle
 10
-145.1290777991693
 20
51.33302422895312
 30
0.0
 40
1.299977799395071
100
AcDbArc
 50
275.003418582998
 51
359.9989321227211
  0
LINE
  5
767
330
1F
100
AcDbEntity
  8
0
  6
DASH_CENTER
 62
    30
100
AcDbLine
 10
-151.0731999999999
 20
53.41429999999999
 30
0.0
 11
-136.2933999999998
 21
53.41429999999999
 31
0.0
  0
LINE
  5
768
330
1F
100
AcDbEntity
  8
0
  6
Continuous
 62
     7
100
AcDbLine
 10
-146.4291
 20
70.63380000000002
 30
0.0
 11
-137.829
 21
70.63380000000002
 31
0.0
  0
LINE
  5
769
330
1F
100
AcDbEntity
  8
0
  6
Continuous
 62
     7
100
AcDbLine
 10
-146.4291
 20
49.9143
 30
0.0
 11
-146.4291
 21
56.9143
 31
0.0
  0
LINE
  5
76A
330
1F
100
AcDbEntity
  8
0
  6
Continuous
 62
     7
100
AcDbLine
 10
-146.4291
 20
49.9143
 30
0.0
 11
-145.0158
 21
50.03779999999999
 31
0.0
  0
LINE
  5
76B
330
1F
100
AcDbEntity
  8
0
  6
Continuous
 62
     7
100
AcDbLine
 10
-146.4291
 20
32.68380000000001
 30
0.0
 11
-148.7289
 21
32.68380000000001
 31
0.0
  0
LINE
  5
76C
330
1F
100
AcDbEntity
  8
0
  6
Continuous
 62
     7
100
AcDbLine
 10
-148.7289
 20
33.93380000000001
 30
0.0
 11
-148.7289
 21
32.68380000000001
 31
0.0
  0
LINE
  5
76D
330
1F
100
AcDbEntity
  8
0
  6
Continuous
 62
     7
100
AcDbLine
 10
-146.4291
 20
56.9143
 30
0.0
 11
-145.0158
 21
56.7905
 31
0.0
  0
ARC
  5
76E
330
1F
100
AcDbEntity
  8
0
  6
Continuous
 62
     7
100
AcDbCircle
 10
-137.829
 20
72.13380000000002
 30
0.0
 40
1.5
100
AcDbArc
 50
270.0
 51
0.0
  0
LINE
  5
76F
330
1F
100
AcDbEntity
  8
0
  6
Continuous
 62
     7
100
AcDbLine
 10
-143.829
 20
55.4956
 30
0.0
 11
-143.829
 21
51.333
 31
0.0
  0
LINE
  5
770
330
1F
100
AcDbEntity
  8
0
  6
Continuous
 62
     7
100
AcDbLine
 10
-146.4291
 20
109.7339
 30
0.0
 11
-137.829
 21
109.7339
 31
0.0
  0
ARC
  5
771
330
1F
100
AcDbEntity
  8
0
  6
Continuous
 62
     7
100
AcDbCircle
 10
-254.0289073701803
 20
90.18390743901605
 30
0.0
 40
120.0000073701805
100
AcDbArc
 50
359.9999964481316
 51
7.848543553645187
  0
LINE
  5
772
330
1F
100
AcDbEntity
  8
0
  6
Continuous
 62
     7
100
AcDbLine
 10
-130.7289
 20
82.78389999999998
 30
0.0
 11
-130.7289
 21
97.58369999999999
 31
0.0
  0
LINE
  5
773
330
1F
100
AcDbEntity
  8
0
  6
Continuous
 62
     7
100
AcDbLine
 10
-136.329
 20
107.4165
 30
0.0
 11
-136.329
 21
72.9512
 31
0.0
  0
LINE
  5
774
330
1F
100
AcDbEntity
  8
0
  6
Continuous
 62
     7
100
AcDbLine
 10
-136.1868
 20
72.93479999999998
 30
0.0
 11
-136.329
 21
72.93479999999998
 31
0.0
  0
ARC
  5
775
330
1F
100
AcDbEntity
  8
0
  6
Continuous
 62
     7
100
AcDbCircle
 10
-129.7289
 20
83.68380000000001
 30
0.0
 40
1.0
100
AcDbArc
 50
90.0
 51
180.0
  0
ARC
  5
776
330
1F
100
AcDbEntity
  8
0
  6
Continuous
 62
     7
100
AcDbCircle
 10
-136.1436847808607
 20
73.93381269733765
 30
0.0
 40
0.9999469608969928
100
AcDbArc
 50
267.5230475337126
 51
352.1534802584149
  0
ARC
  5
777
330
1F
100
AcDbEntity
  8
0
  6
Continuous
 62
     7
100
AcDbCircle
 10
-254.0289005424368
 20
90.1837920926094
 30
0.0
 40
120.0000005424372
100
AcDbArc
 50
352.1514562227223
 51
0.0000037755009962
  0
LINE
  5
778
330
1F
100
AcDbEntity
  8
0
  6
Continuous
 62
     7
100
AcDbLine
 10
-130.7289
 20
82.78389999999998
 30
0.0
 11
-134.2572
 21
82.78389999999998
 31
0.0
  0
POINT
  5
779
330
1F
100
AcDbEntity
  8
0
 62
     2
100
AcDbPoint
 10
-134.0288999999999
 20
92.52880000000001
 30
0.0
  0
ARC
  5
77A
330
1F
100
AcDbEntity
  8
0
  6
Continuous
 62
     7
100
AcDbCircle
 10
-137.829
 20
108.2339
 30
0.0
 40
1.5
100
AcDbArc
 50
0.0
 51
90.0
  0
LINE
  5
77B
330
1F
100
AcDbEntity
  8
0
  6
Continuous
 62
     7
100
AcDbLine
 10
-136.1868
 20
107.4329
 30
0.0
 11
-136.329
 21
107.4329
 31
0.0
  0
LINE
  5
77C
330
1F
100
AcDbEntity
  8
0
  6
Continuous
 62
     7
100
AcDbLine
 10
-136.329
 20
107.4165
 30
0.0
 11
-136.329
 21
108.2339
 31
0.0
  0
ARC
  5
77D
330
1F
100
AcDbEntity
  8
0
  6
Continuous
 62
     7
100
AcDbCircle
 10
-129.7289
 20
96.6838
 30
0.0
 40
1.0
100
AcDbArc
 50
180.0
 51
270.0
  0
ARC
  5
77E
330
1F
100
AcDbEntity
  8
0
  6
Continuous
 62
     7
100
AcDbCircle
 10
-136.143733971446
 20
106.433828342399
 30
0.0
 40
1.000003741514333
100
AcDbArc
 50
7.849481506439657
 51
92.47399070143558
  0
LINE
  5
77F
330
1F
100
AcDbEntity
  8
0
  6
Continuous
 62
     7
100
AcDbLine
 10
-130.7289
 20
97.58369999999999
 30
0.0
 11
-134.2572
 21
97.58369999999999
 31
0.0
  0
LINE
  5
782
330
1F
100
AcDbEntity
  8
0
  6
Continuous
 62
     7
100
AcDbLine
 10
-127.7288999999999
 20
94.68380000000001
 30
0.0
 11
-107.7288999999999
 21
94.68380000000001
 31
0.0
  0
LINE
  5
783
330
1F
100
AcDbEntity
  8
0
  6
Continuous
 62
     7
100
AcDbLine
 10
-127.7288999999999
 20
94.68380000000001
 30
0.0
 11
-127.7288999999999
 21
95.68380000000001
 31
0.0
  0
LINE
  5
786
330
1F
100
AcDbEntity
  8
0
  6
Continuous
 62
     7
100
AcDbLine
 10
-108.7288999999999
 20
84.68380000000001
 30
0.0
 11
-107.7288999999999
 21
85.68380000000002
 31
0.0
  0
LINE
  5
787
330
1F
100
AcDbEntity
  8
0
  6
Continuous
 62
     7
100
AcDbLine
 10
-108.7288999999999
 20
84.68380000000001
 30
0.0
 11
-108.7288999999999
 21
94.68380000000001
 31
0.0
  0
LINE
  5
788
330
1F
100
AcDbEntity
  8
0
  6
Continuous
 62
     7
100
AcDbLine
 10
-107.7288999999999
 20
90.1838
 30
0.0
 11
-107.7288999999999
 21
94.68380000000001
 31
0.0
  0
LINE
  5
789
330
1F
100
AcDbEntity
  8
0
  6
Continuous
 62
     7
100
AcDbLine
 10
-107.7288999999999
 20
85.68380000000002
 30
0.0
 11
-107.7288999999999
 21
94.68380000000001
 31
0.0
  0
ARC
  5
790
330
1F
100
AcDbEntity
  8
0
  6
Continuous
 62
     7
100
AcDbCircle
 10
-145.1290777991693
 20
129.0346757710469
 30
0.0
 40
1.299977799395072
100
AcDbArc
 50
0.0010678772787402
 51
84.99658141700193
  0
ARC
  5
791
330
1F
100
AcDbEntity
  8
0
  6
Continuous
 62
     7
100
AcDbCircle
 10
-145.1291276083306
 20
124.8720698672264
 30
0.0
 40
1.300027608679823
100
AcDbArc
 50
275.0054300193809
 51
0.0013280339067241
  0
LINE
  5
792
330
1F
100
AcDbEntity
  8
0
  6
DASH_CENTER
 62
    30
100
AcDbLine
 10
-151.0731999999999
 20
126.9533999999999
 30
0.0
 11
-136.2933999999998
 21
126.9533999999999
 31
0.0
  0
LINE
  5
793
330
1F
100
AcDbEntity
  8
0
  6
Continuous
 62
     7
100
AcDbLine
 10
-146.4291
 20
130.4533999999998
 30
0.0
 11
-146.4291
 21
123.4534
 31
0.0
  0
LINE
  5
794
330
1F
100
AcDbEntity
  8
0
  6
Continuous
 62
     7
100
AcDbLine
 10
-146.4291
 20
123.4534
 30
0.0
 11
-145.0158
 21
123.5770999999999
 31
0.0
  0
LINE
  5
795
330
1F
100
AcDbEntity
  8
0
  6
Continuous
 62
     7
100
AcDbLine
 10
-146.4291
 20
130.4533999999998
 30
0.0
 11
-145.0158
 21
130.3298
 31
0.0
  0
LINE
  5
796
330
1F
100
AcDbEntity
  8
0
  6
Continuous
 62
     7
100
AcDbLine
 10
-146.4291
 20
147.6837999999998
 30
0.0
 11
-148.7289
 21
147.6837999999998
 31
0.0
  0
LINE
  5
797
330
1F
100
AcDbEntity
  8
0
  6
Continuous
 62
     7
100
AcDbLine
 10
-143.829
 20
124.8720999999999
 30
0.0
 11
-143.829
 21
129.0346999999999
 31
0.0
  0
LINE
  5
7C1
330
1F
100
AcDbEntity
  8
0
  6
DASH_CENTER
 62
    30
100
AcDbLine
 10
184.0749999999999
 20
15.7637
 30
0.0
 11
184.0749999999999
 21
165.0236999999999
 31
0.0
  0
LINE
  5
7C2
330
1F
100
AcDbEntity
  8
0
  6
Continuous
 62
     7
100
AcDbLine
 10
249.0749
 20
31.3838
 30
0.0
 11
249.0749
 21
27.1838
 31
0.0
  0
LINE
  5
7C3
330
1F
100
AcDbEntity
  8
0
  6
Continuous
 62
     7
100
AcDbLine
 10
148.5749999999999
 20
28.1838
 30
0.0
 11
148.5749999999999
 21
27.1838
 31
0.0
  0
LINE
  5
7C4
330
1F
100
AcDbEntity
  8
0
  6
Continuous
 62
     7
100
AcDbLine
 10
119.0749999999999
 20
31.3838
 30
0.0
 11
119.0749999999999
 21
27.1838
 31
0.0
  0
LINE
  5
7C5
330
1F
100
AcDbEntity
  8
0
  6
DASH_CENTER
 62
    30
100
AcDbLine
 10
234.0749999999999
 20
17.2771
 30
0.0
 11
234.0749999999999
 21
35.665
 31
0.0
  0
LINE
  5
7C6
330
1F
100
AcDbEntity
  8
0
  6
DASH_CENTER
 62
    30
100
AcDbLine
 10
134.0749999999998
 20
17.2771
 30
0.0
 11
134.0749999999998
 21
35.62130000000002
 31
0.0
  0
LINE
  5
7C7
330
1F
100
AcDbEntity
  8
0
  6
Continuous
 62
     7
100
AcDbLine
 10
90.36509999999999
 20
29.09029999999999
 30
0.0
 11
89.18550000000001
 21
23.46779999999998
 31
0.0
  0
LINE
  5
7C8
330
1F
100
AcDbEntity
  8
0
  6
Continuous
 62
     7
100
AcDbLine
 10
94.465
 20
29.09029999999999
 30
0.0
 11
95.6447
 21
23.46779999999998
 31
0.0
  0
LINE
  5
7C9
330
1F
100
AcDbEntity
  8
0
  6
DASH_CENTER
 62
    30
100
AcDbLine
 10
92.41519999999999
 20
14.8323
 30
0.0
 11
92.41519999999999
 21
29.3452
 31
0.0
  0
LINE
  5
7CA
330
1F
100
AcDbEntity
  8
0
  6
Continuous
 62
     7
100
AcDbLine
 10
219.5749
 20
28.1838
 30
0.0
 11
219.5749
 21
27.1838
 31
0.0
  0
ARC
  5
7EF
330
1F
100
AcDbEntity
  8
0
  6
Continuous
 62
     7
100
AcDbCircle
 10
92.41519999999999
 20
22.7903
 30
0.0
 40
3.300015734810966
100
AcDbArc
 50
168.1510445606682
 51
11.84895543933176
  0
LINE
  5
7F0
330
1F
100
AcDbEntity
  8
0
  6
DASH_CENTER
 62
    30
100
AcDbLine
 10
99.67100000000002
 20
22.7903
 30
0.0
 11
83.79680000000002
 21
22.7903
 31
0.0
  0
SPLINE
  5
801
330
1F
100
AcDbEntity
  8
0
  6
Continuous
 62
    54
100
AcDbSpline
210
0.0
220
0.0
230
1.0
 70
     8
 71
     3
 72
    73
 73
    69
 74
    67
 42
0.0000000001
 43
0.0000000001
 44
0.00000001
 40
0.0
 40
0.0
 40
0.0
 40
0.0
 40
0.87139192599242
 40
1.742800391854784
 40
2.537590585813218
 40
3.332365301526658
 40
3.873832084403723
 40
4.415471007557066
 40
4.926597633803238
 40
5.436797010579693
 40
5.909864415626397
 40
6.383816764488119
 40
6.850954508004177
 40
7.31768229601663
 40
8.069721484927171
 40
8.822028744293497
 40
9.729375311873388
 40
10.63661973812165
 40
11.44126177791469
 40
12.2459258668802
 40
13.23959031041249
 40
14.23325248705804
 40
15.160968417411
 40
16.08866919030391
 40
16.7407363680561
 40
17.39284169762466
 40
18.02697506161804
 40
18.66105379910994
 40
19.22792709402339
 40
19.79475656497245
 40
20.31428054688788
 40
20.83386422207826
 40
21.62421933069323
 40
22.41458924823629
 40
23.31371451732941
 40
24.21297770957417
 40
24.97437516969933
 40
25.73494421964497
 40
26.65663065166239
 40
27.58001000813873
 40
28.42160551640425
 40
29.26213422340472
 40
29.80696252144195
 40
30.35313413863045
 40
30.80665032747951
 40
31.25654433476758
 40
31.70360007610458
 40
32.15430933484854
 40
32.71045675558845
 40
33.26462170710217
 40
34.30407373061855
 40
35.3450459568433
 40
36.62442016937571
 40
37.90322831335302
 40
38.96500007602447
 40
40.02681387566725
 40
41.19239054852205
 40
42.35799742895255
 40
43.38801535248738
 40
44.41808771825805
 40
45.19083092780956
 40
45.96345372246569
 40
46.85817257930031
 40
47.75303151593406
 40
48.61691648548688
 40
49.48077897263887
 40
50.17728764498986
 40
50.87379072369619
 40
50.87379072369619
 40
50.87379072369619
 40
50.87379072369619
 10
119.0749999999999
 20
-102.0945825254422
 30
0.0
 10
119.3519431313115
 20
-102.1821721705707
 30
0.0
 10
119.9058346547359
 20
-102.357353110192
 30
0.0
 10
120.7140060891837
 20
-102.6070828812933
 30
0.0
 10
121.500985685819
 20
-102.8387369574726
 30
0.0
 10
122.1869906847599
 20
-103.0234397289891
 30
0.0
 10
122.7958981711821
 20
-103.1690057377577
 30
0.0
 10
123.3185587076923
 20
-103.2670110016365
 30
0.0
 10
123.8367901885161
 20
-103.3254922030589
 30
0.0
 10
124.3358832313914
 20
-103.3350991839824
 30
0.0
 10
124.8201923875237
 20
-103.2894238304274
 30
0.0
 10
125.2856296347469
 20
-103.2141344186198
 30
0.0
 10
125.7469340000055
 20
-103.1279894904114
 30
0.0
 10
126.2987999529414
 20
-103.0218842280258
 30
0.0
 10
126.9461552180164
 20
-102.9093197515792
 30
0.0
 10
127.7398449060374
 20
-102.7816046389922
 30
0.0
 10
128.5851079299335
 20
-102.6487862118762
 30
0.0
 10
129.4479651040425
 20
-102.5155831609363
 30
0.0
 10
130.2771573967764
 20
-102.3886590746323
 30
0.0
 10
131.1348041809767
 20
-102.2572409755966
 30
0.0
 10
132.0544912043753
 20
-102.1147237966566
 30
0.0
 10
133.0146178506852
 20
-101.9653240809632
 30
0.0
 10
133.9531053482078
 20
-101.819864476149
 30
0.0
 10
134.7793760737416
 20
-101.6938195629253
 30
0.0
 10
135.5152251594717
 20
-101.5842627523418
 30
0.0
 10
136.1547599998501
 20
-101.4923611866106
 30
0.0
 10
136.7889998821112
 20
-101.4058050723203
 30
0.0
 10
137.396800100762
 20
-101.3360709956178
 30
0.0
 10
137.9842732856754
 20
-101.2887790990164
 30
0.0
 10
138.5349373975937
 20
-101.2641295198729
 30
0.0
 10
139.0703262600299
 20
-101.2603374752297
 30
0.0
 10
139.6800858047922
 20
-101.2713717149372
 30
0.0
 10
140.3797334829928
 20
-101.2967167298149
 30
0.0
 10
141.2060452354358
 20
-101.3208437931036
 30
0.0
 10
142.0693018317877
 20
-101.3129934325999
 30
0.0
 10
142.9211756638756
 20
-101.2521518061046
 30
0.0
 10
143.7201894550312
 20
-101.1326901358603
 30
0.0
 10
144.513109783199
 20
-100.9400287191721
 30
0.0
 10
145.3280514748229
 20
-100.6326864721129
 30
0.0
 10
146.1264535789427
 20
-100.223716801106
 30
0.0
 10
146.8616421319018
 20
-99.75954383200136
 30
0.0
 10
147.4562609605682
 20
-99.31395411950342
 30
0.0
 10
147.9471966165506
 20
-98.89688917659604
 30
0.0
 10
148.3132507336446
 20
-98.53381968587676
 30
0.0
 10
148.6232355924612
 20
-98.16218641333296
 30
0.0
 10
148.8620272999219
 20
-97.77742262829693
 30
0.0
 10
149.0179536375148
 20
-97.35393920546968
 30
0.0
 10
149.1414196800846
 20
-96.88541249306339
 30
0.0
 10
149.2781492292203
 20
-96.38330572564093
 30
0.0
 10
149.4775429254719
 20
-95.69497735854012
 30
0.0
 10
149.7501794301331
 20
-94.85991980698708
 30
0.0
 10
150.1281265886576
 20
-93.80563504218949
 30
0.0
 10
150.5504208149821
 20
-92.68263360118377
 30
0.0
 10
150.9958863471291
 20
-91.56113993585464
 30
0.0
 10
151.4335053123721
 20
-90.5147767267886
 30
0.0
 10
151.8778485037725
 20
-89.51234561201847
 30
0.0
 10
152.3641657478769
 20
-88.49109422211908
 30
0.0
 10
152.8682459605743
 20
-87.49041801097593
 30
0.0
 10
153.3663846752046
 20
-86.53752832823593
 30
0.0
 10
153.8040088125657
 20
-85.7007761866499
 30
0.0
 10
154.1926983675898
 20
-84.93529543455204
 30
0.0
 10
154.5444156233538
 20
-84.20177274163606
 30
0.0
 10
154.8842747034484
 20
-83.41798621828203
 30
0.0
 10
155.2070360608793
 20
-82.5943218913879
 30
0.0
 10
155.5013181767325
 20
-81.77103540335151
 30
0.0
 10
155.7565728792625
 20
-81.00427927096447
 30
0.0
 10
155.9850169074789
 20
-80.28750404300694
 30
0.0
 10
156.1234724924238
 20
-79.84428910616429
 30
0.0
 10
156.1927
 20
-79.62268252544223
 30
0.0
 11
119.0749999999999
 21
-102.0945825254422
 31
0.0
 11
119.906118208067
 21
-102.3564344279606
 31
0.0
 11
120.7390017656339
 21
-102.6126720021297
 31
0.0
 11
121.5018364127504
 21
-102.8357745661982
 31
0.0
 11
122.2696399315229
 21
-103.0410660808783
 31
0.0
 11
122.7968147065339
 21
-103.1646501979849
 31
0.0
 11
123.3295999999999
 21
-103.2621825254422
 31
0.0
 11
123.837713473056
 21
-103.317600282018
 31
0.0
 11
124.3478541707226
 21
-103.3253381664075
 31
0.0
 11
124.8191362348542
 21
-103.2842773705045
 31
0.0
 11
125.2875255614112
 21
-103.2118738550383
 31
0.0
 11
125.746990714077
 21
-103.1275563385554
 31
0.0
 11
126.2056
 21
-103.0408825254421
 31
0.0
 11
126.9463201921148
 21
-102.9108958440509
 31
0.0
 11
127.6888871639085
 21
-102.7902289287183
 31
0.0
 11
128.5852040392836
 21
-102.649183359697
 31
0.0
 11
129.4817964788022
 21
-102.5105671751686
 31
0.0
 11
130.2771469647304
 21
-102.3886392575145
 31
0.0
 11
131.0724999999999
 21
-102.2665825254421
 31
0.0
 11
132.0544759551779
 21
-102.1146211793751
 31
0.0
 11
133.0363542949212
 21
-101.9620451383118
 31
0.0
 11
133.9531667205754
 21
-101.8202289733815
 31
0.0
 11
134.8703005404317
 21
-101.6806070496272
 31
0.0
 11
135.5152924828622
 21
-101.584810395048
 31
0.0
 11
136.1607999999999
 21
-101.4922825254422
 31
0.0
 11
136.7893135144262
 21
-101.4080454439425
 31
0.0
 11
137.4194313651774
 21
-101.3372828846111
 31
0.0
 11
137.9845038919791
 21
-101.2921345503554
 31
0.0
 11
138.550781826726
 21
-101.2671355548805
 31
0.0
 11
139.070285283966
 21
-101.262517590455
 31
0.0
 11
139.5898
 21
-101.2709825254422
 31
0.0
 11
140.3797656043104
 21
-101.2957926233047
 31
0.0
 11
141.1699004665839
 21
-101.3150670912506
 31
0.0
 11
142.0689535311223
 21
-101.3036725457077
 31
0.0
 11
142.9656986338156
 21
-101.2364229436891
 31
0.0
 11
143.7183595785444
 21
-101.1214116650754
 31
0.0
 11
144.4567999999998
 21
-100.9392825254422
 31
0.0
 11
145.3203446510733
 21
-100.6171078608284
 31
0.0
 11
146.1435088214559
 21
-100.1987417715232
 31
0.0
 11
146.855560893999
 21
-99.75011626434602
 31
0.0
 11
147.5286676580175
 21
-99.24671206120791
 31
0.0
 11
147.9421844082048
 21
-98.89197022302623
 31
0.0
 11
148.3283
 21
-98.50568252544213
 31
0.0
 11
148.615581345072
 21
-98.15476036541221
 31
0.0
 11
148.8487368869793
 21
-97.76999665722705
 31
0.0
 11
149.0106783464304
 21
-97.35330276527202
 31
0.0
 11
149.133004565137
 21
-96.91951118846114
 31
0.0
 11
149.2797607581946
 21
-96.38307612869892
 31
0.0
 11
149.4345999999999
 21
-95.85098252544222
 31
0.0
 11
149.754700145241
 21
-94.86204551733161
 31
0.0
 11
150.1035690644826
 21
-93.88127354957692
 31
0.0
 11
150.5541514305296
 21
-92.68387056536054
 31
0.0
 11
151.026481027827
 21
-91.49548720135104
 31
0.0
 11
151.4369358512576
 21
-90.51625989723111
 31
0.0
 11
151.8679999999999
 21
-89.54588252544212
 31
0.0
 11
152.3680314151144
 21
-88.49301142098665
 31
0.0
 11
152.8913388506595
 21
-87.45147950775223
 31
0.0
 11
153.3664043906024
 21
-86.53755956828163
 31
0.0
 11
153.841665852103
 21
-85.62368013210173
 31
0.0
 11
154.1900966269164
 21
-84.93394970311962
 31
0.0
 11
154.5226999999998
 21
-84.23658252544223
 31
0.0
 11
154.8793330404726
 21
-83.41601277906102
 31
0.0
 11
155.2065110167498
 21
-82.58310996997229
 31
0.0
 11
155.498332568321
 21
-81.77000639512915
 31
0.0
 11
155.7722471350408
 21
-80.95072060405641
 31
0.0
 11
155.9843807149717
 21
-80.28730242881142
 31
0.0
 11
156.1927
 21
-79.62268252544223
 31
0.0
  0
ARC
  5
802
330
1F
100
AcDbEntity
  8
0
  6
Continuous
 62
     7
100
AcDbCircle
 10
127.575
 20
-88.62268252544224
 30
0.0
 40
3.5
100
AcDbArc
 50
180.0
 51
270.0
  0
ARC
  5
803
330
1F
100
AcDbEntity
  8
0
  6
Continuous
 62
     7
100
AcDbCircle
 10
138.5749999999999
 20
-87.62268252544222
 30
0.0
 40
10.0
100
AcDbArc
 50
270.0
 51
0.0
  0
ARC
  5
804
330
1F
100
AcDbEntity
  8
0
  6
Continuous
 62
     7
100
AcDbCircle
 10
140.5749999999999
 20
-88.62268252544224
 30
0.0
 40
3.5
100
AcDbArc
 50
270.0
 51
0.0
  0
LINE
  5
805
330
1F
100
AcDbEntity
  8
0
  6
DASH_CENTER
 62
    30
100
AcDbLine
 10
134.0749999999998
 20
-71.51108252544213
 30
0.0
 11
134.0749999999998
 21
-103.9155825254421
 31
0.0
  0
LINE
  5
806
330
1F
100
AcDbEntity
  8
0
  6
Continuous
 62
     7
100
AcDbLine
 10
119.0749999999999
 20
-89.62268252544223
 30
0.0
 11
119.0749999999999
 21
-102.0945825254422
 31
0.0
  0
LINE
  5
808
330
1F
100
AcDbEntity
  8
0
  6
Continuous
 62
     7
100
AcDbLine
 10
119.0749999999999
 20
-97.62268252544224
 30
0.0
 11
138.5749999999999
 21
-97.62268252544224
 31
0.0
  0
LINE
  5
809
330
1F
100
AcDbEntity
  8
0
  6
Continuous
 62
     7
100
AcDbLine
 10
140.5749999999999
 20
-92.12268252544223
 30
0.0
 11
127.575
 21
-92.12268252544223
 31
0.0
  0
LINE
  5
80D
330
1F
100
AcDbEntity
  8
0
  6
DASH_CENTER
 62
    30
100
AcDbLine
 10
111.3312999999999
 20
-88.62268252544224
 30
0.0
 11
154.2062
 21
-88.62268252544224
 31
0.0
  0
LINE
  5
80E
330
1F
100
AcDbEntity
  8
0
  6
Continuous
 62
     7
100
AcDbLine
 10
129.0749999999998
 20
-79.62268252544223
 30
0.0
 11
156.1927
 21
-79.62268252544223
 31
0.0
  0
ARC
  5
816
330
1F
100
AcDbEntity
  8
0
  6
Continuous
 62
     7
100
AcDbCircle
 10
129.0749999999998
 20
-89.62268252544223
 30
0.0
 40
10.0
100
AcDbArc
 50
90.0
 51
180.0
  0
LINE
  5
81A
330
1F
100
AcDbEntity
  8
0
  6
Continuous
 62
     7
100
AcDbLine
 10
140.5749999999999
 20
-85.12268252544222
 30
0.0
 11
127.575
 21
-85.12268252544222
 31
0.0
  0
ARC
  5
81C
330
1F
100
AcDbEntity
  8
0
  6
Continuous
 62
     7
100
AcDbCircle
 10
127.575
 20
-88.62268252544224
 30
0.0
 40
3.5
100
AcDbArc
 50
90.0
 51
180.0
  0
ARC
  5
81D
330
1F
100
AcDbEntity
  8
0
  6
Continuous
 62
     7
100
AcDbCircle
 10
140.5749999999999
 20
-88.62268252544224
 30
0.0
 40
3.5
100
AcDbArc
 50
0.0
 51
90.0
  0
LINE
  5
81E
330
1F
100
AcDbEntity
  8
0
  6
Continuous
 62
     7
100
AcDbLine
 10
148.5749999999999
 20
-79.62268252544223
 30
0.0
 11
148.5749999999999
 21
-87.62268252544222
 31
0.0
  0
LINE
  5
827
330
1F
100
AcDbEntity
  8
0
  6
Continuous
 62
     7
100
AcDbLine
 10
148.5749999999999
 20
27.1838
 30
0.0
 11
119.0749999999999
 21
27.1838
 31
0.0
  0
CIRCLE
  5
828
330
1F
100
AcDbEntity
  8
0
  6
Continuous
 62
     7
100
AcDbCircle
 10
92.41519999999999
 20
22.7903
 30
0.0
 40
2.150000000000006
  0
LINE
  5
851
330
1F
100
AcDbEntity
  8
0
  6
Continuous
 62
     7
100
AcDbLine
 10
219.5749
 20
27.1838
 30
0.0
 11
249.0749
 21
27.1838
 31
0.0
  0
CIRCLE
  5
862
330
1F
100
AcDbEntity
  8
0
  6
Continuous
 62
     7
100
AcDbCircle
 10
184.0749999999999
 20
90.1838
 30
0.0
 40
46.0
  0
CIRCLE
  5
863
330
1F
100
AcDbEntity
  8
0
  6
Continuous
 62
     7
100
AcDbCircle
 10
184.0749999999999
 20
90.1838
 30
0.0
 40
57.59990000000001
  0
ARC
  5
864
330
1F
100
AcDbEntity
  8
0
  6
Continuous
 62
     7
100
AcDbCircle
 10
214.575
 20
87.18380000000001
 30
0.0
 40
3.0
100
AcDbArc
 50
180.0
 51
270.0
  0
ARC
  5
865
330
1F
100
AcDbEntity
  8
0
  6
Continuous
 62
     7
100
AcDbCircle
 10
214.575
 20
93.18380000000001
 30
0.0
 40
3.0
100
AcDbArc
 50
90.0
 51
180.0
  0
ARC
  5
866
330
1F
100
AcDbEntity
  8
0
  6
Continuous
 62
     7
100
AcDbCircle
 10
184.0749562813116
 20
90.183843718843
 30
0.0
 40
58.49997323239711
100
AcDbArc
 50
25.00842870324843
 51
64.99136872542748
  0
ARC
  5
867
330
1F
100
AcDbEntity
  8
0
  6
DASH_CENTER
 62
    30
100
AcDbCircle
 10
184.074927684496
 20
90.18382713193174
 30
0.0
 40
51.99996631372464
100
AcDbArc
 50
305.2391284127546
 51
323.6057971734991
  0
ARC
  5
868
330
1F
100
AcDbEntity
  8
0
  6
Continuous
 62
     7
100
AcDbCircle
 10
184.0748149980455
 20
-2.21629999986436
 30
0.0
 40
150.5999427893078
100
AcDbArc
 50
77.98852719470485
 51
102.0112899896957
  0
ARC
  5
869
330
1F
100
AcDbEntity
  8
0
  6
Continuous
 62
     7
100
AcDbCircle
 10
184.0751967155061
 20
-2.216331215662876
 30
0.0
 40
149.9999903011529
100
AcDbArc
 50
77.98861587267619
 51
90.00007513979317
  0
LINE
  5
86A
330
1F
100
AcDbEntity
  8
0
  6
DASH_CENTER
 62
    30
100
AcDbLine
 10
109.8662
 20
90.1838
 30
0.0
 11
260.0144
 21
90.1838
 31
0.0
  0
LINE
  5
86B
330
1F
100
AcDbEntity
  8
0
  6
Continuous
 62
     7
100
AcDbLine
 10
184.0749999999999
 20
31.3838
 30
0.0
 11
219.5749
 21
31.3838
 31
0.0
  0
LINE
  5
86C
330
1F
100
AcDbEntity
  8
0
  6
Continuous
 62
     7
100
AcDbLine
 10
219.5749
 20
28.1838
 30
0.0
 11
184.0749999999999
 21
28.1838
 31
0.0
  0
ARC
  5
872
330
1F
100
AcDbEntity
  8
0
  6
Continuous
 62
     7
100
AcDbCircle
 10
109.9150835462932
 20
95.04318737453488
 30
0.0
 40
18.9999835462973
100
AcDbArc
 50
75.00044064595257
 51
179.9999619270264
  0
ARC
  5
87D
330
1F
100
AcDbEntity
  8
0
  6
Continuous
 62
     7
100
AcDbCircle
 10
-22.58739999999999
 20
90.18380000000002
 30
0.0
 40
5.499999999999996
100
AcDbArc
 50
180.0
 51
0.0
  0
ARC
  5
87E
330
1F
100
AcDbEntity
  8
0
  6
Continuous
 62
     7
100
AcDbCircle
 10
-22.58739999999999
 20
90.1838
 30
0.0
 40
5.499999999999992
100
AcDbArc
 50
0.0
 51
90.0
  0
LINE
  5
87F
330
1F
100
AcDbEntity
  8
0
  6
DASH_CENTER
 62
    30
100
AcDbLine
 10
-31.8418
 20
90.1838
 30
0.0
 11
-12.8726
 21
90.1838
 31
0.0
  0
ARC
  5
880
330
1F
100
AcDbEntity
  8
0
  6
Continuous
 62
     7
100
AcDbCircle
 10
-22.58739999999999
 20
90.18380000000002
 30
0.0
 40
5.5
100
AcDbArc
 50
90.0
 51
180.0
  0
LINE
  5
881
330
1F
100
AcDbEntity
  8
0
  6
DASH_CENTER
 62
    30
100
AcDbLine
 10
-22.58739999999999
 20
82.03319999999996
 30
0.0
 11
-22.58739999999999
 21
100.272
 31
0.0
  0
LINE
  5
882
330
1F
100
AcDbEntity
  8
0
  6
Continuous
 62
     7
100
AcDbLine
 10
-25.74979999999999
 20
94.68380000000001
 30
0.0
 11
-19.42500000000001
 21
94.68380000000001
 31
0.0
  0
ARC
  5
883
330
1F
100
AcDbEntity
  8
0
  6
DASH_CENTER
 62
    30
100
AcDbCircle
 10
184.0753046662884
 20
90.18369320119505
 30
0.0
 40
52.0000079684863
100
AcDbArc
 50
215.2388543545335
 51
233.6055879905595
  0
ARC
  5
884
330
1F
100
AcDbEntity
  8
0
  6
DASH_CENTER
 62
    30
100
AcDbCircle
 10
184.075155066164
 20
90.1837519724542
 30
0.0
 40
52.00000715084428
100
AcDbArc
 50
125.239343166398
 51
143.6060755026646
  0
ARC
  5
885
330
1F
100
AcDbEntity
  8
0
  6
Continuous
 62
     7
100
AcDbCircle
 10
159.1021270271558
 20
115.1564270265239
 30
0.0
 40
30.00001554198513
100
AcDbArc
 50
102.0116628275294
 51
167.9888332398263
  0
ARC
  5
886
330
1F
100
AcDbEntity
  8
0
  6
Continuous
 62
     7
100
AcDbCircle
 10
159.1023270269924
 20
115.156527027222
 30
0.0
 40
30.59996074537579
100
AcDbArc
 50
102.0117488339539
 51
167.9887375086545
  0
LINE
  5
887
330
1F
100
AcDbEntity
  8
0
  6
DASH_CENTER
 62
    30
100
AcDbLine
 10
153.1177
 20
59.2263
 30
0.0
 11
141.3393
 21
47.4478
 31
0.0
  0
LINE
  5
888
330
1F
100
AcDbEntity
  8
0
  6
DASH_CENTER
 62
    30
100
AcDbLine
 10
153.1176
 20
121.1411
 30
0.0
 11
141.3391
 21
132.9193999999999
 31
0.0
  0
LINE
  5
889
330
1F
100
AcDbEntity
  8
0
  6
Continuous
 62
     7
100
AcDbLine
 10
142.0272999999999
 20
96.18380000000001
 30
0.0
 11
153.5749999999999
 21
96.18380000000001
 31
0.0
  0
LINE
  5
88A
330
1F
100
AcDbEntity
  8
0
  6
Continuous
 62
     7
100
AcDbLine
 10
142.0274
 20
84.18380000000002
 30
0.0
 11
153.5749999999999
 21
84.18380000000002
 31
0.0
  0
LINE
  5
88B
330
1F
100
AcDbEntity
  8
0
  6
Continuous
 62
     7
100
AcDbLine
 10
184.0749999999999
 20
31.3838
 30
0.0
 11
148.5749999999999
 21
31.3838
 31
0.0
  0
LINE
  5
88C
330
1F
100
AcDbEntity
  8
0
  6
Continuous
 62
     7
100
AcDbLine
 10
148.5749999999999
 20
28.1838
 30
0.0
 11
184.0749999999999
 21
28.1838
 31
0.0
  0
ARC
  5
88D
330
1F
100
AcDbEntity
  8
0
  6
Continuous
 62
     7
100
AcDbCircle
 10
184.0750043305291
 20
90.18381045481701
 30
0.0
 40
53.20002208744721
100
AcDbArc
 50
148.3062199839456
 51
166.6937600209585
  0
ARC
  5
88E
330
1F
100
AcDbEntity
  8
0
  6
Continuous
 62
     7
100
AcDbCircle
 10
184.0750341603281
 20
90.18388247081182
 30
0.0
 40
56.20006672800337
100
AcDbArc
 50
148.800995177211
 51
166.1992427818891
  0
ARC
  5
88F
330
1F
100
AcDbEntity
  8
0
  6
Continuous
 62
     7
100
AcDbCircle
 10
276.474949031418
 20
90.18408380278783
 30
0.0
 40
150.600067997219
100
AcDbArc
 50
167.9887585754458
 51
172.4072561499401
  0
ARC
  5
890
330
1F
100
AcDbEntity
  8
0
  6
Continuous
 62
     7
100
AcDbCircle
 10
276.4747650833376
 20
90.1830489469
 30
0.0
 40
150.0000396116703
100
AcDbArc
 50
167.9884059645079
 51
171.6439793628263
  0
ARC
  5
892
330
1F
100
AcDbEntity
  8
0
  6
Continuous
 62
     7
100
AcDbCircle
 10
119.0750587920079
 20
34.38383064270151
 30
0.0
 40
3.000030643277586
100
AcDbArc
 50
269.9988771668277
 51
325.0586447866816
  0
LINE
  5
893
330
1F
100
AcDbEntity
  8
0
  6
Continuous
 62
     7
100
AcDbLine
 10
145.5749999999999
 20
30.3838
 30
0.0
 11
119.0749999999999
 21
30.3838
 31
0.0
  0
LINE
  5
894
330
1F
100
AcDbEntity
  8
0
  6
Continuous
 62
     7
100
AcDbLine
 10
148.5749999999999
 20
31.3838
 30
0.0
 11
119.0749999999999
 21
31.3838
 31
0.0
  0
LINE
  5
895
330
1F
100
AcDbEntity
  8
0
  6
Continuous
 62
     7
100
AcDbLine
 10
112.5032
 20
104.7023999999999
 30
0.0
 11
125.0210999999999
 21
101.3484
 31
0.0
  0
LINE
  5
896
330
1F
100
AcDbEntity
  8
0
  6
Continuous
 62
     7
100
AcDbLine
 10
114.0560999999999
 20
110.4979999999999
 30
0.0
 11
126.4291
 21
107.1825999999999
 31
0.0
  0
LINE
  5
897
330
1F
100
AcDbEntity
  8
0
  6
Continuous
 62
     7
100
AcDbLine
 10
114.8325
 20
113.3958
 30
0.0
 11
127.3503999999999
 21
110.0416999999999
 31
0.0
  0
LINE
  5
898
330
1F
100
AcDbEntity
  8
0
  6
Continuous
 62
     7
100
AcDbLine
 10
113.2796
 20
107.6000999999999
 30
0.0
 11
125.6526
 21
104.2848999999999
 31
0.0
  0
LINE
  5
899
330
1F
100
AcDbEntity
  8
0
  6
Continuous
 62
     7
100
AcDbLine
 10
90.91509999999999
 20
95.04319999999999
 30
0.0
 11
90.91509999999999
 21
66.00100000000001
 31
0.0
  0
LINE
  5
89A
330
1F
100
AcDbEntity
  8
0
  6
Continuous
 62
     7
100
AcDbLine
 10
96.9151
 20
95.04319999999999
 30
0.0
 11
96.9151
 21
65.9755676299345
 31
0.0
  0
LINE
  5
89B
330
1F
100
AcDbEntity
  8
0
  6
Continuous
 62
     7
100
AcDbLine
 10
93.9151
 20
95.04319999999999
 30
0.0
 11
93.9151
 21
66.08998070437961
 31
0.0
  0
LINE
  5
89C
330
1F
100
AcDbEntity
  8
0
  6
Continuous
 62
     7
100
AcDbLine
 10
99.91509999999999
 20
95.04319999999999
 30
0.0
 11
99.91509999999999
 21
66.00100000000001
 31
0.0
  0
LINE
  5
89D
330
1F
100
AcDbEntity
  8
0
  6
Continuous
 62
     7
100
AcDbLine
 10
90.91509999999999
 20
33.89009999999998
 30
0.0
 11
90.91509999999999
 21
53.4709
 31
0.0
  0
LINE
  5
89E
330
1F
100
AcDbEntity
  8
0
  6
Continuous
 62
     7
100
AcDbLine
 10
93.9151
 20
33.89009999999998
 30
0.0
 11
93.9151
 21
53.2197
 31
0.0
  0
LINE
  5
89F
330
1F
100
AcDbEntity
  8
0
  6
Continuous
 62
     7
100
AcDbLine
 10
90.36509999999999
 20
33.89009999999998
 30
0.0
 11
90.36509999999999
 21
29.09029999999999
 31
0.0
  0
LINE
  5
8A0
330
1F
100
AcDbEntity
  8
0
  6
Continuous
 62
     7
100
AcDbLine
 10
94.465
 20
33.89009999999998
 30
0.0
 11
94.465
 21
29.09029999999999
 31
0.0
  0
LINE
  5
8A1
330
1F
100
AcDbEntity
  8
0
  6
Continuous
 62
     7
100
AcDbLine
 10
90.36509999999999
 20
29.09029999999999
 30
0.0
 11
94.465
 21
29.09029999999999
 31
0.0
  0
LINE
  5
8A2
330
1F
100
AcDbEntity
  8
0
  6
Continuous
 62
     7
100
AcDbLine
 10
94.465
 20
33.89009999999998
 30
0.0
 11
90.36509999999999
 21
33.89009999999998
 31
0.0
  0
SPLINE
  5
8A3
330
1F
100
AcDbEntity
  8
0
  6
Continuous
 62
    54
100
AcDbSpline
210
0.0
220
0.0
230
1.0
 70
     8
 71
     3
 72
   182
 73
   178
 74
   176
 42
0.0000000001
 43
0.0000000001
 44
0.00000001
 40
0.0
 40
0.0
 40
0.0
 40
0.0
 40
0.0650619629573448
 40
0.1301168644976851
 40
0.1951882743246207
 40
0.2603605792860725
 40
0.3125852216727124
 40
0.3648421151609531
 40
0.4170399481513822
 40
0.4691491874446017
 40
0.5212132437186129
 40
0.5684551086898492
 40
0.6157661912529513
 40
0.6631269938946259
 40
0.7104949955900657
 40
0.7578086409309308
 40
0.8067564646841963
 40
0.8556749788172393
 40
0.9046351063261434
 40
0.9536692092643789
 40
1.002775528545463
 40
1.051922711977552
 40
1.101054222938588
 40
1.178184405903903
 40
1.255164340681545
 40
1.332060478268854
 40
1.408927296119084
 40
1.485807729704039
 40
1.564412109806214
 40
1.643030086085706
 40
1.72164230249262
 40
1.800246876878598
 40
1.86714706693289
 40
1.93405847099943
 40
2.000977770633877
 40
2.067893198662672
 40
2.134785132428042
 40
2.209160774189014
 40
2.283529138813944
 40
2.357912098553986
 40
2.432307018168224
 40
2.508593579862193
 40
2.58486021534693
 40
2.66111761715206
 40
2.725805905145821
 40
2.790512432990308
 40
2.855226912526796
 40
2.919950361191686
 40
2.980711113506107
 40
3.041468120426927
 40
3.102211665620429
 40
3.162946878207347
 40
3.210635315596969
 40
3.258323887523306
 40
3.306015479084608
 40
3.353724493590462
 40
3.408883382206751
 40
3.464053161826549
 40
3.519205688461688
 40
3.574335407543449
 40
3.62084802525979
 40
3.667376727259652
 40
3.713925668341373
 40
3.76048418930836
 40
3.80702818931801
 40
3.862657429959782
 40
3.91826580264545
 40
3.973873169563591
 40
4.029470566340647
 40
4.106915025564445
 40
4.184356908215615
 40
4.261815606618788
 40
4.339283953141774
 40
4.391994377919694
 40
4.444694825500592
 40
4.497389654219478
 40
4.550111947569684
 40
4.602931221159157
 40
4.655960730800133
 40
4.690972952331184
 40
4.726032473621205
 40
4.761046498098608
 40
4.795947243562059
 40
4.830696647924556
 40
4.865291585244685
 40
4.899769379398075
 40
4.936053027106513
 40
4.972425527959391
 40
5.008963249305158
 40
5.045691983342829
 40
5.082593694508283
 40
5.119613178642087
 40
5.156664232756797
 40
5.193635159579999
 40
5.257991201443005
 40
5.321965580048638
 40
5.385755408790649
 40
5.449503420619024
 40
5.51332160212805
 40
5.566247092932071
 40
5.619217987634053
 40
5.672178711939094
 40
5.725103502411022
 40
5.77800717378347
 40
5.836855287593885
 40
5.89576612524188
 40
5.954729691235137
 40
6.013715635485793
 40
6.072675465991765
 40
6.140405917332961
 40
6.208095422230178
 40
6.275776494686741
 40
6.343439880216528
 40
6.410262145158823
 40
6.477085513311882
 40
6.543943417815129
 40
6.596352647522643
 40
6.648751190792753
 40
6.701110722596165
 40
6.753448532394994
 40
6.811413009607281
 40
6.869442619003246
 40
6.927503763431166
 40
6.985542950930343
 40
7.039532352932752
 40
7.093504457077556
 40
7.147491689872747
 40
7.201499367709571
 40
7.255510813708516
 40
7.369445747729692
 40
7.48333372791435
 40
7.597202038280488
 40
7.711049535820655
 40
7.812796500738404
 40
7.91454339318125
 40
8.016320700166856
 40
8.118178264736219
 40
8.220189329289876
 40
8.274912827968439
 40
8.329643670268694
 40
8.384336102736353
 40
8.438970363271273
 40
8.493558750452262
 40
8.548151729291195
 40
8.602843822294484
 40
8.648506535110575
 40
8.694269711476209
 40
8.740075138825654
 40
8.785874245469409
 40
8.831629999102379
 40
8.877318912330222
 40
8.922933144603574
 40
8.968482669772058
 40
9.012605071914849
 40
9.056741678351762
 40
9.100918810557857
 40
9.145141704085101
 40
9.189396556492003
 40
9.233652550663768
 40
9.27786378885327
 40
9.333412341481528
 40
9.388867900012623
 40
9.444278092777512
 40
9.499667598715074
 40
9.500892271204939
 40
9.50211675271869
 40
9.503372405569569
 40
9.504628254497292
 40
9.558035844018075
 40
9.611499443774331
 40
9.665024078571091
 40
9.718561452108362
 40
9.776048939653014
 40
9.833473450794194
 40
9.890865602477692
 40
9.954966622031104
 40
10.01908564069852
 40
10.01908564069852
 40
10.01908564069852
 40
10.01908564069852
 10
90.91509999999999
 20
66.00100000000001
 30
0.0
 10
90.92660339504099
 20
65.98261488161452
 30
0.0
 10
90.94960894885192
 20
65.94584664790883
 30
0.0
 10
90.98475435579549
 20
65.89108903968116
 30
0.0
 10
91.02125919843109
 20
65.83717606557614
 30
0.0
 10
91.05722358653126
 20
65.78810009244211
 30
0.0
 10
91.09266446694723
 20
65.74401004527572
 30
0.0
 10
91.12725191630984
 20
65.70484919188382
 30
0.0
 10
91.16386647919624
 20
65.6676207635277
 30
0.0
 10
91.2026473151528
 20
65.63273958354608
 30
0.0
 10
91.24245059815432
 20
65.60162940625989
 30
0.0
 10
91.28308927131406
 20
65.57441257402935
 30
0.0
 10
91.32408476568532
 20
65.55074331719374
 30
0.0
 10
91.36653957832768
 20
65.5297144561041
 30
0.0
 10
91.41020158438282
 20
65.51132644370699
 30
0.0
 10
91.45537469797735
 20
65.49538321214464
 30
0.0
 10
91.50190487489451
 20
65.4819859167032
 30
0.0
 10
91.54962994627139
 20
65.4710400523426
 30
0.0
 10
91.59786254745268
 20
65.46246568654388
 30
0.0
 10
91.64648487876377
 20
65.45602118314781
 30
0.0
 10
91.69537964710757
 20
65.45146541683156
 30
0.0
 10
91.74443000661582
 20
65.4485582275711
 30
0.0
 10
91.80287829630824
 20
65.44677413862435
 30
0.0
 10
91.87064160693642
 20
65.44678272377632
 30
0.0
 10
91.94760892756995
 20
65.44957479196241
 30
0.0
 10
92.02434449181172
 20
65.45502833707627
 30
0.0
 10
92.10082244806377
 20
65.46302311377697
 30
0.0
 10
92.17757123483801
 20
65.47351462952538
 30
0.0
 10
92.25454092735775
 20
65.4864385175223
 30
0.0
 10
92.33161272831578
 20
65.50199788470978
 30
0.0
 10
92.40809549516752
 20
65.52024061560672
 30
0.0
 10
92.48008817745846
 20
65.54026139857814
 30
0.0
 10
92.54758209874285
 20
65.56170314553992
 30
0.0
 10
92.61068127012265
 20
65.58399544689706
 30
0.0
 10
92.67307262823162
 20
65.60820955315072
 30
0.0
 10
92.73472242788415
 20
65.63423479113175
 30
0.0
 10
92.79788308256149
 20
65.66300160820197
 30
0.0
 10
92.86243907734252
 20
65.69462947059178
 30
0.0
 10
92.92847220408379
 20
65.72886405466734
 30
0.0
 10
92.9939613022074
 20
65.76413646020077
 30
0.0
 10
93.05969698274976
 20
65.80028993247672
 30
0.0
 10
93.12591549588482
 20
65.83686786433094
 30
0.0
 10
93.19303597233162
 20
65.87309435229528
 30
0.0
 10
93.25748185646331
 20
65.90611718818149
 30
0.0
 10
93.31942323213748
 20
65.93550810452737
 30
0.0
 10
93.37868777859222
 20
65.96149855475731
 30
0.0
 10
93.43875527658145
 20
65.98561028522363
 30
0.0
 10
93.49836000852651
 20
66.00725234673024
 30
0.0
 10
93.55741509169659
 20
66.02643444792469
 30
0.0
 10
93.61583501869739
 20
66.04316055150795
 30
0.0
 10
93.67483223560695
 20
66.0576902055018
 30
0.0
 10
93.73009208112753
 20
66.06899980941317
 30
0.0
 10
93.78143615950492
 20
66.07752431294042
 30
0.0
 10
93.82873620306138
 20
66.08368780740445
 30
0.0
 10
93.87624043078984
 20
66.08809316597817
 30
0.0
 10
93.92636919914146
 20
66.09076150327438
 30
0.0
 10
93.9790680720378
 20
66.09120911780653
 30
0.0
 10
94.03420480611709
 20
66.08891056532996
 30
0.0
 10
94.08913660898392
 20
66.08371332898548
 30
0.0
 10
94.14084606607776
 20
66.07591348902738
 30
0.0
 10
94.18923653980153
 20
66.0659327843255
 30
0.0
 10
94.23433559340095
 20
66.05441703854473
 30
0.0
 10
94.27889577386617
 20
66.04091921317557
 30
0.0
 10
94.32285719543591
 20
66.02557199950867
 30
0.0
 10
94.36899357119846
 20
66.00739158445597
 30
0.0
 10
94.41710736455913
 20
65.98611009937056
 30
0.0
 10
94.4670448435939
 20
65.96160124453652
 30
0.0
 10
94.51608688642075
 20
65.93537522353061
 30
0.0
 10
94.5706353231907
 20
65.90407449049433
 30
0.0
 10
94.63042657909467
 20
65.8673447899435
 30
0.0
 10
94.69551957831983
 20
65.82537455075629
 30
0.0
 10
94.76024737460846
 20
65.78283350416228
 30
0.0
 10
94.81825063316037
 20
65.74506853533705
 30
0.0
 10
94.8698181095054
 20
65.71255439290474
 30
0.0
 10
94.91492309772146
 20
65.68528748012536
 30
0.0
 10
94.9607241238545
 20
65.65919223141498
 30
0.0
 10
95.00739731924758
 20
65.63459691784666
 30
0.0
 10
95.05511812514678
 20
65.61183107156505
 30
0.0
 10
95.09841291567065
 20
65.59360545077783
 30
0.0
 10
95.13690272714903
 20
65.57935699848323
 30
0.0
 10
95.17021752809331
 20
65.56850072585231
 30
0.0
 10
95.2039508058155
 20
65.55915301940735
 30
0.0
 10
95.23801351529371
 20
65.55153368690071
 30
0.0
 10
95.27231693031776
 20
65.54586386432958
 30
0.0
 10
95.30677195383992
 20
65.54236585244947
 30
0.0
 10
95.34190464027611
 20
65.54124386322055
 30
0.0
 10
95.3776144552053
 20
65.54288920817164
 30
0.0
 10
95.41378404256766
 20
65.54720655636431
 30
0.0
 10
95.44973570612716
 20
65.55390017471146
 30
0.0
 10
95.48540569117243
 20
65.56270549549201
 30
0.0
 10
95.52073119270735
 20
65.57335959953561
 30
0.0
 10
95.5556486978414
 20
65.5856008829046
 30
0.0
 10
95.59009426794007
 20
65.59916896347349
 30
0.0
 10
95.63245023551806
 20
65.61744857964317
 30
0.0
 10
95.68222036988917
 20
65.64113296108345
 30
0.0
 10
95.73901146708509
 20
65.67074924123737
 30
0.0
 10
95.79484629737333
 20
65.70170431848942
 30
0.0
 10
95.85018506023146
 20
65.73342582595092
 30
0.0
 10
95.90229365098606
 20
65.76349881681237
 30
0.0
 10
95.95150680880001
 20
65.79140079801715
 30
0.0
 10
95.99795927847996
 20
65.81682613055519
 30
0.0
 10
96.04498849978355
 20
65.84117492073591
 30
0.0
 10
96.09273868208346
 20
65.86403569260127
 30
0.0
 10
96.14316242102802
 20
65.8857742888675
 30
0.0
 10
96.19649410536398
 20
65.90564833508013
 30
0.0
 10
96.25268006323441
 20
65.92342359328322
 30
0.0
 10
96.30969347189733
 20
65.93850685561476
 30
0.0
 10
96.36734660690672
 20
65.95098978609385
 30
0.0
 10
96.42836440980991
 20
65.96146442470206
 30
0.0
 10
96.49266925205056
 20
65.969586190478
 30
0.0
 10
96.56014884786291
 20
65.97525376230125
 30
0.0
 10
96.62776237529957
 20
65.9784792474817
 30
0.0
 10
96.69515004664267
 20
65.9796398324593
 30
0.0
 10
96.76225552718493
 20
65.97913780250589
 30
0.0
 10
96.82907466569494
 20
65.97767578137932
 30
0.0
 10
96.891083870252
 20
65.9760588808316
 30
0.0
 10
96.94829345136945
 20
65.97487259828645
 30
0.0
 10
97.00066185504297
 20
65.97333828327544
 30
0.0
 10
97.05296529336088
 20
65.97066253320173
 30
0.0
 10
97.10700082216725
 20
65.96598816476536
 30
0.0
 10
97.16261049656043
 20
65.95830337721963
 30
0.0
 10
97.21962732716741
 20
65.94744449034372
 30
0.0
 10
97.2760748738572
 20
65.93383554155304
 30
0.0
 10
97.3305401903471
 20
65.91801580599867
 30
0.0
 10
97.382985127551
 20
65.90032858865516
 30
0.0
 10
97.4335005940718
 20
65.88126611500169
 30
0.0
 10
97.48342541758757
 20
65.86069830355715
 30
0.0
 10
97.53284441339829
 20
65.83891656823649
 30
0.0
 10
97.59997500066528
 20
65.80780967928254
 30
0.0
 10
97.68438933873285
 20
65.76655865689478
 30
0.0
 10
97.7857922082024
 20
65.71468757509193
 30
0.0
 10
97.88672021281371
 20
65.6619671730478
 30
0.0
 10
97.98412297467828
 20
65.61123761649985
 30
0.0
 10
98.07844582648728
 20
65.56334986707909
 30
0.0
 10
98.16979586226308
 20
65.51851169241406
 30
0.0
 10
98.26193865810969
 20
65.47523390079806
 30
0.0
 10
98.355047007642
 20
65.43385159413215
 30
0.0
 10
98.43465925305988
 20
65.40078005639554
 30
0.0
 10
98.50032503224898
 20
65.37514650829951
 30
0.0
 10
98.55170331013503
 20
65.35631465089688
 30
0.0
 10
98.60354112279908
 20
65.3388717527703
 30
0.0
 10
98.65587967706892
 20
65.32314633238922
 30
0.0
 10
98.70876041970911
 20
65.30946804545276
 30
0.0
 10
98.7622240871644
 20
65.29816749642887
 30
0.0
 10
98.8132598227372
 20
65.29006253555269
 30
0.0
 10
98.86171149673092
 20
65.28491840858662
 30
0.0
 10
98.90739651836456
 20
65.28226994902976
 30
0.0
 10
98.95320292926534
 20
65.28186736046868
 30
0.0
 10
98.99896982915374
 20
65.28378390323822
 30
0.0
 10
99.04453618206872
 20
65.28809331254284
 30
0.0
 10
99.08974101655472
 20
65.29486957308325
 30
0.0
 10
99.13442283545942
 20
65.30418690088797
 30
0.0
 10
99.17797312521303
 20
65.31599868240383
 30
0.0
 10
99.22025400639254
 20
65.33028300607012
 30
0.0
 10
99.26122646993359
 20
65.34677705189216
 30
0.0
 10
99.30128023812407
 20
65.36546537240522
 30
0.0
 10
99.34036445330903
 20
65.38618435099924
 30
0.0
 10
99.37842838573153
 20
65.40877070925384
 30
0.0
 10
99.41542128670036
 20
65.43306174252707
 30
0.0
 10
99.45438735051048
 20
65.46112332000745
 30
0.0
 10
99.49494600662069
 20
65.49328226444143
 30
0.0
 10
99.53669798849638
 20
65.52983537365903
 30
0.0
 10
99.57669570687974
 20
65.56821910477643
 30
0.0
 10
99.60251774040285
 20
65.59521044934673
 30
0.0
 10
99.61555929596823
 20
65.60940961349247
 30
0.0
 10
99.61640397024163
 20
65.61031059007247
 30
0.0
 10
99.61727519353768
 20
65.61120052686122
 30
0.0
 10
99.63044963984849
 20
65.62438645542201
 30
0.0
 10
99.65509607390831
 20
65.65072093249003
 30
0.0
 10
99.68936363405003
 20
65.69179158555982
 30
0.0
 10
99.72155304837361
 20
65.73456029091412
 30
0.0
 10
99.75260395445801
 20
65.77979177514206
 30
0.0
 10
99.78257531791099
 20
65.82729136042572
 30
0.0
 10
99.81123441703395
 20
65.87708283973121
 30
0.0
 10
99.83884739772582
 20
65.92996573701736
 30
0.0
 10
99.86504513796278
 20
65.98603172528085
 30
0.0
 10
99.88228091029577
 20
66.0251420765347
 30
0.0
 10
99.8909
 20
66.0447
 30
0.0
 11
90.91509999999999
 21
66.00100000000001
 31
0.0
 11
90.94971599040428
 21
65.94591105138476
 31
0.0
 11
90.984974454903
 21
65.89123947827373
 31
0.0
 11
91.02157132801778
 21
65.83743467121613
 31
0.0
 11
91.06020254427031
 21
65.78494602076124
 31
0.0
 11
91.09296712130328
 21
65.74427790503277
 31
0.0
 11
91.12760770503099
 21
65.70515229888025
 31
0.0
 11
91.16425660476087
 21
65.66798414159539
 31
0.0
 11
91.20304612980028
 21
65.63318837247003
 31
0.0
 11
91.24410858945656
 21
65.60117993079585
 31
0.0
 11
91.28334626504864
 21
65.57487026342335
 31
0.0
 11
91.32430725371113
 21
65.55119462367699
 31
0.0
 11
91.36673854563191
 21
65.53015582453733
 31
0.0
 11
91.41038713099892
 21
65.51175667898481
 31
0.0
 11
91.455
 21
65.49600000000001
 31
0.0
 11
91.50202552026444
 21
65.48241729515289
 31
0.0
 11
91.54969622060331
 21
65.4714388921641
 31
0.0
 11
91.59789282195379
 21
65.46282601325318
 31
0.0
 11
91.64649604525331
 21
65.45633988063977
 31
0.0
 11
91.69538661143906
 21
65.45174171654345
 31
0.0
 11
91.74444524144822
 21
65.44879274318379
 31
0.0
 11
91.7935526562182
 21
65.44725418278038
 31
0.0
 11
91.8706828386797
 21
65.44724768162608
 31
0.0
 11
91.94761281694539
 21
65.45002054482175
 31
0.0
 11
92.02431681246794
 21
65.45545313325361
 31
0.0
 11
92.10076904670023
 21
65.46342580780799
 31
0.0
 11
92.17694374109509
 21
65.47381892937107
 31
0.0
 11
92.25445859506251
 21
65.48686101354391
 31
0.0
 11
92.33151641965894
 21
65.50244555196051
 31
0.0
 11
92.40797696969968
 21
65.52071204673961
 31
0.0
 11
92.48369999999999
 21
65.54179999999999
 31
0.0
 11
92.54746492754035
 21
65.562040292194
 31
0.0
 11
92.61056003787201
 21
65.58431456052557
 31
0.0
 11
92.67295122707542
 21
65.60851233226145
 31
0.0
 11
92.73460439123111
 21
65.63452313466843
 31
0.0
 11
92.7954854264197
 21
65.66223649501323
 31
0.0
 11
92.86231366973265
 21
65.6948818923036
 31
0.0
 11
92.92837629042978
 21
65.72903425364891
 31
0.0
 11
92.99390551860891
 21
65.76423006215714
 31
0.0
 11
93.059133584368
 21
65.80000580093629
 31
0.0
 11
93.12598108748458
 21
65.83676244395161
 31
0.0
 11
93.19316644453351
 21
65.8728557601071
 31
0.0
 11
93.26109999999999
 21
65.90749999999998
 31
0.0
 11
93.31955099690459
 21
65.93521381524175
 31
0.0
 11
93.37881736314225
 21
65.96118365486953
 31
0.0
 11
93.4388814542814
 21
65.98527242423739
 31
0.0
 11
93.49972562589048
 21
66.00734302869937
 31
0.0
 11
93.55752076705059
 21
66.02609378000427
 31
0.0
 11
93.61593694366248
 21
66.04279600126108
 31
0.0
 11
93.67492353507046
 21
66.05729980462704
 31
0.0
 11
93.73442992061876
 21
66.06945530225933
 31
0.0
 11
93.78147710008251
 21
66.07724952850289
 31
0.0
 11
93.82876809608706
 21
66.08339457422985
 31
0.0
 11
93.87625752420273
 21
66.08778115840674
 31
0.0
 11
93.9239
 21
66.0903
 31
0.0
 11
93.97905706966815
 21
66.0907479468261
 31
0.0
 11
94.03417800375136
 21
66.08842691117684
 31
0.0
 11
94.08908295142806
 21
66.08320695789966
 31
0.0
 11
94.14359206187667
 21
66.07495815184205
 31
0.0
 11
94.18914982157735
 21
66.06558189801777
 31
0.0
 11
94.23423682446621
 21
66.05408919259132
 31
0.0
 11
94.27879212438229
 21
66.0406122061796
 31
0.0
 11
94.32275477516496
 21
66.02528310939951
 31
0.0
 11
94.36606383065337
 21
66.00823407286791
 31
0.0
 11
94.41695697743805
 21
65.98577299497463
 31
0.0
 11
94.46689748237371
 21
65.96131410958554
 31
0.0
 11
94.51595520378587
 21
65.93513168762071
 31
0.0
 11
94.56419999999999
 21
65.90749999999998
 31
0.0
 11
94.63027593188611
 21
65.86710673970088
 31
0.0
 11
94.69545290327969
 21
65.82528321073171
 31
0.0
 11
94.76027538008615
 21
65.7828816017376
 31
0.0
 11
94.82528782821088
 21
65.74075410136372
 31
0.0
 11
94.86990811836133
 21
65.7126931216841
 31
0.0
 11
94.91504013689279
 21
65.68548212993528
 31
0.0
 11
94.96085562270121
 21
65.65944972268187
 31
0.0
 11
95.00752631468223
 21
65.6349244964884
 31
0.0
 11
95.05522395173182
 21
65.61223504791946
 31
0.0
 11
95.10412027274576
 21
65.59170997353959
 31
0.0
 11
95.1369641594144
 21
65.57958006164124
 31
0.0
 11
95.17030778390472
 21
65.56874619175639
 31
0.0
 11
95.20405909636101
 21
65.55942788635917
 31
0.0
 11
95.23812603058964
 21
65.5518446137002
 31
0.0
 11
95.27241653128875
 21
65.54621587817909
 31
0.0
 11
95.30683854043379
 21
65.54276117515822
 31
0.0
 11
95.34130000000001
 21
65.5417
 31
0.0
 11
95.37754719610564
 21
65.54332599626857
 31
0.0
 11
95.41366884842823
 21
65.54759038955619
 31
0.0
 11
95.44959778099601
 21
65.55423244375143
 31
0.0
 11
95.48526681783714
 21
65.56299142274283
 31
0.0
 11
95.52060878297991
 21
65.57360659041896
 31
0.0
 11
95.55555650045247
 21
65.58581721066838
 31
0.0
 11
95.59004279428306
 21
65.59936254737964
 31
0.0
 11
95.62400048849987
 21
65.61398186444127
 31
0.0
 11
95.68215824684564
 21
65.64153862878773
 31
0.0
 11
95.73893613239276
 21
65.67101731300896
 31
0.0
 11
95.79478336999027
 21
65.70184308625576
 31
0.0
 11
95.8501491844872
 21
65.73344111767912
 31
0.0
 11
95.90548280073273
 21
65.76523657642988
 31
0.0
 11
95.95155820016779
 21
65.79127818043264
 31
0.0
 11
95.99805845398478
 21
65.81664828244298
 31
0.0
 11
96.04512272801098
 21
65.84093392480895
 31
0.0
 11
96.09289018807364
 21
65.86372214987861
 31
0.0
 11
96.1415
 21
65.88460000000001
 31
0.0
 11
96.19663435139351
 21
65.90517434790235
 31
0.0
 11
96.25279374997901
 21
65.92296785063334
 31
0.0
 11
96.30979021467522
 21
65.93807100009296
 31
0.0
 11
96.36743576440078
 21
65.9505742881813
 31
0.0
 11
96.42554241807452
 21
65.96056820679827
 31
0.0
 11
96.49273109705344
 21
65.96911779464543
 31
0.0
 11
96.56017768973647
 21
65.9748472104212
 31
0.0
 11
96.62777880209429
 21
65.97813615756279
 31
0.0
 11
96.69543104009768
 21
65.97936433950741
 31
0.0
 11
96.76225218535392
 21
65.97897751251993
 31
0.0
 11
96.82906195305564
 21
65.97762937772444
 31
0.0
 11
96.8959
 21
65.97599999999999
 31
0.0
 11
96.94829543928456
 21
65.97479779425379
 31
0.0
 11
97.00066798379463
 21
65.97314736511808
 31
0.0
 11
97.05295304058001
 21
65.97035569795824
 31
0.0
 11
97.1050860166904
 21
65.96572977813963
 31
0.0
 11
97.16250849985536
 21
65.95782161510621
 31
0.0
 11
97.21951808585458
 21
65.94698913305997
 31
0.0
 11
97.27596718378098
 21
65.93340252820451
 31
0.0
 11
97.33170820272746
 21
65.91723199674333
 31
0.0
 11
97.38288233885461
 21
65.90002550623222
 31
0.0
 11
97.4333965275832
 21
65.8810174879785
 31
0.0
 11
97.48333282797549
 21
65.86049951530596
 31
0.0
 11
97.53277329909366
 21
65.83876316153854
 31
0.0
 11
97.58180000000001
 21
65.81610000000001
 31
0.0
 11
97.68424670721586
 21
65.76624178762713
 31
0.0
 11
97.78572320400794
 21
65.71454079541076
 31
0.0
 11
97.88673705055662
 21
65.66198420805365
 31
0.0
 11
97.98779580704255
 21
65.6095592102585
 31
0.0
 11
98.07854829923249
 21
65.56355453661885
 31
0.0
 11
98.16991329078884
 21
65.51877877976251
 31
0.0
 11
98.26206186934609
 21
65.47556697991732
 31
0.0
 11
98.35516512253876
 21
65.43425417731113
 31
0.0
 11
98.44939413800124
 21
65.39517541217179
 31
0.0
 11
98.50039045678087
 21
65.37532505292606
 31
0.0
 11
98.55179666756532
 21
65.35654030980501
 31
0.0
 11
98.60365059602434
 21
65.3391497303495
 31
0.0
 11
98.65599006782758
 21
65.32348186210038
 31
0.0
 11
98.70885290864478
 21
65.3098652525985
 31
0.0
 11
98.76227694414568
 21
65.29862844938477
 31
0.0
 11
98.81630000000001
 21
65.29009999999999
 31
0.0
 11
98.86170810850284
 21
65.28528471121585
 31
0.0
 11
98.90739509722143
 21
65.28264513660204
 31
0.0
 11
98.95319885479457
 21
65.2822540519802
 31
0.0
 11
98.99895726986095
 21
65.28418423317188
 31
0.0
 11
99.04450823105936
 21
65.28850845599865
 31
0.0
 11
99.08968962702857
 21
65.29529949628216
 31
0.0
 11
99.1343393464073
 21
65.30463012984393
 31
0.0
 11
99.17829527783432
 21
65.31657313250559
 31
0.0
 11
99.220103814927
 21
65.33067393303571
 31
0.0
 11
99.26105585083057
 21
65.34713512259907
 31
0.0
 11
99.30109909510875
 21
65.36579410372103
 31
0.0
 11
99.34018125732528
 21
65.38648827892686
 31
0.0
 11
99.37825004704381
 21
65.40905505074189
 31
0.0
 11
99.41525317382817
 21
65.43333182169146
 31
0.0
 11
99.451138347242
 21
65.45915599430083
 31
0.0
 11
99.49468081630769
 21
65.49364795068155
 31
0.0
 11
99.53642332626305
 21
65.53015660449514
 31
0.0
 11
99.576421453219
 21
65.56850291163343
 31
0.0
 11
99.61473077328641
 21
65.6085078279881
 31
0.0
 11
99.61556086841357
 21
65.60940825276069
 31
0.0
 11
99.6164
 21
65.61029999999999
 31
0.0
 11
99.61727664555048
 21
65.61119897532474
 31
0.0
 11
99.61816254497096
 21
65.61208910942479
 31
0.0
 11
99.65470174321147
 21
65.65104109978467
 31
0.0
 11
99.68900010056778
 21
65.69205303850491
 31
0.0
 11
99.72123412225471
 21
65.73478305487927
 31
0.0
 11
99.75158031348716
 21
65.77888927820151
 31
0.0
 11
99.78225300350228
 21
65.82751023124448
 31
0.0
 11
99.81089529024245
 21
65.87728164353253
 31
0.0
 11
99.83745437021829
 21
65.92815869998045
 31
0.0
 11
99.86482728920632
 21
65.98612131187742
 31
0.0
 11
99.8909
 21
66.0447
 31
0.0
  0
SPLINE
  5
8A4
330
1F
100
AcDbEntity
  8
0
  6
Continuous
 62
    54
100
AcDbSpline
210
0.0
220
0.0
230
1.0
 70
     8
 71
     3
 72
    31
 73
    27
 74
    25
 42
0.0000000001
 43
0.0000000001
 44
0.00000001
 40
0.0
 40
0.0
 40
0.0
 40
0.0
 40
0.1657962484753395
 40
0.3316204412193369
 40
0.494807090171472
 40
0.6579079035056892
 40
0.7384206888970928
 40
0.8189145338263386
 40
0.9800528213580431
 40
1.141378602556381
 40
1.30534062584541
 40
1.469248482284358
 40
1.552005189231308
 40
1.634759734805232
 40
1.798215539464519
 40
1.961768671697413
 40
2.110908866712145
 40
2.25983527245824
 40
2.325359526112579
 40
2.390878040977038
 40
2.505844081088886
 40
2.620906714513205
 40
2.728428663225064
 40
2.836044987661236
 40
2.889544643418646
 40
2.94301806345375
 40
2.94301806345375
 40
2.94301806345375
 40
2.94301806345375
 10
90.97979999999999
 20
53.5339
 30
0.0
 10
91.03488843030859
 20
53.53832180157264
 30
0.0
 10
91.14507457697703
 20
53.54716613539395
 30
0.0
 10
91.30972498079783
 20
53.55723109422538
 30
0.0
 10
91.47377380494946
 20
53.56101890433631
 30
0.0
 10
91.60941282308732
 20
53.5561574057705
 30
0.0
 10
91.71698199806774
 20
53.54580643473376
 30
0.0
 10
91.82333660030701
 20
53.53069194325644
 30
0.0
 10
91.9546847865385
 20
53.50163241027114
 30
0.0
 10
92.1100090509196
 20
53.45479636287615
 30
0.0
 10
92.26364938885481
 20
53.40004957867136
 30
0.0
 10
92.39140468328082
 20
53.35092013853196
 30
0.0
 10
92.49390944341978
 20
53.31154665240318
 30
0.0
 10
92.59651182773433
 20
53.27285349474102
 30
0.0
 10
92.72517287163921
 20
53.22693158038369
 30
0.0
 10
92.87669348293803
 20
53.17949727914866
 30
0.0
 10
93.02583548994602
 20
53.14125143516242
 30
0.0
 10
93.14563413204911
 20
53.1212963692511
 30
0.0
 10
93.23874107042442
 20
53.11414123573416
 30
0.0
 10
93.32084618389115
 20
53.11411349132373
 30
0.0
 10
93.41894869955115
 20
53.12751215113894
 30
0.0
 10
93.52701900555899
 20
53.16053985389602
 30
0.0
 10
93.62643184600319
 20
53.20847200803616
 30
0.0
 10
93.70297031642691
 20
53.25507944668917
 30
0.0
 10
93.76270038433307
 20
53.29443398246588
 30
0.0
 10
93.79223587844878
 20
53.31441295720503
 30
0.0
 10
93.807
 20
53.3244
 30
0.0
 11
90.97979999999999
 21
53.5339
 31
0.0
 11
91.14510598376043
 21
53.54664079263093
 31
0.0
 11
91.31065279999999
 21
53.556228
 31
0.0
 11
91.47380830502305
 21
53.55941603754579
 31
0.0
 11
91.63678240000001
 21
53.55298799999999
 31
0.0
 11
91.71691789299007
 21
53.54520266981438
 31
0.0
 11
91.7966
 21
53.5338
 31
0.0
 11
91.95408877927199
 21
53.49969967744691
 31
0.0
 11
92.10874719999999
 21
53.4538
 31
0.0
 11
92.26342496924834
 21
53.39940944456838
 31
0.0
 11
92.4166576
 21
53.341224
 31
0.0
 11
92.49394008438764
 21
53.31162518137964
 31
0.0
 11
92.57139999786451
 21
53.28249999423303
 31
0.0
 11
92.72548810374544
 21
53.22795959324581
 31
0.0
 11
92.88169600000001
 21
53.17949599999999
 31
0.0
 11
93.02638239487983
 21
53.14332080374016
 31
0.0
 11
93.17343200000001
 21
53.119752
 31
0.0
 11
93.23878187088423
 21
53.11497472136553
 31
0.0
 11
93.30429999999999
 21
53.1152
 31
0.0
 11
93.41824006013055
 21
53.13052493374705
 31
0.0
 11
93.52829759999998
 21
53.164092
 31
0.0
 11
93.62553532525486
 21
53.20998093660061
 31
0.0
 11
93.71791679999999
 21
53.26518
 31
0.0
 11
93.76264765449278
 21
53.29452900102353
 31
0.0
 11
93.807
 21
53.3244
 31
0.0
  0
ARC
  5
8A5
330
1F
100
AcDbEntity
  8
0
  6
Continuous
 62
     7
100
AcDbCircle
 10
109.9151084524885
 20
95.04320648589727
 30
0.0
 40
10.00000845249076
100
AcDbArc
 50
75.00059964075383
 51
180.0000371614226
  0
ARC
  5
8A6
330
1F
100
AcDbEntity
  8
0
  6
Continuous
 62
     7
100
AcDbCircle
 10
109.9151248762705
 20
95.04321908838688
 30
0.0
 40
13.00002487628455
100
AcDbArc
 50
75.00036001213494
 51
180.000084129378
  0
ARC
  5
8A7
330
1F
100
AcDbEntity
  8
0
  6
Continuous
 62
     7
100
AcDbCircle
 10
109.9150800630855
 20
95.04318470180107
 30
0.0
 40
15.99998006309284
100
AcDbArc
 50
75.00029519349536
 51
179.9999452172915
  0
ARC
  5
8A8
330
1F
100
AcDbEntity
  8
0
  6
Continuous
 62
     7
100
AcDbCircle
 10
184.0750043305291
 20
90.18378954518299
 30
0.0
 40
53.20002208744721
100
AcDbArc
 50
193.3062399790413
 51
211.6937800160541
  0
ARC
  5
8A9
330
1F
100
AcDbEntity
  8
0
  6
Continuous
 62
     7
100
AcDbCircle
 10
184.0749259465452
 20
90.18397877915692
 30
0.0
 40
56.20002395913685
100
AcDbArc
 50
193.8010421900411
 51
211.1993426062487
  0
ARC
  5
8AA
330
1F
100
AcDbEntity
  8
0
  6
Continuous
 62
     7
100
AcDbCircle
 10
276.4748811234159
 20
90.1840076793138
 30
0.0
 40
150.0000608414594
100
AcDbArc
 50
178.3756034299446
 51
192.0114191629615
  0
ARC
  5
8AB
330
1F
100
AcDbEntity
  8
0
  6
Continuous
 62
     7
100
AcDbCircle
 10
276.4749
 20
90.1838
 30
0.0
 40
150.600002099867
100
AcDbArc
 50
180.0
 51
192.0113960448171
  0
ARC
  5
8AC
330
1F
100
AcDbEntity
  8
0
  6
Continuous
 62
     7
100
AcDbCircle
 10
137.244708392612
 20
41.18380437438621
 30
0.0
 40
7.999995625618185
100
AcDbArc
 50
90.00006010768853
 51
145.0586749120042
  0
LINE
  5
8AD
330
1F
100
AcDbEntity
  8
0
  6
Continuous
 62
     7
100
AcDbLine
 10
138.8088999999999
 20
62.2336
 30
0.0
 11
136.0030999999999
 21
61.0715
 31
0.0
  0
ARC
  5
8AE
330
1F
100
AcDbEntity
  8
0
  6
Continuous
 62
     7
100
AcDbCircle
 10
159.102204158031
 20
65.21089013846253
 30
0.0
 40
30.0000175560763
100
AcDbArc
 50
192.0113947189739
 51
213.7131953126328
  0
ARC
  5
8AF
330
1F
100
AcDbEntity
  8
0
  6
Continuous
 62
     7
100
AcDbCircle
 10
159.1023076374671
 20
65.21088180947224
 30
0.0
 40
30.59994361930446
100
AcDbArc
 50
192.0112862303163
 51
213.5398453692947
  0
LINE
  5
8B0
330
1F
100
AcDbEntity
  8
0
  6
Continuous
 62
     7
100
AcDbLine
 10
130.6869
 20
45.76559999999999
 30
0.0
 11
121.5343
 21
32.66579999999999
 31
0.0
  0
LINE
  5
8B1
330
1F
100
AcDbEntity
  8
0
  6
Continuous
 62
     7
100
AcDbLine
 10
129.3794
 20
45.2783
 30
0.0
 11
128.5460999999999
 21
45.8616
 31
0.0
  0
LINE
  5
8B2
330
1F
100
AcDbEntity
  8
0
  6
Continuous
 62
     7
100
AcDbLine
 10
124.5515
 20
38.3904
 30
0.0
 11
130.2873999999998
 21
46.5818
 31
0.0
  0
LINE
  5
8B3
330
1F
100
AcDbEntity
  8
0
  6
DASH_CENTER
 62
    30
100
AcDbLine
 10
122.5967999999999
 20
45.8633
 30
0.0
 11
131.7613
 21
39.4463
 31
0.0
  0
ARC
  5
8B4
330
1F
100
AcDbEntity
  8
0
  6
Continuous
 62
     7
100
AcDbCircle
 10
125.4684986501707
 20
41.26881025234506
 30
0.0
 40
1.300023974737805
100
AcDbArc
 50
144.9985672636143
 51
230.0023388554818
  0
ARC
  5
8B5
330
1F
100
AcDbEntity
  8
0
  6
Continuous
 62
     7
100
AcDbCircle
 10
127.8960195393284
 20
44.73580433194513
 30
0.0
 40
1.300044481777238
100
AcDbArc
 50
60.00212617902334
 51
144.9988816010303
  0
LINE
  5
8B6
330
1F
100
AcDbEntity
  8
0
  6
Continuous
 62
     7
100
AcDbLine
 10
125.4118999999999
 20
39.6189
 30
0.0
 11
124.6328
 21
40.2727
 31
0.0
  0
LINE
  5
8B7
330
1F
100
AcDbEntity
  8
0
  6
Continuous
 62
     7
100
AcDbLine
 10
124.5515
 20
38.3904
 30
0.0
 11
125.207
 21
37.93139999999999
 31
0.0
  0
LINE
  5
8B8
330
1F
100
AcDbEntity
  8
0
  6
Continuous
 62
     7
100
AcDbLine
 10
124.4035999999999
 20
42.0144
 30
0.0
 11
126.8313
 21
45.4814
 31
0.0
  0
LINE
  5
8B9
330
1F
100
AcDbEntity
  8
0
  6
Continuous
 62
     7
100
AcDbLine
 10
130.2873999999998
 20
46.5818
 30
0.0
 11
130.9425999999999
 21
46.1228
 31
0.0
  0
CIRCLE
  5
8BA
330
1F
100
AcDbEntity
  8
0
  6
Continuous
 62
     7
100
AcDbCircle
 10
147.3055999999999
 20
53.41429999999999
 30
0.0
 40
3.500037145517169
  0
ARC
  5
8BB
330
1F
100
AcDbEntity
  8
0
  6
Continuous
 62
     7
100
AcDbCircle
 10
140.4590635732581
 20
41.1838138639399
 30
0.0
 40
7.999986136143017
100
AcDbArc
 50
48.32682589839579
 51
89.99973911222594
  0
LINE
  5
8BC
330
1F
100
AcDbEntity
  8
0
  6
Continuous
 62
     7
100
AcDbLine
 10
137.2446999999999
 20
49.18379999999999
 30
0.0
 11
140.4591
 21
49.18379999999999
 31
0.0
  0
ARC
  5
8BD
330
1F
100
AcDbEntity
  8
0
  6
Continuous
 62
     7
100
AcDbCircle
 10
145.5749886377255
 20
33.38379657411974
 30
0.0
 40
2.999996574141251
100
AcDbArc
 50
270.0002170037063
 51
303.5573294902931
  0
ARC
  5
8BE
330
1F
100
AcDbEntity
  8
0
  6
Continuous
 62
     7
100
AcDbCircle
 10
148.8916196969934
 20
28.38377578901159
 30
0.0
 40
3.000024212063162
100
AcDbArc
 50
89.99846633792799
 51
123.5571703761487
  0
ARC
  5
8BF
330
1F
100
AcDbEntity
  8
0
  6
Continuous
 62
     7
100
AcDbCircle
 10
146.3055999999999
 20
52.4143
 30
0.0
 40
0.5
100
AcDbArc
 50
0.0
 51
90.0
  0
ARC
  5
8C0
330
1F
100
AcDbEntity
  8
0
  6
Continuous
 62
     7
100
AcDbCircle
 10
148.3055999999999
 20
52.4143
 30
0.0
 40
0.5
100
AcDbArc
 50
90.0
 51
180.0
  0
ARC
  5
8C1
330
1F
100
AcDbEntity
  8
0
  6
Continuous
 62
     7
100
AcDbCircle
 10
148.3055999999999
 20
54.4143
 30
0.0
 40
0.5
100
AcDbArc
 50
180.0
 51
270.0
  0
ARC
  5
8C2
330
1F
100
AcDbEntity
  8
0
  6
Continuous
 62
     7
100
AcDbCircle
 10
146.3055999999999
 20
54.4143
 30
0.0
 40
0.5
100
AcDbArc
 50
270.0
 51
0.0
  0
LINE
  5
8C3
330
1F
100
AcDbEntity
  8
0
  6
Continuous
 62
     7
100
AcDbLine
 10
146.8055999999999
 20
51.2644
 30
0.0
 11
146.8055999999999
 21
52.4143
 31
0.0
  0
LINE
  5
8C4
330
1F
100
AcDbEntity
  8
0
  6
Continuous
 62
     7
100
AcDbLine
 10
147.8056
 20
51.2644
 30
0.0
 11
147.8056
 21
52.4143
 31
0.0
  0
LINE
  5
8C5
330
1F
100
AcDbEntity
  8
0
  6
Continuous
 62
     7
100
AcDbLine
 10
146.8055999999999
 20
54.4143
 30
0.0
 11
146.8055999999999
 21
55.5645
 31
0.0
  0
LINE
  5
8C6
330
1F
100
AcDbEntity
  8
0
  6
Continuous
 62
     7
100
AcDbLine
 10
147.8056
 20
54.4143
 30
0.0
 11
147.8056
 21
55.5645
 31
0.0
  0
LINE
  5
8C7
330
1F
100
AcDbEntity
  8
0
  6
Continuous
 62
     7
100
AcDbLine
 10
149.4555
 20
52.9143
 30
0.0
 11
148.3055999999999
 21
52.9143
 31
0.0
  0
LINE
  5
8C8
330
1F
100
AcDbEntity
  8
0
  6
Continuous
 62
     7
100
AcDbLine
 10
149.4555
 20
53.91429999999999
 30
0.0
 11
148.3055999999999
 21
53.91429999999999
 31
0.0
  0
LINE
  5
8C9
330
1F
100
AcDbEntity
  8
0
  6
Continuous
 62
     7
100
AcDbLine
 10
146.3055999999999
 20
52.9143
 30
0.0
 11
145.1557
 21
52.9143
 31
0.0
  0
LINE
  5
8CA
330
1F
100
AcDbEntity
  8
0
  6
Continuous
 62
     7
100
AcDbLine
 10
146.3055999999999
 20
53.91429999999999
 30
0.0
 11
145.1557
 21
53.91429999999999
 31
0.0
  0
LINE
  5
8CB
330
1F
100
AcDbEntity
  8
0
  6
Continuous
 62
     7
100
AcDbLine
 10
145.1557
 20
52.9143
 30
0.0
 11
145.1557
 21
53.91429999999999
 31
0.0
  0
LINE
  5
8CC
330
1F
100
AcDbEntity
  8
0
  6
Continuous
 62
     7
100
AcDbLine
 10
149.4555
 20
52.9143
 30
0.0
 11
149.4555
 21
53.91429999999999
 31
0.0
  0
LINE
  5
8CD
330
1F
100
AcDbEntity
  8
0
  6
Continuous
 62
     7
100
AcDbLine
 10
147.8056
 20
51.2644
 30
0.0
 11
146.8055999999999
 21
51.2644
 31
0.0
  0
LINE
  5
8CE
330
1F
100
AcDbEntity
  8
0
  6
Continuous
 62
     7
100
AcDbLine
 10
147.8056
 20
55.5645
 30
0.0
 11
146.8055999999999
 21
55.5645
 31
0.0
  0
ARC
  5
8CF
330
1F
100
AcDbEntity
  8
0
  6
Continuous
 62
     7
100
AcDbCircle
 10
126.3147229377743
 20
96.4582724569775
 30
0.0
 40
2.000013202135229
100
AcDbArc
 50
173.8020918886523
 51
265.7728379873431
  0
ARC
  5
8D0
330
1F
100
AcDbEntity
  8
0
  6
Continuous
 62
     7
100
AcDbCircle
 10
124.5751276083305
 20
92.26513013277344
 30
0.0
 40
1.30002760867984
100
AcDbArc
 50
95.00543001937931
 51
180.0013280339066
  0
ARC
  5
8D1
330
1F
100
AcDbEntity
  8
0
  6
Continuous
 62
     7
100
AcDbCircle
 10
124.5750777991691
 20
88.10252422895313
 30
0.0
 40
1.299977799395084
100
AcDbArc
 50
180.0010678772795
 51
264.9965814170018
  0
ARC
  5
8D2
330
1F
100
AcDbEntity
  8
0
  6
Continuous
 62
     7
100
AcDbCircle
 10
276.474897812876
 20
90.18364721138336
 30
0.0
 40
150.5999999128209
100
AcDbArc
 50
178.3598259144594
 51
179.9999418715612
  0
LINE
  5
8D3
330
1F
100
AcDbEntity
  8
0
  6
Continuous
 62
     7
100
AcDbLine
 10
126.1673
 20
94.4636
 30
0.0
 11
126.6315999999999
 21
94.42919999999999
 31
0.0
  0
LINE
  5
8D4
330
1F
100
AcDbEntity
  8
0
  6
Continuous
 62
     7
100
AcDbLine
 10
123.275
 20
92.26510000000001
 30
0.0
 11
123.275
 21
88.10249999999998
 31
0.0
  0
LINE
  5
8D5
330
1F
100
AcDbEntity
  8
0
  6
Continuous
 62
     7
100
AcDbLine
 10
123.275
 20
92.26510000000001
 30
0.0
 11
123.275
 21
88.10249999999998
 31
0.0
  0
LINE
  5
8D6
330
1F
100
AcDbEntity
  8
0
  6
Continuous
 62
     7
100
AcDbLine
 10
125.8748999999999
 20
93.6838
 30
0.0
 11
124.4615
 21
93.56010000000001
 31
0.0
  0
LINE
  5
8D7
330
1F
100
AcDbEntity
  8
0
  6
Continuous
 62
     7
100
AcDbLine
 10
125.8748999999999
 20
86.68380000000002
 30
0.0
 11
124.4615
 21
86.8074
 31
0.0
  0
LINE
  5
8D8
330
1F
100
AcDbEntity
  8
0
  6
Continuous
 62
     7
100
AcDbLine
 10
132.3031999999999
 20
77.9397
 30
0.0
 11
129.4974
 21
76.7773
 31
0.0
  0
ARC
  5
8D9
330
1F
100
AcDbEntity
  8
0
  6
Continuous
 62
     7
100
AcDbCircle
 10
184.0749724176444
 20
90.18369706006456
 30
0.0
 40
60.10004940263059
100
AcDbArc
 50
156.1998846636936
 51
173.8004446389562
  0
ARC
  5
8DA
330
1F
100
AcDbEntity
  8
0
  6
Continuous
 62
     7
100
AcDbCircle
 10
130.9157722661499
 20
113.6298897855102
 30
0.0
 40
1.99997564713336
100
AcDbArc
 50
64.23257504238771
 51
156.2053399923198
  0
LINE
  5
8DB
330
1F
100
AcDbEntity
  8
0
  6
Continuous
 62
     7
100
AcDbLine
 10
132.3033
 20
102.428
 30
0.0
 11
129.4974999999999
 21
103.5903
 31
0.0
  0
LINE
  5
8DC
330
1F
100
AcDbEntity
  8
0
  6
Continuous
 62
     7
100
AcDbLine
 10
131.7854
 20
115.4309
 30
0.0
 11
132.2046
 21
115.2285
 31
0.0
  0
ARC
  5
8DD
330
1F
100
AcDbEntity
  8
0
  6
Continuous
 62
     7
100
AcDbCircle
 10
142.0273215191905
 20
81.18382661217314
 30
0.0
 40
2.999973388853433
100
AcDbArc
 50
89.99850111365082
 51
192.0819621771483
  0
ARC
  5
8DE
330
1F
100
AcDbEntity
  8
0
  6
Continuous
 62
     7
100
AcDbCircle
 10
142.0273130551884
 20
99.18378385402297
 30
0.0
 40
2.999983854051352
100
AcDbArc
 50
167.9163318860131
 51
269.9997506629258
  0
LINE
  5
8DF
330
1F
100
AcDbEntity
  8
0
  6
Continuous
 62
     7
100
AcDbLine
 10
138.8087999999999
 20
118.134
 30
0.0
 11
136.0030999999999
 21
119.2960999999999
 31
0.0
  0
CIRCLE
  5
8E0
330
1F
100
AcDbEntity
  8
0
  6
Continuous
 62
     7
100
AcDbCircle
 10
147.3055999999999
 20
126.9531
 30
0.0
 40
3.499966435553329
  0
ARC
  5
8E1
330
1F
100
AcDbEntity
  8
0
  6
Continuous
 62
     7
100
AcDbCircle
 10
146.3055999999999
 20
127.9531
 30
0.0
 40
0.5
100
AcDbArc
 50
270.0
 51
0.0
  0
ARC
  5
8E2
330
1F
100
AcDbEntity
  8
0
  6
Continuous
 62
     7
100
AcDbCircle
 10
146.3055999999999
 20
125.9531
 30
0.0
 40
0.5
100
AcDbArc
 50
0.0
 51
90.0
  0
ARC
  5
8E3
330
1F
100
AcDbEntity
  8
0
  6
Continuous
 62
     7
100
AcDbCircle
 10
148.3055999999999
 20
125.9531
 30
0.0
 40
0.5
100
AcDbArc
 50
90.0
 51
180.0
  0
ARC
  5
8E4
330
1F
100
AcDbEntity
  8
0
  6
Continuous
 62
     7
100
AcDbCircle
 10
148.3055999999999
 20
127.9531
 30
0.0
 40
0.5
100
AcDbArc
 50
180.0
 51
270.0
  0
LINE
  5
8E5
330
1F
100
AcDbEntity
  8
0
  6
Continuous
 62
     7
100
AcDbLine
 10
145.1557
 20
127.4531
 30
0.0
 11
146.3055999999999
 21
127.4531
 31
0.0
  0
LINE
  5
8E6
330
1F
100
AcDbEntity
  8
0
  6
Continuous
 62
     7
100
AcDbLine
 10
145.1557
 20
126.4531
 30
0.0
 11
146.3055999999999
 21
126.4531
 31
0.0
  0
LINE
  5
8E7
330
1F
100
AcDbEntity
  8
0
  6
Continuous
 62
     7
100
AcDbLine
 10
148.3055999999999
 20
127.4531
 30
0.0
 11
149.4557
 21
127.4531
 31
0.0
  0
LINE
  5
8E8
330
1F
100
AcDbEntity
  8
0
  6
Continuous
 62
     7
100
AcDbLine
 10
148.3055999999999
 20
126.4531
 30
0.0
 11
149.4557
 21
126.4531
 31
0.0
  0
LINE
  5
8E9
330
1F
100
AcDbEntity
  8
0
  6
Continuous
 62
     7
100
AcDbLine
 10
146.8055999999999
 20
124.8032
 30
0.0
 11
146.8055999999999
 21
125.9531
 31
0.0
  0
LINE
  5
8EA
330
1F
100
AcDbEntity
  8
0
  6
Continuous
 62
     7
100
AcDbLine
 10
147.8056
 20
124.8032
 30
0.0
 11
147.8056
 21
125.9531
 31
0.0
  0
LINE
  5
8EB
330
1F
100
AcDbEntity
  8
0
  6
Continuous
 62
     7
100
AcDbLine
 10
146.8055999999999
 20
127.9531
 30
0.0
 11
146.8055999999999
 21
129.1029999999999
 31
0.0
  0
LINE
  5
8EC
330
1F
100
AcDbEntity
  8
0
  6
Continuous
 62
     7
100
AcDbLine
 10
147.8056
 20
127.9531
 30
0.0
 11
147.8056
 21
129.1029999999999
 31
0.0
  0
LINE
  5
8ED
330
1F
100
AcDbEntity
  8
0
  6
Continuous
 62
     7
100
AcDbLine
 10
146.8055999999999
 20
129.1029999999999
 30
0.0
 11
147.8056
 21
129.1029999999999
 31
0.0
  0
LINE
  5
8EE
330
1F
100
AcDbEntity
  8
0
  6
Continuous
 62
     7
100
AcDbLine
 10
146.8055999999999
 20
124.8032
 30
0.0
 11
147.8056
 21
124.8032
 31
0.0
  0
LINE
  5
8EF
330
1F
100
AcDbEntity
  8
0
  6
Continuous
 62
     7
100
AcDbLine
 10
145.1557
 20
126.4531
 30
0.0
 11
145.1557
 21
127.4531
 31
0.0
  0
LINE
  5
8F0
330
1F
100
AcDbEntity
  8
0
  6
Continuous
 62
     7
100
AcDbLine
 10
149.4557
 20
126.4531
 30
0.0
 11
149.4557
 21
127.4531
 31
0.0
  0
ARC
  5
8F4
330
1F
100
AcDbEntity
  8
0
  6
Continuous
 62
     7
100
AcDbCircle
 10
187.0749999999999
 20
120.6838
 30
0.0
 40
3.0
100
AcDbArc
 50
270.0
 51
0.0
  0
ARC
  5
8F5
330
1F
100
AcDbEntity
  8
0
  6
Continuous
 62
     7
100
AcDbCircle
 10
181.0749999999999
 20
120.6838
 30
0.0
 40
3.0
100
AcDbArc
 50
180.0
 51
270.0
  0
CIRCLE
  5
8F6
330
1F
100
AcDbEntity
  8
0
  6
Continuous
 62
     7
100
AcDbCircle
 10
184.0749999999999
 20
90.1838
 30
0.0
 40
7.400000000000003
  0
CIRCLE
  5
8F7
330
1F
100
AcDbEntity
  8
0
  6
Continuous
 62
     7
100
AcDbCircle
 10
184.0749
 20
90.1838
 30
0.0
 40
5.5
  0
CIRCLE
  5
8F8
330
1F
100
AcDbEntity
  8
0
  6
Continuous
 62
     7
100
AcDbCircle
 10
184.0749999999999
 20
90.1838
 30
0.0
 40
19.54990000000001
  0
CIRCLE
  5
8F9
330
1F
100
AcDbEntity
  8
0
  6
Continuous
 62
     7
100
AcDbCircle
 10
184.0749999999999
 20
90.1838
 30
0.0
 40
24.0
  0
CIRCLE
  5
8FA
330
1F
100
AcDbEntity
  8
0
  6
Continuous
 62
     7
100
AcDbCircle
 10
184.0749999999999
 20
90.1838
 30
0.0
 40
7.75
  0
CIRCLE
  5
8FB
330
1F
100
AcDbEntity
  8
0
  6
Continuous
 62
     7
100
AcDbCircle
 10
184.0749999999999
 20
90.1838
 30
0.0
 40
17.25
  0
ARC
  5
8FC
330
1F
100
AcDbEntity
  8
0
  6
Continuous
 62
     7
100
AcDbCircle
 10
184.074568708758
 20
90.18385192761879
 30
0.0
 40
58.79995192920049
100
AcDbArc
 50
256.2688089712179
 51
270.0004202583003
  0
LINE
  5
8FD
330
1F
100
AcDbEntity
  8
0
  6
Continuous
 62
     7
100
AcDbLine
 10
181.0749999999999
 20
62.6838
 30
0.0
 11
187.0749999999999
 21
62.6838
 31
0.0
  0
LINE
  5
8FE
330
1F
100
AcDbEntity
  8
0
  6
Continuous
 62
     7
100
AcDbLine
 10
180.9126
 20
94.68380000000001
 30
0.0
 11
187.2372
 21
94.68380000000001
 31
0.0
  0
ARC
  5
8FF
330
1F
100
AcDbEntity
  8
0
  6
Continuous
 62
     7
100
AcDbCircle
 10
166.0751049027668
 20
32.3187269732186
 30
0.0
 40
3.000037302045178
100
AcDbArc
 50
37.59071463678504
 51
72.72281469055262
  0
ARC
  5
900
330
1F
100
AcDbEntity
  8
0
  6
Continuous
 62
     7
100
AcDbCircle
 10
184.0749541898315
 20
90.1838189752024
 30
0.0
 40
53.19993088635115
100
AcDbArc
 50
238.3062040863085
 51
256.6937759185963
  0
ARC
  5
901
330
1F
100
AcDbEntity
  8
0
  6
Continuous
 62
     7
100
AcDbCircle
 10
184.074882173996
 20
90.18384880484219
 30
0.0
 40
56.19997540278586
100
AcDbArc
 50
238.8009809314635
 51
256.1992570276379
  0
ARC
  5
902
330
1F
100
AcDbEntity
  8
0
  6
Continuous
 62
     7
100
AcDbCircle
 10
162.896512435239
 20
31.27510545348421
 30
0.0
 40
5.000032420876451
100
AcDbArc
 50
70.22573258727833
 51
157.1340528257285
  0
ARC
  5
903
330
1F
100
AcDbEntity
  8
0
  6
Continuous
 62
     7
100
AcDbCircle
 10
155.5251863461458
 20
34.38379093991049
 30
0.0
 40
2.999990939941568
100
AcDbArc
 50
270.0002607701938
 51
337.1326994938942
  0
LINE
  5
904
330
1F
100
AcDbEntity
  8
0
  6
Continuous
 62
     7
100
AcDbLine
 10
156.1247999999999
 20
44.9177
 30
0.0
 11
154.9626
 21
42.1121
 31
0.0
  0
LINE
  5
905
330
1F
100
AcDbEntity
  8
0
  6
Continuous
 62
     7
100
AcDbLine
 10
178.0749999999999
 20
48.1362
 30
0.0
 11
178.0749999999999
 21
59.68379999999999
 31
0.0
  0
ARC
  5
906
330
1F
100
AcDbEntity
  8
0
  6
Continuous
 62
     7
100
AcDbCircle
 10
175.075026612057
 20
48.13622151836309
 30
0.0
 40
2.999973388020098
100
AcDbArc
 50
257.9180378217109
 51
359.9995890258919
  0
ARC
  5
907
330
1F
100
AcDbEntity
  8
0
  6
Continuous
 62
     7
100
AcDbCircle
 10
170.829652685197
 20
35.97883080917656
 30
0.0
 40
3.000057181423732
100
AcDbArc
 50
217.589404835004
 51
256.2700262097876
  0
LINE
  5
908
330
1F
100
AcDbEntity
  8
0
  6
Continuous
 62
     7
100
AcDbLine
 10
171.8307
 20
38.4121
 30
0.0
 11
170.6685999999999
 21
35.6064
 31
0.0
  0
ARC
  5
909
330
1F
100
AcDbEntity
  8
0
  6
Continuous
 62
     7
100
AcDbCircle
 10
181.0749999999999
 20
59.68379999999999
 30
0.0
 40
3.0
100
AcDbArc
 50
90.0
 51
180.0
  0
ARC
  5
90A
330
1F
100
AcDbEntity
  8
0
  6
Continuous
 62
     7
100
AcDbCircle
 10
153.5749999999999
 20
93.18380000000001
 30
0.0
 40
3.0
100
AcDbArc
 50
0.0
 51
90.0
  0
ARC
  5
90B
330
1F
100
AcDbEntity
  8
0
  6
Continuous
 62
     7
100
AcDbCircle
 10
153.5749999999999
 20
87.18380000000001
 30
0.0
 40
3.0
100
AcDbArc
 50
270.0
 51
0.0
  0
LINE
  5
90C
330
1F
100
AcDbEntity
  8
0
  6
Continuous
 62
     7
100
AcDbLine
 10
156.5749999999999
 20
87.18380000000001
 30
0.0
 11
156.5749999999999
 21
93.18380000000001
 31
0.0
  0
ARC
  5
90D
330
1F
100
AcDbEntity
  8
0
  6
Continuous
 62
     7
100
AcDbCircle
 10
184.0750324705181
 20
90.18381344965
 30
0.0
 40
56.19993757486537
100
AcDbArc
 50
283.8007370716009
 51
301.1990249692975
  0
ARC
  5
90E
330
1F
100
AcDbEntity
  8
0
  6
Continuous
 62
     7
100
AcDbCircle
 10
184.0749604548415
 20
90.18378361985099
 30
0.0
 40
53.19989310960283
100
AcDbArc
 50
283.3062174963681
 51
301.6938024987279
  0
ARC
  5
90F
330
1F
100
AcDbEntity
  8
0
  6
Continuous
 62
     7
100
AcDbCircle
 10
197.3202473148028
 20
35.97883080917656
 30
0.0
 40
3.000057181423721
100
AcDbArc
 50
283.7299737902123
 51
322.4105951649958
  0
LINE
  5
910
330
1F
100
AcDbEntity
  8
0
  6
Continuous
 62
     7
100
AcDbLine
 10
190.075
 20
48.1362
 30
0.0
 11
190.075
 21
59.68379999999999
 31
0.0
  0
ARC
  5
911
330
1F
100
AcDbEntity
  8
0
  6
Continuous
 62
     7
100
AcDbCircle
 10
193.0748733879429
 20
48.13622151836309
 30
0.0
 40
2.999973388020075
100
AcDbArc
 50
180.000410974108
 51
282.0819621782888
  0
ARC
  5
912
330
1F
100
AcDbEntity
  8
0
  6
Continuous
 62
     7
100
AcDbCircle
 10
184.0753327228213
 20
90.18384006023294
 30
0.0
 40
58.79994006117431
100
AcDbArc
 50
269.9996757885575
 51
283.7311924185581
  0
LINE
  5
913
330
1F
100
AcDbEntity
  8
0
  6
Continuous
 62
     7
100
AcDbLine
 10
196.3192
 20
38.4121
 30
0.0
 11
197.4813
 21
35.6064
 31
0.0
  0
ARC
  5
914
330
1F
100
AcDbEntity
  8
0
  6
Continuous
 62
     7
100
AcDbCircle
 10
187.0749999999999
 20
59.68379999999999
 30
0.0
 40
3.0
100
AcDbArc
 50
0.0
 51
90.0
  0
ARC
  5
915
330
1F
100
AcDbEntity
  8
0
  6
Continuous
 62
     7
100
AcDbCircle
 10
205.2533875647609
 20
31.27510545348421
 30
0.0
 40
5.000032420876459
100
AcDbArc
 50
22.86594717427135
 51
109.7742674127216
  0
ARC
  5
916
330
1F
100
AcDbEntity
  8
0
  6
Continuous
 62
     7
100
AcDbCircle
 10
202.0747950972332
 20
32.3187269732186
 30
0.0
 40
3.000037302045183
100
AcDbArc
 50
107.2771853094472
 51
142.4092853632149
  0
ARC
  5
917
330
1F
100
AcDbEntity
  8
0
  6
Continuous
 62
     7
100
AcDbCircle
 10
212.6247136538541
 20
34.38379093991049
 30
0.0
 40
2.999990939941548
100
AcDbArc
 50
202.867300506105
 51
269.999739229806
  0
LINE
  5
918
330
1F
100
AcDbEntity
  8
0
  6
Continuous
 62
     7
100
AcDbLine
 10
212.0251
 20
44.9177
 30
0.0
 11
213.1873
 21
42.1121
 31
0.0
  0
POINT
  5
919
330
1F
100
AcDbEntity
  8
0
 62
    40
100
AcDbPoint
 10
184.0749999999999
 20
90.1838
 30
0.0
  0
POINT
  5
91A
330
1F
100
AcDbEntity
  8
0
 62
    40
100
AcDbPoint
 10
184.0749999999999
 20
90.1838
 30
0.0
  0
POINT
  5
91B
330
1F
100
AcDbEntity
  8
0
 62
     7
100
AcDbPoint
 10
184.0749999999999
 20
90.1838
 30
0.0
  0
LINE
  5
91C
330
1F
100
AcDbEntity
  8
0
  6
Continuous
 62
     7
100
AcDbLine
 10
211.5749999999999
 20
87.18380000000001
 30
0.0
 11
211.5749999999999
 21
93.18380000000001
 31
0.0
  0
ARC
  5
91E
330
1F
100
AcDbEntity
  8
0
  6
Continuous
 62
     7
100
AcDbCircle
 10
184.0749
 20
-2.216300000000003
 30
0.0
 40
149.9999590853944
100
AcDbArc
 50
89.99996180280399
 51
102.0113853815605
  0
LINE
  5
91F
330
1F
100
AcDbEntity
  8
0
  6
Continuous
 62
     7
100
AcDbLine
 10
181.0749999999999
 20
117.6838
 30
0.0
 11
187.0749999999999
 21
117.6838
 31
0.0
  0
LINE
  5
920
330
1F
100
AcDbEntity
  8
0
  6
Continuous
 62
     7
100
AcDbLine
 10
181.9936
 20
150.9835999999999
 30
0.0
 11
186.1562
 21
150.9835999999999
 31
0.0
  0
LINE
  5
921
330
1F
100
AcDbEntity
  8
0
  6
Continuous
 62
     7
100
AcDbLine
 10
181.9936
 20
150.9835999999999
 30
0.0
 11
186.1562
 21
150.9835999999999
 31
0.0
  0
ARC
  5
922
330
1F
100
AcDbEntity
  8
0
  6
Continuous
 62
     7
100
AcDbCircle
 10
184.0749895451831
 20
90.18379566947093
 30
0.0
 40
53.2000220874472
100
AcDbArc
 50
103.3062399790423
 51
121.6937800160537
  0
ARC
  5
923
330
1F
100
AcDbEntity
  8
0
  6
Continuous
 62
     7
100
AcDbCircle
 10
184.0749175291881
 20
90.18376583967194
 30
0.0
 40
56.20006672800334
100
AcDbArc
 50
103.8007572181101
 51
121.1990048227877
  0
LINE
  5
924
330
1F
100
AcDbEntity
  8
0
  6
Continuous
 62
     7
100
AcDbLine
 10
156.1247999999999
 20
135.4499999999999
 30
0.0
 11
154.9626
 21
138.2555999999999
 31
0.0
  0
ARC
  5
925
330
1F
100
AcDbEntity
  8
0
  6
Continuous
 62
     7
100
AcDbCircle
 10
175.0749672539243
 20
132.2314264784694
 30
0.0
 40
3.000032746192355
100
AcDbArc
 50
359.9994943040043
 51
102.0825132964787
  0
LINE
  5
926
330
1F
100
AcDbEntity
  8
0
  6
Continuous
 62
     7
100
AcDbLine
 10
178.0749999999999
 20
120.6838
 30
0.0
 11
178.0749999999999
 21
132.2314
 31
0.0
  0
LINE
  5
927
330
1F
100
AcDbEntity
  8
0
  6
Continuous
 62
     7
100
AcDbLine
 10
171.8307
 20
141.9556
 30
0.0
 11
170.6685
 21
144.7612
 31
0.0
  0
ARC
  5
928
330
1F
100
AcDbEntity
  8
0
  6
Continuous
 62
     7
100
AcDbCircle
 10
181.9936289847824
 20
149.6836265608041
 30
0.0
 40
1.299973439518822
100
AcDbArc
 50
90.0012774920353
 51
175.0011817931032
  0
LINE
  5
929
330
1F
100
AcDbEntity
  8
0
  6
Continuous
 62
     7
100
AcDbLine
 10
180.5749
 20
148.3838
 30
0.0
 11
180.6986
 21
149.7970999999999
 31
0.0
  0
ARC
  5
92A
330
1F
100
AcDbEntity
  8
0
  6
Continuous
 62
     7
100
AcDbCircle
 10
184.0746630066941
 20
90.18393958941222
 30
0.0
 40
56.19999805762408
100
AcDbArc
 50
58.80057201752972
 51
76.19878522917851
  0
ARC
  5
92B
330
1F
100
AcDbEntity
  8
0
  6
Continuous
 62
     7
100
AcDbCircle
 10
184.07492509949
 20
90.1838310248223
 30
0.0
 40
53.1999843106972
100
AcDbArc
 50
58.3062133989331
 51
76.69376660597172
  0
ARC
  5
92C
330
1F
100
AcDbEntity
  8
0
  6
Continuous
 62
     7
100
AcDbCircle
 10
193.0750222805595
 20
132.2314180165522
 30
0.0
 40
3.000022280613756
100
AcDbArc
 50
77.91919262095426
 51
180.0003440882453
  0
LINE
  5
92D
330
1F
100
AcDbEntity
  8
0
  6
Continuous
 62
     7
100
AcDbLine
 10
190.075
 20
120.6838
 30
0.0
 11
190.075
 21
132.2314
 31
0.0
  0
ARC
  5
92E
330
1F
100
AcDbEntity
  8
0
  6
Continuous
 62
     7
100
AcDbCircle
 10
186.1562253727944
 20
149.683576750911
 30
0.0
 40
1.300023249336581
100
AcDbArc
 50
5.000829842474591
 51
90.00111825233641
  0
LINE
  5
92F
330
1F
100
AcDbEntity
  8
0
  6
Continuous
 62
     7
100
AcDbLine
 10
187.5749
 20
148.3838
 30
0.0
 11
187.4513
 21
149.7970999999999
 31
0.0
  0
LINE
  5
930
330
1F
100
AcDbEntity
  8
0
  6
Continuous
 62
     7
100
AcDbLine
 10
196.3192
 20
141.9556
 30
0.0
 11
197.4814
 21
144.7612
 31
0.0
  0
LINE
  5
931
330
1F
100
AcDbEntity
  8
0
  6
Continuous
 62
     7
100
AcDbLine
 10
212.0251
 20
135.4499999999999
 30
0.0
 11
213.1873
 21
138.2555999999999
 31
0.0
  0
LINE
  5
933
330
1F
100
AcDbEntity
  8
0
  6
Continuous
 62
     7
100
AcDbLine
 10
208.0528
 20
142.4458
 30
0.0
 11
208.806
 21
143.1991999999999
 31
0.0
  0
ARC
  5
939
330
1F
100
AcDbEntity
  8
0
  6
Continuous
 62
     7
100
AcDbCircle
 10
184.0749511951578
 20
90.18391782600394
 30
0.0
 40
56.19997540278586
100
AcDbArc
 50
13.80074297236203
 51
31.19901906853701
  0
ARC
  5
93A
330
1F
100
AcDbEntity
  8
0
  6
Continuous
 62
     7
100
AcDbCircle
 10
184.074953462428
 20
90.18391235229676
 30
0.0
 40
53.19991937846534
100
AcDbArc
 50
13.30604270041073
 51
31.6937193404879
  0
ARC
  5
93B
330
1F
100
AcDbEntity
  8
0
  6
Continuous
 62
     7
100
AcDbCircle
 10
91.67489999999999
 20
90.1838
 30
0.0
 40
150.599981289275
100
AcDbArc
 50
0.0
 51
12.01135883275552
  0
ARC
  5
93C
330
1F
100
AcDbEntity
  8
0
  6
Continuous
 62
     7
100
AcDbCircle
 10
91.67490000000004
 20
90.1837
 30
0.0
 40
150.0000568960224
100
AcDbArc
 50
347.9886225675025
 51
12.01137743249744
  0
LINE
  5
93F
330
1F
100
AcDbEntity
  8
0
  6
Continuous
 62
     7
100
AcDbLine
 10
222.5747
 20
30.3838
 30
0.0
 11
249.0749
 21
30.3838
 31
0.0
  0
LINE
  5
940
330
1F
100
AcDbEntity
  8
0
  6
Continuous
 62
     7
100
AcDbLine
 10
237.4629999999999
 20
45.76559999999999
 30
0.0
 11
246.6156
 21
32.66579999999999
 31
0.0
  0
LINE
  5
941
330
1F
100
AcDbEntity
  8
0
  6
Continuous
 62
     7
100
AcDbLine
 10
219.5749
 20
31.3838
 30
0.0
 11
249.0749
 21
31.3838
 31
0.0
  0
ARC
  5
942
330
1F
100
AcDbEntity
  8
0
  6
Continuous
 62
     7
100
AcDbCircle
 10
184.0750594085563
 20
90.18394342358041
 30
0.0
 40
56.19993263413135
100
AcDbArc
 50
328.8006431479808
 51
346.1989720557285
  0
ARC
  5
943
330
1F
100
AcDbEntity
  8
0
  6
Continuous
 62
     7
100
AcDbCircle
 10
184.0749810247975
 20
90.18375418983163
 30
0.0
 40
53.1999308863512
100
AcDbArc
 50
328.3062040863084
 51
346.6937759185955
  0
ARC
  5
944
330
1F
100
AcDbEntity
  8
0
  6
Continuous
 62
     7
100
AcDbCircle
 10
91.67488959476893
 20
90.18370109483289
 30
0.0
 40
150.5999916945386
100
AcDbArc
 50
347.9886415836561
 51
0.000037628479049
  0
LINE
  5
945
330
1F
100
AcDbEntity
  8
0
  6
Continuous
 62
     7
100
AcDbLine
 10
229.3409999999999
 20
62.2336
 30
0.0
 11
232.1468
 21
61.0715
 31
0.0
  0
LINE
  5
946
330
1F
100
AcDbEntity
  8
0
  6
Continuous
 62
     7
100
AcDbLine
 10
230.9052
 20
49.18379999999999
 30
0.0
 11
227.6908
 21
49.18379999999999
 31
0.0
  0
CIRCLE
  5
947
330
1F
100
AcDbEntity
  8
0
  6
Continuous
 62
     7
100
AcDbCircle
 10
220.8442999999999
 20
53.41429999999999
 30
0.0
 40
3.499966435553357
  0
LINE
  5
948
330
1F
100
AcDbEntity
  8
0
  6
DASH_CENTER
 62
    30
100
AcDbLine
 10
215.0322999999999
 20
59.2263
 30
0.0
 11
226.8108999999999
 21
47.448
 31
0.0
  0
ARC
  5
949
330
1F
100
AcDbEntity
  8
0
  6
Continuous
 62
     7
100
AcDbCircle
 10
222.5747113622745
 20
33.38379657411972
 30
0.0
 40
2.999996574141236
100
AcDbArc
 50
236.4426705097068
 51
269.9997829962936
  0
ARC
  5
94A
330
1F
100
AcDbEntity
  8
0
  6
Continuous
 62
     7
100
AcDbCircle
 10
219.2580886377254
 20
28.38380342588028
 30
0.0
 40
2.999996574141236
100
AcDbArc
 50
56.44267050970677
 51
89.99978299629367
  0
ARC
  5
94B
330
1F
100
AcDbEntity
  8
0
  6
Continuous
 62
     7
100
AcDbCircle
 10
227.6908364267419
 20
41.1838138639399
 30
0.0
 40
7.999986136143034
100
AcDbArc
 50
90.00026088777405
 51
131.6731741016041
  0
LINE
  5
94C
330
1F
100
AcDbEntity
  8
0
  6
Continuous
 62
     7
100
AcDbLine
 10
222.9942
 20
52.9143
 30
0.0
 11
221.8443
 21
52.9143
 31
0.0
  0
LINE
  5
94D
330
1F
100
AcDbEntity
  8
0
  6
Continuous
 62
     7
100
AcDbLine
 10
222.9942
 20
53.91429999999999
 30
0.0
 11
221.8443
 21
53.91429999999999
 31
0.0
  0
ARC
  5
94E
330
1F
100
AcDbEntity
  8
0
  6
Continuous
 62
     7
100
AcDbCircle
 10
221.8443
 20
52.4143
 30
0.0
 40
0.5
100
AcDbArc
 50
90.0
 51
180.0
  0
ARC
  5
94F
330
1F
100
AcDbEntity
  8
0
  6
Continuous
 62
     7
100
AcDbCircle
 10
221.8443
 20
54.4143
 30
0.0
 40
0.5
100
AcDbArc
 50
180.0
 51
270.0
  0
ARC
  5
950
330
1F
100
AcDbEntity
  8
0
  6
Continuous
 62
     7
100
AcDbCircle
 10
219.8443
 20
54.4143
 30
0.0
 40
0.5
100
AcDbArc
 50
270.0
 51
0.0
  0
ARC
  5
951
330
1F
100
AcDbEntity
  8
0
  6
Continuous
 62
     7
100
AcDbCircle
 10
219.8443
 20
52.4143
 30
0.0
 40
0.5
100
AcDbArc
 50
0.0
 51
90.0
  0
LINE
  5
952
330
1F
100
AcDbEntity
  8
0
  6
Continuous
 62
     7
100
AcDbLine
 10
219.8443
 20
52.9143
 30
0.0
 11
218.6942
 21
52.9143
 31
0.0
  0
LINE
  5
953
330
1F
100
AcDbEntity
  8
0
  6
Continuous
 62
     7
100
AcDbLine
 10
219.8443
 20
53.91429999999999
 30
0.0
 11
218.6942
 21
53.91429999999999
 31
0.0
  0
LINE
  5
954
330
1F
100
AcDbEntity
  8
0
  6
Continuous
 62
     7
100
AcDbLine
 10
221.3443
 20
55.5642
 30
0.0
 11
221.3443
 21
54.4143
 31
0.0
  0
LINE
  5
955
330
1F
100
AcDbEntity
  8
0
  6
Continuous
 62
     7
100
AcDbLine
 10
220.3443
 20
55.5642
 30
0.0
 11
220.3443
 21
54.4143
 31
0.0
  0
LINE
  5
956
330
1F
100
AcDbEntity
  8
0
  6
Continuous
 62
     7
100
AcDbLine
 10
221.3443
 20
52.4143
 30
0.0
 11
221.3443
 21
51.2644
 31
0.0
  0
LINE
  5
957
330
1F
100
AcDbEntity
  8
0
  6
Continuous
 62
     7
100
AcDbLine
 10
220.3443
 20
52.4143
 30
0.0
 11
220.3443
 21
51.2644
 31
0.0
  0
LINE
  5
958
330
1F
100
AcDbEntity
  8
0
  6
Continuous
 62
     7
100
AcDbLine
 10
221.3443
 20
51.2644
 30
0.0
 11
220.3443
 21
51.2644
 31
0.0
  0
LINE
  5
959
330
1F
100
AcDbEntity
  8
0
  6
Continuous
 62
     7
100
AcDbLine
 10
221.3443
 20
55.5642
 30
0.0
 11
220.3443
 21
55.5642
 31
0.0
  0
LINE
  5
95A
330
1F
100
AcDbEntity
  8
0
  6
Continuous
 62
     7
100
AcDbLine
 10
218.6942
 20
53.91429999999999
 30
0.0
 11
218.6942
 21
52.9143
 31
0.0
  0
LINE
  5
95B
330
1F
100
AcDbEntity
  8
0
  6
Continuous
 62
     7
100
AcDbLine
 10
222.9942
 20
53.91429999999999
 30
0.0
 11
222.9942
 21
52.9143
 31
0.0
  0
ARC
  5
95C
330
1F
100
AcDbEntity
  8
0
  6
Continuous
 62
     7
100
AcDbCircle
 10
209.0475566687495
 20
65.21079679584881
 30
0.0
 40
30.59998165036167
100
AcDbArc
 50
326.4601681686991
 51
347.9887002316896
  0
ARC
  5
95D
330
1F
100
AcDbEntity
  8
0
  6
Continuous
 62
     7
100
AcDbCircle
 10
209.0476958419689
 20
65.21089013846246
 30
0.0
 40
30.00001755607629
100
AcDbArc
 50
326.2868046873671
 51
347.9886052810261
  0
ARC
  5
95E
330
1F
100
AcDbEntity
  8
0
  6
Continuous
 62
     7
100
AcDbCircle
 10
230.905191607388
 20
41.18380437438621
 30
0.0
 40
7.999995625618185
100
AcDbArc
 50
34.9413250879956
 51
89.99993989231148
  0
LINE
  5
95F
330
1F
100
AcDbEntity
  8
0
  6
Continuous
 62
     7
100
AcDbLine
 10
214.575
 20
84.18380000000002
 30
0.0
 11
226.1225
 21
84.18380000000002
 31
0.0
  0
ARC
  5
960
330
1F
100
AcDbEntity
  8
0
  6
Continuous
 62
     7
100
AcDbCircle
 10
226.122478481637
 20
81.18382661205709
 30
0.0
 40
2.999973388020113
100
AcDbArc
 50
347.918037821711
 51
89.99958902589193
  0
LINE
  5
961
330
1F
100
AcDbEntity
  8
0
  6
Continuous
 62
     7
100
AcDbLine
 10
214.575
 20
96.18380000000001
 30
0.0
 11
226.1225
 21
96.18380000000001
 31
0.0
  0
ARC
  5
962
330
1F
100
AcDbEntity
  8
0
  6
Continuous
 62
     7
100
AcDbCircle
 10
226.122478481637
 20
99.18377338794293
 30
0.0
 40
2.999973388020088
100
AcDbArc
 50
270.000410974108
 51
12.08196217828889
  0
LINE
  5
963
330
1F
100
AcDbEntity
  8
0
  6
Continuous
 62
     7
100
AcDbLine
 10
235.8467
 20
77.9397
 30
0.0
 11
238.6522999999999
 21
76.7773
 31
0.0
  0
ARC
  5
964
330
1F
100
AcDbEntity
  8
0
  6
Continuous
 62
     7
100
AcDbCircle
 10
243.574676750911
 20
92.26512537279445
 30
0.0
 40
1.30002324933661
100
AcDbArc
 50
359.9988817476618
 51
84.99917015752386
  0
ARC
  5
965
330
1F
100
AcDbEntity
  8
0
  6
Continuous
 62
     7
100
AcDbCircle
 10
243.5747265608043
 20
88.10252898478264
 30
0.0
 40
1.299973439518807
100
AcDbArc
 50
274.9988182068967
 51
359.9987225079638
  0
LINE
  5
966
330
1F
100
AcDbEntity
  8
0
  6
Continuous
 62
     7
100
AcDbLine
 10
244.8748
 20
92.26510000000001
 30
0.0
 11
244.8748
 21
88.10249999999998
 31
0.0
  0
LINE
  5
967
330
1F
100
AcDbEntity
  8
0
  6
Continuous
 62
     7
100
AcDbLine
 10
242.2749
 20
86.68380000000002
 30
0.0
 11
243.6882
 21
86.8074
 31
0.0
  0
LINE
  5
968
330
1F
100
AcDbEntity
  8
0
  6
Continuous
 62
     7
100
AcDbLine
 10
244.8748
 20
92.26510000000001
 30
0.0
 11
244.8748
 21
88.10249999999998
 31
0.0
  0
LINE
  5
969
330
1F
100
AcDbEntity
  8
0
  6
Continuous
 62
     7
100
AcDbLine
 10
242.2749
 20
93.6838
 30
0.0
 11
243.6882
 21
93.56010000000001
 31
0.0
  0
LINE
  5
96A
330
1F
100
AcDbEntity
  8
0
  6
Continuous
 62
     7
100
AcDbLine
 10
235.8465999999999
 20
102.428
 30
0.0
 11
238.6522999999999
 21
103.5903
 31
0.0
  0
LINE
  5
96B
330
1F
100
AcDbEntity
  8
0
  6
Continuous
 62
     7
100
AcDbLine
 10
236.337
 20
114.1616
 30
0.0
 11
237.0903
 21
114.9148
 31
0.0
  0
ARC
  5
96C
330
1F
100
AcDbEntity
  8
0
  6
Continuous
 62
     7
100
AcDbCircle
 10
249.0748412079921
 20
34.38383064270151
 30
0.0
 40
3.000030643277608
100
AcDbArc
 50
214.9413552133183
 51
270.0011228331721
  0
ARC
  5
973
330
1F
100
AcDbEntity
  8
0
  6
Continuous
 62
     7
100
AcDbCircle
 10
209.0477364861969
 20
115.1564635136451
 30
0.0
 40
29.99998744703633
100
AcDbArc
 50
12.01149745317374
 51
77.98825451153824
  0
ARC
  5
974
330
1F
100
AcDbEntity
  8
0
  6
Continuous
 62
     7
100
AcDbCircle
 10
209.0476364863975
 20
115.1564635134475
 30
0.0
 40
30.60000965069025
100
AcDbArc
 50
12.01136459434219
 51
77.98839223487004
  0
LINE
  5
975
330
1F
100
AcDbEntity
  8
0
  6
Continuous
 62
     7
100
AcDbLine
 10
229.3411
 20
118.134
 30
0.0
 11
232.1468
 21
119.2960999999999
 31
0.0
  0
CIRCLE
  5
976
330
1F
100
AcDbEntity
  8
0
  6
Continuous
 62
     7
100
AcDbCircle
 10
220.8442999999999
 20
126.9531
 30
0.0
 40
3.499966435553341
  0
ARC
  5
977
330
1F
100
AcDbEntity
  8
0
  6
DASH_CENTER
 62
    30
100
AcDbCircle
 10
184.0745953337115
 20
90.18370679880495
 30
0.0
 40
52.0000079684863
100
AcDbArc
 50
35.23885435453365
 51
53.6055879905597
  0
LINE
  5
978
330
1F
100
AcDbEntity
  8
0
  6
DASH_CENTER
 62
    30
100
AcDbLine
 10
215.0322
 20
121.1411
 30
0.0
 11
226.8105999999999
 21
132.9197
 31
0.0
  0
LINE
  5
979
330
1F
100
AcDbEntity
  8
0
  6
Continuous
 62
     7
100
AcDbLine
 10
221.8443
 20
127.4531
 30
0.0
 11
222.9942
 21
127.4531
 31
0.0
  0
LINE
  5
97A
330
1F
100
AcDbEntity
  8
0
  6
Continuous
 62
     7
100
AcDbLine
 10
221.8443
 20
126.4531
 30
0.0
 11
222.9942
 21
126.4531
 31
0.0
  0
ARC
  5
97B
330
1F
100
AcDbEntity
  8
0
  6
Continuous
 62
     7
100
AcDbCircle
 10
221.8443
 20
127.9531
 30
0.0
 40
0.5
100
AcDbArc
 50
180.0
 51
270.0
  0
ARC
  5
97C
330
1F
100
AcDbEntity
  8
0
  6
Continuous
 62
     7
100
AcDbCircle
 10
219.8443
 20
127.9531
 30
0.0
 40
0.5
100
AcDbArc
 50
270.0
 51
0.0
  0
ARC
  5
97D
330
1F
100
AcDbEntity
  8
0
  6
Continuous
 62
     7
100
AcDbCircle
 10
219.8443
 20
125.9531
 30
0.0
 40
0.5
100
AcDbArc
 50
0.0
 51
90.0
  0
ARC
  5
97E
330
1F
100
AcDbEntity
  8
0
  6
Continuous
 62
     7
100
AcDbCircle
 10
221.8443
 20
125.9531
 30
0.0
 40
0.5
100
AcDbArc
 50
90.0
 51
180.0
  0
LINE
  5
97F
330
1F
100
AcDbEntity
  8
0
  6
Continuous
 62
     7
100
AcDbLine
 10
221.3443
 20
129.1029999999999
 30
0.0
 11
221.3443
 21
127.9531
 31
0.0
  0
LINE
  5
980
330
1F
100
AcDbEntity
  8
0
  6
Continuous
 62
     7
100
AcDbLine
 10
220.3443
 20
129.1029999999999
 30
0.0
 11
220.3443
 21
127.9531
 31
0.0
  0
LINE
  5
981
330
1F
100
AcDbEntity
  8
0
  6
Continuous
 62
     7
100
AcDbLine
 10
221.3443
 20
125.9531
 30
0.0
 11
221.3443
 21
124.8029999999999
 31
0.0
  0
LINE
  5
982
330
1F
100
AcDbEntity
  8
0
  6
Continuous
 62
     7
100
AcDbLine
 10
220.3443
 20
125.9531
 30
0.0
 11
220.3443
 21
124.8029999999999
 31
0.0
  0
LINE
  5
983
330
1F
100
AcDbEntity
  8
0
  6
Continuous
 62
     7
100
AcDbLine
 10
218.6943999999999
 20
127.4531
 30
0.0
 11
219.8443
 21
127.4531
 31
0.0
  0
LINE
  5
984
330
1F
100
AcDbEntity
  8
0
  6
Continuous
 62
     7
100
AcDbLine
 10
218.6943999999999
 20
126.4531
 30
0.0
 11
219.8443
 21
126.4531
 31
0.0
  0
LINE
  5
985
330
1F
100
AcDbEntity
  8
0
  6
Continuous
 62
     7
100
AcDbLine
 10
218.6943999999999
 20
127.4531
 30
0.0
 11
218.6943999999999
 21
126.4531
 31
0.0
  0
LINE
  5
986
330
1F
100
AcDbEntity
  8
0
  6
Continuous
 62
     7
100
AcDbLine
 10
220.3443
 20
129.1029999999999
 30
0.0
 11
221.3443
 21
129.1029999999999
 31
0.0
  0
LINE
  5
987
330
1F
100
AcDbEntity
  8
0
  6
Continuous
 62
     7
100
AcDbLine
 10
220.3443
 20
124.8029999999999
 30
0.0
 11
221.3443
 21
124.8029999999999
 31
0.0
  0
LINE
  5
988
330
1F
100
AcDbEntity
  8
0
  6
Continuous
 62
     7
100
AcDbLine
 10
222.9942
 20
127.4531
 30
0.0
 11
222.9942
 21
126.4531
 31
0.0
  0
MTEXT
  5
9A0
330
1F
100
AcDbEntity
  8
0
100
AcDbMText
 10
-79.73355069970319
 20
-85.4827841025485
 30
0.0
 40
8.0
 41
123.0748065169444
 71
     1
 72
     1
  1
AEM-FBH 4P 0.2kW
 73
     1
 44
1.0
  0
VIEWPORT
  5
71
330
55
100
AcDbEntity
 67
     1
  8
0
100
AcDbViewport
 10
133.3499908447265
 20
101.5999970436096
 30
0.0
 40
381.3957395593833
 41
218.2856291881582
 68
     1
 69
     1
 12
133.3499908447265
 22
101.5999970436096
 13
0.0
 23
0.0
 14
10.0
 24
10.0
 15
10.0
 25
10.0
 16
0.0
 26
0.0
 36
1.0
 17
0.0
 27
0.0
 37
0.0
 42
50.0
 43
0.0
 44
0.0
 45
218.2856291881582
 50
0.0
 51
0.0
 72
   100
 90
    32800
  1

281
     0
 71
     1
 74
     0
110
0.0
120
0.0
130
0.0
111
1.0
121
0.0
131
0.0
112
0.0
122
1.0
132
0.0
 79
     0
146
0.0
  0
VIEWPORT
  5
73
330
55
100
AcDbEntity
 67
     1
  8
0
100
AcDbViewport
 10
133.3499939441679
 20
101.5999939441679
 30
0.0
 40
213.3599903106689
 41
162.5599903106689
 68
     2
 69
     2
 12
210.0
 22
148.5
 13
0.0
 23
0.0
 14
10.0
 24
10.0
 15
10.0
 25
10.0
 16
0.0
 26
0.0
 36
1.0
 17
0.0
 27
0.0
 37
0.0
 42
50.0
 43
0.0
 44
0.0
 45
324.0677920111345
 50
0.0
 51
0.0
 72
   100
 90
    32864
  1

281
     0
 71
     1
 74
     0
110
0.0
120
0.0
130
0.0
111
1.0
121
0.0
131
0.0
112
0.0
122
1.0
132
0.0
 79
     0
146
0.0
  0
ENDSEC
  0
SECTION
  2
OBJECTS
  0
DICTIONARY
  5
C
330
0
100
AcDbDictionary
281
     1
  3
ACAD_GROUP
350
D
  3
ACAD_LAYOUT
350
1A
  3
ACAD_MLINESTYLE
350
17
  3
ACAD_PLOTSETTINGS
350
19
  3
ACAD_PLOTSTYLENAME
350
E
  3
AcDbVariableDictionary
350
5E
  0
DICTIONARY
  5
D
102
{ACAD_REACTORS
330
C
102
}
330
C
100
AcDbDictionary
281
     1
  0
DICTIONARY
  5
1A
102
{ACAD_REACTORS
330
C
102
}
330
C
100
AcDbDictionary
281
     1
  3
Model
350
22
  3
ﾚｲｱｳﾄ1
350
51
  3
ﾚｲｱｳﾄ2
350
56
  0
DICTIONARY
  5
17
102
{ACAD_REACTORS
330
C
102
}
330
C
100
AcDbDictionary
281
     1
  3
Standard
350
18
  0
DICTIONARY
  5
19
102
{ACAD_REACTORS
330
C
102
}
330
C
100
AcDbDictionary
281
     1
  0
ACDBDICTIONARYWDFLT
  5
E
102
{ACAD_REACTORS
330
C
102
}
330
C
100
AcDbDictionary
281
     1
  3
Normal
350
F
100
AcDbDictionaryWithDefault
340
F
  0
DICTIONARY
  5
5E
102
{ACAD_REACTORS
330
C
102
}
330
C
100
AcDbDictionary
281
     1
  3
DIMASSOC
350
5F
  3
HIDETEXT
350
63
  0
LAYOUT
  5
22
102
{ACAD_REACTORS
330
1A
102
}
330
1A
100
AcDbPlotSettings
  1

  2
none_device
  4
ANSI_A_(8.50_x_11.00_Inches)
  6

 40
6.349999904632567
 41
19.04999923706053
 42
6.350006103515625
 43
19.04998779296875
 44
215.8999938964842
 45
279.3999938964843
 46
0.0
 47
0.0
 48
0.0
 49
0.0
140
0.0
141
0.0
142
1.0
143
78.436453180766
 70
 11952
 72
     0
 73
     1
 74
     0
  7

 75
     0
147
0.0127491741332998
148
0.0
149
0.0
100
AcDbLayout
  1
Model
 70
     1
 71
     0
 10
0.0
 20
0.0
 11
12.0
 21
9.0
 12
0.0
 22
0.0
 32
0.0
 14
0.0
 24
0.0
 34
0.0
 15
0.0
 25
0.0
 35
0.0
146
0.0
 13
0.0
 23
0.0
 33
0.0
 16
1.0
 26
0.0
 36
0.0
 17
0.0
 27
1.0
 37
0.0
 76
     0
330
1F
  0
LAYOUT
  5
51
102
{ACAD_REACTORS
330
1A
102
}
330
1A
100
AcDbPlotSettings
  1

  2
none_device
  4
Letter_(8.50_x_11.00_Inches)
  6

 40
6.349999904632567
 41
6.349999904632567
 42
6.350006103515625
 43
6.350006103515625
 44
215.8999938964842
 45
279.3999938964843
 46
0.0
 47
0.0
 48
0.0
 49
0.0
140
0.0
141
0.0
142
1.0
143
1.0
 70
   688
 72
     1
 73
     1
 74
     5
  7

 75
    16
147
1.0
148
0.0
149
0.0
100
AcDbLayout
  1
ﾚｲｱｳﾄ1
 70
     1
 71
     1
 10
-6.350006103515625
 20
-6.349999904632567
 11
273.0499877929687
 21
209.5499939918517
 12
0.0
 22
0.0
 32
0.0
 14
26.66076962115562
 24
20.31135699206657
 34
-0.0015258207003583
 15
240.039213369355
 25
182.8886381005154
 35
0.0000000349246037
146
0.0
 13
0.0
 23
0.0
 33
0.0
 16
1.0
 26
0.0
 36
0.0
 17
0.0
 27
1.0
 37
0.0
 76
     0
330
50
331
6B
  0
LAYOUT
  5
56
102
{ACAD_REACTORS
330
1A
102
}
330
1A
100
AcDbPlotSettings
  1

  2
none_device
  4
Letter_(8.50_x_11.00_Inches)
  6

 40
6.349999904632567
 41
6.349999904632567
 42
6.350006103515625
 43
6.350006103515625
 44
215.8999938964842
 45
279.3999938964843
 46
0.0
 47
0.0
 48
0.0
 49
0.0
140
0.0
141
0.0
142
1.0
143
1.0
 70
   688
 72
     1
 73
     1
 74
     5
  7

 75
    16
147
1.0
148
0.0
149
0.0
100
AcDbLayout
  1
ﾚｲｱｳﾄ2
 70
     1
 71
     2
 10
-6.350006103515625
 20
-6.349999904632567
 11
273.0499877929687
 21
209.5499939918517
 12
0.0
 22
0.0
 32
0.0
 14
26.66076962115562
 24
20.31135699206657
 34
-0.0015258207003583
 15
240.039213369355
 25
182.8886381005154
 35
0.0000000349246037
146
0.0
 13
0.0
 23
0.0
 33
0.0
 16
1.0
 26
0.0
 36
0.0
 17
0.0
 27
1.0
 37
0.0
 76
     0
330
55
331
71
  0
MLINESTYLE
  5
18
102
{ACAD_REACTORS
330
17
102
}
330
17
100
AcDbMlineStyle
  2
STANDARD
 70
     0
  3

 62
   256
 51
90.0
 52
90.0
 71
     2
 49
0.5
 62
   256
  6
BYLAYER
 49
-0.5
 62
   256
  6
BYLAYER
  0
ACDBPLACEHOLDER
  5
F
102
{ACAD_REACTORS
330
E
102
}
330
E
  0
DICTIONARYVAR
  5
5F
102
{ACAD_REACTORS
330
5E
102
}
330
5E
100
DictionaryVariables
280
     0
  1
2
  0
DICTIONARYVAR
  5
63
102
{ACAD_REACTORS
330
5E
102
}
330
5E
100
DictionaryVariables
280
     0
  1
1
  0
ENDSEC
  0
EOF
