  0
SECTION
  2
HEADER
  9
$ACADVER
  1
AC1015
  9
$ACADMAINTVER
 70
    14
  9
$DWGCODEPAGE
  3
ANSI_932
  9
$INSBASE
 10
0.0
 20
0.0
 30
0.0
  9
$EXTMIN
 10
-357.2249488378965
 20
-124.874689078816
 30
-0.0000000349181948
  9
$EXTMAX
 10
368.3178275157993
 20
208.6314857406854
 30
0.0000000814935747
  9
$LIMMIN
 10
0.0
 20
0.0
  9
$LIMMAX
 10
420.0
 20
297.0
  9
$ORTHOMODE
 70
     0
  9
$REGENMODE
 70
     1
  9
$FILLMODE
 70
     1
  9
$QTEXTMODE
 70
     0
  9
$MIRRTEXT
 70
     1
  9
$LTSCALE
 40
1.0
  9
$ATTMODE
 70
     1
  9
$TEXTSIZE
 40
2.5
  9
$TRACEWID
 40
1.0
  9
$TEXTSTYLE
  7
Standard
  9
$CLAYER
  8
0
  9
$CELTYPE
  6
ByLayer
  9
$CECOLOR
 62
   256
  9
$CELTSCALE
 40
1.0
  9
$DISPSILH
 70
     0
  9
$DIMSCALE
 40
1.0
  9
$DIMASZ
 40
2.5
  9
$DIMEXO
 40
0.625
  9
$DIMDLI
 40
3.75
  9
$DIMRND
 40
0.0
  9
$DIMDLE
 40
0.0
  9
$DIMEXE
 40
1.25
  9
$DIMTP
 40
0.0
  9
$DIMTM
 40
0.0
  9
$DIMTXT
 40
2.5
  9
$DIMCEN
 40
2.5
  9
$DIMTSZ
 40
0.0
  9
$DIMTOL
 70
     0
  9
$DIMLIM
 70
     0
  9
$DIMTIH
 70
     0
  9
$DIMTOH
 70
     0
  9
$DIMSE1
 70
     0
  9
$DIMSE2
 70
     0
  9
$DIMTAD
 70
     1
  9
$DIMZIN
 70
     8
  9
$DIMBLK
  1

  9
$DIMASO
 70
     1
  9
$DIMSHO
 70
     1
  9
$DIMPOST
  1

  9
$DIMAPOST
  1

  9
$DIMALT
 70
     0
  9
$DIMALTD
 70
     3
  9
$DIMALTF
 40
0.03937007874016
  9
$DIMLFAC
 40
1.0
  9
$DIMTOFL
 70
     1
  9
$DIMTVP
 40
0.0
  9
$DIMTIX
 70
     0
  9
$DIMSOXD
 70
     0
  9
$DIMSAH
 70
     0
  9
$DIMBLK1
  1

  9
$DIMBLK2
  1

  9
$DIMSTYLE
  2
ISO-25
  9
$DIMCLRD
 70
     0
  9
$DIMCLRE
 70
     0
  9
$DIMCLRT
 70
     0
  9
$DIMTFAC
 40
1.0
  9
$DIMGAP
 40
0.625
  9
$DIMJUST
 70
     0
  9
$DIMSD1
 70
     0
  9
$DIMSD2
 70
     0
  9
$DIMTOLJ
 70
     0
  9
$DIMTZIN
 70
     8
  9
$DIMALTZ
 70
     0
  9
$DIMALTTZ
 70
     0
  9
$DIMUPT
 70
     0
  9
$DIMDEC
 70
     2
  9
$DIMTDEC
 70
     2
  9
$DIMALTU
 70
     2
  9
$DIMALTTD
 70
     3
  9
$DIMTXSTY
  7
Standard
  9
$DIMAUNIT
 70
     0
  9
$DIMADEC
 70
     0
  9
$DIMALTRND
 40
0.0
  9
$DIMAZIN
 70
     0
  9
$DIMDSEP
 70
    44
  9
$DIMATFIT
 70
     3
  9
$DIMFRAC
 70
     0
  9
$DIMLDRBLK
  1

  9
$DIMLUNIT
 70
     2
  9
$DIMLWD
 70
    -2
  9
$DIMLWE
 70
    -2
  9
$DIMTMOVE
 70
     0
  9
$LUNITS
 70
     2
  9
$LUPREC
 70
     4
  9
$SKETCHINC
 40
1.0
  9
$FILLETRAD
 40
10.0
  9
$AUNITS
 70
     0
  9
$AUPREC
 70
     0
  9
$MENU
  1
.
  9
$ELEVATION
 40
0.0
  9
$PELEVATION
 40
0.0
  9
$THICKNESS
 40
0.0
  9
$LIMCHECK
 70
     0
  9
$CHAMFERA
 40
10.0
  9
$CHAMFERB
 40
10.0
  9
$CHAMFERC
 40
20.0
  9
$CHAMFERD
 40
0.0
  9
$SKPOLY
 70
     0
  9
$TDCREATE
 40
2456042.408215787
  9
$TDUCREATE
 40
2456042.033215787
  9
$TDUPDATE
 40
2456044.459726018
  9
$TDUUPDATE
 40
2456044.084726018
  9
$TDINDWG
 40
0.0044487963
  9
$TDUSRTIMER
 40
0.0044487963
  9
$USRTIMER
 70
     1
  9
$ANGBASE
 50
0.0
  9
$ANGDIR
 70
     0
  9
$PDMODE
 70
     0
  9
$PDSIZE
 40
0.0
  9
$PLINEWID
 40
0.0
  9
$SPLFRAME
 70
     0
  9
$SPLINETYPE
 70
     6
  9
$SPLINESEGS
 70
     8
  9
$HANDSEED
  5
6F0
  9
$SURFTAB1
 70
     6
  9
$SURFTAB2
 70
     6
  9
$SURFTYPE
 70
     6
  9
$SURFU
 70
     6
  9
$SURFV
 70
     6
  9
$UCSBASE
  2

  9
$UCSNAME
  2

  9
$UCSORG
 10
0.0
 20
0.0
 30
0.0
  9
$UCSXDIR
 10
1.0
 20
0.0
 30
0.0
  9
$UCSYDIR
 10
0.0
 20
1.0
 30
0.0
  9
$UCSORTHOREF
  2

  9
$UCSORTHOVIEW
 70
     0
  9
$UCSORGTOP
 10
0.0
 20
0.0
 30
0.0
  9
$UCSORGBOTTOM
 10
0.0
 20
0.0
 30
0.0
  9
$UCSORGLEFT
 10
0.0
 20
0.0
 30
0.0
  9
$UCSORGRIGHT
 10
0.0
 20
0.0
 30
0.0
  9
$UCSORGFRONT
 10
0.0
 20
0.0
 30
0.0
  9
$UCSORGBACK
 10
0.0
 20
0.0
 30
0.0
  9
$PUCSBASE
  2

  9
$PUCSNAME
  2

  9
$PUCSORG
 10
0.0
 20
0.0
 30
0.0
  9
$PUCSXDIR
 10
1.0
 20
0.0
 30
0.0
  9
$PUCSYDIR
 10
0.0
 20
1.0
 30
0.0
  9
$PUCSORTHOREF
  2

  9
$PUCSORTHOVIEW
 70
     0
  9
$PUCSORGTOP
 10
0.0
 20
0.0
 30
0.0
  9
$PUCSORGBOTTOM
 10
0.0
 20
0.0
 30
0.0
  9
$PUCSORGLEFT
 10
0.0
 20
0.0
 30
0.0
  9
$PUCSORGRIGHT
 10
0.0
 20
0.0
 30
0.0
  9
$PUCSORGFRONT
 10
0.0
 20
0.0
 30
0.0
  9
$PUCSORGBACK
 10
0.0
 20
0.0
 30
0.0
  9
$USERI1
 70
     0
  9
$USERI2
 70
     0
  9
$USERI3
 70
     0
  9
$USERI4
 70
     0
  9
$USERI5
 70
     0
  9
$USERR1
 40
0.0
  9
$USERR2
 40
0.0
  9
$USERR3
 40
0.0
  9
$USERR4
 40
0.0
  9
$USERR5
 40
0.0
  9
$WORLDVIEW
 70
     1
  9
$SHADEDGE
 70
     3
  9
$SHADEDIF
 70
    70
  9
$TILEMODE
 70
     1
  9
$MAXACTVP
 70
    64
  9
$PINSBASE
 10
0.0
 20
0.0
 30
0.0
  9
$PLIMCHECK
 70
     0
  9
$PEXTMIN
 10
26.66076962115562
 20
20.31135699206657
 30
-0.0015258207003583
  9
$PEXTMAX
 10
240.039213369355
 20
182.8886381005154
 30
0.0000000349246037
  9
$PLIMMIN
 10
-6.350006103515625
 20
-6.349999904632567
  9
$PLIMMAX
 10
273.0499877929687
 20
209.5499939918517
  9
$UNITMODE
 70
     0
  9
$VISRETAIN
 70
     1
  9
$PLINEGEN
 70
     0
  9
$PSLTSCALE
 70
     1
  9
$TREEDEPTH
 70
  3020
  9
$CMLSTYLE
  2
Standard
  9
$CMLJUST
 70
     0
  9
$CMLSCALE
 40
20.0
  9
$PROXYGRAPHICS
 70
     1
  9
$MEASUREMENT
 70
     1
  9
$CELWEIGHT
370
    -1
  9
$ENDCAPS
280
     0
  9
$JOINSTYLE
280
     0
  9
$LWDISPLAY
290
     0
  9
$INSUNITS
 70
     4
  9
$HYPERLINKBASE
  1

  9
$STYLESHEET
  1

  9
$XEDIT
290
     1
  9
$CEPSNTYPE
380
     0
  9
$PSTYLEMODE
290
     1
  9
$FINGERPRINTGUID
  2
{FDEAD578-A652-11D2-9A35-0060089B3A3F}
  9
$VERSIONGUID
  2
{E4C0751C-97E7-4E5A-B23B-1FB76E7C1A74}
  9
$EXTNAMES
290
     1
  9
$PSVPSCALE
 40
0.0
  9
$OLESTARTUP
290
     0
  0
ENDSEC
  0
SECTION
  2
CLASSES
  0
CLASS
  1
ACDBDICTIONARYWDFLT
  2
AcDbDictionaryWithDefault
  3
AutoCAD 2000
 90
        0
280
     0
281
     0
  0
CLASS
  1
ACDBPLACEHOLDER
  2
AcDbPlaceHolder
  3
AutoCAD 2000
 90
        0
280
     0
281
     0
  0
CLASS
  1
LAYOUT
  2
AcDbLayout
  3
AutoCAD 2000
 90
        0
280
     0
281
     0
  0
CLASS
  1
DICTIONARYVAR
  2
AcDbDictionaryVar
  3
AutoCAD 2000
 90
        0
280
     0
281
     0
  0
ENDSEC
  0
SECTION
  2
TABLES
  0
TABLE
  2
VPORT
  5
8
330
0
100
AcDbSymbolTable
 70
     2
  0
VPORT
  5
6EF
330
8
100
AcDbSymbolTableRecord
100
AcDbViewportTableRecord
  2
*Active
 70
     0
 10
0.0
 20
0.0
 11
1.0
 21
1.0
 12
5.546439338951358
 22
41.87839833093471
 13
0.0
 23
0.0
 14
10.0
 24
10.0
 15
10.0
 25
10.0
 16
0.0
 26
0.0
 36
1.0
 17
0.0
 27
0.0
 37
0.0
 40
369.575003500963
 41
1.97051597051597
 42
50.0
 43
0.0
 44
0.0
 50
0.0
 51
0.0
 71
     0
 72
   100
 73
     1
 74
     3
 75
     0
 76
     0
 77
     0
 78
     0
281
     0
 65
     1
110
0.0
120
0.0
130
0.0
111
1.0
121
0.0
131
0.0
112
0.0
122
1.0
132
0.0
 79
     0
146
0.0
  0
ENDTAB
  0
TABLE
  2
LTYPE
  5
5
330
0
100
AcDbSymbolTable
 70
     5
  0
LTYPE
  5
14
330
5
100
AcDbSymbolTableRecord
100
AcDbLinetypeTableRecord
  2
ByBlock
 70
     0
  3

 72
    65
 73
     0
 40
0.0
  0
LTYPE
  5
15
330
5
100
AcDbSymbolTableRecord
100
AcDbLinetypeTableRecord
  2
ByLayer
 70
     0
  3

 72
    65
 73
     0
 40
0.0
  0
LTYPE
  5
16
330
5
100
AcDbSymbolTableRecord
100
AcDbLinetypeTableRecord
  2
Continuous
 70
     0
  3
Solid line
 72
    65
 73
     0
 40
0.0
  0
LTYPE
  5
8C
330
5
100
AcDbSymbolTableRecord
100
AcDbLinetypeTableRecord
  2
DASHED
 70
     0
  3
Dashed
 72
    65
 73
     2
 40
15.0
 49
7.0
 74
     0
 49
-8.0
 74
     0
  0
LTYPE
  5
8D
330
5
100
AcDbSymbolTableRecord
100
AcDbLinetypeTableRecord
  2
DASH_CENTER
 70
     0
  3
Dash_Center
 72
    65
 73
     4
 40
14.0
 49
11.0
 74
     0
 49
-1.0
 74
     0
 49
1.0
 74
     0
 49
-1.0
 74
     0
  0
LTYPE
  5
8E
330
5
100
AcDbSymbolTableRecord
100
AcDbLinetypeTableRecord
  2
PHANTOM
 70
     0
  3
Phantom
 72
    65
 73
     6
 40
13.0
 49
10.0
 74
     0
 49
-1.0
 74
     0
 49
0.0
 74
     0
 49
-1.0
 74
     0
 49
0.0
 74
     0
 49
-1.0
 74
     0
  0
LTYPE
  5
8F
330
5
100
AcDbSymbolTableRecord
100
AcDbLinetypeTableRecord
  2
CENTER_DASH_DASH
 70
     0
  3
Center_Dash_Dash
 72
    65
 73
     6
 40
14.0
 49
9.0
 74
     0
 49
-1.0
 74
     0
 49
1.0
 74
     0
 49
-1.0
 74
     0
 49
1.0
 74
     0
 49
-1.0
 74
     0
  0
ENDTAB
  0
TABLE
  2
LAYER
  5
2
330
0
100
AcDbSymbolTable
 70
     1
  0
LAYER
  5
10
330
2
100
AcDbSymbolTableRecord
100
AcDbLayerTableRecord
  2
0
 70
     0
 62
     7
  6
Continuous
370
    -3
390
F
  0
ENDTAB
  0
TABLE
  2
STYLE
  5
3
330
0
100
AcDbSymbolTable
 70
    20
  0
STYLE
  5
11
330
3
100
AcDbSymbolTableRecord
100
AcDbTextStyleTableRecord
  2
Standard
 70
     0
 40
0.0
 41
1.0
 50
0.0
 71
     0
 42
2.5
  3
txt
  4

  0
STYLE
  5
90
330
3
100
AcDbSymbolTableRecord
100
AcDbTextStyleTableRecord
  2
CONVERTER_1
 70
     0
 40
0.0
 41
0.7120000000000001
 50
0.0
 71
     0
 42
0.2
  3
simplex.shx
  4

  0
STYLE
  5
91
330
3
100
AcDbSymbolTableRecord
100
AcDbTextStyleTableRecord
  2
CONVERTER_2
 70
     0
 40
0.0
 41
0.89
 50
0.0
 71
     0
 42
0.2
  3
txt.shx
  4
bigfont.shx
  0
STYLE
  5
92
330
3
100
AcDbSymbolTableRecord
100
AcDbTextStyleTableRecord
  2
CONVERTER_3
 70
     0
 40
0.0
 41
0.7565
 50
0.0
 71
     0
 42
0.2
  3
simplex.shx
  4
bigfont.shx
  0
STYLE
  5
93
330
3
100
AcDbSymbolTableRecord
100
AcDbTextStyleTableRecord
  2
CONVERTER_4
 70
     0
 40
0.0
 41
0.7120000000000001
 50
0.0
 71
     0
 42
0.2
  3
simplex.shx
  4
bigfont.shx
  0
STYLE
  5
94
330
3
100
AcDbSymbolTableRecord
100
AcDbTextStyleTableRecord
  2
CONVERTER_6
 70
     0
 40
0.0
 41
0.8009999999999999
 50
0.0
 71
     0
 42
0.2
  3
simplex.shx
  4
bigfont.shx
  0
STYLE
  5
95
330
3
100
AcDbSymbolTableRecord
100
AcDbTextStyleTableRecord
  2
CONVERTER_7
 70
     0
 40
0.0
 41
0.7565
 50
0.0
 71
     0
 42
0.2
  3
simplex.shx
  4

  0
STYLE
  5
96
330
3
100
AcDbSymbolTableRecord
100
AcDbTextStyleTableRecord
  2
CONVERTER_8
 70
     0
 40
0.0
 41
1.008666666666669
 50
0.0
 71
     0
 42
0.2
  3
txt.shx
  4
bigfont.shx
  0
STYLE
  5
97
330
3
100
AcDbSymbolTableRecord
100
AcDbTextStyleTableRecord
  2
CONVERTER_9
 70
     0
 40
0.0
 41
0.9761290322580599
 50
0.0
 71
     0
 42
0.2
  3
txt.shx
  4
bigfont.shx
  0
STYLE
  5
98
330
3
100
AcDbSymbolTableRecord
100
AcDbTextStyleTableRecord
  2
CONVERTER_11
 70
     0
 40
0.0
 41
1.0235
 50
0.0
 71
     0
 42
0.2
  3
simplex.shx
  4

  0
STYLE
  5
99
330
3
100
AcDbSymbolTableRecord
100
AcDbTextStyleTableRecord
  2
CONVERTER_12
 70
     0
 40
0.0
 41
0.8009999999999999
 50
0.0
 71
     0
 42
0.2
  3
simplex.shx
  4

  0
STYLE
  5
9A
330
3
100
AcDbSymbolTableRecord
100
AcDbTextStyleTableRecord
  2
CONVERTER_13
 70
     0
 40
0.0
 41
0.7758974358974399
 50
0.0
 71
     0
 42
0.2
  3
txt.shx
  4
bigfont.shx
  0
STYLE
  5
9B
330
3
100
AcDbSymbolTableRecord
100
AcDbTextStyleTableRecord
  2
CONVERTER_15
 70
     0
 40
0.0
 41
1.87368421052632
 50
0.0
 71
     0
 42
0.2
  3
txt.shx
  4

  0
STYLE
  5
9C
330
3
100
AcDbSymbolTableRecord
100
AcDbTextStyleTableRecord
  2
CONVERTER_16
 70
     0
 40
0.0
 41
1.080714285714289
 50
0.0
 71
     0
 42
0.2
  3
txt.shx
  4
bigfont.shx
  0
STYLE
  5
9D
330
3
100
AcDbSymbolTableRecord
100
AcDbTextStyleTableRecord
  2
CONVERTER_17
 70
     0
 40
0.0
 41
0.945625
 50
0.0
 71
     0
 42
0.2
  3
txt.shx
  4
bigfont.shx
  0
STYLE
  5
9E
330
3
100
AcDbSymbolTableRecord
100
AcDbTextStyleTableRecord
  2
CONVERTER_18
 70
     0
 40
0.0
 41
0.73514
 50
0.0
 71
     0
 42
0.2
  3
simplex.shx
  4

  0
STYLE
  5
9F
330
3
100
AcDbSymbolTableRecord
100
AcDbTextStyleTableRecord
  2
CONVERTER_19
 70
     0
 40
0.0
 41
0.6230000000000003
 50
0.0
 71
     0
 42
0.2
  3
simplex.shx
  4

  0
STYLE
  5
A0
330
3
100
AcDbSymbolTableRecord
100
AcDbTextStyleTableRecord
  2
CONVERTER_20
 70
     0
 40
0.0
 41
1.62688172043011
 50
0.0
 71
     0
 42
0.2
  3
txt.shx
  4
bigfont.shx
  0
STYLE
  5
A1
330
3
100
AcDbSymbolTableRecord
100
AcDbTextStyleTableRecord
  2
CONVERTER_21
 70
     0
 40
0.0
 41
1.68111111111111
 50
0.0
 71
     0
 42
0.2
  3
txt.shx
  4
bigfont.shx
  0
STYLE
  5
A2
330
3
100
AcDbSymbolTableRecord
100
AcDbTextStyleTableRecord
  2
社名
 70
     0
 40
2.5
 41
0.8
 50
0.0
 71
     0
 42
2.5
  3

  4

1001
ACAD
1000
Swis721 Blk BT
1071
       34
  0
ENDTAB
  0
TABLE
  2
VIEW
  5
6
330
0
100
AcDbSymbolTable
 70
     0
  0
ENDTAB
  0
TABLE
  2
UCS
  5
7
330
0
100
AcDbSymbolTable
 70
     0
  0
ENDTAB
  0
TABLE
  2
APPID
  5
9
330
0
100
AcDbSymbolTable
 70
     1
  0
APPID
  5
12
330
9
100
AcDbSymbolTableRecord
100
AcDbRegAppTableRecord
  2
ACAD
 70
     0
  0
ENDTAB
  0
TABLE
  2
DIMSTYLE
  5
A
330
0
100
AcDbSymbolTable
 70
     4
100
AcDbDimStyleTable
 71
     0
  0
DIMSTYLE
105
27
330
A
100
AcDbSymbolTableRecord
100
AcDbDimStyleTableRecord
  2
ISO-25
 70
     0
 41
2.5
 42
0.625
 43
3.75
 44
1.25
 73
     0
 74
     0
 77
     1
 78
     8
140
2.5
141
2.5
143
0.03937007874016
147
0.625
171
     3
172
     1
271
     2
272
     2
274
     3
278
    44
283
     0
284
     8
340
11
  0
DIMSTYLE
105
A3
330
A
100
AcDbSymbolTableRecord
100
AcDbDimStyleTableRecord
  2
Standard
 70
     0
340
11
  0
DIMSTYLE
105
A4
330
A
100
AcDbSymbolTableRecord
100
AcDbDimStyleTableRecord
  2
ME10_DIM_10
 70
     0
  3
{\Fgdt;%%c}<>
 41
4.0
 42
2.35
 44
4.0
 73
     0
 74
     0
 77
     1
 78
     8
140
5.0
147
1.6
172
     1
173
     1
176
    54
177
    54
178
     2
271
     2
272
     2
340
90
341
86
343
86
344
86
  0
DIMSTYLE
105
A5
330
A
100
AcDbSymbolTableRecord
100
AcDbDimStyleTableRecord
  2
ME10_DIM_11
 70
     0
  3
%%c<>
 41
4.0
 42
2.35
 44
4.0
 73
     0
 74
     0
 77
     1
 78
     8
140
5.0
147
1.6
172
     1
173
     1
176
    54
177
    54
178
     2
271
     2
272
     2
340
93
341
86
343
86
344
86
  0
ENDTAB
  0
TABLE
  2
BLOCK_RECORD
  5
1
330
0
100
AcDbSymbolTable
 70
     4
  0
BLOCK_RECORD
  5
1F
330
1
100
AcDbSymbolTableRecord
100
AcDbBlockTableRecord
  2
*Model_Space
340
22
  0
BLOCK_RECORD
  5
55
330
1
100
AcDbSymbolTableRecord
100
AcDbBlockTableRecord
  2
*Paper_Space
340
56
  0
BLOCK_RECORD
  5
50
330
1
100
AcDbSymbolTableRecord
100
AcDbBlockTableRecord
  2
*Paper_Space0
340
51
  0
BLOCK_RECORD
  5
86
330
1
100
AcDbSymbolTableRecord
100
AcDbBlockTableRecord
  2
_Open30
340
0
  0
ENDTAB
  0
ENDSEC
  0
SECTION
  2
BLOCKS
  0
BLOCK
  5
20
330
1F
100
AcDbEntity
  8
0
100
AcDbBlockBegin
  2
*Model_Space
 70
     0
 10
0.0
 20
0.0
 30
0.0
  3
*Model_Space
  1

  0
ENDBLK
  5
21
330
1F
100
AcDbEntity
  8
0
100
AcDbBlockEnd
  0
BLOCK
  5
57
330
55
100
AcDbEntity
 67
     1
  8
0
100
AcDbBlockBegin
  2
*Paper_Space
 70
     0
 10
0.0
 20
0.0
 30
0.0
  3
*Paper_Space
  1

  0
ENDBLK
  5
58
330
55
100
AcDbEntity
 67
     1
  8
0
100
AcDbBlockEnd
  0
BLOCK
  5
52
330
50
100
AcDbEntity
  8
0
100
AcDbBlockBegin
  2
*Paper_Space0
 70
     0
 10
0.0
 20
0.0
 30
0.0
  3
*Paper_Space0
  1

  0
VIEWPORT
  5
6B
330
50
100
AcDbEntity
  8
0
100
AcDbViewport
 10
133.3499908447265
 20
101.5999970436096
 30
0.0
 40
381.3957395593833
 41
218.2856291881582
 69
     0
 12
133.3499908447265
 22
101.5999970436096
 13
0.0
 23
0.0
 14
10.0
 24
10.0
 15
10.0
 25
10.0
 16
0.0
 26
0.0
 36
1.0
 17
0.0
 27
0.0
 37
0.0
 42
50.0
 43
0.0
 44
0.0
 45
218.2856291881582
 50
0.0
 51
0.0
 72
   100
 90
    32800
  1

281
     0
 71
     1
 74
     0
110
0.0
120
0.0
130
0.0
111
1.0
121
0.0
131
0.0
112
0.0
122
1.0
132
0.0
 79
     0
146
0.0
  0
VIEWPORT
  5
6D
330
50
100
AcDbEntity
  8
0
100
AcDbViewport
 10
133.3499939441679
 20
101.5999939441679
 30
0.0
 40
213.3599903106689
 41
162.5599903106689
 69
     0
 12
210.0
 22
148.5
 13
0.0
 23
0.0
 14
10.0
 24
10.0
 15
10.0
 25
10.0
 16
0.0
 26
0.0
 36
1.0
 17
0.0
 27
0.0
 37
0.0
 42
50.0
 43
0.0
 44
0.0
 45
324.0677920111345
 50
0.0
 51
0.0
 72
   100
 90
    32864
  1

281
     0
 71
     1
 74
     0
110
0.0
120
0.0
130
0.0
111
1.0
121
0.0
131
0.0
112
0.0
122
1.0
132
0.0
 79
     0
146
0.0
  0
ENDBLK
  5
53
330
50
100
AcDbEntity
  8
0
100
AcDbBlockEnd
  0
BLOCK
  5
8A
330
86
100
AcDbEntity
  8
0
100
AcDbBlockBegin
  2
_Open30
 70
     0
 10
0.0
 20
0.0
 30
0.0
  3
_Open30
  1

  0
LINE
  5
87
330
86
100
AcDbEntity
  8
0
  6
ByBlock
 62
     0
370
    -2
100
AcDbLine
 10
-1.0
 20
0.267949
 30
0.0
 11
0.0
 21
0.0
 31
0.0
  0
LINE
  5
88
330
86
100
AcDbEntity
  8
0
  6
ByBlock
 62
     0
370
    -2
100
AcDbLine
 10
0.0
 20
0.0
 30
0.0
 11
-1.0
 21
-0.267949
 31
0.0
  0
LINE
  5
89
330
86
100
AcDbEntity
  8
0
  6
ByBlock
 62
     0
370
    -2
100
AcDbLine
 10
0.0
 20
0.0
 30
0.0
 11
-1.0
 21
0.0
 31
0.0
  0
ENDBLK
  5
8B
330
86
100
AcDbEntity
  8
0
100
AcDbBlockEnd
  0
ENDSEC
  0
SECTION
  2
ENTITIES
  0
LINE
  5
3BA
330
1F
100
AcDbEntity
  8
0
  6
PHANTOM
 62
   171
100
AcDbLine
 10
-0.0289000000005899
 20
181.9997999999964
 30
0.0
 11
-24.68788915890627
 21
181.9997999999966
 31
0.0
  0
LINE
  5
3BB
330
1F
100
AcDbEntity
  8
0
  6
PHANTOM
 62
   171
100
AcDbLine
 10
-0.0289000000005899
 20
177.9997999999965
 30
0.0
 11
-24.52288385408297
 21
177.9997999999966
 31
0.0
  0
LINE
  5
3BC
330
1F
100
AcDbEntity
  8
0
  6
Continuous
 62
     7
100
AcDbLine
 10
-5.529100000000994
 20
185.5991999999965
 30
0.0
 11
-26.09796394319118
 21
185.5991999999965
 31
0.0
  0
LINE
  5
3BD
330
1F
100
AcDbEntity
  8
0
  6
Continuous
 62
     7
100
AcDbLine
 10
-7.829100000000266
 20
183.9990999999969
 30
0.0
 11
-25.21279704125277
 21
183.9990999999969
 31
0.0
  0
LINE
  5
3BE
330
1F
100
AcDbEntity
  8
0
  6
DASH_CENTER
 62
    30
100
AcDbLine
 10
71.52040000000011
 20
-32.05457709302374
 30
0.0
 11
-176.3833000000006
 21
-32.05457709302374
 31
0.0
  0
LINE
  5
3BF
330
1F
100
AcDbEntity
  8
0
  6
Continuous
 62
     7
100
AcDbLine
 10
-5.329000000000062
 20
-89.55457709302375
 30
0.0
 11
-123.3288000000005
 21
-89.55457709302375
 31
0.0
  0
LINE
  5
3C0
330
1F
100
AcDbEntity
  8
0
  6
Continuous
 62
     7
100
AcDbLine
 10
-123.3288000000005
 20
25.44542290697624
 30
0.0
 11
-5.329000000000062
 21
25.44542290697624
 31
0.0
  0
LINE
  5
3C7
330
1F
100
AcDbEntity
  8
0
  6
PHANTOM
 62
    30
100
AcDbLine
 10
2.365131424425839
 20
179.9997999999964
 30
0.0
 11
-24.51788066741221
 21
179.9997999999964
 31
0.0
  0
LINE
  5
3C8
330
1F
100
AcDbEntity
  8
0
  6
CENTER_DASH_DASH
 62
   171
100
AcDbLine
 10
0.3710999999990463
 20
178.399799999997
 30
0.0
 11
-19.62890000000095
 21
178.399799999997
 31
0.0
  0
LINE
  5
3C9
330
1F
100
AcDbEntity
  8
0
  6
CENTER_DASH_DASH
 62
   171
100
AcDbLine
 10
0.3710999999990463
 20
181.5997999999968
 30
0.0
 11
-19.62890000000095
 21
181.5997999999968
 31
0.0
  0
SPLINE
  5
3CD
330
1F
100
AcDbEntity
  8
0
  6
Continuous
 62
     4
100
AcDbSpline
210
0.0
220
0.0
230
1.0
 70
     8
 71
     3
 72
    21
 73
    17
 74
    15
 42
0.0000000001
 43
0.0000000001
 44
0.00000001
 40
0.0
 40
0.0
 40
0.0
 40
0.0
 40
7.476777587016147
 40
15.02688255992713
 40
19.62327078208751
 40
23.88317925770286
 40
28.96611620801474
 40
34.56082857725309
 40
40.21049092992526
 40
45.76576083945352
 40
49.52210326234571
 40
53.1018761605282
 40
57.7547959278269
 40
62.5636828755153
 40
70.54131571200833
 40
78.72319139178945
 40
78.72319139178945
 40
78.72319139178945
 40
78.72319139178945
 10
7.158904875429811
 20
118.4999723755361
 30
0.0
 10
4.973246184924339
 20
119.8659225786624
 30
0.0
 10
0.5804932711032527
 20
122.6112193270621
 30
0.0
 10
-0.8579511906339259
 20
129.8392522273858
 30
0.0
 10
-5.833210281002518
 20
132.4347452841174
 30
0.0
 10
-9.994874082113753
 20
135.11829814865
 30
0.0
 10
-10.25612116934408
 20
140.5254040516686
 30
0.0
 10
-9.923269832094426
 20
146.0427378299605
 30
0.0
 10
-13.29735105340385
 20
150.749465051453
 30
0.0
 10
-16.23432677007483
 20
155.0216791682697
 30
0.0
 10
-16.04503243977986
 20
159.3764236686886
 30
0.0
 10
-16.23831430688057
 20
163.5680996240267
 30
0.0
 10
-19.77018852115829
 20
166.5218962276886
 30
0.0
 10
-24.80344608014897
 20
169.9995502930415
 30
0.0
 10
-24.05573629315604
 20
177.8740167550358
 30
0.0
 10
-25.41150944598884
 20
183.0025321851035
 30
0.0
 10
-26.09796394319118
 20
185.5991999999965
 30
0.0
 11
7.158904875429811
 21
118.4999723755361
 31
0.0
 11
1.416727555743476
 21
123.2884588492712
 31
0.0
 11
-2.153625071767236
 21
129.9410273162695
 31
0.0
 11
-5.924051710885349
 21
132.5698421935492
 31
0.0
 11
-9.203227379090206
 21
135.2890014804454
 31
0.0
 11
-10.15552499459174
 21
140.2819342105114
 31
0.0
 11
-10.54022092013423
 21
145.8634049414295
 31
0.0
 11
-13.30338415226775
 21
150.7912456106202
 31
0.0
 11
-15.8881950843102
 21
155.7085391982074
 31
0.0
 11
-16.10168997216266
 21
159.458809631478
 31
0.0
 11
-16.61746428851619
 21
163.0012312402655
 31
0.0
 11
-19.76867165617142
 21
166.4246147271259
 31
0.0
 11
-23.30243199373626
 21
169.6861989454854
 31
0.0
 11
-24.53388790931773
 21
177.5682127736116
 31
0.0
 11
-26.09796394319118
 21
185.5991999999965
 31
0.0
  0
LINE
  5
3CE
330
1F
100
AcDbEntity
  8
0
  6
Continuous
 62
     7
100
AcDbLine
 10
-123.3288000000005
 20
-91.55457709302375
 30
0.0
 11
-123.3288000000005
 21
27.44542290697625
 31
0.0
  0
LINE
  5
3CF
330
1F
100
AcDbEntity
  8
0
  6
Continuous
 62
     7
100
AcDbLine
 10
-169.3288000000004
 20
13.44512290697623
 30
0.0
 11
-169.3288000000004
 21
-77.55437709302377
 31
0.0
  0
ARC
  5
3D0
330
1F
100
AcDbEntity
  8
0
  6
Continuous
 62
     7
100
AcDbCircle
 10
-284.5903659245316
 20
-149.9507762825541
 30
0.0
 40
150.5057347768429
100
AcDbArc
 50
89.99983293097363
 51
99.31373715882614
  0
ARC
  5
3D1
330
1F
100
AcDbEntity
  8
0
  6
Continuous
 62
     7
100
AcDbCircle
 10
-376.1977544875093
 20
-32.05457709302374
 30
0.0
 40
151.1077652802078
100
AcDbArc
 50
0.0487527322950435
 51
12.45312244520885
  0
ARC
  5
3D2
330
1F
100
AcDbEntity
  8
0
  6
Continuous
 62
     7
100
AcDbCircle
 10
-284.5894882038103
 20
-149.9507762825539
 30
0.0
 40
150.5057347768429
100
AcDbArc
 50
80.68626284117385
 51
90.00016706902638
  0
LINE
  5
3D3
330
1F
100
AcDbEntity
  8
0
  6
DASH_CENTER
 62
    30
100
AcDbLine
 10
-284.5899270641698
 20
-104.655117023264
 30
0.0
 11
-284.5899270641698
 21
40.54596283721886
 31
0.0
  0
LINE
  5
3D4
330
1F
100
AcDbEntity
  8
0
  6
Continuous
 62
     7
100
AcDbLine
 10
-312.5306154397691
 20
1.561983770727557
 30
0.0
 11
-309.8201073893716
 21
-1.148524279669959
 31
0.0
  0
LINE
  5
3D5
330
1F
100
AcDbEntity
  8
0
  6
Continuous
 62
     7
100
AcDbLine
 10
-259.3597467389702
 20
-1.148524279669959
 30
0.0
 11
-256.6492386885706
 21
1.561983770727557
 31
0.0
  0
ARC
  5
3DC
330
1F
100
AcDbEntity
  8
0
  6
Continuous
 62
     7
100
AcDbCircle
 10
-192.9821155636829
 20
-32.05472303387885
 30
0.0
 40
151.1077812028464
100
AcDbArc
 50
167.546822218152
 51
179.9999446633718
  0
ARC
  5
3DD
330
1F
100
AcDbEntity
  8
0
  6
Continuous
 62
     7
100
AcDbCircle
 10
-284.5895660189281
 20
96.87869161825865
 30
0.0
 40
150.5057581925681
100
AcDbArc
 50
269.9998625543045
 51
275.5906366074568
  0
ARC
  5
3DE
330
1F
100
AcDbEntity
  8
0
  6
Continuous
 62
     7
100
AcDbCircle
 10
-284.5897782328526
 20
90.85845302594046
 30
0.0
 40
150.505749222453
100
AcDbArc
 50
269.9999433416586
 51
276.6589420369342
  0
ARC
  5
3DF
330
1F
100
AcDbEntity
  8
0
  6
Continuous
 62
     7
100
AcDbCircle
 10
-284.5898428279252
 20
85.84159321053292
 30
0.0
 40
150.5057474257981
100
AcDbArc
 50
269.9999679322443
 51
279.313834466411
  0
ARC
  5
3E0
330
1F
100
AcDbEntity
  8
0
  6
Continuous
 62
     7
100
AcDbCircle
 10
-284.5899531218076
 20
79.82135435672849
 30
0.0
 40
150.5057381945345
100
AcDbArc
 50
270.0000099198391
 51
280.3917882546993
  0
ARC
  5
3E1
330
1F
100
AcDbEntity
  8
0
  6
Continuous
 62
     7
100
AcDbCircle
 10
-284.5898666447668
 20
59.55325692219433
 30
0.0
 40
151.1077701182314
100
AcDbArc
 50
269.9999770906753
 51
282.4529427321964
  0
ARC
  5
3E2
330
1F
100
AcDbEntity
  8
0
  6
Continuous
 62
     7
100
AcDbCircle
 10
-284.5894845656748
 20
-154.9676242954252
 30
0.0
 40
150.5057437724143
100
AcDbArc
 50
83.34113181918475
 51
90.00016845401146
  0
ARC
  5
3E3
330
1F
100
AcDbEntity
  8
0
  6
Continuous
 62
     7
100
AcDbCircle
 10
-284.5889971123833
 20
-160.9878735776733
 30
0.0
 40
150.5057304118806
100
AcDbArc
 50
84.40957996848387
 51
90.00035402181962
  0
LINE
  5
3E4
330
1F
100
AcDbEntity
  8
0
  6
DASH_CENTER
 62
    30
100
AcDbLine
 10
-211.9893871339271
 20
-32.05457709302374
 30
0.0
 11
-357.1904669944125
 21
-32.05457709302374
 31
0.0
  0
ARC
  5
3F0
330
1F
100
AcDbEntity
  8
0
  6
Continuous
 62
     7
100
AcDbCircle
 10
-284.5899874835751
 20
59.55325692219457
 30
0.0
 40
151.1077701182315
100
AcDbArc
 50
257.5470572678034
 51
270.0000229093246
  0
ARC
  5
3F1
330
1F
100
AcDbEntity
  8
0
  6
Continuous
 62
     7
100
AcDbCircle
 10
-310.5537651965176
 20
-58.01893193012314
 30
0.0
 40
30.70319647880682
100
AcDbArc
 50
192.4538502672291
 51
257.5468880407985
  0
ARC
  5
3F2
330
1F
100
AcDbEntity
  8
0
  6
Continuous
 62
     7
100
AcDbCircle
 10
-192.9820996408324
 20
-32.05457709302374
 30
0.0
 40
151.1077971256265
100
AcDbArc
 50
180.0
 51
192.4533535486861
  0
LINE
  5
3F3
330
1F
100
AcDbEntity
  8
0
  6
Continuous
 62
     7
100
AcDbLine
 10
-344.0898102182558
 20
-35.56637770618468
 30
0.0
 11
-344.0898102182558
 21
-28.54277647986256
 31
0.0
  0
LINE
  5
3F4
330
1F
100
AcDbEntity
  8
0
  6
Continuous
 62
     7
100
AcDbLine
 10
-346.6986767251932
 20
-34.14289441193032
 30
0.0
 11
-346.6986767251932
 21
-29.96625977411718
 31
0.0
  0
ARC
  5
3F5
330
1F
100
AcDbEntity
  8
0
  6
Continuous
 62
     7
100
AcDbCircle
 10
-345.3942199535018
 20
-34.14286532942316
 30
0.0
 40
1.304356434855532
100
AcDbArc
 50
180.001277492005
 51
265.0011817930525
  0
LINE
  5
3F6
330
1F
100
AcDbEntity
  8
0
  6
Continuous
 62
     7
100
AcDbLine
 10
-344.0898102182558
 20
-35.56637770618468
 30
0.0
 11
-345.5078753058519
 21
-35.44236097595812
 31
0.0
  0
ARC
  5
3F7
330
1F
100
AcDbEntity
  8
0
  6
Continuous
 62
     7
100
AcDbCircle
 10
-345.3941699756691
 20
-29.96623431577501
 30
0.0
 40
1.30440641261226
100
AcDbArc
 50
95.0008298425252
 51
180.0011182523673
  0
LINE
  5
3F8
330
1F
100
AcDbEntity
  8
0
  6
Continuous
 62
     7
100
AcDbLine
 10
-344.0898102182558
 20
-28.54277647986256
 30
0.0
 11
-345.5078753058519
 21
-28.66699388440712
 31
0.0
  0
ARC
  5
3F9
330
1F
100
AcDbEntity
  8
0
  6
Continuous
 62
     7
100
AcDbCircle
 10
-155.6567763180999
 20
-32.05457709302374
 30
0.0
 40
150.5056661869714
100
AcDbArc
 50
174.4092602411099
 51
185.5907397588899
  0
ARC
  5
3FA
330
1F
100
AcDbEntity
  8
0
  6
Continuous
 62
     7
100
AcDbCircle
 10
-161.6770059416069
 20
-32.05424771195287
 30
0.0
 40
150.5057080505193
100
AcDbArc
 50
173.3411637898509
 51
186.6591656098234
  0
ARC
  5
3FB
330
1F
100
AcDbEntity
  8
0
  6
Continuous
 62
     7
100
AcDbCircle
 10
-166.6938639594628
 20
-32.05467743018498
 30
0.0
 40
150.5057542875675
100
AcDbArc
 50
170.6861334658368
 51
189.3138665341629
  0
ARC
  5
3FC
330
1F
100
AcDbEntity
  8
0
  6
Continuous
 62
     7
100
AcDbCircle
 10
-172.7140935820298
 20
-32.05457709302374
 30
0.0
 40
150.505717726407
100
AcDbArc
 50
169.6082592357979
 51
190.3917407642019
  0
LINE
  5
3FD
330
1F
100
AcDbEntity
  8
0
  6
Continuous
 62
     7
100
AcDbLine
 10
-292.7321872915269
 20
-45.87270980853046
 30
0.0
 11
-289.6799308728868
 21
-42.82055372705271
 31
0.0
  0
LINE
  5
3FE
330
1F
100
AcDbEntity
  8
0
  6
Continuous
 62
     7
100
AcDbLine
 10
-279.4999232554529
 20
-42.82055372705271
 30
0.0
 11
-276.4476668368128
 21
-45.87270980853046
 31
0.0
  0
ARC
  5
3FF
330
1F
100
AcDbEntity
  8
0
  6
Continuous
 62
     7
100
AcDbCircle
 10
-284.5900113004166
 20
85.84159321053318
 30
0.0
 40
150.5057474257984
100
AcDbArc
 50
260.6861655335888
 51
270.0000320677555
  0
ARC
  5
400
330
1F
100
AcDbEntity
  8
0
  6
Continuous
 62
     7
100
AcDbCircle
 10
-284.5899010065341
 20
79.82135435672866
 30
0.0
 40
150.5057381945348
100
AcDbArc
 50
259.6082117453004
 51
269.9999900801608
  0
LINE
  5
401
330
1F
100
AcDbEntity
  8
0
  6
Continuous
 62
     7
100
AcDbLine
 10
-308.6082351663502
 20
-50.39691236988955
 30
0.0
 11
-305.7356826019439
 21
-47.52435980548346
 31
0.0
  0
ARC
  5
402
330
1F
100
AcDbEntity
  8
0
  6
Continuous
 62
     7
100
AcDbCircle
 10
-311.4663439726687
 20
-66.73529849295912
 30
0.0
 40
1.505099651922126
100
AcDbArc
 50
135.0002851624561
 51
259.6035375885056
  0
ARC
  5
403
330
1F
100
AcDbEntity
  8
0
  6
Continuous
 62
     7
100
AcDbCircle
 10
-316.2055634287836
 20
-56.57517038874964
 30
0.0
 40
1.003363243127632
100
AcDbArc
 50
314.9998595551867
 51
9.317122313125848
  0
ARC
  5
404
330
1F
100
AcDbEntity
  8
0
  6
Continuous
 62
     7
100
AcDbCircle
 10
-319.2707292849181
 20
-58.93089974649061
 30
0.0
 40
1.505081551141938
100
AcDbArc
 50
190.388586707671
 51
314.9993532077343
  0
LINE
  5
405
330
1F
100
AcDbEntity
  8
0
  6
Continuous
 62
     7
100
AcDbLine
 10
-318.2064879279233
 20
-59.99516513146271
 30
0.0
 11
-315.4960802146836
 21
-57.28475741822561
 31
0.0
  0
ARC
  5
406
330
1F
100
AcDbEntity
  8
0
  6
Continuous
 62
     7
100
AcDbCircle
 10
-309.1106376317991
 20
-63.67011857169364
 30
0.0
 40
1.003355123135414
100
AcDbArc
 50
80.68762787982333
 51
134.9992365287914
  0
LINE
  5
407
330
1F
100
AcDbEntity
  8
0
  6
Continuous
 62
     7
100
AcDbLine
 10
-312.5306154397691
 20
-65.67113795677477
 30
0.0
 11
-309.8201073893716
 21
-62.96062990637754
 31
0.0
  0
ARC
  5
408
330
1F
100
AcDbEntity
  8
0
  6
Continuous
 62
     7
100
AcDbCircle
 10
-309.6724431712891
 20
-49.33265983918832
 30
0.0
 40
1.505048878568544
100
AcDbArc
 50
186.6604352839949
 51
314.998801416231
  0
ARC
  5
409
330
1F
100
AcDbEntity
  8
0
  6
Continuous
 62
     7
100
AcDbCircle
 10
-284.5907301487491
 20
101.8955510900867
 30
0.0
 40
150.505759647303
100
AcDbArc
 50
267.2775412307288
 51
270.0003057248901
  0
ARC
  5
40A
330
1F
100
AcDbEntity
  8
0
  6
Continuous
 62
     7
100
AcDbCircle
 10
-284.5902881094136
 20
96.87869161825879
 30
0.0
 40
150.5057581925683
100
AcDbArc
 50
264.4093633925431
 51
270.0001374456955
  0
ARC
  5
40B
330
1F
100
AcDbEntity
  8
0
  6
Continuous
 62
     7
100
AcDbCircle
 10
-284.5900758954893
 20
90.85845302594064
 30
0.0
 40
150.5057492224532
100
AcDbArc
 50
263.3410579630656
 51
270.0000566583445
  0
LINE
  5
40C
330
1F
100
AcDbEntity
  8
0
  6
Continuous
 62
     7
100
AcDbLine
 10
-302.9322623410355
 20
-56.07278485804146
 30
0.0
 11
-300.0597097766293
 21
-53.20023229363536
 31
0.0
  0
ARC
  5
40D
330
1F
100
AcDbEntity
  8
0
  6
Continuous
 62
     7
100
AcDbCircle
 10
-301.8680790272321
 20
-57.13708238040979
 30
0.0
 40
1.505063235049313
100
AcDbArc
 50
134.9969256623622
 51
263.3384357774013
  0
ARC
  5
40E
330
1F
100
AcDbEntity
  8
0
  6
Continuous
 62
     7
100
AcDbCircle
 10
-299.3503653067506
 20
-53.90973041192122
 30
0.0
 40
1.003344165322072
100
AcDbArc
 50
84.40812389628108
 51
134.997847334528
  0
ARC
  5
40F
330
1F
100
AcDbEntity
  8
0
  6
Continuous
 62
     7
100
AcDbCircle
 10
-306.4451693154038
 20
-46.81478281241978
 30
0.0
 40
1.003429571849222
100
AcDbArc
 50
314.9963548921455
 51
5.589571376905573
  0
ARC
  5
410
330
1F
100
AcDbEntity
  8
0
  6
Continuous
 62
     7
100
AcDbCircle
 10
-291.6679230591554
 20
-46.93695495990841
 30
0.0
 40
1.505083419128895
100
AcDbArc
 50
135.00051362724
 51
267.2760195146071
  0
ARC
  5
411
330
1F
100
AcDbEntity
  8
0
  6
Continuous
 62
     7
100
AcDbCircle
 10
-284.5891239795881
 20
101.8955510900868
 30
0.0
 40
150.5057596473033
100
AcDbArc
 50
269.9996942751064
 51
272.7224587692709
  0
ARC
  5
412
330
1F
100
AcDbEntity
  8
0
  6
Continuous
 62
     7
100
AcDbCircle
 10
-277.5119310691844
 20
-46.93695495990847
 30
0.0
 40
1.505083419128955
100
AcDbArc
 50
272.7239804854808
 51
44.99948637276027
  0
LINE
  5
413
330
1F
100
AcDbEntity
  8
0
  6
Continuous
 62
     7
100
AcDbLine
 10
-308.6082351663502
 20
-13.71224181615569
 30
0.0
 11
-305.7356826019439
 21
-16.58479438056403
 31
0.0
  0
ARC
  5
414
330
1F
100
AcDbEntity
  8
0
  6
Continuous
 62
     7
100
AcDbCircle
 10
-309.6724431712883
 20
-14.77649434685888
 30
0.0
 40
1.505048878569261
100
AcDbArc
 50
45.00119858384664
 51
173.3395647160206
  0
ARC
  5
415
330
1F
100
AcDbEntity
  8
0
  6
Continuous
 62
     7
100
AcDbCircle
 10
-316.2054685428411
 20
-7.533966862552137
 30
0.0
 40
1.003355123133007
100
AcDbArc
 50
350.6876278795148
 51
44.99923652854779
  0
ARC
  5
416
330
1F
100
AcDbEntity
  8
0
  6
Continuous
 62
     7
100
AcDbCircle
 10
-319.2707772919366
 20
-5.178169059424909
 30
0.0
 40
1.505055126250823
100
AcDbArc
 50
44.99705618545975
 51
169.6067665654995
  0
LINE
  5
417
330
1F
100
AcDbEntity
  8
0
  6
Continuous
 62
     7
100
AcDbLine
 10
-318.2064879279233
 20
-4.113989054584759
 30
0.0
 11
-315.4960802146836
 21
-6.824497104984277
 31
0.0
  0
ARC
  5
418
330
1F
100
AcDbEntity
  8
0
  6
Continuous
 62
     7
100
AcDbCircle
 10
-309.1106376318013
 20
-0.4390356143531095
 30
0.0
 40
1.003355123134329
100
AcDbArc
 50
225.0007634713325
 51
279.3123721203252
  0
ARC
  5
419
330
1F
100
AcDbEntity
  8
0
  6
Continuous
 62
     7
100
AcDbCircle
 10
-144.6196886767346
 20
-32.05457709302374
 30
0.0
 40
150.5057493700055
100
AcDbArc
 50
178.3431954356181
 51
181.6568045643816
  0
ARC
  5
41A
330
1F
100
AcDbEntity
  8
0
  6
Continuous
 62
     7
100
AcDbCircle
 10
-150.639918299297
 20
-32.05467743018262
 30
0.0
 40
150.505673744603
100
AcDbArc
 50
177.277271845502
 51
182.7227281544979
  0
ARC
  5
41B
330
1F
100
AcDbEntity
  8
0
  6
Continuous
 62
     7
100
AcDbCircle
 10
-299.4723386799447
 20
-39.13256003935035
 30
0.0
 40
1.505045562461995
100
AcDbArc
 50
182.7207223017425
 51
314.9973426178493
  0
ARC
  5
41C
330
1F
100
AcDbEntity
  8
0
  6
Continuous
 62
     7
100
AcDbCircle
 10
-296.0653736462358
 20
-36.43506132425136
 30
0.0
 40
1.003377116544241
100
AcDbArc
 50
314.9979960681557
 51
1.6597725118373
  0
LINE
  5
41D
330
1F
100
AcDbEntity
  8
0
  6
Continuous
 62
     7
100
AcDbLine
 10
-298.4081601168412
 20
-40.19683732038077
 30
0.0
 11
-295.3559036982013
 21
-37.14458090174064
 31
0.0
  0
ARC
  5
41E
330
1F
100
AcDbEntity
  8
0
  6
Continuous
 62
     7
100
AcDbCircle
 10
-299.4723748603115
 20
-24.97660813575141
 30
0.0
 40
1.50501008698892
100
AcDbArc
 50
44.99935903019206
 51
177.2786803534003
  0
ARC
  5
41F
330
1F
100
AcDbEntity
  8
0
  6
Continuous
 62
     7
100
AcDbCircle
 10
-296.0653763446598
 20
-27.67408606318796
 30
0.0
 40
1.003374217064072
100
AcDbArc
 50
358.3512982109802
 51
45.00162046656878
  0
LINE
  5
420
330
1F
100
AcDbEntity
  8
0
  6
Continuous
 62
     7
100
AcDbLine
 10
-298.4081601168412
 20
-23.91241720282685
 30
0.0
 11
-295.3559036982013
 21
-26.9645732843066
 31
0.0
  0
ARC
  5
421
330
1F
100
AcDbEntity
  8
0
  6
Continuous
 62
     7
100
AcDbCircle
 10
-284.5899270641698
 20
-32.05457709302374
 30
0.0
 40
5.518543820682547
100
AcDbArc
 50
90.0
 51
270.0
  0
ARC
  5
422
330
1F
100
AcDbEntity
  8
0
  6
Continuous
 62
     7
100
AcDbCircle
 10
-284.5899270641698
 20
-32.05457709302374
 30
0.0
 40
5.518543820682523
100
AcDbArc
 50
270.0
 51
90.0
  0
ARC
  5
423
330
1F
100
AcDbEntity
  8
0
  6
Continuous
 62
     7
100
AcDbCircle
 10
-284.5895222499937
 20
107.9157674839716
 30
0.0
 40
150.5057464170249
100
AcDbArc
 50
269.9998458919711
 51
271.6566886375804
  0
ARC
  5
424
330
1F
100
AcDbEntity
  8
0
  6
Continuous
 62
     7
100
AcDbCircle
 10
-288.970601699216
 20
-43.5300594628597
 30
0.0
 40
1.003409691815708
100
AcDbArc
 50
88.3465998449685
 51
134.992871027841
  0
ARC
  5
425
330
1F
100
AcDbEntity
  8
0
  6
Continuous
 62
     7
100
AcDbCircle
 10
-284.5903318783459
 20
107.9157674839716
 30
0.0
 40
150.5057464170249
100
AcDbArc
 50
268.3433113624195
 51
270.0001541080288
  0
ARC
  5
426
330
1F
100
AcDbEntity
  8
0
  6
Continuous
 62
     7
100
AcDbCircle
 10
-280.2092524291234
 20
-43.53005946285885
 30
0.0
 40
1.003409691814887
100
AcDbArc
 50
45.00712897213682
 51
91.65340015504773
  0
ARC
  5
427
330
1F
100
AcDbEntity
  8
0
  6
Continuous
 62
     7
100
AcDbCircle
 10
-284.5903695626668
 20
-154.9676242954253
 30
0.0
 40
150.5057437724144
100
AcDbArc
 50
89.99983154598854
 51
96.65886818081526
  0
ARC
  5
428
330
1F
100
AcDbEntity
  8
0
  6
Continuous
 62
     7
100
AcDbCircle
 10
-284.5908570159586
 20
-160.9878735776737
 30
0.0
 40
150.5057304118808
100
AcDbArc
 50
89.99964597818035
 51
95.59042003151613
  0
ARC
  5
429
330
1F
100
AcDbEntity
  8
0
  6
Continuous
 62
     7
100
AcDbCircle
 10
-284.5901120072064
 20
-166.0046905900141
 30
0.0
 40
150.5057743395101
100
AcDbArc
 50
89.99992959436058
 51
92.72269408844795
  0
LINE
  5
42A
330
1F
100
AcDbEntity
  8
0
  6
Continuous
 62
     7
100
AcDbLine
 10
-292.7321872915269
 20
-18.23644437751478
 30
0.0
 11
-289.6799308728868
 21
-21.28860045899452
 31
0.0
  0
ARC
  5
42B
330
1F
100
AcDbEntity
  8
0
  6
Continuous
 62
     7
100
AcDbCircle
 10
-299.3503653067503
 20
-10.19942377412601
 30
0.0
 40
1.003344165322302
100
AcDbArc
 50
225.0021526654758
 51
275.591876103709
  0
ARC
  5
42C
330
1F
100
AcDbEntity
  8
0
  6
Continuous
 62
     7
100
AcDbCircle
 10
-306.4451451647572
 20
-17.29433844559562
 30
0.0
 40
1.003389210752789
100
AcDbArc
 50
354.4198274456462
 51
45.00329084659388
  0
ARC
  5
42D
330
1F
100
AcDbEntity
  8
0
  6
Continuous
 62
     7
100
AcDbCircle
 10
-291.6679230591558
 20
-17.17219922613786
 30
0.0
 40
1.505083419127914
100
AcDbArc
 50
92.7239804853797
 51
224.999486372742
  0
ARC
  5
42E
330
1F
100
AcDbEntity
  8
0
  6
Continuous
 62
     7
100
AcDbCircle
 10
-301.8680790272321
 20
-6.972071805637578
 30
0.0
 40
1.505063235049453
100
AcDbArc
 50
96.66156422260193
 51
225.0030743376379
  0
LINE
  5
42F
330
1F
100
AcDbEntity
  8
0
  6
Continuous
 62
     7
100
AcDbLine
 10
-302.9322623410355
 20
-8.036369328006017
 30
0.0
 11
-300.0597097766293
 21
-10.90892189241208
 31
0.0
  0
ARC
  5
430
330
1F
100
AcDbEntity
  8
0
  6
Continuous
 62
     7
100
AcDbCircle
 10
-284.5897421211308
 20
-166.0046905900144
 30
0.0
 40
150.5057743395101
100
AcDbArc
 50
87.277305911552
 51
90.00007040564268
  0
ARC
  5
431
330
1F
100
AcDbEntity
  8
0
  6
Continuous
 62
     7
100
AcDbCircle
 10
-284.5886633716481
 20
-172.0249340800295
 30
0.0
 40
150.5057368938444
100
AcDbArc
 50
88.34360014608583
 51
90.00048107301052
  0
ARC
  5
432
330
1F
100
AcDbEntity
  8
0
  6
Continuous
 62
     7
100
AcDbCircle
 10
-288.9706016992139
 20
-20.57909472319092
 30
0.0
 40
1.00340969181481
100
AcDbArc
 50
225.0071289719376
 51
271.6534001549141
  0
ARC
  5
433
330
1F
100
AcDbEntity
  8
0
  6
Continuous
 62
     7
100
AcDbCircle
 10
-284.5911907566915
 20
-172.0249340800295
 30
0.0
 40
150.5057368938444
100
AcDbArc
 50
89.99951892698948
 51
91.6563998539142
  0
ARC
  5
434
330
1F
100
AcDbEntity
  8
0
  6
Continuous
 62
     7
100
AcDbCircle
 10
-280.2092524291255
 20
-20.57909472319176
 30
0.0
 40
1.003409691813974
100
AcDbArc
 50
268.3465998450726
 51
314.9928710280844
  0
ARC
  5
435
330
1F
100
AcDbEntity
  8
0
  6
Continuous
 62
     7
100
AcDbCircle
 10
-277.511931069184
 20
-17.1721992261378
 30
0.0
 40
1.505083419127944
100
AcDbArc
 50
315.0005136272541
 51
87.27601951453223
  0
LINE
  5
436
330
1F
100
AcDbEntity
  8
0
  6
Continuous
 62
     7
100
AcDbLine
 10
-279.4999232554529
 20
-21.28860045899452
 30
0.0
 11
-276.4476668368128
 21
-18.23644437751478
 31
0.0
  0
LINE
  5
438
330
1F
100
AcDbEntity
  8
0
  6
Continuous
 62
     7
100
AcDbLine
 10
-123.3288000000005
 20
-91.55457709302375
 30
0.0
 11
-155.3286000000005
 21
-91.55457709302375
 31
0.0
  0
ARC
  5
43C
330
1F
100
AcDbEntity
  8
0
  6
Continuous
 62
     7
100
AcDbCircle
 10
-155.3286000014292
 20
-77.55437709159517
 30
0.0
 40
14.0000000017857
100
AcDbArc
 50
179.9987722391429
 51
269.9995907502773
  0
ARC
  5
43D
330
1F
100
AcDbEntity
  8
0
  6
Continuous
 62
     7
100
AcDbCircle
 10
-258.6260889318245
 20
-58.01893193012322
 30
0.0
 40
30.70319647880679
100
AcDbArc
 50
282.4531119592013
 51
347.5461497327708
  0
ARC
  5
43E
330
1F
100
AcDbEntity
  8
0
  6
Continuous
 62
     7
100
AcDbCircle
 10
-413.5230778102395
 20
-32.05457709302374
 30
0.0
 40
150.5056661869689
100
AcDbArc
 50
354.4092602411101
 51
5.590739758889924
  0
ARC
  5
43F
330
1F
100
AcDbEntity
  8
0
  6
Continuous
 62
     7
100
AcDbCircle
 10
-407.5028481867304
 20
-32.05424771195215
 30
0.0
 40
150.5057080505148
100
AcDbArc
 50
353.3408343901756
 51
6.658836210149069
  0
ARC
  5
440
330
1F
100
AcDbEntity
  8
0
  6
Continuous
 62
     7
100
AcDbCircle
 10
-402.4859901688745
 20
-32.05467743018498
 30
0.0
 40
150.505754287563
100
AcDbArc
 50
350.6861334658366
 51
9.313866534163546
  0
ARC
  5
441
330
1F
100
AcDbEntity
  8
0
  6
Continuous
 62
     7
100
AcDbCircle
 10
-396.4657605463122
 20
-32.05457709302374
 30
0.0
 40
150.505717726407
100
AcDbArc
 50
349.6082592357976
 51
10.39174076420208
  0
ARC
  5
442
330
1F
100
AcDbEntity
  8
0
  6
Continuous
 62
     7
100
AcDbCircle
 10
-376.1977702863823
 20
-32.05472247106059
 30
0.0
 40
151.1077812028475
100
AcDbArc
 50
347.5467015694091
 51
0.0488078508847114
  0
ARC
  5
443
330
1F
100
AcDbEntity
  8
0
  6
Continuous
 62
     7
100
AcDbCircle
 10
-257.713510155673
 20
-66.73529849295873
 30
0.0
 40
1.505099651923284
100
AcDbArc
 50
280.3964624116531
 51
44.99971483747907
  0
ARC
  5
444
330
1F
100
AcDbEntity
  8
0
  6
Continuous
 62
     7
100
AcDbCircle
 10
-259.5074109570524
 20
-49.33265983918972
 30
0.0
 40
1.50504887856786
100
AcDbArc
 50
225.0011985837181
 51
353.3395647160551
  0
LINE
  5
445
330
1F
100
AcDbEntity
  8
0
  6
Continuous
 62
     7
100
AcDbLine
 10
-259.3597467389702
 20
-62.96062990637754
 30
0.0
 11
-256.6492386885706
 21
-65.67113795677477
 31
0.0
  0
LINE
  5
446
330
1F
100
AcDbEntity
  8
0
  6
Continuous
 62
     7
100
AcDbLine
 10
-269.1201443517103
 20
-53.20023229363536
 30
0.0
 11
-266.2475917873016
 21
-56.07278485804146
 31
0.0
  0
ARC
  5
447
330
1F
100
AcDbEntity
  8
0
  6
Continuous
 62
     7
100
AcDbCircle
 10
-267.3117751011093
 20
-57.1370823804081
 30
0.0
 40
1.505063235050961
100
AcDbArc
 50
276.6615642225756
 51
45.00307433748164
  0
ARC
  5
448
330
1F
100
AcDbEntity
  8
0
  6
Continuous
 62
     7
100
AcDbCircle
 10
-260.0692164965428
 20
-63.67011857169365
 30
0.0
 40
1.003355123135424
100
AcDbArc
 50
45.00076347121239
 51
99.31237212018659
  0
ARC
  5
449
330
1F
100
AcDbEntity
  8
0
  6
Continuous
 62
     7
100
AcDbCircle
 10
-269.8294888215897
 20
-53.90973041192189
 30
0.0
 40
1.00334416532286
100
AcDbArc
 50
45.00215266548018
 51
95.5918761038138
  0
ARC
  5
44A
330
1F
100
AcDbEntity
  8
0
  6
Continuous
 62
     7
100
AcDbCircle
 10
-262.7346848129382
 20
-46.81478281241989
 30
0.0
 40
1.003429571849177
100
AcDbArc
 50
174.4104286230889
 51
225.0036451078499
  0
LINE
  5
44B
330
1F
100
AcDbEntity
  8
0
  6
Continuous
 62
     7
100
AcDbLine
 10
-263.4441715263981
 20
-47.52435980548346
 30
0.0
 11
-260.5716189619919
 21
-50.39691236988955
 31
0.0
  0
ARC
  5
44C
330
1F
100
AcDbEntity
  8
0
  6
Continuous
 62
     7
100
AcDbCircle
 10
-249.9091248434241
 20
-58.9308997464906
 30
0.0
 40
1.505081551141965
100
AcDbArc
 50
225.000646792262
 51
349.6114132923287
  0
ARC
  5
44D
330
1F
100
AcDbEntity
  8
0
  6
Continuous
 62
     7
100
AcDbCircle
 10
-252.9742906995573
 20
-56.57517038874549
 30
0.0
 40
1.003363243127929
100
AcDbArc
 50
170.6828776871178
 51
225.0001404451313
  0
LINE
  5
44E
330
1F
100
AcDbEntity
  8
0
  6
Continuous
 62
     7
100
AcDbLine
 10
-253.6837739136534
 20
-57.28475741822561
 30
0.0
 11
-250.9733662004188
 21
-59.99516513146271
 31
0.0
  0
ARC
  5
44F
330
1F
100
AcDbEntity
  8
0
  6
Continuous
 62
     7
100
AcDbCircle
 10
-424.5601654516073
 20
-32.05457709302374
 30
0.0
 40
150.5057493700054
100
AcDbArc
 50
358.3431954356182
 51
1.656804564381704
  0
ARC
  5
450
330
1F
100
AcDbEntity
  8
0
  6
Continuous
 62
     7
100
AcDbCircle
 10
-418.5399358290425
 20
-32.05467743018262
 30
0.0
 40
150.5056737446008
100
AcDbArc
 50
357.277271845502
 51
2.72272815449797
  0
ARC
  5
451
330
1F
100
AcDbEntity
  8
0
  6
Continuous
 62
     7
100
AcDbCircle
 10
-269.7075154483966
 20
-39.13256003935185
 30
0.0
 40
1.50504556246137
100
AcDbArc
 50
225.0026573820947
 51
357.2792776983133
  0
ARC
  5
452
330
1F
100
AcDbEntity
  8
0
  6
Continuous
 62
     7
100
AcDbCircle
 10
-273.1144804821064
 20
-36.43506132425143
 30
0.0
 40
1.003377116544245
100
AcDbArc
 50
178.3402274881586
 51
225.0020039318394
  0
LINE
  5
453
330
1F
100
AcDbEntity
  8
0
  6
Continuous
 62
     7
100
AcDbLine
 10
-273.8239504301408
 20
-37.14458090174064
 30
0.0
 11
-270.7716940115008
 21
-40.19683732038077
 31
0.0
  0
ARC
  5
454
330
1F
100
AcDbEntity
  8
0
  6
Continuous
 62
     7
100
AcDbCircle
 10
-269.7074792680298
 20
-24.97660813574992
 30
0.0
 40
1.505010086988293
100
AcDbArc
 50
2.721319646544201
 51
135.000640969867
  0
ARC
  5
455
330
1F
100
AcDbEntity
  8
0
  6
Continuous
 62
     7
100
AcDbCircle
 10
-273.1144777836821
 20
-27.67408606318788
 30
0.0
 40
1.003374217064012
100
AcDbArc
 50
134.9983795334319
 51
181.6487017890239
  0
LINE
  5
456
330
1F
100
AcDbEntity
  8
0
  6
Continuous
 62
     7
100
AcDbLine
 10
-273.8239504301408
 20
-26.9645732843066
 30
0.0
 11
-270.7716940115008
 21
-23.91241720282685
 31
0.0
  0
ARC
  5
457
330
1F
100
AcDbEntity
  8
0
  6
Continuous
 62
     7
100
AcDbCircle
 10
-259.5074109570532
 20
-14.77649434685748
 30
0.0
 40
1.505048878568629
100
AcDbArc
 50
6.66043528392925
 51
134.998801416204
  0
ARC
  5
458
330
1F
100
AcDbEntity
  8
0
  6
Continuous
 62
     7
100
AcDbCircle
 10
-269.8294888215899
 20
-10.19942377412536
 30
0.0
 40
1.003344165323136
100
AcDbArc
 50
264.4081238961959
 51
314.9978473345191
  0
ARC
  5
459
330
1F
100
AcDbEntity
  8
0
  6
Continuous
 62
     7
100
AcDbCircle
 10
-262.7347089635849
 20
-17.29433844559553
 30
0.0
 40
1.003389210752728
100
AcDbArc
 50
134.9967091534104
 51
185.58017255436
  0
LINE
  5
45A
330
1F
100
AcDbEntity
  8
0
  6
Continuous
 62
     7
100
AcDbLine
 10
-263.4441715263981
 20
-16.58479438056403
 30
0.0
 11
-260.5716189619919
 21
-13.71224181615569
 31
0.0
  0
ARC
  5
45B
330
1F
100
AcDbEntity
  8
0
  6
Continuous
 62
     7
100
AcDbCircle
 10
-267.3117751011094
 20
-6.972071805639258
 30
0.0
 40
1.505063235051105
100
AcDbArc
 50
314.9969256625141
 51
83.33843577742104
  0
LINE
  5
45C
330
1F
100
AcDbEntity
  8
0
  6
Continuous
 62
     7
100
AcDbLine
 10
-269.1201443517103
 20
-10.90892189241208
 30
0.0
 11
-266.2475917873016
 21
-8.036369328006017
 31
0.0
  0
ARC
  5
45D
330
1F
100
AcDbEntity
  8
0
  6
Continuous
 62
     7
100
AcDbCircle
 10
-260.0692164965404
 20
-0.4390356143530987
 30
0.0
 40
1.003355123134337
100
AcDbArc
 50
260.687627879668
 51
314.9992365286633
  0
ARC
  5
45E
330
1F
100
AcDbEntity
  8
0
  6
Continuous
 62
     7
100
AcDbCircle
 10
-249.9090768364051
 20
-5.178169059424917
 30
0.0
 40
1.505055126250831
100
AcDbArc
 50
10.3932334345004
 51
135.0029438145402
  0
ARC
  5
45F
330
1F
100
AcDbEntity
  8
0
  6
Continuous
 62
     7
100
AcDbCircle
 10
-252.9743855854988
 20
-7.53396686255267
 30
0.0
 40
1.003355123134932
100
AcDbArc
 50
135.0007634715205
 51
189.3123721204356
  0
LINE
  5
460
330
1F
100
AcDbEntity
  8
0
  6
Continuous
 62
     7
100
AcDbLine
 10
-253.6837739136534
 20
-6.824497104984277
 30
0.0
 11
-250.9733662004188
 21
-4.113989054584759
 31
0.0
  0
ARC
  5
461
330
1F
100
AcDbEntity
  8
0
  6
Continuous
 62
     7
100
AcDbCircle
 10
-376.1977544875093
 20
-32.05457709302374
 30
0.0
 40
151.1077652802089
100
AcDbArc
 50
0.0487527327786912
 51
4.234641945219261
  0
LINE
  5
462
330
1F
100
AcDbEntity
  8
0
  6
Continuous
 62
     7
100
AcDbLine
 10
-225.0900439100839
 20
-28.54277647986256
 30
0.0
 11
-225.0900439100839
 21
-35.56637770618468
 31
0.0
  0
LINE
  5
463
330
1F
100
AcDbEntity
  8
0
  6
Continuous
 62
     7
100
AcDbLine
 10
-222.4811774031465
 20
-29.96625977411718
 30
0.0
 11
-222.4811774031465
 21
-34.14289441193032
 31
0.0
  0
LINE
  5
464
330
1F
100
AcDbEntity
  8
0
  6
Continuous
 62
     7
100
AcDbLine
 10
-225.0900439100839
 20
-35.56637770618468
 30
0.0
 11
-223.6719788224899
 21
-35.44216030164012
 31
0.0
  0
ARC
  5
465
330
1F
100
AcDbEntity
  8
0
  6
Continuous
 62
     7
100
AcDbCircle
 10
-223.7856841526693
 20
-34.1429198702686
 30
0.0
 40
1.304406412613335
100
AcDbArc
 50
275.0008298423681
 51
0.0011182521971861
  0
ARC
  5
466
330
1F
100
AcDbEntity
  8
0
  6
Continuous
 62
     7
100
AcDbCircle
 10
-223.785634174838
 20
-29.9662888566267
 30
0.0
 40
1.304356434857977
100
AcDbArc
 50
0.0012774921098118
 51
85.001181793154
  0
LINE
  5
467
330
1F
100
AcDbEntity
  8
0
  6
Continuous
 62
     7
100
AcDbLine
 10
-225.0900439100839
 20
-28.54277647986256
 30
0.0
 11
-223.6719788224899
 21
-28.66679321008687
 31
0.0
  0
LINE
  5
46E
330
1F
100
AcDbEntity
  8
0
  6
Continuous
 62
     7
100
AcDbLine
 10
-80.7363000000006
 20
-14.46327709302378
 30
0.0
 11
-106.4564000000005
 21
-14.46327709302378
 31
0.0
  0
LINE
  5
46F
330
1F
100
AcDbEntity
  8
0
  6
Continuous
 62
     7
100
AcDbLine
 10
-106.4564000000005
 20
-11.46337709302374
 30
0.0
 11
-80.7363000000006
 21
-11.46337709302374
 31
0.0
  0
LINE
  5
470
330
1F
100
AcDbEntity
  8
0
  6
Continuous
 62
     7
100
AcDbLine
 10
-112.4565000000005
 20
-17.92757709302377
 30
0.0
 11
-80.7363000000006
 21
-17.92757709302377
 31
0.0
  0
LINE
  5
471
330
1F
100
AcDbEntity
  8
0
  6
Continuous
 62
     7
100
AcDbLine
 10
-80.7363000000006
 20
-14.9276770930238
 30
0.0
 11
-112.4565000000005
 21
-14.9276770930238
 31
0.0
  0
LINE
  5
472
330
1F
100
AcDbEntity
  8
0
  6
Continuous
 62
     7
100
AcDbLine
 10
-106.4564000000005
 20
-21.39157709302377
 30
0.0
 11
-80.7363000000006
 21
-21.39157709302377
 31
0.0
  0
LINE
  5
473
330
1F
100
AcDbEntity
  8
0
  6
Continuous
 62
     7
100
AcDbLine
 10
-80.7363000000006
 20
-18.3916770930238
 30
0.0
 11
-106.4564000000005
 21
-18.3916770930238
 31
0.0
  0
LINE
  5
475
330
1F
100
AcDbEntity
  8
0
  6
Continuous
 62
     7
100
AcDbLine
 10
-105.3332000000005
 20
-6.614377093023768
 30
0.0
 11
-123.3288000000005
 21
-6.614577093023767
 31
0.0
  0
LINE
  5
476
330
1F
100
AcDbEntity
  8
0
  6
Continuous
 62
     7
100
AcDbLine
 10
-105.3331000000004
 20
-26.24057709302376
 30
0.0
 11
-123.3288000000005
 21
-26.24057709302376
 31
0.0
  0
LINE
  5
477
330
1F
100
AcDbEntity
  8
0
  6
Continuous
 62
     7
100
AcDbLine
 10
-123.3288000000005
 20
-27.80967709302379
 30
0.0
 11
-105.3329519994238
 21
-27.80967709302379
 31
0.0
  0
CIRCLE
  5
478
330
1F
100
AcDbEntity
  8
0
  6
Continuous
 62
     7
100
AcDbCircle
 10
-127.8288000000004
 20
-32.05457709302374
 30
0.0
 40
3.499966435553346
  0
LINE
  5
479
330
1F
100
AcDbEntity
  8
0
  6
Continuous
 62
     7
100
AcDbLine
 10
-126.6623000000004
 20
-33.92827709302376
 30
0.0
 11
-127.4753000000005
 21
-33.11537709302376
 31
0.0
  0
LINE
  5
47A
330
1F
100
AcDbEntity
  8
0
  6
Continuous
 62
     7
100
AcDbLine
 10
-128.1826000000007
 20
-33.11537709302376
 30
0.0
 11
-128.9956000000005
 21
-33.92827709302376
 31
0.0
  0
LINE
  5
47B
330
1F
100
AcDbEntity
  8
0
  6
Continuous
 62
     7
100
AcDbLine
 10
-128.9956000000005
 20
-33.92827709302376
 30
0.0
 11
-129.7026000000005
 21
-33.22127709302376
 31
0.0
  0
LINE
  5
47C
330
1F
100
AcDbEntity
  8
0
  6
Continuous
 62
     7
100
AcDbLine
 10
-125.9553000000005
 20
-33.22127709302376
 30
0.0
 11
-126.6623000000004
 21
-33.92827709302376
 31
0.0
  0
LINE
  5
47D
330
1F
100
AcDbEntity
  8
0
  6
DASH_CENTER
 62
    30
100
AcDbLine
 10
-127.8288000000004
 20
-24.00697709302376
 30
0.0
 11
-127.8288000000004
 21
-39.52797709302378
 31
0.0
  0
ARC
  5
47E
330
1F
100
AcDbEntity
  8
0
  6
Continuous
 62
     7
100
AcDbCircle
 10
-127.8288500000005
 20
-33.46887709302379
 30
0.0
 40
0.5000305615659899
100
AcDbArc
 50
45.00405117580482
 51
134.9959488241951
  0
ARC
  5
47F
330
1F
100
AcDbEntity
  8
0
  6
Continuous
 62
     7
100
AcDbCircle
 10
-126.4148000000004
 20
-32.05452709302376
 30
0.0
 40
0.4999598508880505
100
AcDbArc
 50
134.9959482512252
 51
225.0040517487748
  0
ARC
  5
480
330
1F
100
AcDbEntity
  8
0
  6
Continuous
 62
     7
100
AcDbCircle
 10
-127.8288500000005
 20
-30.64047709302377
 30
0.0
 40
0.5000305615659899
100
AcDbArc
 50
225.0040511758048
 51
314.9959488241951
  0
ARC
  5
481
330
1F
100
AcDbEntity
  8
0
  6
Continuous
 62
     7
100
AcDbCircle
 10
-129.2431000000005
 20
-32.05452709302376
 30
0.0
 40
0.4999598508879752
100
AcDbArc
 50
314.9959482512158
 51
45.00405174878387
  0
LINE
  5
482
330
1F
100
AcDbEntity
  8
0
  6
Continuous
 62
     7
100
AcDbLine
 10
-125.9553000000005
 20
-33.22127709302376
 30
0.0
 11
-126.7683000000005
 21
-32.40827709302377
 31
0.0
  0
LINE
  5
483
330
1F
100
AcDbEntity
  8
0
  6
Continuous
 62
     7
100
AcDbLine
 10
-128.8896000000007
 20
-31.70097709302376
 30
0.0
 11
-129.7028000000006
 21
-30.88777709302377
 31
0.0
  0
LINE
  5
484
330
1F
100
AcDbEntity
  8
0
  6
Continuous
 62
     7
100
AcDbLine
 10
-128.1826000000007
 20
-30.99397709302377
 30
0.0
 11
-128.9958000000004
 21
-30.18077709302376
 31
0.0
  0
LINE
  5
485
330
1F
100
AcDbEntity
  8
0
  6
Continuous
 62
     7
100
AcDbLine
 10
-125.9553000000005
 20
-30.88807709302376
 30
0.0
 11
-126.7683000000005
 21
-31.70097709302376
 31
0.0
  0
LINE
  5
486
330
1F
100
AcDbEntity
  8
0
  6
Continuous
 62
     7
100
AcDbLine
 10
-126.6623000000004
 20
-30.18097709302376
 30
0.0
 11
-127.4753000000005
 21
-30.99397709302377
 31
0.0
  0
LINE
  5
487
330
1F
100
AcDbEntity
  8
0
  6
Continuous
 62
     7
100
AcDbLine
 10
-128.8896000000007
 20
-32.40827709302377
 30
0.0
 11
-129.7026000000005
 21
-33.22127709302376
 31
0.0
  0
LINE
  5
488
330
1F
100
AcDbEntity
  8
0
  6
Continuous
 62
     7
100
AcDbLine
 10
-125.9553000000005
 20
-30.88807709302376
 30
0.0
 11
-126.6623000000004
 21
-30.18097709302376
 31
0.0
  0
LINE
  5
489
330
1F
100
AcDbEntity
  8
0
  6
Continuous
 62
     7
100
AcDbLine
 10
-128.9958000000004
 20
-30.18077709302376
 30
0.0
 11
-129.7028000000006
 21
-30.88777709302377
 31
0.0
  0
POINT
  5
48A
330
1F
100
AcDbEntity
  8
0
 62
     7
100
AcDbPoint
 10
-123.3291000000005
 20
-32.05457709302375
 30
0.0
  0
ARC
  5
48C
330
1F
100
AcDbEntity
  8
0
  6
Continuous
 62
     7
100
AcDbCircle
 10
-106.4564000000005
 20
-17.99667709302378
 30
0.0
 40
9.877099999999988
100
AcDbArc
 50
276.5311111032989
 51
339.8966715589181
  0
ARC
  5
48D
330
1F
100
AcDbEntity
  8
0
  6
Continuous
 62
     7
100
AcDbCircle
 10
-106.4564000000005
 20
-16.42757709302377
 30
0.0
 40
9.877083167109603
100
AcDbArc
 50
276.5302581413102
 51
329.8293253833318
  0
ARC
  5
48E
330
1F
100
AcDbEntity
  8
0
  6
Continuous
 62
     7
100
AcDbCircle
 10
-106.4564000000005
 20
-16.42757709302377
 30
0.0
 40
9.877083167109642
100
AcDbArc
 50
30.17201659569227
 51
83.46974185868974
  0
ARC
  5
48F
330
1F
100
AcDbEntity
  8
0
  6
Continuous
 62
     7
100
AcDbCircle
 10
-106.4564000000005
 20
-12.96337709302376
 30
0.0
 40
1.499899999999948
100
AcDbArc
 50
90.0
 51
270.0
  0
ARC
  5
490
330
1F
100
AcDbEntity
  8
0
  6
Continuous
 62
     7
100
AcDbCircle
 10
-106.4564000000005
 20
-19.89157709302377
 30
0.0
 40
1.499899999999968
100
AcDbArc
 50
90.0
 51
270.0
  0
ARC
  5
491
330
1F
100
AcDbEntity
  8
0
  6
Continuous
 62
     7
100
AcDbCircle
 10
-112.4565000000005
 20
-16.42757709302377
 30
0.0
 40
1.5
100
AcDbArc
 50
90.0
 51
270.0
  0
ARC
  5
492
330
1F
100
AcDbEntity
  8
0
  6
Continuous
 62
     7
100
AcDbCircle
 10
-106.4564000000005
 20
-16.42757709302377
 30
0.0
 40
9.877083167109619
100
AcDbArc
 50
8.734533029761328
 51
11.47115071674442
  0
ARC
  5
493
330
1F
100
AcDbEntity
  8
0
  6
Continuous
 62
     7
100
AcDbCircle
 10
-106.4564000000005
 20
-16.42757709302377
 30
0.0
 40
9.877083167109617
100
AcDbArc
 50
348.5300331037864
 51
351.2648800752369
  0
ARC
  5
494
330
1F
100
AcDbEntity
  8
0
  6
Continuous
 62
     7
100
AcDbCircle
 10
-106.4564000000005
 20
-17.99667709302378
 30
0.0
 40
9.877100000000039
100
AcDbArc
 50
357.7080448873828
 51
0.400843431868525
  0
LINE
  5
497
330
1F
100
AcDbEntity
  8
0
  6
Continuous
 62
     7
100
AcDbLine
 10
-65.75069166566378
 20
-14.9276770930238
 30
0.0
 11
-74.72839166566547
 21
-14.9276770930238
 31
0.0
  0
LINE
  5
498
330
1F
100
AcDbEntity
  8
0
  6
Continuous
 62
     7
100
AcDbLine
 10
-65.75069166566378
 20
-17.92767709302343
 30
0.0
 11
-74.72839166566541
 21
-17.92767709302343
 31
0.0
  0
ARC
  5
499
330
1F
100
AcDbEntity
  8
0
  6
Continuous
 62
    54
100
AcDbCircle
 10
-73.42929166566546
 20
-17.17742709302378
 30
0.0
 40
1.500078602107224
100
AcDbArc
 50
149.9995281325404
 51
210.0004718674596
  0
ARC
  5
49A
330
1F
100
AcDbEntity
  8
0
  6
Continuous
 62
    54
100
AcDbCircle
 10
-76.02769166566549
 20
-15.67742709302377
 30
0.0
 40
1.500078602107248
100
AcDbArc
 50
329.9995281325406
 51
30.00047186745917
  0
ARC
  5
49B
330
1F
100
AcDbEntity
  8
0
  6
Continuous
 62
    54
100
AcDbCircle
 10
-82.03540000000055
 20
-12.21332709302378
 30
0.0
 40
1.500078602107238
100
AcDbArc
 50
329.999528132541
 51
30.00047186745899
  0
ARC
  5
49C
330
1F
100
AcDbEntity
  8
0
  6
Continuous
 62
    54
100
AcDbCircle
 10
-79.43700000000058
 20
-13.7130270930238
 30
0.0
 40
1.500078602107238
100
AcDbArc
 50
149.999528132541
 51
210.0004718674589
  0
ARC
  5
49D
330
1F
100
AcDbEntity
  8
0
  6
Continuous
 62
    54
100
AcDbCircle
 10
-82.03560000000061
 20
-15.67742709302377
 30
0.0
 40
1.500078602107248
100
AcDbArc
 50
329.9995281325406
 51
30.00047186745917
  0
ARC
  5
49E
330
1F
100
AcDbEntity
  8
0
  6
Continuous
 62
    54
100
AcDbCircle
 10
-79.43720000000059
 20
-17.17742709302378
 30
0.0
 40
1.500078602107224
100
AcDbArc
 50
149.9995281325404
 51
210.0004718674596
  0
ARC
  5
49F
330
1F
100
AcDbEntity
  8
0
  6
Continuous
 62
    54
100
AcDbCircle
 10
-82.03540000000055
 20
-19.14162709302378
 30
0.0
 40
1.500078602107253
100
AcDbArc
 50
329.9995281325406
 51
30.00047186745953
  0
ARC
  5
4A0
330
1F
100
AcDbEntity
  8
0
  6
Continuous
 62
    54
100
AcDbCircle
 10
-79.43700000000058
 20
-20.64132709302378
 30
0.0
 40
1.500078602107238
100
AcDbArc
 50
149.999528132541
 51
210.0004718674589
  0
LINE
  5
4A2
330
1F
100
AcDbEntity
  8
0
  6
Continuous
 62
     7
100
AcDbLine
 10
-60.95069166566355
 20
-14.37777709302308
 30
0.0
 11
-55.32839166566542
 21
-13.1980770930234
 31
0.0
  0
LINE
  5
4A3
330
1F
100
AcDbEntity
  8
0
  6
Continuous
 62
     7
100
AcDbLine
 10
-60.95069166566355
 20
-18.47757709302301
 30
0.0
 11
-55.32839166566542
 21
-19.65727709302364
 31
0.0
  0
LINE
  5
4A4
330
1F
100
AcDbEntity
  8
0
  6
Continuous
 62
     7
100
AcDbLine
 10
-65.75069166566378
 20
-14.8276770930236
 30
0.0
 11
-65.75069166566378
 21
-14.37777709302308
 31
0.0
  0
LINE
  5
4A5
330
1F
100
AcDbEntity
  8
0
  6
Continuous
 62
     7
100
AcDbLine
 10
-65.75069166566378
 20
-18.47757709302301
 30
0.0
 11
-65.75069166566378
 21
-14.8276770930236
 31
0.0
  0
LINE
  5
4A6
330
1F
100
AcDbEntity
  8
0
  6
Continuous
 62
     7
100
AcDbLine
 10
-60.95069166566355
 20
-18.47757709302301
 30
0.0
 11
-60.95069166566355
 21
-14.37777709302308
 31
0.0
  0
LINE
  5
4A7
330
1F
100
AcDbEntity
  8
0
  6
Continuous
 62
     7
100
AcDbLine
 10
-65.75069166566378
 20
-14.37777709302308
 30
0.0
 11
-60.95069166566355
 21
-14.37777709302308
 31
0.0
  0
LINE
  5
4A8
330
1F
100
AcDbEntity
  8
0
  6
Continuous
 62
     7
100
AcDbLine
 10
-65.75069166566378
 20
-18.47757709302301
 30
0.0
 11
-60.95069166566355
 21
-18.47757709302301
 31
0.0
  0
CIRCLE
  5
4A9
330
1F
100
AcDbEntity
  8
0
  6
Continuous
 62
     7
100
AcDbCircle
 10
-54.65089166566382
 20
-16.42757709302377
 30
0.0
 40
2.150000000000539
  0
ARC
  5
4AA
330
1F
100
AcDbEntity
  8
0
  6
Continuous
 62
     7
100
AcDbCircle
 10
-54.65089166566382
 20
-16.42752709302322
 30
0.0
 40
3.299966800211993
100
AcDbArc
 50
258.1508663061883
 51
101.8491336938115
  0
ARC
  5
4AC
330
1F
100
AcDbEntity
  8
0
  6
Continuous
 62
     7
100
AcDbCircle
 10
-284.5899270641698
 20
-123.6624045163631
 30
0.0
 40
151.1077105774248
100
AcDbArc
 50
77.54679505088475
 51
90.0
  0
ARC
  5
4AD
330
1F
100
AcDbEntity
  8
0
  6
Continuous
 62
     7
100
AcDbCircle
 10
-284.5897822405301
 20
-143.9305240817405
 30
0.0
 40
150.5057407540178
100
AcDbArc
 50
79.6082392271511
 51
90.00005513266833
  0
ARC
  5
4B1
330
1F
100
AcDbEntity
  8
0
  6
Continuous
 62
     7
100
AcDbCircle
 10
-310.5541238861035
 20
-6.09058094541324
 30
0.0
 40
30.70318565945197
100
AcDbArc
 50
102.4533896953922
 51
167.5466103046028
  0
ARC
  5
4B5
330
1F
100
AcDbEntity
  8
0
  6
Continuous
 62
     7
100
AcDbCircle
 10
-284.5899270641698
 20
-123.6624045163631
 30
0.0
 40
151.1077105774254
100
AcDbArc
 50
90.0
 51
102.4532049491152
  0
ARC
  5
4B6
330
1F
100
AcDbEntity
  8
0
  6
Continuous
 62
     7
100
AcDbCircle
 10
-284.5900718878073
 20
-143.9305240817403
 30
0.0
 40
150.5057407540176
100
AcDbArc
 50
89.99994486733163
 51
100.3917607728489
  0
ARC
  5
4B7
330
1F
100
AcDbEntity
  8
0
  6
Continuous
 62
     7
100
AcDbCircle
 10
-311.4663439726685
 20
2.626144306911846
 30
0.0
 40
1.505099651922126
100
AcDbArc
 50
100.396462411494
 51
224.9997148375431
  0
ARC
  5
4B8
330
1F
100
AcDbEntity
  8
0
  6
Continuous
 62
     7
100
AcDbCircle
 10
-282.5015842869236
 20
28.74966581847578
 30
0.0
 40
1.30440641261447
100
AcDbArc
 50
5.000829842410757
 51
90.00111825225173
  0
LINE
  5
4B9
330
1F
100
AcDbEntity
  8
0
  6
Continuous
 62
     7
100
AcDbLine
 10
-288.1017276773332
 20
27.4453060610622
 30
0.0
 11
-281.0781264510088
 21
27.4453060610622
 31
0.0
  0
ARC
  5
4BA
330
1F
100
AcDbEntity
  8
0
  6
Continuous
 62
     7
100
AcDbCircle
 10
-286.678215300567
 20
28.74971579630818
 30
0.0
 40
1.304356434857879
100
AcDbArc
 50
90.00127749211348
 51
175.0011817931624
  0
LINE
  5
4BB
330
1F
100
AcDbEntity
  8
0
  6
Continuous
 62
     7
100
AcDbLine
 10
-288.1017276773332
 20
27.4453060610622
 30
0.0
 11
-287.9777109471043
 21
28.86337114865623
 31
0.0
  0
LINE
  5
4BC
330
1F
100
AcDbEntity
  8
0
  6
Continuous
 62
     7
100
AcDbLine
 10
-286.6782443830766
 20
30.05417256799967
 30
0.0
 11
-282.5016097452632
 21
30.05417256799967
 31
0.0
  0
LINE
  5
4BD
330
1F
100
AcDbEntity
  8
0
  6
Continuous
 62
     7
100
AcDbLine
 10
-281.0781264510088
 20
27.4453060610622
 30
0.0
 11
-281.2023438555534
 21
28.86337114865623
 31
0.0
  0
LINE
  5
4C0
330
1F
100
AcDbEntity
  8
0
  6
CENTER_DASH_DASH
 62
   171
100
AcDbLine
 10
-19.62890000000095
 20
177.9997999999965
 30
0.0
 11
-19.62890000000095
 21
181.9997999999964
 31
0.0
  0
LINE
  5
4C1
330
1F
100
AcDbEntity
  8
0
  6
Continuous
 62
     7
100
AcDbLine
 10
-123.3288000000005
 20
27.44542290697625
 30
0.0
 11
-155.3286000000005
 21
27.44542290697623
 31
0.0
  0
ARC
  5
4C2
330
1F
100
AcDbEntity
  8
0
  6
Continuous
 62
     7
100
AcDbCircle
 10
-258.6257302422387
 20
-6.090580945412887
 30
0.0
 40
30.70318565945216
100
AcDbArc
 50
12.45338969539677
 51
77.54661030460443
  0
ARC
  5
4C3
330
1F
100
AcDbEntity
  8
0
  6
Continuous
 62
     7
100
AcDbCircle
 10
-257.7135101556732
 20
2.626144306911455
 30
0.0
 40
1.505099651923294
100
AcDbArc
 50
315.0002851625251
 51
79.60353758834687
  0
ARC
  5
4C9
330
1F
100
AcDbEntity
  8
0
  6
Continuous
 62
     7
100
AcDbCircle
 10
-155.3286000005363
 20
13.44512290644048
 30
0.0
 40
14.00000000089286
100
AcDbArc
 50
90.00040925337689
 51
180.0008185089431
  0
ARC
  5
4D2
330
1F
100
AcDbEntity
  8
0
  6
Continuous
 62
     7
100
AcDbCircle
 10
-129.910125372795
 20
28.74519965788724
 30
0.0
 40
1.300023249336583
100
AcDbArc
 50
89.99888174766359
 51
174.9991701575249
  0
LINE
  5
4D3
330
1F
100
AcDbEntity
  8
0
  6
Continuous
 62
     7
100
AcDbLine
 10
-131.3288000000004
 20
27.44512290697624
 30
0.0
 11
-131.2050000000005
 21
28.85852290697622
 31
0.0
  0
LINE
  5
4D4
330
1F
100
AcDbEntity
  8
0
  6
DASH_CENTER
 62
    30
100
AcDbLine
 10
-127.8288000000004
 20
24.63422290697623
 30
0.0
 11
-127.8288000000004
 21
34.00792290697621
 31
0.0
  0
ARC
  5
4D5
330
1F
100
AcDbEntity
  8
0
  6
Continuous
 62
     7
100
AcDbCircle
 10
-125.7475289847832
 20
28.74524946778059
 30
0.0
 40
1.299973439518759
100
AcDbArc
 50
4.998818206893911
 51
89.99872250796142
  0
LINE
  5
4D6
330
1F
100
AcDbEntity
  8
0
  6
Continuous
 62
     7
100
AcDbLine
 10
-127.8288000000004
 20
30.04522290697621
 30
0.0
 11
-129.9101000000006
 21
30.04522290697621
 31
0.0
  0
LINE
  5
4D7
330
1F
100
AcDbEntity
  8
0
  6
Continuous
 62
     7
100
AcDbLine
 10
-127.8288000000004
 20
30.04522290697621
 30
0.0
 11
-125.7475000000005
 21
30.04522290697621
 31
0.0
  0
LINE
  5
4D8
330
1F
100
AcDbEntity
  8
0
  6
Continuous
 62
     7
100
AcDbLine
 10
-124.3288000000005
 20
27.44512290697624
 30
0.0
 11
-124.4526000000005
 21
28.85852290697622
 31
0.0
  0
ARC
  5
4E5
330
1F
100
AcDbEntity
  8
0
  6
Continuous
 62
     7
100
AcDbCircle
 10
278.555421593731
 20
-32.05457709302375
 30
0.0
 40
51.5
100
AcDbArc
 50
270.0
 51
90.0
  0
ARC
  5
4E6
330
1F
100
AcDbEntity
  8
0
  6
Continuous
 62
     7
100
AcDbCircle
 10
278.555421593731
 20
-32.05457709302375
 30
0.0
 40
54.99989999999979
100
AcDbArc
 50
270.0
 51
90.0
  0
ARC
  5
4E7
330
1F
100
AcDbEntity
  8
0
  6
Continuous
 62
     7
100
AcDbCircle
 10
278.6654215937314
 20
-32.05457709302375
 30
0.0
 40
80.00000000000003
100
AcDbArc
 50
270.0
 51
89.99992838027415
  0
ARC
  5
4E8
330
1F
100
AcDbEntity
  8
0
  6
Continuous
 62
     7
100
AcDbCircle
 10
278.7754215937321
 20
-32.05457709302375
 30
0.0
 40
51.50000000000001
100
AcDbArc
 50
90.0
 51
270.0
  0
ARC
  5
4E9
330
1F
100
AcDbEntity
  8
0
  6
Continuous
 62
     7
100
AcDbCircle
 10
278.7754215937321
 20
-32.05457709302375
 30
0.0
 40
54.99990000000071
100
AcDbArc
 50
90.0
 51
270.0
  0
ARC
  5
4EA
330
1F
100
AcDbEntity
  8
0
  6
Continuous
 62
     7
100
AcDbCircle
 10
278.6654215937314
 20
-32.05457709302375
 30
0.0
 40
80.00000000006245
100
AcDbArc
 50
90.00007161972581
 51
270.0
  0
LINE
  5
4EB
330
1F
100
AcDbEntity
  8
0
  6
DASH_CENTER
 62
    30
100
AcDbLine
 10
278.6654215937314
 20
60.7360737718301
 30
0.0
 11
278.6654215937314
 21
-124.8452279578767
 31
0.0
  0
LINE
  5
4EC
330
1F
100
AcDbEntity
  8
0
  6
Continuous
 62
     7
100
AcDbLine
 10
-0.328986777716068
 20
15.86882535089731
 30
0.0
 11
-0.328986777716068
 21
-3.761777093024498
 31
0.0
  0
LINE
  5
4ED
330
1F
100
AcDbEntity
  8
0
  6
Continuous
 62
     7
100
AcDbLine
 10
-5.329000000000062
 20
-32.05477709302417
 30
0.0
 11
-5.329000000000062
 21
25.69512290697562
 31
0.0
  0
LINE
  5
4EE
330
1F
100
AcDbEntity
  8
0
  6
Continuous
 62
     7
100
AcDbLine
 10
-5.329000000000062
 20
-32.05477709302417
 30
0.0
 11
-5.329000000000062
 21
25.54532290697549
 31
0.0
  0
LINE
  5
4EF
330
1F
100
AcDbEntity
  8
0
  6
Continuous
 62
     7
100
AcDbLine
 10
40.17089999999972
 20
20.1409460849528
 30
0.0
 11
40.17089999999972
 21
-32.05467709302396
 31
0.0
  0
LINE
  5
4F0
330
1F
100
AcDbEntity
  8
0
  6
Continuous
 62
     7
100
AcDbLine
 10
36.67089999999972
 20
-32.05467709302396
 30
0.0
 11
36.67089999999972
 21
47.44532290697599
 31
0.0
  0
LINE
  5
4F1
330
1F
100
AcDbEntity
  8
0
  6
Continuous
 62
     7
100
AcDbLine
 10
26.67089999999973
 20
-32.05467709302396
 30
0.0
 11
26.67089999999973
 21
44.94532290697599
 31
0.0
  0
CIRCLE
  5
4FB
330
1F
100
AcDbEntity
  8
0
  6
Continuous
 62
     7
100
AcDbCircle
 10
232.7035215937314
 20
-78.01647709302308
 30
0.0
 40
5.0
  0
ARC
  5
4FC
330
1F
100
AcDbEntity
  8
0
  6
DASH_CENTER
 62
    30
100
AcDbCircle
 10
278.6654215937314
 20
-32.05457709302375
 30
0.0
 40
65.00004897113567
100
AcDbArc
 50
214.4881691325684
 51
235.5118308674288
  0
LINE
  5
4FD
330
1F
100
AcDbEntity
  8
0
  6
DASH_CENTER
 62
    30
100
AcDbLine
 10
185.9847055283663
 20
-32.05457709302375
 30
0.0
 11
368.2984253243477
 21
-32.05457709302375
 31
0.0
  0
LINE
  5
4FE
330
1F
100
AcDbEntity
  8
0
  6
DASH_CENTER
 62
    30
100
AcDbLine
 10
224.2828874887545
 20
-86.43711119800068
 30
0.0
 11
241.1241556987079
 21
-69.59584298804641
 31
0.0
  0
ARC
  5
557
330
1F
100
AcDbEntity
  8
0
  6
Continuous
 62
     7
100
AcDbCircle
 10
-1.240043428529475
 20
-87.38559631149731
 30
0.0
 40
2.000000000000083
100
AcDbArc
 50
275.7107254364838
 51
315.0849486545548
  0
LINE
  5
558
330
1F
100
AcDbEntity
  8
0
  6
Continuous
 62
     7
100
AcDbLine
 10
-5.329000000000062
 20
-89.80447709302357
 30
0.0
 11
-5.329000000000062
 21
-32.05457709302374
 31
0.0
  0
LINE
  5
559
330
1F
100
AcDbEntity
  8
0
  6
Continuous
 62
     7
100
AcDbLine
 10
-5.329000000000062
 20
-89.65467709302341
 30
0.0
 11
-5.329000000000062
 21
-32.05457709302374
 31
0.0
  0
LINE
  5
55A
330
1F
100
AcDbEntity
  8
0
  6
Continuous
 62
     7
100
AcDbLine
 10
26.67089999999973
 20
-32.05467709302396
 30
0.0
 11
26.67089999999973
 21
-109.054677093024
 31
0.0
  0
LINE
  5
55B
330
1F
100
AcDbEntity
  8
0
  6
Continuous
 62
     7
100
AcDbLine
 10
36.67089999999972
 20
-32.05467709302396
 30
0.0
 11
36.67089999999972
 21
-111.554677093024
 31
0.0
  0
LINE
  5
56E
330
1F
100
AcDbEntity
  8
0
  6
Continuous
 62
     7
100
AcDbLine
 10
-1.041031395301104
 20
-89.3756702323934
 30
0.0
 11
-5.329000000000062
 21
-89.80447709302357
 31
0.0
  0
ARC
  5
56F
330
1F
100
AcDbEntity
  8
0
  6
Continuous
 62
     7
100
AcDbCircle
 10
29.67089999999973
 20
-109.054677093024
 30
0.0
 40
3.0
100
AcDbArc
 50
180.0
 51
270.0
  0
LINE
  5
570
330
1F
100
AcDbEntity
  8
0
  6
Continuous
 62
     7
100
AcDbLine
 10
36.17089999999972
 20
-112.054677093024
 30
0.0
 11
36.67089999999972
 21
-111.554677093024
 31
0.0
  0
LINE
  5
572
330
1F
100
AcDbEntity
  8
0
  6
Continuous
 62
     7
100
AcDbLine
 10
29.67089999999973
 20
-112.054677093024
 30
0.0
 11
36.17089999999972
 21
-112.054677093024
 31
0.0
  0
LINE
  5
573
330
1F
100
AcDbEntity
  8
0
  6
DASHED
 62
   171
 48
0.5
100
AcDbLine
 10
36.67089999999972
 20
-92.05447709302351
 30
0.0
 11
26.67089999999973
 21
-92.05447709302351
 31
0.0
  0
LINE
  5
574
330
1F
100
AcDbEntity
  8
0
  6
DASH_CENTER
 62
    30
100
AcDbLine
 10
40.99783932426601
 20
-97.05447709302351
 30
0.0
 11
21.9299582895897
 21
-97.05447709302351
 31
0.0
  0
LINE
  5
575
330
1F
100
AcDbEntity
  8
0
  6
DASHED
 62
   171
 48
0.5
100
AcDbLine
 10
36.67089999999972
 20
-102.0544770930234
 30
0.0
 11
26.67089999999973
 21
-102.0544770930234
 31
0.0
  0
LINE
  5
57A
330
1F
100
AcDbEntity
  8
0
  6
Continuous
 62
     7
100
AcDbLine
 10
40.17089999999972
 20
-37.55457709302377
 30
0.0
 11
58.67099999999902
 21
-37.55457709302377
 31
0.0
  0
LINE
  5
57B
330
1F
100
AcDbEntity
  8
0
  6
Continuous
 62
     7
100
AcDbLine
 10
59.6711999999994
 20
-27.55457709302378
 30
0.0
 11
43.67099999999902
 21
-27.55457709302376
 31
0.0
  0
LINE
  5
57D
330
1F
100
AcDbEntity
  8
0
  6
Continuous
 62
     7
100
AcDbLine
 10
11.88472950136713
 20
-58.34757709302343
 30
0.0
 11
11.88472950136713
 21
-32.05457709302374
 31
0.0
  0
LINE
  5
57E
330
1F
100
AcDbEntity
  8
0
  6
Continuous
 62
     7
100
AcDbLine
 10
-0.328986777716068
 20
-60.34757709302343
 30
0.0
 11
-0.328986777716068
 21
-32.05457709302374
 31
0.0
  0
LINE
  5
57F
330
1F
100
AcDbEntity
  8
0
  6
Continuous
 62
     7
100
AcDbLine
 10
40.17089999999972
 20
-86.75457709302358
 30
0.0
 11
40.17089999999972
 21
-32.05467709302396
 31
0.0
  0
LINE
  5
580
330
1F
100
AcDbEntity
  8
0
  6
Continuous
 62
     7
100
AcDbLine
 10
12.2998118373913
 20
-77.05447709302356
 30
0.0
 11
22.67089999999972
 21
-77.05447709302356
 31
0.0
  0
LINE
  5
581
330
1F
100
AcDbEntity
  8
0
  6
Continuous
 62
     7
100
AcDbLine
 10
12.2998118373913
 20
-77.05457709302376
 30
0.0
 11
22.67089999999972
 21
-77.05457709302376
 31
0.0
  0
LINE
  5
582
330
1F
100
AcDbEntity
  8
0
  6
Continuous
 62
     7
100
AcDbLine
 10
-0.328986777716068
 20
-60.34757709302343
 30
0.0
 11
-0.328986777716068
 21
-79.97817953694525
 31
0.0
  0
LINE
  5
583
330
1F
100
AcDbEntity
  8
0
  6
Continuous
 62
     7
100
AcDbLine
 10
-0.0287000000001854
 20
-66.8241035313666
 30
0.0
 11
-0.0287000000001854
 21
-70.8241035313666
 31
0.0
  0
LINE
  5
584
330
1F
100
AcDbEntity
  8
0
  6
Continuous
 62
     7
100
AcDbLine
 10
0.371299999999394
 20
-67.22410353136715
 30
0.0
 11
-0.0287000000001854
 21
-66.8241035313666
 31
0.0
  0
LINE
  5
585
330
1F
100
AcDbEntity
  8
0
  6
DASH_CENTER
 62
    30
 48
0.5
100
AcDbLine
 10
-8.310619278373794
 20
-68.8241035313666
 30
0.0
 11
3.104489363084723
 21
-68.8241035313666
 31
0.0
  0
LINE
  5
586
330
1F
100
AcDbEntity
  8
0
  6
Continuous
 62
     7
100
AcDbLine
 10
11.88472950136713
 20
-67.72819251992391
 30
0.0
 11
-0.328986777716068
 21
-79.97817953694525
 31
0.0
  0
LINE
  5
587
330
1F
100
AcDbEntity
  8
0
  6
Continuous
 62
     7
100
AcDbLine
 10
11.59165745341539
 20
-77.34841946899074
 30
0.0
 11
0.1762653394222298
 21
-88.7977115595639
 31
0.0
  0
LINE
  5
588
330
1F
100
AcDbEntity
  8
0
  6
Continuous
 62
     7
100
AcDbLine
 10
-0.328986777716068
 20
-89.3044641100449
 30
0.0
 11
-0.328986777716068
 21
-79.97817953694525
 31
0.0
  0
LINE
  5
589
330
1F
100
AcDbEntity
  8
0
  6
Continuous
 62
     7
100
AcDbLine
 10
0.671013222283932
 20
-67.72819251992391
 30
0.0
 11
11.88472950136713
 21
-67.72819251992391
 31
0.0
  0
ARC
  5
58A
330
1F
100
AcDbEntity
  8
0
  6
Continuous
 62
     7
100
AcDbCircle
 10
0.671013222283932
 20
-68.72819251992391
 30
0.0
 40
1.0
100
AcDbArc
 50
90.0
 51
107.4403794093216
  0
LINE
  5
58B
330
1F
100
AcDbEntity
  8
0
  6
Continuous
 62
     7
100
AcDbLine
 10
-0.328986777716068
 20
-70.8241035313666
 30
0.0
 11
-0.0287000000001854
 21
-70.8241035313666
 31
0.0
  0
LINE
  5
58C
330
1F
100
AcDbEntity
  8
0
  6
Continuous
 62
    30
100
AcDbLine
 10
-0.328986777716068
 20
-70.42410353136606
 30
0.0
 11
0.371299999999394
 21
-70.42410353136606
 31
0.0
  0
LINE
  5
58D
330
1F
100
AcDbEntity
  8
0
  6
Continuous
 62
    30
100
AcDbLine
 10
-0.328986777716068
 20
-67.22410353136715
 30
0.0
 11
0.371299999999394
 21
-67.22410353136715
 31
0.0
  0
LINE
  5
58E
330
1F
100
AcDbEntity
  8
0
  6
Continuous
 62
     7
100
AcDbLine
 10
0.371299999999394
 20
-67.22410353136715
 30
0.0
 11
0.371299999999394
 21
-70.42410353136606
 31
0.0
  0
LINE
  5
58F
330
1F
100
AcDbEntity
  8
0
  6
Continuous
 62
     7
100
AcDbLine
 10
0.371299999999394
 20
-70.42410353136606
 30
0.0
 11
-0.0287000000001854
 21
-70.8241035313666
 31
0.0
  0
ARC
  5
590
330
1F
100
AcDbEntity
  8
0
  6
Continuous
 62
     7
100
AcDbCircle
 10
12.2998118373913
 20
-78.05447709302356
 30
0.0
 40
1.0
100
AcDbArc
 50
90.0
 51
135.0849486545738
  0
LINE
  5
591
330
1F
100
AcDbEntity
  8
0
  6
Continuous
 62
     7
100
AcDbLine
 10
11.88472950136713
 20
-67.72819251992391
 30
0.0
 11
11.88472950136713
 21
-77.05447709302356
 31
0.0
  0
LINE
  5
592
330
1F
100
AcDbEntity
  8
0
  6
Continuous
 62
     7
100
AcDbLine
 10
-0.328986777716068
 20
-59.34757709302343
 30
0.0
 11
10.88472950136713
 21
-59.34757709302343
 31
0.0
  0
LINE
  5
593
330
1F
100
AcDbEntity
  8
0
  6
Continuous
 62
     7
100
AcDbLine
 10
-0.328986777716068
 20
-66.8241035313666
 30
0.0
 11
-0.0287000000001854
 21
-66.8241035313666
 31
0.0
  0
ARC
  5
594
330
1F
100
AcDbEntity
  8
0
  6
Continuous
 62
     7
100
AcDbCircle
 10
10.88472950136713
 20
-58.34757709302343
 30
0.0
 40
1.0
100
AcDbArc
 50
270.0
 51
0.0
  0
ARC
  5
595
330
1F
100
AcDbEntity
  8
0
  6
Continuous
 62
     7
100
AcDbCircle
 10
22.67089999999972
 20
-81.05457709302376
 30
0.0
 40
4.0
100
AcDbArc
 50
0.0
 51
90.0
  0
LINE
  5
596
330
1F
100
AcDbEntity
  8
0
  6
Continuous
 62
     7
100
AcDbLine
 10
36.67089999999972
 20
-87.05467709302395
 30
0.0
 11
39.8709000000004
 21
-87.05467709302395
 31
0.0
  0
LINE
  5
597
330
1F
100
AcDbEntity
  8
0
  6
Continuous
 62
     7
100
AcDbLine
 10
39.8709000000004
 20
-87.05467709302395
 30
0.0
 11
40.17089999999972
 21
-86.75457709302358
 31
0.0
  0
LINE
  5
598
330
1F
100
AcDbEntity
  8
0
  6
Continuous
 62
     7
100
AcDbLine
 10
11.88472950136713
 20
-32.05477709302417
 30
0.0
 11
11.88472950136713
 21
-5.761777093024509
 31
0.0
  0
LINE
  5
599
330
1F
100
AcDbEntity
  8
0
  6
Continuous
 62
     7
100
AcDbLine
 10
-0.328986777716068
 20
-32.05477709302417
 30
0.0
 11
-0.328986777716068
 21
-3.761777093024498
 31
0.0
  0
LINE
  5
59A
330
1F
100
AcDbEntity
  8
0
  6
Continuous
 62
     7
100
AcDbLine
 10
10.88472950136713
 20
-4.761777093024497
 30
0.0
 11
-0.328986777716068
 21
-4.761777093024497
 31
0.0
  0
ARC
  5
59B
330
1F
100
AcDbEntity
  8
0
  6
Continuous
 62
     7
100
AcDbCircle
 10
10.88472950136713
 20
-5.761777093024509
 30
0.0
 40
1.0
100
AcDbArc
 50
0.0
 51
90.0
  0
LINE
  5
59C
330
1F
100
AcDbEntity
  8
0
  6
Continuous
 62
     7
100
AcDbLine
 10
23.67093941060339
 20
-32.05467709302396
 30
0.0
 11
23.67093820652239
 21
-34.17126463522331
 31
0.0
  0
LINE
  5
59D
330
1F
100
AcDbEntity
  8
0
  6
Continuous
 62
     7
100
AcDbLine
 10
25.87096295587031
 20
-32.05467709302396
 30
0.0
 11
25.87080886684501
 21
-37.0549322231844
 31
0.0
  0
ARC
  5
59E
330
1F
100
AcDbEntity
  8
0
  6
Continuous
 62
     7
100
AcDbCircle
 10
24.97083941170828
 20
-34.17123802932119
 30
0.0
 40
1.299958478640629
100
AcDbArc
 50
179.9975596061783
 51
265.0029438517268
  0
LINE
  5
59F
330
1F
100
AcDbEntity
  8
0
  6
Continuous
 62
     7
100
AcDbLine
 10
25.87094998315171
 20
-35.55510651661538
 30
0.0
 11
24.85758240005321
 21
-35.46639484024658
 31
0.0
  0
LINE
  5
5A0
330
1F
100
AcDbEntity
  8
0
  6
Continuous
 62
     7
100
AcDbLine
 10
25.87080886684501
 20
-37.0549322231844
 30
0.0
 11
26.67079721391073
 21
-37.0550889356617
 31
0.0
  0
ARC
  5
5A2
330
1F
100
AcDbEntity
  8
0
  6
Continuous
 62
     7
100
AcDbCircle
 10
24.97083941170825
 20
-29.93811615672673
 30
0.0
 40
1.29995847864062
100
AcDbArc
 50
94.99705614827318
 51
180.0024403938211
  0
LINE
  5
5A3
330
1F
100
AcDbEntity
  8
0
  6
Continuous
 62
     7
100
AcDbLine
 10
23.67093820652239
 20
-29.93808955082462
 30
0.0
 11
23.67093941060339
 21
-32.05467709302396
 31
0.0
  0
LINE
  5
5A4
330
1F
100
AcDbEntity
  8
0
  6
Continuous
 62
     7
100
AcDbLine
 10
25.87080886684501
 20
-27.05442196286353
 30
0.0
 11
25.87096295587031
 21
-32.05467709302396
 31
0.0
  0
LINE
  5
5A5
330
1F
100
AcDbEntity
  8
0
  6
Continuous
 62
     7
100
AcDbLine
 10
24.85758240005321
 20
-28.64295934580136
 30
0.0
 11
25.87094998315171
 21
-28.55424766943256
 31
0.0
  0
LINE
  5
5A6
330
1F
100
AcDbEntity
  8
0
  6
Continuous
 62
     7
100
AcDbLine
 10
26.67079721391073
 20
-27.05426525038623
 30
0.0
 11
25.87080886684501
 21
-27.05442196286353
 31
0.0
  0
LINE
  5
5A7
330
1F
100
AcDbEntity
  8
0
  6
Continuous
 62
     7
100
AcDbLine
 10
40.17089999999972
 20
-26.55457709302375
 30
0.0
 11
43.67099999999902
 21
-26.55457709302373
 31
0.0
  0
LINE
  5
5A8
330
1F
100
AcDbEntity
  8
0
  6
Continuous
 62
     7
100
AcDbLine
 10
43.67099999999902
 20
-26.55457709302373
 30
0.0
 11
43.67099999999902
 21
-27.55457709302376
 31
0.0
  0
LINE
  5
5AC
330
1F
100
AcDbEntity
  8
0
  6
Continuous
 62
     7
100
AcDbLine
 10
58.67099999999902
 20
-27.55477709302326
 30
0.0
 11
58.67099999999902
 21
-37.55427709302316
 31
0.0
  0
LINE
  5
5AD
330
1F
100
AcDbEntity
  8
0
  6
Continuous
 62
     7
100
AcDbLine
 10
59.6711999999994
 20
-36.55407709302278
 30
0.0
 11
59.6711999999994
 21
-27.55457709302378
 31
0.0
  0
LINE
  5
5AE
330
1F
100
AcDbEntity
  8
0
  6
Continuous
 62
     7
100
AcDbLine
 10
58.67099999999902
 20
-37.55427709302316
 30
0.0
 11
59.67099999999902
 21
-36.55427709302314
 31
0.0
  0
ARC
  5
5C0
330
1F
100
AcDbEntity
  8
0
  6
Continuous
 62
     7
100
AcDbCircle
 10
147.0126000000001
 20
-32.05457709302374
 30
0.0
 40
5.500000000000011
100
AcDbArc
 50
90.0
 51
180.0
  0
LINE
  5
5C1
330
1F
100
AcDbEntity
  8
0
  6
DASH_CENTER
 62
    30
100
AcDbLine
 10
137.7581999999999
 20
-32.05457709302374
 30
0.0
 11
156.7274000000001
 21
-32.05457709302374
 31
0.0
  0
LINE
  5
5CE
330
1F
100
AcDbEntity
  8
0
  6
DASH_CENTER
 62
    30
100
AcDbLine
 10
147.0126000000001
 20
-40.20517709302378
 30
0.0
 11
147.0126000000001
 21
-21.96637709302376
 31
0.0
  0
ARC
  5
5CF
330
1F
100
AcDbEntity
  8
0
  6
Continuous
 62
     7
100
AcDbCircle
 10
147.0126000000001
 20
-32.05457709302374
 30
0.0
 40
5.5
100
AcDbArc
 50
180.0
 51
0.0
  0
ARC
  5
5D0
330
1F
100
AcDbEntity
  8
0
  6
Continuous
 62
     7
100
AcDbCircle
 10
147.0126000000001
 20
-32.05457709302374
 30
0.0
 40
5.5
100
AcDbArc
 50
0.0
 51
90.0
  0
LINE
  5
5D1
330
1F
100
AcDbEntity
  8
0
  6
Continuous
 62
     7
100
AcDbLine
 10
143.8501999999999
 20
-27.55457709302378
 30
0.0
 11
150.1750000000001
 21
-27.55457709302378
 31
0.0
  0
CIRCLE
  5
5D2
330
1F
100
AcDbEntity
  8
0
  6
Continuous
 62
    30
100
AcDbCircle
 10
208.7755252509515
 20
-32.05457709302375
 30
0.0
 40
1.599999999999398
  0
CIRCLE
  5
5D3
330
1F
100
AcDbEntity
  8
0
  6
Continuous
 62
     7
100
AcDbCircle
 10
208.7755252509515
 20
-32.05457709302375
 30
0.0
 40
2.0
  0
ARC
  5
5D4
330
1F
100
AcDbEntity
  8
0
  6
DASH_CENTER
 62
    30
100
AcDbCircle
 10
278.7754215937321
 20
-31.94457709302319
 30
0.0
 40
69.99998277142704
100
AcDbArc
 50
176.0757340418739
 51
184.1043385264548
  0
ARC
  5
5DB
330
1F
100
AcDbEntity
  8
0
  6
Continuous
 62
     7
100
AcDbCircle
 10
278.555421593731
 20
-32.05457709302375
 30
0.0
 40
25.04155020009242
100
AcDbArc
 50
270.2516839398944
 51
89.74831606010548
  0
ARC
  5
5DC
330
1F
100
AcDbEntity
  8
0
  6
Continuous
 62
     7
100
AcDbCircle
 10
278.555421593731
 20
-32.05457709302375
 30
0.0
 40
20.42116646193322
100
AcDbArc
 50
270.3086290999451
 51
89.69137090005478
  0
ARC
  5
5DD
330
1F
100
AcDbEntity
  8
0
  6
Continuous
 62
     7
100
AcDbCircle
 10
278.7754215937321
 20
-32.05457709302375
 30
0.0
 40
20.42116646193322
100
AcDbArc
 50
90.30862909994523
 51
269.6913709000547
  0
ARC
  5
5DE
330
1F
100
AcDbEntity
  8
0
  6
Continuous
 62
     7
100
AcDbCircle
 10
278.7754215937321
 20
-32.05457709302375
 30
0.0
 40
25.04155020009242
100
AcDbArc
 50
90.25168393989451
 51
269.7483160601054
  0
ARC
  5
5E2
330
1F
100
AcDbEntity
  8
0
  6
Continuous
 62
     7
100
AcDbCircle
 10
278.555421593731
 20
-32.05457709302375
 30
0.0
 40
7.649999999999369
100
AcDbArc
 50
270.8238892745169
 51
89.17611072548313
  0
ARC
  5
5E3
330
1F
100
AcDbEntity
  8
0
  6
Continuous
 62
     7
100
AcDbCircle
 10
278.6654215937314
 20
-32.05457709302375
 30
0.0
 40
7.399999999999636
100
AcDbArc
 50
270.0
 51
90.0
  0
ARC
  5
5E4
330
1F
100
AcDbEntity
  8
0
  6
Continuous
 62
     7
100
AcDbCircle
 10
278.6654215937314
 20
-32.05457709302375
 30
0.0
 40
5.5
100
AcDbArc
 50
180.0
 51
0.0
  0
ARC
  5
5E5
330
1F
100
AcDbEntity
  8
0
  6
Continuous
 62
     7
100
AcDbCircle
 10
278.7754215937321
 20
-32.05457709302375
 30
0.0
 40
7.650000000000286
100
AcDbArc
 50
90.82388927451686
 51
269.1761107254831
  0
ARC
  5
5E6
330
1F
100
AcDbEntity
  8
0
  6
Continuous
 62
     7
100
AcDbCircle
 10
278.6654215937314
 20
-32.05457709302375
 30
0.0
 40
7.400000000000543
100
AcDbArc
 50
90.0
 51
270.0
  0
ARC
  5
5E7
330
1F
100
AcDbEntity
  8
0
  6
Continuous
 62
     7
100
AcDbCircle
 10
278.6654215937314
 20
-32.05457709302375
 30
0.0
 40
5.500000000000018
100
AcDbArc
 50
90.0
 51
180.0
  0
LINE
  5
5E8
330
1F
100
AcDbEntity
  8
0
  6
Continuous
 62
     7
100
AcDbLine
 10
275.5030215937316
 20
-27.55457709302378
 30
0.0
 11
281.8278215937315
 21
-27.55457709302378
 31
0.0
  0
ARC
  5
5E9
330
1F
100
AcDbEntity
  8
0
  6
Continuous
 62
     7
100
AcDbCircle
 10
278.6654215937314
 20
-32.05457709302375
 30
0.0
 40
5.5
100
AcDbArc
 50
0.0
 51
90.0
  0
ARC
  5
5EC
330
1F
100
AcDbEntity
  8
0
  6
DASH_CENTER
 62
    30
100
AcDbCircle
 10
278.6654215937314
 20
-32.05457709302375
 30
0.0
 40
65.00004897113566
100
AcDbArc
 50
304.4881691325708
 51
325.5118308674316
  0
LINE
  5
5ED
330
1F
100
AcDbEntity
  8
0
  6
DASH_CENTER
 62
    30
100
AcDbLine
 10
316.2066874887551
 20
-69.59584298804641
 30
0.0
 11
333.0479556987085
 21
-86.43711119800068
 31
0.0
  0
CIRCLE
  5
5EE
330
1F
100
AcDbEntity
  8
0
  6
Continuous
 62
     7
100
AcDbCircle
 10
324.6273215937315
 20
-78.01647709302308
 30
0.0
 40
5.0
  0
CIRCLE
  5
5F3
330
1F
100
AcDbEntity
  8
0
  6
Continuous
 62
     7
100
AcDbCircle
 10
232.7035215937314
 20
13.90732290697648
 30
0.0
 40
5.0
  0
ARC
  5
5F4
330
1F
100
AcDbEntity
  8
0
  6
DASH_CENTER
 62
    30
100
AcDbCircle
 10
278.6654215937314
 20
-32.05457709302375
 30
0.0
 40
65.00004897113566
100
AcDbArc
 50
124.4881691325711
 51
145.5118308674314
  0
LINE
  5
5F5
330
1F
100
AcDbEntity
  8
0
  6
DASH_CENTER
 62
    30
100
AcDbLine
 10
224.2828874887545
 20
22.32795701195315
 30
0.0
 11
241.1241556987079
 21
5.48668880199981
 31
0.0
  0
LINE
  5
5F6
330
1F
100
AcDbEntity
  8
0
  6
Continuous
 62
     7
100
AcDbLine
 10
26.67069999999933
 20
176.999699999997
 30
0.0
 11
26.67069999999933
 21
204.9997999999964
 31
0.0
  0
LINE
  5
5F7
330
1F
100
AcDbEntity
  8
0
  6
Continuous
 62
     7
100
AcDbLine
 10
-0.3292000000004691
 20
173.9997999999965
 30
0.0
 11
-0.3293000000006714
 21
184.3446999999964
 31
0.0
  0
LINE
  5
5F8
330
1F
100
AcDbEntity
  8
0
  6
CENTER_DASH_DASH
 62
   171
100
AcDbLine
 10
0.3710999999990463
 20
181.5997999999968
 30
0.0
 11
0.3710999999990463
 21
178.399799999997
 31
0.0
  0
LINE
  5
5FA
330
1F
100
AcDbEntity
  8
0
  6
CENTER_DASH_DASH
 62
   171
100
AcDbLine
 10
-0.0289000000005899
 20
181.9997999999964
 30
0.0
 11
-0.0289000000005899
 21
177.9997999999965
 31
0.0
  0
LINE
  5
5FB
330
1F
100
AcDbEntity
  8
0
  6
CENTER_DASH_DASH
 62
   171
100
AcDbLine
 10
-6.329200000000468
 20
181.5997999999968
 30
0.0
 11
-6.329200000000468
 21
178.399799999997
 31
0.0
  0
LINE
  5
5FC
330
1F
100
AcDbEntity
  8
0
  6
Continuous
 62
     7
100
AcDbLine
 10
-7.329200000000468
 20
181.999699999997
 30
0.0
 11
-7.329200000000468
 21
172.9997999999965
 31
0.0
  0
ARC
  5
5FD
330
1F
100
AcDbEntity
  8
0
  6
Continuous
 62
     7
100
AcDbCircle
 10
37.26681669197586
 20
174.960614602248
 30
0.0
 40
4.000012980542033
100
AcDbArc
 50
99.46259243494417
 51
162.8966987658476
  0
LINE
  5
603
330
1F
100
AcDbEntity
  8
0
  6
Continuous
 62
     7
100
AcDbLine
 10
22.67089999999972
 20
12.94522290697582
 30
0.0
 11
12.2998118373913
 21
12.94522290697582
 31
0.0
  0
LINE
  5
604
330
1F
100
AcDbEntity
  8
0
  6
Continuous
 62
     7
100
AcDbLine
 10
-0.328986777716068
 20
15.86882535089731
 30
0.0
 11
-0.328986777716068
 21
25.19510992399697
 31
0.0
  0
LINE
  5
605
330
1F
100
AcDbEntity
  8
0
  6
Continuous
 62
     7
100
AcDbLine
 10
0.1762653394222298
 20
24.68835737351597
 30
0.0
 11
11.59165745341539
 21
13.23906528294279
 31
0.0
  0
LINE
  5
606
330
1F
100
AcDbEntity
  8
0
  6
DASH_CENTER
 62
    30
 48
0.5
100
AcDbLine
 10
3.104489363084723
 20
4.714749345318671
 30
0.0
 11
-8.310619278373794
 21
4.714749345318671
 31
0.0
  0
LINE
  5
607
330
1F
100
AcDbEntity
  8
0
  6
Continuous
 62
     7
100
AcDbLine
 10
11.88472950136713
 20
12.94512290697563
 30
0.0
 11
11.88472950136713
 21
3.61883833387597
 31
0.0
  0
LINE
  5
608
330
1F
100
AcDbEntity
  8
0
  6
Continuous
 62
     7
100
AcDbLine
 10
-0.328986777716068
 20
15.86882535089731
 30
0.0
 11
11.88472950136713
 21
3.61883833387597
 31
0.0
  0
LINE
  5
609
330
1F
100
AcDbEntity
  8
0
  6
Continuous
 62
     7
100
AcDbLine
 10
11.88472950136713
 20
3.61883833387597
 30
0.0
 11
0.671013222283932
 21
3.61883833387597
 31
0.0
  0
ARC
  5
60A
330
1F
100
AcDbEntity
  8
0
  6
Continuous
 62
     7
100
AcDbCircle
 10
0.671013222283932
 20
4.618838333875969
 30
0.0
 40
1.000000000000009
100
AcDbArc
 50
252.5596205906782
 51
270.0
  0
LINE
  5
60B
330
1F
100
AcDbEntity
  8
0
  6
Continuous
 62
     7
100
AcDbLine
 10
-0.0287000000001854
 20
6.714749345318672
 30
0.0
 11
-0.328986777716068
 21
6.714749345318672
 31
0.0
  0
LINE
  5
60C
330
1F
100
AcDbEntity
  8
0
  6
Continuous
 62
    30
100
AcDbLine
 10
0.371299999999394
 20
6.314749345318119
 30
0.0
 11
-0.328986777716068
 21
6.314749345318119
 31
0.0
  0
LINE
  5
60D
330
1F
100
AcDbEntity
  8
0
  6
Continuous
 62
    30
100
AcDbLine
 10
0.371299999999394
 20
3.114749345319211
 30
0.0
 11
-0.328986777716068
 21
3.114749345319211
 31
0.0
  0
LINE
  5
60E
330
1F
100
AcDbEntity
  8
0
  6
Continuous
 62
     7
100
AcDbLine
 10
-0.0287000000001854
 20
2.714749345318672
 30
0.0
 11
-0.328986777716068
 21
2.714749345318672
 31
0.0
  0
LINE
  5
60F
330
1F
100
AcDbEntity
  8
0
  6
Continuous
 62
     7
100
AcDbLine
 10
-0.0287000000001854
 20
6.714749345318672
 30
0.0
 11
-0.0287000000001854
 21
2.714749345318672
 31
0.0
  0
LINE
  5
610
330
1F
100
AcDbEntity
  8
0
  6
Continuous
 62
     7
100
AcDbLine
 10
-0.0287000000001854
 20
2.714749345318672
 30
0.0
 11
0.371299999999394
 21
3.114749345319211
 31
0.0
  0
LINE
  5
611
330
1F
100
AcDbEntity
  8
0
  6
Continuous
 62
     7
100
AcDbLine
 10
0.371299999999394
 20
6.314749345318119
 30
0.0
 11
0.371299999999394
 21
3.114749345319211
 31
0.0
  0
LINE
  5
612
330
1F
100
AcDbEntity
  8
0
  6
Continuous
 62
     7
100
AcDbLine
 10
-0.0287000000001854
 20
6.714749345318672
 30
0.0
 11
0.371299999999394
 21
6.314749345318119
 31
0.0
  0
ARC
  5
613
330
1F
100
AcDbEntity
  8
0
  6
Continuous
 62
     7
100
AcDbCircle
 10
12.2998118373913
 20
13.94512290697563
 30
0.0
 40
0.9999999999995999
100
AcDbArc
 50
224.9150513454259
 51
270.0
  0
LINE
  5
614
330
1F
100
AcDbEntity
  8
0
  6
Continuous
 62
     7
100
AcDbLine
 10
-5.329000000000062
 20
25.69512290697562
 30
0.0
 11
-1.041031395301104
 21
25.26631604634544
 31
0.0
  0
ARC
  5
616
330
1F
100
AcDbEntity
  8
0
  6
Continuous
 62
     7
100
AcDbCircle
 10
-1.240043428529475
 20
23.27624212544939
 30
0.0
 40
1.999999999999754
100
AcDbArc
 50
44.91505134544506
 51
84.28927456351621
  0
LINE
  5
617
330
1F
100
AcDbEntity
  8
0
  6
Continuous
 62
     7
100
AcDbLine
 10
40.17089999999972
 20
22.64522290697651
 30
0.0
 11
40.17089999999972
 21
19.44532290697602
 31
0.0
  0
ARC
  5
618
330
1F
100
AcDbEntity
  8
0
  6
Continuous
 62
     7
100
AcDbCircle
 10
22.67089999999972
 20
16.94522290697582
 30
0.0
 40
3.999999999999998
100
AcDbArc
 50
270.0
 51
0.0
  0
LINE
  5
619
330
1F
100
AcDbEntity
  8
0
  6
DASH_CENTER
 62
    30
100
AcDbLine
 10
21.9299582895897
 20
32.94532290697598
 30
0.0
 11
40.99783932426601
 21
32.94532290697598
 31
0.0
  0
LINE
  5
61A
330
1F
100
AcDbEntity
  8
0
  6
DASHED
 62
   171
 48
0.5
100
AcDbLine
 10
26.67089999999973
 20
27.94532290697599
 30
0.0
 11
36.67089999999972
 21
27.94532290697599
 31
0.0
  0
LINE
  5
61B
330
1F
100
AcDbEntity
  8
0
  6
DASHED
 62
   171
 48
0.5
100
AcDbLine
 10
26.67089999999973
 20
37.94532290697599
 30
0.0
 11
36.67089999999972
 21
37.94532290697599
 31
0.0
  0
LINE
  5
61C
330
1F
100
AcDbEntity
  8
0
  6
Continuous
 62
     7
100
AcDbLine
 10
36.67089999999972
 20
22.9452229069767
 30
0.0
 11
39.8709000000004
 21
22.9452229069767
 31
0.0
  0
LINE
  5
61D
330
1F
100
AcDbEntity
  8
0
  6
Continuous
 62
     7
100
AcDbLine
 10
40.17089999999972
 20
22.64522290697651
 30
0.0
 11
39.8709000000004
 21
22.9452229069767
 31
0.0
  0
ARC
  5
622
330
1F
100
AcDbEntity
  8
0
  6
Continuous
 62
     7
100
AcDbCircle
 10
29.67089999999973
 20
44.94532290697599
 30
0.0
 40
3.0
100
AcDbArc
 50
90.0
 51
180.0
  0
LINE
  5
623
330
1F
100
AcDbEntity
  8
0
  6
Continuous
 62
     7
100
AcDbLine
 10
29.67089999999973
 20
47.94532290697599
 30
0.0
 11
36.17089999999972
 21
47.94532290697599
 31
0.0
  0
LINE
  5
624
330
1F
100
AcDbEntity
  8
0
  6
Continuous
 62
     7
100
AcDbLine
 10
36.67089999999972
 20
47.44532290697599
 30
0.0
 11
36.17089999999972
 21
47.94532290697599
 31
0.0
  0
LINE
  5
635
330
1F
100
AcDbEntity
  8
0
  6
Continuous
 62
     7
100
AcDbLine
 10
39.67099999999902
 20
132.499599999997
 30
0.0
 11
59.67099999999902
 21
132.499599999997
 31
0.0
  0
LINE
  5
63B
330
1F
100
AcDbEntity
  8
0
  6
DASH_CENTER
 62
    30
100
AcDbLine
 10
68.20605896685322
 20
127.9997999999965
 30
0.0
 11
-14.44646440996422
 21
127.9997999999965
 31
0.0
  0
LINE
  5
63C
330
1F
100
AcDbEntity
  8
0
  6
Continuous
 62
     7
100
AcDbLine
 10
37.67089999999972
 20
122.5000999999971
 30
0.0
 11
58.67099999999902
 21
122.5000999999971
 31
0.0
  0
LINE
  5
63D
330
1F
100
AcDbEntity
  8
0
  6
Continuous
 62
     7
100
AcDbLine
 10
11.67079999999953
 20
118.4999999993837
 30
0.0
 11
11.67079999999953
 21
137.499599999997
 31
0.0
  0
LINE
  5
63E
330
1F
100
AcDbEntity
  8
0
  6
Continuous
 62
     7
100
AcDbLine
 10
22.67089999999972
 20
135.499599999997
 30
0.0
 11
22.67089999999972
 21
120.4999999999958
 31
0.0
  0
ARC
  5
63F
330
1F
100
AcDbEntity
  8
0
  6
Continuous
 62
     7
100
AcDbCircle
 10
37.67089999999972
 20
134.4997999999965
 30
0.0
 40
1.0
100
AcDbArc
 50
180.0
 51
270.0
  0
LINE
  5
640
330
1F
100
AcDbEntity
  8
0
  6
Continuous
 62
     7
100
AcDbLine
 10
36.67089999999972
 20
135.399799999997
 30
0.0
 11
36.67089999999972
 21
120.5997999999959
 31
0.0
  0
LINE
  5
641
330
1F
100
AcDbEntity
  8
0
  6
Continuous
 62
     7
100
AcDbLine
 10
22.67089999999972
 20
120.4999999999958
 30
0.0
 11
11.67079999999953
 21
120.4999999999958
 31
0.0
  0
LINE
  5
642
330
1F
100
AcDbEntity
  8
0
  6
Continuous
 62
     7
100
AcDbLine
 10
11.67089999999973
 20
118.4999999999958
 30
0.0
 11
7.158904875429811
 21
118.4999723755361
 31
0.0
  0
LINE
  5
643
330
1F
100
AcDbEntity
  8
0
  6
Continuous
 62
     7
100
AcDbLine
 10
36.67100000000084
 20
120.5997999999959
 30
0.0
 11
22.67089999999972
 21
120.5997999999959
 31
0.0
  0
ARC
  5
646
330
1F
100
AcDbEntity
  8
0
  6
Continuous
 62
     7
100
AcDbCircle
 10
37.67089999999972
 20
121.5000999999971
 30
0.0
 40
1.0
100
AcDbArc
 50
90.0
 51
180.0
  0
LINE
  5
647
330
1F
100
AcDbEntity
  8
0
  6
Continuous
 62
     7
100
AcDbLine
 10
36.67089999999972
 20
121.5000999999971
 30
0.0
 11
36.67089999999972
 21
120.5997999999959
 31
0.0
  0
LINE
  5
648
330
1F
100
AcDbEntity
  8
0
  6
Continuous
 62
     7
100
AcDbLine
 10
36.67069999999933
 20
122.5000999999971
 30
0.0
 11
36.67089999999972
 21
122.5000999999971
 31
0.0
  0
LINE
  5
649
330
1F
100
AcDbEntity
  8
0
  6
Continuous
 62
     7
100
AcDbLine
 10
39.67099999999902
 20
133.499599999997
 30
0.0
 11
39.67099999999902
 21
132.499599999997
 31
0.0
  0
LINE
  5
64A
330
1F
100
AcDbEntity
  8
0
  6
Continuous
 62
     7
100
AcDbLine
 10
39.67099999999902
 20
133.4997999999965
 30
0.0
 11
37.67089999999972
 21
133.4997999999965
 31
0.0
  0
LINE
  5
64B
330
1F
100
AcDbEntity
  8
0
  6
Continuous
 62
     7
100
AcDbLine
 10
11.46933610408507
 20
168.9997999999965
 30
0.0
 11
20.29279999999983
 21
168.9997999999965
 31
0.0
  0
LINE
  5
64C
330
1F
100
AcDbEntity
  8
0
  6
Continuous
 62
     7
100
AcDbLine
 10
12.2994124302055
 20
172.9997999999965
 30
0.0
 11
22.67069999999931
 21
172.9997999999965
 31
0.0
  0
LINE
  5
64D
330
1F
100
AcDbEntity
  8
0
  6
Continuous
 62
     7
100
AcDbLine
 10
12.17079999999953
 20
145.4997999999964
 30
0.0
 11
20.67079999999953
 21
145.4997999999964
 31
0.0
  0
LINE
  5
64E
330
1F
100
AcDbEntity
  8
0
  6
Continuous
 62
     7
100
AcDbLine
 10
11.67089999999973
 20
135.499599999997
 30
0.0
 11
22.67089999999972
 21
135.4998999999965
 31
0.0
  0
LINE
  5
64F
330
1F
100
AcDbEntity
  8
0
  6
Continuous
 62
     7
100
AcDbLine
 10
21.67079999999953
 20
145.499599999997
 30
0.0
 11
12.67079999999953
 21
145.499599999997
 31
0.0
  0
LINE
  5
650
330
1F
100
AcDbEntity
  8
0
  6
Continuous
 62
     7
100
AcDbLine
 10
12.67079999999953
 20
135.499599999997
 30
0.0
 11
21.67079999999953
 21
135.499599999997
 31
0.0
  0
LINE
  5
651
330
1F
100
AcDbEntity
  8
0
  6
Continuous
 62
     7
100
AcDbLine
 10
14.28360000000032
 20
142.1665999999983
 30
0.0
 11
11.67079999999953
 21
142.1665999999983
 31
0.0
  0
LINE
  5
652
330
1F
100
AcDbEntity
  8
0
  6
Continuous
 62
     7
100
AcDbLine
 10
14.28360000000032
 20
138.8323999999971
 30
0.0
 11
11.67079999999953
 21
138.8323999999971
 31
0.0
  0
ARC
  5
653
330
1F
100
AcDbEntity
  8
0
  6
Continuous
 62
     7
100
AcDbCircle
 10
14.67084831310415
 20
147.9960578921705
 30
0.0
 40
3.000048313663223
100
AcDbArc
 50
100.3064645269545
 51
180.0011056412626
  0
LINE
  5
654
330
1F
100
AcDbEntity
  8
0
  6
Continuous
 62
     7
100
AcDbLine
 10
-9.988643944927103
 20
137.4997326094494
 30
0.0
 11
11.67089999999973
 21
137.499599999997
 31
0.0
  0
ARC
  5
655
330
1F
100
AcDbEntity
  8
0
  6
Continuous
 62
     7
100
AcDbCircle
 10
12.67080000999952
 20
144.4996000099949
 30
0.0
 40
1.000000010000009
100
AcDbArc
 50
89.98854141701796
 51
180.0000005728426
  0
LINE
  5
656
330
1F
100
AcDbEntity
  8
0
  6
Continuous
 62
     7
100
AcDbLine
 10
11.67079999999953
 20
144.4995999999969
 30
0.0
 11
11.67079999999953
 21
136.499599999997
 31
0.0
  0
ARC
  5
657
330
1F
100
AcDbEntity
  8
0
  6
Continuous
 62
     7
100
AcDbCircle
 10
12.67080003999949
 20
136.4995999600129
 30
0.0
 40
1.000000039999997
100
AcDbArc
 50
179.9999977090853
 51
270.0229160197143
  0
LINE
  5
658
330
1F
100
AcDbEntity
  8
0
  6
Continuous
 62
     7
100
AcDbLine
 10
11.67079999999953
 20
145.9997999999965
 30
0.0
 11
12.17079999999953
 21
145.4997999999964
 31
0.0
  0
LINE
  5
659
330
1F
100
AcDbEntity
  8
0
  6
Continuous
 62
     7
100
AcDbLine
 10
11.67079999999953
 20
145.9997999999965
 30
0.0
 11
11.67079999999953
 21
147.9959999999969
 31
0.0
  0
ARC
  5
65A
330
1F
100
AcDbEntity
  8
0
  6
Continuous
 62
     7
100
AcDbCircle
 10
-1.329200000000468
 20
170.9997999999965
 30
0.0
 40
2.0
100
AcDbArc
 50
180.0
 51
270.0
  0
LINE
  5
65B
330
1F
100
AcDbEntity
  8
0
  6
Continuous
 62
     7
100
AcDbLine
 10
-5.329200000000468
 20
172.9997999999965
 30
0.0
 11
-7.329200000000468
 21
172.9997999999965
 31
0.0
  0
LINE
  5
65C
330
1F
100
AcDbEntity
  8
0
  6
CENTER_DASH_DASH
 62
   171
100
AcDbLine
 10
-7.329200000000468
 20
177.3997999999969
 30
0.0
 11
-6.329200000000468
 21
178.399799999997
 31
0.0
  0
ARC
  5
65D
330
1F
100
AcDbEntity
  8
0
  6
Continuous
 62
     7
100
AcDbCircle
 10
-5.329200000000468
 20
170.9997999999965
 30
0.0
 40
2.0
100
AcDbArc
 50
0.0
 51
90.0
  0
LINE
  5
65E
330
1F
100
AcDbEntity
  8
0
  6
Continuous
 62
     7
100
AcDbLine
 10
11.46933610408507
 20
168.9997999999965
 30
0.0
 11
-1.329200000000468
 21
168.9997999999965
 31
0.0
  0
LINE
  5
65F
330
1F
100
AcDbEntity
  8
0
  6
Continuous
 62
     7
100
AcDbLine
 10
12.2994124302055
 20
172.9997999999965
 30
0.0
 11
0.6707999999995309
 21
172.9997999999965
 31
0.0
  0
LINE
  5
660
330
1F
100
AcDbEntity
  8
0
  6
CENTER_DASH_DASH
 62
   171
100
AcDbLine
 10
-0.0289000000005899
 20
177.9997999999965
 30
0.0
 11
0.3710999999990463
 21
178.399799999997
 31
0.0
  0
ARC
  5
661
330
1F
100
AcDbEntity
  8
0
  6
Continuous
 62
     7
100
AcDbCircle
 10
0.6707999999995309
 20
173.9997999999965
 30
0.0
 40
1.0
100
AcDbArc
 50
180.0
 51
270.0
  0
LINE
  5
662
330
1F
100
AcDbEntity
  8
0
  6
Continuous
 62
     7
100
AcDbLine
 10
22.8389999999996
 20
155.272999999997
 30
0.0
 11
25.07170000000007
 21
162.5293999999981
 31
0.0
  0
LINE
  5
663
330
1F
100
AcDbEntity
  8
0
  6
Continuous
 62
     7
100
AcDbLine
 10
27.08139999999969
 20
155.4596999999979
 30
0.0
 11
33.44369999999946
 21
176.1368999999964
 31
0.0
  0
LINE
  5
667
330
1F
100
AcDbEntity
  8
0
  6
Continuous
 62
     7
100
AcDbLine
 10
25.67079999999953
 20
135.649799999997
 30
0.0
 11
32.67069999999932
 21
135.649799999997
 31
0.0
  0
LINE
  5
668
330
1F
100
AcDbEntity
  8
0
  6
Continuous
 62
     7
100
AcDbLine
 10
28.80820000000005
 20
150.8766999999965
 30
0.0
 11
31.24300000000005
 21
149.378299999998
 31
0.0
  0
LINE
  5
669
330
1F
100
AcDbEntity
  8
0
  6
Continuous
 62
     7
100
AcDbLine
 10
22.67089999999972
 20
135.399799999997
 30
0.0
 11
36.67100000000084
 21
135.399799999997
 31
0.0
  0
LINE
  5
66A
330
1F
100
AcDbEntity
  8
0
  6
Continuous
 62
     7
100
AcDbLine
 10
22.67079999999953
 20
142.4997999999964
 30
0.0
 11
22.67079999999953
 21
145.7497999999965
 31
0.0
  0
ARC
  5
66B
330
1F
100
AcDbEntity
  8
0
  6
Continuous
 62
     7
100
AcDbCircle
 10
21.6708000299875
 20
144.499599969991
 30
0.0
 40
1.000000049999999
100
AcDbArc
 50
359.9770834079517
 51
89.98854256270323
  0
LINE
  5
66C
330
1F
100
AcDbEntity
  8
0
  6
Continuous
 62
     7
100
AcDbLine
 10
22.67079999999953
 20
142.1665999999983
 30
0.0
 11
20.05780000000105
 21
142.1665999999983
 31
0.0
  0
LINE
  5
66D
330
1F
100
AcDbEntity
  8
0
  6
Continuous
 62
     7
100
AcDbLine
 10
22.67079999999953
 20
138.8323999999971
 30
0.0
 11
20.05780000000105
 21
138.8323999999971
 31
0.0
  0
ARC
  5
66E
330
1F
100
AcDbEntity
  8
0
  6
Continuous
 62
     7
100
AcDbCircle
 10
17.17079999999953
 20
140.4992999999969
 30
0.0
 40
3.333000013500071
100
AcDbArc
 50
180.0051571358583
 51
179.9948428641416
  0
LINE
  5
66F
330
1F
100
AcDbEntity
  8
0
  6
Continuous
 62
     7
100
AcDbLine
 10
25.67079999999953
 20
135.649799999997
 30
0.0
 11
25.67079999999953
 21
139.4997999999965
 31
0.0
  0
LINE
  5
670
330
1F
100
AcDbEntity
  8
0
  6
Continuous
 62
     7
100
AcDbLine
 10
22.67079999999953
 20
136.499599999997
 30
0.0
 11
22.67079999999953
 21
144.4995999999969
 31
0.0
  0
ARC
  5
671
330
1F
100
AcDbEntity
  8
0
  6
Continuous
 62
     7
100
AcDbCircle
 10
22.67079999999953
 20
139.4997999999965
 30
0.0
 40
3.0
100
AcDbArc
 50
0.0
 51
90.0
  0
ARC
  5
672
330
1F
100
AcDbEntity
  8
0
  6
Continuous
 62
     7
100
AcDbCircle
 10
21.67079999999953
 20
136.499599999997
 30
0.0
 40
1.000000079999997
100
AcDbArc
 50
270.0229183106291
 51
359.9770816894229
  0
LINE
  5
673
330
1F
100
AcDbEntity
  8
0
  6
Continuous
 62
     7
100
AcDbLine
 10
20.67079999999953
 20
145.7497999999965
 30
0.0
 11
22.67079999999953
 21
145.7497999999965
 31
0.0
  0
ARC
  5
674
330
1F
100
AcDbEntity
  8
0
  6
Continuous
 62
     7
100
AcDbCircle
 10
18.06013581007988
 20
156.7434317944075
 30
0.0
 40
4.99997126068844
100
AcDbArc
 50
280.3041725684166
 51
342.8971391228931
  0
LINE
  5
675
330
1F
100
AcDbEntity
  8
0
  6
Continuous
 62
     7
100
AcDbLine
 10
20.67079999999953
 20
145.4997999999964
 30
0.0
 11
20.67079999999953
 21
145.7497999999965
 31
0.0
  0
LINE
  5
676
330
1F
100
AcDbEntity
  8
0
  6
Continuous
 62
     7
100
AcDbLine
 10
14.13409999999896
 20
150.9476999999965
 30
0.0
 11
18.95449999999948
 21
151.8240999999966
 31
0.0
  0
ARC
  5
677
330
1F
100
AcDbEntity
  8
0
  6
Continuous
 62
     7
100
AcDbCircle
 10
30.90456549096396
 20
154.283391588432
 30
0.0
 40
4.000036981131658
100
AcDbArc
 50
162.8979583032065
 51
238.3932309367061
  0
LINE
  5
678
330
1F
100
AcDbEntity
  8
0
  6
Continuous
 62
     7
100
AcDbLine
 10
32.67069999999932
 20
135.649799999997
 30
0.0
 11
32.67069999999932
 21
146.823399999997
 31
0.0
  0
LINE
  5
679
330
1F
100
AcDbEntity
  8
0
  6
Continuous
 62
     7
100
AcDbLine
 10
36.67089999999972
 20
135.399799999997
 30
0.0
 11
36.67089999999972
 21
134.4997999999965
 31
0.0
  0
ARC
  5
67A
330
1F
100
AcDbEntity
  8
0
  6
Continuous
 62
     7
100
AcDbCircle
 10
29.67072989291713
 20
146.8233465059746
 30
0.0
 40
2.999970107559151
100
AcDbArc
 50
0.0010216707490543
 51
58.39264359409838
  0
ARC
  5
67F
330
1F
100
AcDbEntity
  8
0
  6
Continuous
 62
     7
100
AcDbCircle
 10
20.29279857343401
 20
163.9998019314978
 30
0.0
 40
4.999998068498931
100
AcDbArc
 50
342.8975916815276
 51
89.99998365275422
  0
ARC
  5
680
330
1F
100
AcDbEntity
  8
0
  6
Continuous
 62
     7
100
AcDbCircle
 10
22.67069999999931
 20
176.999699999997
 30
0.0
 40
4.0
100
AcDbArc
 50
270.0
 51
0.0
  0
LINE
  5
68F
330
1F
100
AcDbEntity
  8
0
  6
Continuous
 62
     7
100
AcDbLine
 10
58.67099999999902
 20
122.5000999999971
 30
0.0
 11
59.67099999999902
 21
123.5000999999971
 31
0.0
  0
LINE
  5
690
330
1F
100
AcDbEntity
  8
0
  6
Continuous
 62
     7
100
AcDbLine
 10
58.67099999999902
 20
132.499599999997
 30
0.0
 11
58.67099999999902
 21
122.5000999999971
 31
0.0
  0
LINE
  5
692
330
1F
100
AcDbEntity
  8
0
  6
Continuous
 62
     7
100
AcDbLine
 10
59.67099999999902
 20
123.5000999999971
 30
0.0
 11
59.67099999999902
 21
132.499599999997
 31
0.0
  0
LINE
  5
69F
330
1F
100
AcDbEntity
  8
0
  6
Continuous
 62
     7
100
AcDbLine
 10
-1.041202740130187
 20
185.320837513646
 30
0.0
 11
-5.329200000000468
 21
185.7496999999969
 31
0.0
  0
LINE
  5
6A0
330
1F
100
AcDbEntity
  8
0
  6
Continuous
 62
     7
100
AcDbLine
 10
-7.029200000000287
 20
184.2497999999965
 30
0.0
 11
-7.329200000000468
 21
183.9497999999981
 31
0.0
  0
LINE
  5
6A1
330
1F
100
AcDbEntity
  8
0
  6
Continuous
 62
     7
100
AcDbLine
 10
-5.329200000000468
 20
185.7497999999965
 30
0.0
 11
-5.329200000000468
 21
184.2497999999965
 31
0.0
  0
LINE
  5
6A2
330
1F
100
AcDbEntity
  8
0
  6
Continuous
 62
     7
100
AcDbLine
 10
-5.329200000000468
 20
184.2497999999965
 30
0.0
 11
-7.029200000000287
 21
184.2497999999965
 31
0.0
  0
LINE
  5
6A3
330
1F
100
AcDbEntity
  8
0
  6
Continuous
 62
     7
100
AcDbLine
 10
-5.529100000000994
 20
184.2495999999969
 30
0.0
 11
-6.829100000000266
 21
184.2495999999969
 31
0.0
  0
LINE
  5
6A4
330
1F
100
AcDbEntity
  8
0
  6
Continuous
 62
     7
100
AcDbLine
 10
-5.329100000000266
 20
184.4494999999966
 30
0.0
 11
-5.329100000000266
 21
185.3991999999966
 31
0.0
  0
LINE
  5
6A5
330
1F
100
AcDbEntity
  8
0
  6
Continuous
 62
     7
100
AcDbLine
 10
-7.329200000000468
 20
181.999699999997
 30
0.0
 11
-7.329200000000468
 21
183.9497999999981
 31
0.0
  0
LINE
  5
6A6
330
1F
100
AcDbEntity
  8
0
  6
CENTER_DASH_DASH
 62
   171
100
AcDbLine
 10
-7.329200000000468
 20
182.5997999999968
 30
0.0
 11
-6.329200000000468
 21
181.5997999999968
 31
0.0
  0
LINE
  5
6A7
330
1F
100
AcDbEntity
  8
0
  6
Continuous
 62
     7
100
AcDbLine
 10
-5.529100000000994
 20
184.2495999999969
 30
0.0
 11
-5.329200000000468
 21
184.4494999999966
 31
0.0
  0
LINE
  5
6A8
330
1F
100
AcDbEntity
  8
0
  6
Continuous
 62
     7
100
AcDbLine
 10
-5.329200000000468
 20
185.3994999999964
 30
0.0
 11
-5.529100000000994
 21
185.5993999999969
 31
0.0
  0
LINE
  5
6A9
330
1F
100
AcDbEntity
  8
0
  6
Continuous
 62
     7
100
AcDbLine
 10
-5.529100000000994
 20
184.2495999999969
 30
0.0
 11
-7.458200000000374
 21
184.2495999999969
 31
0.0
  0
ARC
  5
6AA
330
1F
100
AcDbEntity
  8
0
  6
Continuous
 62
     7
100
AcDbCircle
 10
-7.458178603729777
 20
183.8494144391624
 30
0.0
 40
0.3999855614063393
100
AcDbArc
 50
90.00306490063939
 51
158.0234298662096
  0
LINE
  5
6AB
330
1F
100
AcDbEntity
  8
0
  6
CENTER_DASH_DASH
 62
   171
100
AcDbLine
 10
0.3710999999990463
 20
181.5997999999968
 30
0.0
 11
-0.0289000000005899
 21
181.9997999999964
 31
0.0
  0
ARC
  5
6AC
330
1F
100
AcDbEntity
  8
0
  6
Continuous
 62
     7
100
AcDbCircle
 10
-1.329281311725025
 20
184.3446793505414
 30
0.0
 40
0.9999813119375319
100
AcDbArc
 50
0.0011831487360734
 51
84.29059005544338
  0
LINE
  5
6AD
330
1F
100
AcDbEntity
  8
0
  6
Continuous
 62
     7
100
AcDbLine
 10
36.67069999999933
 20
182.9996999999971
 30
0.0
 11
36.67069999999933
 21
207.4997999999964
 31
0.0
  0
LINE
  5
6AE
330
1F
100
AcDbEntity
  8
0
  6
DASHED
 62
   171
 48
0.5
100
AcDbLine
 10
26.67069999999933
 20
187.9997999999964
 30
0.0
 11
36.67069999999933
 21
187.9997999999964
 31
0.0
  0
LINE
  5
6AF
330
1F
100
AcDbEntity
  8
0
  6
DASHED
 62
   171
 48
0.5
100
AcDbLine
 10
26.67069999999933
 20
197.9997999999964
 30
0.0
 11
36.67069999999933
 21
197.9997999999964
 31
0.0
  0
LINE
  5
6B0
330
1F
100
AcDbEntity
  8
0
  6
DASH_CENTER
 62
    30
100
AcDbLine
 10
21.92975828958935
 20
192.9997999999964
 30
0.0
 11
40.99763932426561
 21
192.9997999999964
 31
0.0
  0
LINE
  5
6B1
330
1F
100
AcDbEntity
  8
0
  6
Continuous
 62
     7
100
AcDbLine
 10
36.67069999999933
 20
182.9996999999971
 30
0.0
 11
39.87070000000004
 21
182.9996999999971
 31
0.0
  0
LINE
  5
6B2
330
1F
100
AcDbEntity
  8
0
  6
Continuous
 62
     7
100
AcDbLine
 10
40.17069999999931
 20
179.4997999999965
 30
0.0
 11
36.60919999999953
 21
178.906199999998
 31
0.0
  0
LINE
  5
6B3
330
1F
100
AcDbEntity
  8
0
  6
Continuous
 62
     7
100
AcDbLine
 10
40.17069999999931
 20
182.699699999997
 30
0.0
 11
40.17069999999931
 21
179.4997999999965
 31
0.0
  0
LINE
  5
6B4
330
1F
100
AcDbEntity
  8
0
  6
Continuous
 62
     7
100
AcDbLine
 10
40.17069999999931
 20
182.699699999997
 30
0.0
 11
39.87070000000004
 21
182.9996999999971
 31
0.0
  0
LINE
  5
6B5
330
1F
100
AcDbEntity
  8
0
  6
Continuous
 62
     7
100
AcDbLine
 10
40.17069999999931
 20
180.195423177974
 30
0.0
 11
40.17069999999931
 21
179.4997999999965
 31
0.0
  0
ARC
  5
6B6
330
1F
100
AcDbEntity
  8
0
  6
Continuous
 62
     7
100
AcDbCircle
 10
29.67069999999933
 20
204.9997999999964
 30
0.0
 40
3.0
100
AcDbArc
 50
90.0
 51
180.0
  0
LINE
  5
6B7
330
1F
100
AcDbEntity
  8
0
  6
Continuous
 62
     7
100
AcDbLine
 10
29.67069999999933
 20
207.9997999999965
 30
0.0
 11
36.17069999999932
 21
207.9997999999965
 31
0.0
  0
LINE
  5
6B8
330
1F
100
AcDbEntity
  8
0
  6
Continuous
 62
     7
100
AcDbLine
 10
36.67069999999933
 20
207.4997999999964
 30
0.0
 11
36.17069999999932
 21
207.9997999999965
 31
0.0
  0
ARC
  5
6C0
330
1F
100
AcDbEntity
  8
0
  6
DASH_CENTER
 62
    30
100
AcDbCircle
 10
278.6654215937314
 20
-32.05457709302375
 30
0.0
 40
65.00004897113568
100
AcDbArc
 50
34.48816913256855
 51
55.51183086742889
  0
LINE
  5
6C1
330
1F
100
AcDbEntity
  8
0
  6
DASH_CENTER
 62
    30
100
AcDbLine
 10
316.2066874887551
 20
5.48668880199981
 30
0.0
 11
333.0479556987085
 21
22.32795701195315
 31
0.0
  0
CIRCLE
  5
6C4
330
1F
100
AcDbEntity
  8
0
  6
Continuous
 62
     7
100
AcDbCircle
 10
324.6273215937315
 20
13.90732290697648
 30
0.0
 40
5.0
  0
MTEXT
  5
6C9
330
1F
100
AcDbEntity
  8
0
100
AcDbMText
 10
-246.4849334834655
 20
145.9563669775484
 30
0.0
 40
8.0
 41
127.7253315133694
 71
     1
 72
     1
  1
AEM-FLH 2P 0.2kW
 73
     1
 44
1.0
  0
MTEXT
  5
6CB
330
1F
100
AcDbEntity
  8
0
100
AcDbMText
 10
-246.4849350793929
 20
129.6319154936582
 30
0.0
 40
8.0
 41
127.4
 71
     1
 72
     1
  1
AEM-FLH 4P 0.2kW
 73
     1
 44
1.0
  0
ARC
  5
6DF
330
1F
100
AcDbEntity
  8
0
  6
DASHED
 62
   171
 48
0.4
100
AcDbCircle
 10
278.5554215937309
 20
-32.05457709302374
 30
0.0
 40
57.50010521729503
100
AcDbArc
 50
319.5647986644063
 51
40.92165691830476
  0
ARC
  5
6E0
330
1F
100
AcDbEntity
  8
0
  6
DASHED
 62
   171
 48
0.4
100
AcDbCircle
 10
278.5554215937309
 20
-32.05457709302374
 30
0.0
 40
58.5001052172949
100
AcDbArc
 50
326.8380394800666
 51
33.16196051993353
  0
LINE
  5
6E1
330
1F
100
AcDbEntity
  8
0
  6
DASHED
 62
   171
 48
0.4
100
AcDbLine
 10
326.6909138631912
 20
-63.50670713181002
 30
0.0
 11
327.5274780181304
 21
-64.05457709302377
 31
0.0
  0
LINE
  5
6E2
330
1F
100
AcDbEntity
  8
0
  6
DASHED
 62
   171
 48
0.4
100
AcDbLine
 10
327.5274780181304
 20
-0.0545770930237382
 30
0.0
 11
326.6909138631912
 21
-0.6024470542374872
 31
0.0
  0
LINE
  5
6EB
330
1F
100
AcDbEntity
  8
0
  6
DASHED
 62
   171
 48
0.5
100
AcDbLine
 10
-38.3290000000001
 20
-64.05457709302377
 30
0.0
 11
-83.32880000000058
 21
-64.05457709302377
 31
0.0
  0
LINE
  5
6EC
330
1F
100
AcDbEntity
  8
0
  6
DASHED
 62
   171
 48
0.5
100
AcDbLine
 10
-83.32880000000058
 20
-64.05457709302377
 30
0.0
 11
-83.32880000000058
 21
-0.0545770930237524
 31
0.0
  0
LINE
  5
6ED
330
1F
100
AcDbEntity
  8
0
  6
DASHED
 62
   171
 48
0.5
100
AcDbLine
 10
-38.3290000000001
 20
-0.0545770930237524
 30
0.0
 11
-38.3290000000001
 21
-64.05457709302377
 31
0.0
  0
LINE
  5
6EE
330
1F
100
AcDbEntity
  8
0
  6
DASHED
 62
   171
 48
0.5
100
AcDbLine
 10
-83.32880000000058
 20
-0.0545770930237524
 30
0.0
 11
-38.3290000000001
 21
-0.0545770930237524
 31
0.0
  0
VIEWPORT
  5
71
330
55
100
AcDbEntity
 67
     1
  8
0
100
AcDbViewport
 10
133.3499908447265
 20
101.5999970436096
 30
0.0
 40
381.3957395593833
 41
218.2856291881582
 68
     1
 69
     1
 12
133.3499908447265
 22
101.5999970436096
 13
0.0
 23
0.0
 14
10.0
 24
10.0
 15
10.0
 25
10.0
 16
0.0
 26
0.0
 36
1.0
 17
0.0
 27
0.0
 37
0.0
 42
50.0
 43
0.0
 44
0.0
 45
218.2856291881582
 50
0.0
 51
0.0
 72
   100
 90
    32800
  1

281
     0
 71
     1
 74
     0
110
0.0
120
0.0
130
0.0
111
1.0
121
0.0
131
0.0
112
0.0
122
1.0
132
0.0
 79
     0
146
0.0
  0
VIEWPORT
  5
73
330
55
100
AcDbEntity
 67
     1
  8
0
100
AcDbViewport
 10
133.3499939441679
 20
101.5999939441679
 30
0.0
 40
213.3599903106689
 41
162.5599903106689
 68
     2
 69
     2
 12
210.0
 22
148.5
 13
0.0
 23
0.0
 14
10.0
 24
10.0
 15
10.0
 25
10.0
 16
0.0
 26
0.0
 36
1.0
 17
0.0
 27
0.0
 37
0.0
 42
50.0
 43
0.0
 44
0.0
 45
324.0677920111345
 50
0.0
 51
0.0
 72
   100
 90
    32864
  1

281
     0
 71
     1
 74
     0
110
0.0
120
0.0
130
0.0
111
1.0
121
0.0
131
0.0
112
0.0
122
1.0
132
0.0
 79
     0
146
0.0
  0
ENDSEC
  0
SECTION
  2
OBJECTS
  0
DICTIONARY
  5
C
330
0
100
AcDbDictionary
281
     1
  3
ACAD_GROUP
350
D
  3
ACAD_LAYOUT
350
1A
  3
ACAD_MLINESTYLE
350
17
  3
ACAD_PLOTSETTINGS
350
19
  3
ACAD_PLOTSTYLENAME
350
E
  3
AcDbVariableDictionary
350
5E
  0
DICTIONARY
  5
D
102
{ACAD_REACTORS
330
C
102
}
330
C
100
AcDbDictionary
281
     1
  0
DICTIONARY
  5
1A
102
{ACAD_REACTORS
330
C
102
}
330
C
100
AcDbDictionary
281
     1
  3
Model
350
22
  3
ﾚｲｱｳﾄ1
350
51
  3
ﾚｲｱｳﾄ2
350
56
  0
DICTIONARY
  5
17
102
{ACAD_REACTORS
330
C
102
}
330
C
100
AcDbDictionary
281
     1
  3
Standard
350
18
  0
DICTIONARY
  5
19
102
{ACAD_REACTORS
330
C
102
}
330
C
100
AcDbDictionary
281
     1
  0
ACDBDICTIONARYWDFLT
  5
E
102
{ACAD_REACTORS
330
C
102
}
330
C
100
AcDbDictionary
281
     1
  3
Normal
350
F
100
AcDbDictionaryWithDefault
340
F
  0
DICTIONARY
  5
5E
102
{ACAD_REACTORS
330
C
102
}
330
C
100
AcDbDictionary
281
     1
  3
DIMASSOC
350
5F
  3
HIDETEXT
350
63
  0
LAYOUT
  5
22
102
{ACAD_REACTORS
330
1A
102
}
330
1A
100
AcDbPlotSettings
  1

  2
none_device
  4
ANSI_A_(8.50_x_11.00_Inches)
  6

 40
6.349999904632567
 41
19.04999923706053
 42
6.350006103515625
 43
19.04998779296875
 44
215.8999938964842
 45
279.3999938964843
 46
0.0
 47
0.0
 48
0.0
 49
0.0
140
0.0
141
0.0
142
1.0
143
78.436453180766
 70
 11952
 72
     0
 73
     1
 74
     0
  7

 75
     0
147
0.0127491741332998
148
0.0
149
0.0
100
AcDbLayout
  1
Model
 70
     1
 71
     0
 10
0.0
 20
0.0
 11
12.0
 21
9.0
 12
0.0
 22
0.0
 32
0.0
 14
0.0
 24
0.0
 34
0.0
 15
0.0
 25
0.0
 35
0.0
146
0.0
 13
0.0
 23
0.0
 33
0.0
 16
1.0
 26
0.0
 36
0.0
 17
0.0
 27
1.0
 37
0.0
 76
     0
330
1F
  0
LAYOUT
  5
51
102
{ACAD_REACTORS
330
1A
102
}
330
1A
100
AcDbPlotSettings
  1

  2
none_device
  4
Letter_(8.50_x_11.00_Inches)
  6

 40
6.349999904632567
 41
6.349999904632567
 42
6.350006103515625
 43
6.350006103515625
 44
215.8999938964842
 45
279.3999938964843
 46
0.0
 47
0.0
 48
0.0
 49
0.0
140
0.0
141
0.0
142
1.0
143
1.0
 70
   688
 72
     1
 73
     1
 74
     5
  7

 75
    16
147
1.0
148
0.0
149
0.0
100
AcDbLayout
  1
ﾚｲｱｳﾄ1
 70
     1
 71
     1
 10
-6.350006103515625
 20
-6.349999904632567
 11
273.0499877929687
 21
209.5499939918517
 12
0.0
 22
0.0
 32
0.0
 14
26.66076962115562
 24
20.31135699206657
 34
-0.0015258207003583
 15
240.039213369355
 25
182.8886381005154
 35
0.0000000349246037
146
0.0
 13
0.0
 23
0.0
 33
0.0
 16
1.0
 26
0.0
 36
0.0
 17
0.0
 27
1.0
 37
0.0
 76
     0
330
50
331
6B
  0
LAYOUT
  5
56
102
{ACAD_REACTORS
330
1A
102
}
330
1A
100
AcDbPlotSettings
  1

  2
none_device
  4
Letter_(8.50_x_11.00_Inches)
  6

 40
6.349999904632567
 41
6.349999904632567
 42
6.350006103515625
 43
6.350006103515625
 44
215.8999938964842
 45
279.3999938964843
 46
0.0
 47
0.0
 48
0.0
 49
0.0
140
0.0
141
0.0
142
1.0
143
1.0
 70
   688
 72
     1
 73
     1
 74
     5
  7

 75
    16
147
1.0
148
0.0
149
0.0
100
AcDbLayout
  1
ﾚｲｱｳﾄ2
 70
     1
 71
     2
 10
-6.350006103515625
 20
-6.349999904632567
 11
273.0499877929687
 21
209.5499939918517
 12
0.0
 22
0.0
 32
0.0
 14
26.66076962115562
 24
20.31135699206657
 34
-0.0015258207003583
 15
240.039213369355
 25
182.8886381005154
 35
0.0000000349246037
146
0.0
 13
0.0
 23
0.0
 33
0.0
 16
1.0
 26
0.0
 36
0.0
 17
0.0
 27
1.0
 37
0.0
 76
     0
330
55
331
71
  0
MLINESTYLE
  5
18
102
{ACAD_REACTORS
330
17
102
}
330
17
100
AcDbMlineStyle
  2
STANDARD
 70
     0
  3

 62
   256
 51
90.0
 52
90.0
 71
     2
 49
0.5
 62
   256
  6
BYLAYER
 49
-0.5
 62
   256
  6
BYLAYER
  0
ACDBPLACEHOLDER
  5
F
102
{ACAD_REACTORS
330
E
102
}
330
E
  0
DICTIONARYVAR
  5
5F
102
{ACAD_REACTORS
330
5E
102
}
330
5E
100
DictionaryVariables
280
     0
  1
2
  0
DICTIONARYVAR
  5
63
102
{ACAD_REACTORS
330
5E
102
}
330
5E
100
DictionaryVariables
280
     0
  1
1
  0
ENDSEC
  0
EOF
