  0
SECTION
  2
HEADER
  9
$ACADVER
  1
AC1015
  9
$ACADMAINTVER
 70
    14
  9
$DWGCODEPAGE
  3
ANSI_932
  9
$INSBASE
 10
0.0
 20
0.0
 30
0.0
  9
$EXTMIN
 10
-287.8635324431359
 20
-139.3696226413931
 30
-0.0000000349181948
  9
$EXTMAX
 10
259.3545025534522
 20
151.3091593999847
 30
0.0000000814935747
  9
$LIMMIN
 10
0.0
 20
0.0
  9
$LIMMAX
 10
420.0
 20
297.0
  9
$ORTHOMODE
 70
     0
  9
$REGENMODE
 70
     1
  9
$FILLMODE
 70
     1
  9
$QTEXTMODE
 70
     0
  9
$MIRRTEXT
 70
     1
  9
$LTSCALE
 40
1.0
  9
$ATTMODE
 70
     1
  9
$TEXTSIZE
 40
2.5
  9
$TRACEWID
 40
1.0
  9
$TEXTSTYLE
  7
Standard
  9
$CLAYER
  8
0
  9
$CELTYPE
  6
ByLayer
  9
$CECOLOR
 62
   256
  9
$CELTSCALE
 40
1.0
  9
$DISPSILH
 70
     0
  9
$DIMSCALE
 40
1.0
  9
$DIMASZ
 40
2.5
  9
$DIMEXO
 40
0.625
  9
$DIMDLI
 40
3.75
  9
$DIMRND
 40
0.0
  9
$DIMDLE
 40
0.0
  9
$DIMEXE
 40
1.25
  9
$DIMTP
 40
0.0
  9
$DIMTM
 40
0.0
  9
$DIMTXT
 40
2.5
  9
$DIMCEN
 40
2.5
  9
$DIMTSZ
 40
0.0
  9
$DIMTOL
 70
     0
  9
$DIMLIM
 70
     0
  9
$DIMTIH
 70
     0
  9
$DIMTOH
 70
     0
  9
$DIMSE1
 70
     0
  9
$DIMSE2
 70
     0
  9
$DIMTAD
 70
     1
  9
$DIMZIN
 70
     8
  9
$DIMBLK
  1

  9
$DIMASO
 70
     1
  9
$DIMSHO
 70
     1
  9
$DIMPOST
  1

  9
$DIMAPOST
  1

  9
$DIMALT
 70
     0
  9
$DIMALTD
 70
     3
  9
$DIMALTF
 40
0.03937007874016
  9
$DIMLFAC
 40
1.0
  9
$DIMTOFL
 70
     1
  9
$DIMTVP
 40
0.0
  9
$DIMTIX
 70
     0
  9
$DIMSOXD
 70
     0
  9
$DIMSAH
 70
     0
  9
$DIMBLK1
  1

  9
$DIMBLK2
  1

  9
$DIMSTYLE
  2
ISO-25
  9
$DIMCLRD
 70
     0
  9
$DIMCLRE
 70
     0
  9
$DIMCLRT
 70
     0
  9
$DIMTFAC
 40
1.0
  9
$DIMGAP
 40
0.625
  9
$DIMJUST
 70
     0
  9
$DIMSD1
 70
     0
  9
$DIMSD2
 70
     0
  9
$DIMTOLJ
 70
     0
  9
$DIMTZIN
 70
     8
  9
$DIMALTZ
 70
     0
  9
$DIMALTTZ
 70
     0
  9
$DIMUPT
 70
     0
  9
$DIMDEC
 70
     2
  9
$DIMTDEC
 70
     2
  9
$DIMALTU
 70
     2
  9
$DIMALTTD
 70
     3
  9
$DIMTXSTY
  7
Standard
  9
$DIMAUNIT
 70
     0
  9
$DIMADEC
 70
     0
  9
$DIMALTRND
 40
0.0
  9
$DIMAZIN
 70
     0
  9
$DIMDSEP
 70
    44
  9
$DIMATFIT
 70
     3
  9
$DIMFRAC
 70
     0
  9
$DIMLDRBLK
  1

  9
$DIMLUNIT
 70
     2
  9
$DIMLWD
 70
    -2
  9
$DIMLWE
 70
    -2
  9
$DIMTMOVE
 70
     0
  9
$LUNITS
 70
     2
  9
$LUPREC
 70
     4
  9
$SKETCHINC
 40
1.0
  9
$FILLETRAD
 40
10.0
  9
$AUNITS
 70
     0
  9
$AUPREC
 70
     0
  9
$MENU
  1
.
  9
$ELEVATION
 40
0.0
  9
$PELEVATION
 40
0.0
  9
$THICKNESS
 40
0.0
  9
$LIMCHECK
 70
     0
  9
$CHAMFERA
 40
10.0
  9
$CHAMFERB
 40
10.0
  9
$CHAMFERC
 40
20.0
  9
$CHAMFERD
 40
0.0
  9
$SKPOLY
 70
     0
  9
$TDCREATE
 40
2456040.605439270
  9
$TDUCREATE
 40
2456040.230439270
  9
$TDUPDATE
 40
2456044.445665509
  9
$TDUUPDATE
 40
2456044.070665509
  9
$TDINDWG
 40
0.0024196991
  9
$TDUSRTIMER
 40
0.0024196991
  9
$USRTIMER
 70
     1
  9
$ANGBASE
 50
0.0
  9
$ANGDIR
 70
     0
  9
$PDMODE
 70
     0
  9
$PDSIZE
 40
0.0
  9
$PLINEWID
 40
0.0
  9
$SPLFRAME
 70
     0
  9
$SPLINETYPE
 70
     6
  9
$SPLINESEGS
 70
     8
  9
$HANDSEED
  5
12A0
  9
$SURFTAB1
 70
     6
  9
$SURFTAB2
 70
     6
  9
$SURFTYPE
 70
     6
  9
$SURFU
 70
     6
  9
$SURFV
 70
     6
  9
$UCSBASE
  2

  9
$UCSNAME
  2

  9
$UCSORG
 10
0.0
 20
0.0
 30
0.0
  9
$UCSXDIR
 10
1.0
 20
0.0
 30
0.0
  9
$UCSYDIR
 10
0.0
 20
1.0
 30
0.0
  9
$UCSORTHOREF
  2

  9
$UCSORTHOVIEW
 70
     0
  9
$UCSORGTOP
 10
0.0
 20
0.0
 30
0.0
  9
$UCSORGBOTTOM
 10
0.0
 20
0.0
 30
0.0
  9
$UCSORGLEFT
 10
0.0
 20
0.0
 30
0.0
  9
$UCSORGRIGHT
 10
0.0
 20
0.0
 30
0.0
  9
$UCSORGFRONT
 10
0.0
 20
0.0
 30
0.0
  9
$UCSORGBACK
 10
0.0
 20
0.0
 30
0.0
  9
$PUCSBASE
  2

  9
$PUCSNAME
  2

  9
$PUCSORG
 10
0.0
 20
0.0
 30
0.0
  9
$PUCSXDIR
 10
1.0
 20
0.0
 30
0.0
  9
$PUCSYDIR
 10
0.0
 20
1.0
 30
0.0
  9
$PUCSORTHOREF
  2

  9
$PUCSORTHOVIEW
 70
     0
  9
$PUCSORGTOP
 10
0.0
 20
0.0
 30
0.0
  9
$PUCSORGBOTTOM
 10
0.0
 20
0.0
 30
0.0
  9
$PUCSORGLEFT
 10
0.0
 20
0.0
 30
0.0
  9
$PUCSORGRIGHT
 10
0.0
 20
0.0
 30
0.0
  9
$PUCSORGFRONT
 10
0.0
 20
0.0
 30
0.0
  9
$PUCSORGBACK
 10
0.0
 20
0.0
 30
0.0
  9
$USERI1
 70
     0
  9
$USERI2
 70
     0
  9
$USERI3
 70
     0
  9
$USERI4
 70
     0
  9
$USERI5
 70
     0
  9
$USERR1
 40
0.0
  9
$USERR2
 40
0.0
  9
$USERR3
 40
0.0
  9
$USERR4
 40
0.0
  9
$USERR5
 40
0.0
  9
$WORLDVIEW
 70
     1
  9
$SHADEDGE
 70
     3
  9
$SHADEDIF
 70
    70
  9
$TILEMODE
 70
     1
  9
$MAXACTVP
 70
    64
  9
$PINSBASE
 10
0.0
 20
0.0
 30
0.0
  9
$PLIMCHECK
 70
     0
  9
$PEXTMIN
 10
26.66076962115562
 20
20.31135699206657
 30
-0.0015258207003583
  9
$PEXTMAX
 10
240.039213369355
 20
182.8886381005154
 30
0.0000000349246037
  9
$PLIMMIN
 10
-6.350006103515625
 20
-6.349999904632567
  9
$PLIMMAX
 10
273.0499877929687
 20
209.5499939918517
  9
$UNITMODE
 70
     0
  9
$VISRETAIN
 70
     1
  9
$PLINEGEN
 70
     0
  9
$PSLTSCALE
 70
     1
  9
$TREEDEPTH
 70
  3020
  9
$CMLSTYLE
  2
Standard
  9
$CMLJUST
 70
     0
  9
$CMLSCALE
 40
20.0
  9
$PROXYGRAPHICS
 70
     1
  9
$MEASUREMENT
 70
     1
  9
$CELWEIGHT
370
    -1
  9
$ENDCAPS
280
     0
  9
$JOINSTYLE
280
     0
  9
$LWDISPLAY
290
     0
  9
$INSUNITS
 70
     4
  9
$HYPERLINKBASE
  1

  9
$STYLESHEET
  1

  9
$XEDIT
290
     1
  9
$CEPSNTYPE
380
     0
  9
$PSTYLEMODE
290
     1
  9
$FINGERPRINTGUID
  2
{FDEAD578-A652-11D2-9A35-0060089B3A3F}
  9
$VERSIONGUID
  2
{8384333E-0DB0-40FC-ADFA-247A71063073}
  9
$EXTNAMES
290
     1
  9
$PSVPSCALE
 40
0.0
  9
$OLESTARTUP
290
     0
  0
ENDSEC
  0
SECTION
  2
CLASSES
  0
CLASS
  1
ACDBDICTIONARYWDFLT
  2
AcDbDictionaryWithDefault
  3
AutoCAD 2000
 90
        0
280
     0
281
     0
  0
CLASS
  1
ACDBPLACEHOLDER
  2
AcDbPlaceHolder
  3
AutoCAD 2000
 90
        0
280
     0
281
     0
  0
CLASS
  1
LAYOUT
  2
AcDbLayout
  3
AutoCAD 2000
 90
        0
280
     0
281
     0
  0
CLASS
  1
DICTIONARYVAR
  2
AcDbDictionaryVar
  3
AutoCAD 2000
 90
        0
280
     0
281
     0
  0
ENDSEC
  0
SECTION
  2
TABLES
  0
TABLE
  2
VPORT
  5
8
330
0
100
AcDbSymbolTable
 70
     2
  0
VPORT
  5
129F
330
8
100
AcDbSymbolTableRecord
100
AcDbViewportTableRecord
  2
*Active
 70
     0
 10
0.0
 20
0.0
 11
1.0
 21
1.0
 12
-14.25451494484186
 22
5.969768379295828
 13
0.0
 23
0.0
 14
10.0
 24
10.0
 15
10.0
 25
10.0
 16
0.0
 26
0.0
 36
1.0
 17
0.0
 27
0.0
 37
0.0
 40
292.818748534934
 41
1.97051597051597
 42
50.0
 43
0.0
 44
0.0
 50
0.0
 51
0.0
 71
     0
 72
   100
 73
     1
 74
     3
 75
     0
 76
     0
 77
     0
 78
     0
281
     0
 65
     1
110
0.0
120
0.0
130
0.0
111
1.0
121
0.0
131
0.0
112
0.0
122
1.0
132
0.0
 79
     0
146
0.0
  0
ENDTAB
  0
TABLE
  2
LTYPE
  5
5
330
0
100
AcDbSymbolTable
 70
     4
  0
LTYPE
  5
14
330
5
100
AcDbSymbolTableRecord
100
AcDbLinetypeTableRecord
  2
ByBlock
 70
     0
  3

 72
    65
 73
     0
 40
0.0
  0
LTYPE
  5
15
330
5
100
AcDbSymbolTableRecord
100
AcDbLinetypeTableRecord
  2
ByLayer
 70
     0
  3

 72
    65
 73
     0
 40
0.0
  0
LTYPE
  5
16
330
5
100
AcDbSymbolTableRecord
100
AcDbLinetypeTableRecord
  2
Continuous
 70
     0
  3
Solid line
 72
    65
 73
     0
 40
0.0
  0
LTYPE
  5
98C
330
5
100
AcDbSymbolTableRecord
100
AcDbLinetypeTableRecord
  2
DASHED
 70
     0
  3
Dashed
 72
    65
 73
     2
 40
15.0
 49
7.0
 74
     0
 49
-8.0
 74
     0
  0
LTYPE
  5
98D
330
5
100
AcDbSymbolTableRecord
100
AcDbLinetypeTableRecord
  2
DASH_CENTER
 70
     0
  3
Dash_Center
 72
    65
 73
     4
 40
14.0
 49
11.0
 74
     0
 49
-1.0
 74
     0
 49
1.0
 74
     0
 49
-1.0
 74
     0
  0
LTYPE
  5
98E
330
5
100
AcDbSymbolTableRecord
100
AcDbLinetypeTableRecord
  2
PHANTOM
 70
     0
  3
Phantom
 72
    65
 73
     6
 40
13.0
 49
10.0
 74
     0
 49
-1.0
 74
     0
 49
0.0
 74
     0
 49
-1.0
 74
     0
 49
0.0
 74
     0
 49
-1.0
 74
     0
  0
ENDTAB
  0
TABLE
  2
LAYER
  5
2
330
0
100
AcDbSymbolTable
 70
     1
  0
LAYER
  5
10
330
2
100
AcDbSymbolTableRecord
100
AcDbLayerTableRecord
  2
0
 70
     0
 62
     7
  6
Continuous
370
    -3
390
F
  0
ENDTAB
  0
TABLE
  2
STYLE
  5
3
330
0
100
AcDbSymbolTable
 70
    20
  0
STYLE
  5
11
330
3
100
AcDbSymbolTableRecord
100
AcDbTextStyleTableRecord
  2
Standard
 70
     0
 40
0.0
 41
1.0
 50
0.0
 71
     0
 42
2.5
  3
txt
  4

  0
STYLE
  5
98F
330
3
100
AcDbSymbolTableRecord
100
AcDbTextStyleTableRecord
  2
CONVERTER_1
 70
     0
 40
0.0
 41
0.89
 50
0.0
 71
     0
 42
0.2
  3
simplex.shx
  4
bigfont.shx
  0
STYLE
  5
990
330
3
100
AcDbSymbolTableRecord
100
AcDbTextStyleTableRecord
  2
CONVERTER_2
 70
     0
 40
0.0
 41
0.7565
 50
0.0
 71
     0
 42
0.2
  3
simplex.shx
  4
bigfont.shx
  0
STYLE
  5
991
330
3
100
AcDbSymbolTableRecord
100
AcDbTextStyleTableRecord
  2
CONVERTER_3
 70
     0
 40
0.0
 41
0.7565
 50
0.0
 71
     0
 42
0.2
  3
simplex.shx
  4
bigfont.shx
  0
STYLE
  5
992
330
3
100
AcDbSymbolTableRecord
100
AcDbTextStyleTableRecord
  2
CONVERTER_4
 70
     0
 40
0.0
 41
0.7120000000000001
 50
0.0
 71
     0
 42
0.2
  3
simplex.shx
  4
bigfont.shx
  0
STYLE
  5
993
330
3
100
AcDbSymbolTableRecord
100
AcDbTextStyleTableRecord
  2
CONVERTER_5
 70
     0
 40
0.0
 41
0.7120000000000001
 50
0.0
 71
     0
 42
0.2
  3
simplex.shx
  4
bigfont.shx
  0
STYLE
  5
994
330
3
100
AcDbSymbolTableRecord
100
AcDbTextStyleTableRecord
  2
CONVERTER_6
 70
     0
 40
0.0
 41
1.008666666666669
 50
0.0
 71
     0
 42
0.2
  3
txt.shx
  4
bigfont.shx
  0
STYLE
  5
995
330
3
100
AcDbSymbolTableRecord
100
AcDbTextStyleTableRecord
  2
CONVERTER_7
 70
     0
 40
0.0
 41
0.9761290322580599
 50
0.0
 71
     0
 42
0.2
  3
txt.shx
  4
bigfont.shx
  0
STYLE
  5
996
330
3
100
AcDbSymbolTableRecord
100
AcDbTextStyleTableRecord
  2
CONVERTER_9
 70
     0
 40
0.0
 41
1.0235
 50
0.0
 71
     0
 42
0.2
  3
simplex.shx
  4
bigfont.shx
  0
STYLE
  5
997
330
3
100
AcDbSymbolTableRecord
100
AcDbTextStyleTableRecord
  2
CONVERTER_12
 70
     0
 40
0.0
 41
0.7758974358974399
 50
0.0
 71
     0
 42
0.2
  3
txt.shx
  4
bigfont.shx
  0
STYLE
  5
998
330
3
100
AcDbSymbolTableRecord
100
AcDbTextStyleTableRecord
  2
CONVERTER_13
 70
     0
 40
0.0
 41
0.6230000000000003
 50
0.0
 71
     0
 42
0.2
  3
simplex.shx
  4
bigfont.shx
  0
STYLE
  5
999
330
3
100
AcDbSymbolTableRecord
100
AcDbTextStyleTableRecord
  2
CONVERTER_14
 70
     0
 40
0.0
 41
1.68111111111111
 50
0.0
 71
     0
 42
0.2
  3
txt.shx
  4
bigfont.shx
  0
STYLE
  5
99A
330
3
100
AcDbSymbolTableRecord
100
AcDbTextStyleTableRecord
  2
CONVERTER_15
 70
     0
 40
0.0
 41
1.62688172043011
 50
0.0
 71
     0
 42
0.2
  3
txt.shx
  4
bigfont.shx
  0
STYLE
  5
99B
330
3
100
AcDbSymbolTableRecord
100
AcDbTextStyleTableRecord
  2
CONVERTER_16
 70
     0
 40
0.0
 41
0.73514
 50
0.0
 71
     0
 42
0.2
  3
simplex.shx
  4
bigfont.shx
  0
STYLE
  5
99C
330
3
100
AcDbSymbolTableRecord
100
AcDbTextStyleTableRecord
  2
CONVERTER_17
 70
     0
 40
0.0
 41
0.945625
 50
0.0
 71
     0
 42
0.2
  3
txt.shx
  4
bigfont.shx
  0
STYLE
  5
99D
330
3
100
AcDbSymbolTableRecord
100
AcDbTextStyleTableRecord
  2
CONVERTER_18
 70
     0
 40
0.0
 41
1.080714285714289
 50
0.0
 71
     0
 42
0.2
  3
txt.shx
  4
bigfont.shx
  0
STYLE
  5
99E
330
3
100
AcDbSymbolTableRecord
100
AcDbTextStyleTableRecord
  2
CONVERTER_19
 70
     0
 40
0.0
 41
1.87368421052632
 50
0.0
 71
     0
 42
0.2
  3
txt.shx
  4

  0
STYLE
  5
99F
330
3
100
AcDbSymbolTableRecord
100
AcDbTextStyleTableRecord
  2
CONVERTER_20
 70
     0
 40
0.0
 41
0.8009999999999999
 50
0.0
 71
     0
 42
0.2
  3
simplex.shx
  4
bigfont.shx
  0
STYLE
  5
9A0
330
3
100
AcDbSymbolTableRecord
100
AcDbTextStyleTableRecord
  2
CONVERTER_21
 70
     0
 40
0.0
 41
0.8009999999999999
 50
0.0
 71
     0
 42
0.2
  3
txt.shx
  4
bigfont.shx
  0
STYLE
  5
9A1
330
3
100
AcDbSymbolTableRecord
100
AcDbTextStyleTableRecord
  2
社名
 70
     0
 40
2.5
 41
0.8
 50
0.0
 71
     0
 42
2.5
  3

  4

1001
ACAD
1000
Swis721 Blk BT
1071
       34
  0
ENDTAB
  0
TABLE
  2
VIEW
  5
6
330
0
100
AcDbSymbolTable
 70
     0
  0
ENDTAB
  0
TABLE
  2
UCS
  5
7
330
0
100
AcDbSymbolTable
 70
     0
  0
ENDTAB
  0
TABLE
  2
APPID
  5
9
330
0
100
AcDbSymbolTable
 70
     1
  0
APPID
  5
12
330
9
100
AcDbSymbolTableRecord
100
AcDbRegAppTableRecord
  2
ACAD
 70
     0
  0
ENDTAB
  0
TABLE
  2
DIMSTYLE
  5
A
330
0
100
AcDbSymbolTable
 70
     2
100
AcDbDimStyleTable
 71
     0
  0
DIMSTYLE
105
27
330
A
100
AcDbSymbolTableRecord
100
AcDbDimStyleTableRecord
  2
ISO-25
 70
     0
 41
2.5
 42
0.625
 43
3.75
 44
1.25
 73
     0
 74
     0
 77
     1
 78
     8
140
2.5
141
2.5
143
0.03937007874016
147
0.625
171
     3
172
     1
271
     2
272
     2
274
     3
278
    44
283
     0
284
     8
340
11
  0
DIMSTYLE
105
9A2
330
A
100
AcDbSymbolTableRecord
100
AcDbDimStyleTableRecord
  2
Standard
 70
     0
340
11
  0
ENDTAB
  0
TABLE
  2
BLOCK_RECORD
  5
1
330
0
100
AcDbSymbolTable
 70
     1
  0
BLOCK_RECORD
  5
1F
330
1
100
AcDbSymbolTableRecord
100
AcDbBlockTableRecord
  2
*Model_Space
340
22
  0
BLOCK_RECORD
  5
55
330
1
100
AcDbSymbolTableRecord
100
AcDbBlockTableRecord
  2
*Paper_Space
340
56
  0
BLOCK_RECORD
  5
50
330
1
100
AcDbSymbolTableRecord
100
AcDbBlockTableRecord
  2
*Paper_Space0
340
51
  0
ENDTAB
  0
ENDSEC
  0
SECTION
  2
BLOCKS
  0
BLOCK
  5
20
330
1F
100
AcDbEntity
  8
0
100
AcDbBlockBegin
  2
*Model_Space
 70
     0
 10
0.0
 20
0.0
 30
0.0
  3
*Model_Space
  1

  0
ENDBLK
  5
21
330
1F
100
AcDbEntity
  8
0
100
AcDbBlockEnd
  0
BLOCK
  5
57
330
55
100
AcDbEntity
 67
     1
  8
0
100
AcDbBlockBegin
  2
*Paper_Space
 70
     0
 10
0.0
 20
0.0
 30
0.0
  3
*Paper_Space
  1

  0
ENDBLK
  5
58
330
55
100
AcDbEntity
 67
     1
  8
0
100
AcDbBlockEnd
  0
BLOCK
  5
52
330
50
100
AcDbEntity
  8
0
100
AcDbBlockBegin
  2
*Paper_Space0
 70
     0
 10
0.0
 20
0.0
 30
0.0
  3
*Paper_Space0
  1

  0
VIEWPORT
  5
6B
330
50
100
AcDbEntity
  8
0
100
AcDbViewport
 10
133.3499908447265
 20
101.5999970436096
 30
0.0
 40
381.3957395593833
 41
218.2856291881582
 69
     0
 12
133.3499908447265
 22
101.5999970436096
 13
0.0
 23
0.0
 14
10.0
 24
10.0
 15
10.0
 25
10.0
 16
0.0
 26
0.0
 36
1.0
 17
0.0
 27
0.0
 37
0.0
 42
50.0
 43
0.0
 44
0.0
 45
218.2856291881582
 50
0.0
 51
0.0
 72
   100
 90
    32800
  1

281
     0
 71
     1
 74
     0
110
0.0
120
0.0
130
0.0
111
1.0
121
0.0
131
0.0
112
0.0
122
1.0
132
0.0
 79
     0
146
0.0
  0
VIEWPORT
  5
6D
330
50
100
AcDbEntity
  8
0
100
AcDbViewport
 10
133.3499939441679
 20
101.5999939441679
 30
0.0
 40
213.3599903106689
 41
162.5599903106689
 69
     0
 12
210.0
 22
148.5
 13
0.0
 23
0.0
 14
10.0
 24
10.0
 15
10.0
 25
10.0
 16
0.0
 26
0.0
 36
1.0
 17
0.0
 27
0.0
 37
0.0
 42
50.0
 43
0.0
 44
0.0
 45
324.0677920111345
 50
0.0
 51
0.0
 72
   100
 90
    32864
  1

281
     0
 71
     1
 74
     0
110
0.0
120
0.0
130
0.0
111
1.0
121
0.0
131
0.0
112
0.0
122
1.0
132
0.0
 79
     0
146
0.0
  0
ENDBLK
  5
53
330
50
100
AcDbEntity
  8
0
100
AcDbBlockEnd
  0
ENDSEC
  0
SECTION
  2
ENTITIES
  0
LINE
  5
E46
330
1F
100
AcDbEntity
  8
0
  6
Continuous
 62
     7
100
AcDbLine
 10
-263.0248
 20
80.9637
 30
0.0
 11
-263.0248
 21
18.08709999999998
 31
0.0
  0
ARC
  5
E47
330
1F
100
AcDbEntity
  8
0
  6
Continuous
 62
     7
100
AcDbCircle
 10
-199.4391999999999
 20
27.68705
 30
0.0
 40
0.5000305615659899
100
AcDbArc
 50
315.0040511758059
 51
44.99594882419404
  0
ARC
  5
E48
330
1F
100
AcDbEntity
  8
0
  6
Continuous
 62
     7
100
AcDbCircle
 10
-196.6107
 20
27.68705
 30
0.0
 40
0.5000305615659924
100
AcDbArc
 50
135.0040511758058
 51
224.9959488241939
  0
LINE
  5
E49
330
1F
100
AcDbEntity
  8
0
  6
Continuous
 62
     7
100
AcDbLine
 10
-136.0248
 20
133.2869999999998
 30
0.0
 11
-136.0248
 21
19.4371
 31
0.0
  0
LINE
  5
E4A
330
1F
100
AcDbEntity
  8
0
  6
Continuous
 62
     7
100
AcDbLine
 10
-133.725
 20
133.1870999999999
 30
0.0
 11
-133.725
 21
18.1871
 31
0.0
  0
LINE
  5
E4B
330
1F
100
AcDbEntity
  8
0
  6
DASH_CENTER
 62
    30
100
AcDbLine
 10
-198.025
 20
-1.529799999999994
 30
0.0
 11
-198.025
 21
75.6871
 31
0.0
  0
LINE
  5
E4C
330
1F
100
AcDbEntity
  8
0
  6
Continuous
 62
     7
100
AcDbLine
 10
-265.3245999999999
 20
133.1870999999999
 30
0.0
 11
-265.3245999999999
 21
18.1871
 31
0.0
  0
CIRCLE
  5
E4E
330
1F
100
AcDbEntity
  8
0
  6
Continuous
 62
     7
100
AcDbCircle
 10
-198.0248999999999
 20
27.6871
 30
0.0
 40
5.0
  0
CIRCLE
  5
E4F
330
1F
100
AcDbEntity
  8
0
  6
Continuous
 62
     7
100
AcDbCircle
 10
-198.0248999999999
 20
27.6871
 30
0.0
 40
3.500037145517167
  0
ARC
  5
E50
330
1F
100
AcDbEntity
  8
0
  6
Continuous
 62
     7
100
AcDbCircle
 10
-213.5700257386952
 20
26.68707762358289
 30
0.0
 40
8.000022376458508
100
AcDbArc
 50
89.99981566068994
 51
172.0055366452111
  0
ARC
  5
E51
330
1F
100
AcDbEntity
  8
0
  6
Continuous
 62
     7
100
AcDbCircle
 10
-182.4799232163788
 20
26.68712018355579
 30
0.0
 40
7.999979816477883
100
AcDbArc
 50
7.99492158605257
 51
89.99983372451605
  0
ARC
  5
E52
330
1F
100
AcDbEntity
  8
0
  6
Continuous
 62
     7
100
AcDbCircle
 10
-228.5320088930958
 20
32.1811934613239
 30
0.0
 40
7.999982026222197
100
AcDbArc
 50
267.8015099700306
 51
344.8490902224393
  0
ARC
  5
E53
330
1F
100
AcDbEntity
  8
0
  6
Continuous
 62
     7
100
AcDbCircle
 10
-167.5179535358333
 20
32.18123936189658
 30
0.0
 40
8.000030288104181
100
AcDbArc
 50
195.151156760427
 51
272.1989242025874
  0
LINE
  5
E9A
330
1F
100
AcDbEntity
  8
0
  6
Continuous
 62
     7
100
AcDbLine
 10
-148.0248999999999
 20
15.8871
 30
0.0
 11
-163.0248999999999
 21
15.8871
 31
0.0
  0
LINE
  5
E9B
330
1F
100
AcDbEntity
  8
0
  6
Continuous
 62
     7
100
AcDbLine
 10
-166.0248999999999
 20
12.6871
 30
0.0
 11
-148.0248999999999
 21
12.6871
 31
0.0
  0
LINE
  5
E9C
330
1F
100
AcDbEntity
  8
0
  6
Continuous
 62
     7
100
AcDbLine
 10
-248.0248
 20
16.887
 30
0.0
 11
-148.0248999999999
 21
16.8871
 31
0.0
  0
ARC
  5
E9D
330
1F
100
AcDbEntity
  8
0
  6
Continuous
 62
     7
100
AcDbCircle
 10
-160.1020536255838
 20
19.18714372845757
 30
0.0
 40
4.999956271830003
100
AcDbArc
 50
11.61024146763943
 51
89.99938549070064
  0
LINE
  5
EA4
330
1F
100
AcDbEntity
  8
0
  6
Continuous
 62
     7
100
AcDbLine
 10
-222.4203999999999
 20
21.19169999999998
 30
0.0
 11
-221.4922999999999
 21
27.7998
 31
0.0
  0
LINE
  5
EA5
330
1F
100
AcDbEntity
  8
0
  6
Continuous
 62
     7
100
AcDbLine
 10
-230.0248999999999
 20
13.6871
 30
0.0
 11
-166.0248999999999
 21
13.6871
 31
0.0
  0
ARC
  5
EA6
330
1F
100
AcDbEntity
  8
0
  6
Continuous
 62
     7
100
AcDbCircle
 10
-227.3717952717641
 20
21.88710411049215
 30
0.0
 40
5.000004110494396
100
AcDbArc
 50
269.9999458184537
 51
352.0041885672972
  0
LINE
  5
EAF
330
1F
100
AcDbEntity
  8
0
  6
Continuous
 62
     7
100
AcDbLine
 10
-241.5710999999999
 20
18.08709999999998
 30
0.0
 11
-263.0248
 21
18.08709999999998
 31
0.0
  0
LINE
  5
EB1
330
1F
100
AcDbEntity
  8
0
  6
Continuous
 62
     7
100
AcDbLine
 10
-265.3245999999999
 20
18.1871
 30
0.0
 11
-263.0248
 21
18.1871
 31
0.0
  0
LINE
  5
EBA
330
1F
100
AcDbEntity
  8
0
  6
Continuous
 62
     7
100
AcDbLine
 10
-248.0248
 20
12.6871
 30
0.0
 11
-230.0248999999999
 21
12.6871
 31
0.0
  0
LINE
  5
EBB
330
1F
100
AcDbEntity
  8
0
  6
Continuous
 62
     7
100
AcDbLine
 10
-233.0248999999999
 20
15.8871
 30
0.0
 11
-248.0248
 21
15.887
 31
0.0
  0
ARC
  5
EBC
330
1F
100
AcDbEntity
  8
0
  6
Continuous
 62
     7
100
AcDbCircle
 10
-235.9479064371284
 20
19.18709475101381
 30
0.0
 40
5.000005248990335
100
AcDbArc
 50
89.99992623601889
 51
168.3893008790081
  0
LINE
  5
EBD
330
1F
100
AcDbEntity
  8
0
  6
Continuous
 62
    30
100
AcDbLine
 10
-238.025
 20
19.9394
 30
0.0
 11
-238.025
 21
5.457099999999996
 31
0.0
  0
LINE
  5
EBF
330
1F
100
AcDbEntity
  8
0
  6
Continuous
 62
     7
100
AcDbLine
 10
-248.0248
 20
16.887
 30
0.0
 11
-248.0248
 21
12.6871
 31
0.0
  0
LINE
  5
EC0
330
1F
100
AcDbEntity
  8
0
  6
Continuous
 62
     7
100
AcDbLine
 10
-240.8455999999999
 20
20.19339999999999
 30
0.0
 11
-241.0325999999999
 21
19.2832
 31
0.0
  0
ARC
  5
EC1
330
1F
100
AcDbEntity
  8
0
  6
Continuous
 62
     7
100
AcDbCircle
 10
-243.971105682149
 20
19.88699536664876
 30
0.0
 40
2.999995366654133
100
AcDbArc
 50
270.0001085212243
 51
348.3890321315708
  0
LINE
  5
EC3
330
1F
100
AcDbEntity
  8
0
  6
Continuous
 62
     7
100
AcDbLine
 10
-235.9478999999999
 20
24.1871
 30
0.0
 11
-228.9546
 21
24.1871
 31
0.0
  0
ARC
  5
EC4
330
1F
100
AcDbEntity
  8
0
  6
Continuous
 62
     7
100
AcDbCircle
 10
-229.7082886377254
 20
13.88710342588028
 30
0.0
 40
2.999996574141236
100
AcDbArc
 50
90.00021700370636
 51
123.5573294902926
  0
LINE
  5
EC5
330
1F
100
AcDbEntity
  8
0
  6
Continuous
 62
     7
100
AcDbLine
 10
-230.0248999999999
 20
13.6871
 30
0.0
 11
-230.0248999999999
 21
12.6871
 31
0.0
  0
ARC
  5
EC6
330
1F
100
AcDbEntity
  8
0
  6
Continuous
 62
     7
100
AcDbCircle
 10
-233.0249113622745
 20
18.8870965741197
 30
0.0
 40
2.999996574141236
100
AcDbArc
 50
270.0002170037063
 51
303.5573294902927
  0
LINE
  5
ECB
330
1F
100
AcDbEntity
  8
0
  6
DASH_CENTER
 62
    30
100
AcDbLine
 10
-205.0248999999999
 20
27.6871
 30
0.0
 11
-190.4349
 21
27.6871
 31
0.0
  0
LINE
  5
ED4
330
1F
100
AcDbEntity
  8
0
  6
Continuous
 62
     7
100
AcDbLine
 10
-198.3785
 20
26.6264
 30
0.0
 11
-199.1915999999999
 21
25.81329999999999
 31
0.0
  0
LINE
  5
ED5
330
1F
100
AcDbEntity
  8
0
  6
Continuous
 62
     7
100
AcDbLine
 10
-199.1915999999999
 20
25.81329999999999
 30
0.0
 11
-199.8986999999999
 21
26.52039999999999
 31
0.0
  0
LINE
  5
ED6
330
1F
100
AcDbEntity
  8
0
  6
Continuous
 62
     7
100
AcDbLine
 10
-199.0855999999999
 20
27.3335
 30
0.0
 11
-199.8986999999999
 21
26.52039999999999
 31
0.0
  0
LINE
  5
ED8
330
1F
100
AcDbEntity
  8
0
  6
Continuous
 62
     7
100
AcDbLine
 10
-196.1511999999999
 20
26.52039999999999
 30
0.0
 11
-196.8583
 21
25.81329999999999
 31
0.0
  0
LINE
  5
ED9
330
1F
100
AcDbEntity
  8
0
  6
Continuous
 62
     7
100
AcDbLine
 10
-196.1511999999999
 20
26.52039999999999
 30
0.0
 11
-196.9642999999999
 21
27.3335
 31
0.0
  0
LINE
  5
EDA
330
1F
100
AcDbEntity
  8
0
  6
Continuous
 62
     7
100
AcDbLine
 10
-196.8583
 20
25.81329999999999
 30
0.0
 11
-197.6714
 21
26.6264
 31
0.0
  0
ARC
  5
EDB
330
1F
100
AcDbEntity
  8
0
  6
Continuous
 62
     7
100
AcDbCircle
 10
-198.0249499999999
 20
26.2728
 30
0.0
 40
0.5000305615659797
100
AcDbArc
 50
45.00405117580654
 51
134.9959488241951
  0
LINE
  5
F74
330
1F
100
AcDbEntity
  8
0
  6
Continuous
 62
     7
100
AcDbLine
 10
-174.5575999999999
 20
27.7998
 30
0.0
 11
-173.6294999999999
 21
21.19169999999998
 31
0.0
  0
ARC
  5
F75
330
1F
100
AcDbEntity
  8
0
  6
Continuous
 62
     7
100
AcDbCircle
 10
-168.6780967286623
 20
21.88709715599623
 30
0.0
 40
4.999997155997332
100
AcDbArc
 50
187.9945849876975
 51
269.9999625132094
  0
LINE
  5
F76
330
1F
100
AcDbEntity
  8
0
  6
Continuous
 62
     7
100
AcDbLine
 10
-166.0248999999999
 20
13.6871
 30
0.0
 11
-166.0248999999999
 21
12.6871
 31
0.0
  0
LINE
  5
F77
330
1F
100
AcDbEntity
  8
0
  6
Continuous
 62
     7
100
AcDbLine
 10
-160.102
 20
24.1871
 30
0.0
 11
-167.0953
 21
24.1871
 31
0.0
  0
ARC
  5
F78
330
1F
100
AcDbEntity
  8
0
  6
Continuous
 62
     7
100
AcDbCircle
 10
-163.0249803030064
 20
18.88712421098841
 30
0.0
 40
3.000024212063167
100
AcDbArc
 50
236.4428296238512
 51
270.001533662072
  0
ARC
  5
F79
330
1F
100
AcDbEntity
  8
0
  6
Continuous
 62
     7
100
AcDbCircle
 10
-166.3416113622743
 20
13.88710342588028
 30
0.0
 40
2.999996574141236
100
AcDbArc
 50
56.44267050970722
 51
89.99978299629367
  0
LINE
  5
F88
330
1F
100
AcDbEntity
  8
0
  6
Continuous
 62
     7
100
AcDbLine
 10
-136.025
 20
18.08709999999998
 30
0.0
 11
-154.4786999999999
 21
18.08709999999998
 31
0.0
  0
LINE
  5
F89
330
1F
100
AcDbEntity
  8
0
  6
Continuous
 62
    30
100
AcDbLine
 10
-158.025
 20
19.89549999999998
 30
0.0
 11
-158.025
 21
5.369299999999995
 31
0.0
  0
LINE
  5
F8B
330
1F
100
AcDbEntity
  8
0
  6
Continuous
 62
     7
100
AcDbLine
 10
-155.2043999999999
 20
20.1935
 30
0.0
 11
-155.0173
 21
19.2832
 31
0.0
  0
ARC
  5
F8C
330
1F
100
AcDbEntity
  8
0
  6
Continuous
 62
     7
100
AcDbCircle
 10
-152.0787066603959
 20
19.88710543080871
 30
0.0
 40
3.000005430816111
100
AcDbArc
 50
191.6130743633573
 51
270.00012720396
  0
LINE
  5
F8D
330
1F
100
AcDbEntity
  8
0
  6
Continuous
 62
     7
100
AcDbLine
 10
-148.0248999999999
 20
16.8871
 30
0.0
 11
-148.0248999999999
 21
12.6871
 31
0.0
  0
LINE
  5
F8F
330
1F
100
AcDbEntity
  8
0
  6
Continuous
 62
     7
100
AcDbLine
 10
-136.0248
 20
19.4371
 30
0.0
 11
-136.0248
 21
18.1871
 31
0.0
  0
LINE
  5
F90
330
1F
100
AcDbEntity
  8
0
  6
Continuous
 62
     7
100
AcDbLine
 10
-133.725
 20
18.1871
 30
0.0
 11
-136.0248
 21
18.1871
 31
0.0
  0
LINE
  5
F94
330
1F
100
AcDbEntity
  8
0
  6
DASH_CENTER
 62
    30
100
AcDbLine
 10
-83.17550000000002
 20
75.68699999999998
 30
0.0
 11
-287.8261
 21
75.68699999999998
 31
0.0
  0
LINE
  5
F9C
330
1F
100
AcDbEntity
  8
0
  6
Continuous
 62
     7
100
AcDbLine
 10
-263.0248
 20
133.2869999999998
 30
0.0
 11
-136.0248
 21
133.2871
 31
0.0
  0
LINE
  5
F9F
330
1F
100
AcDbEntity
  8
0
  6
DASHED
 62
   171
100
AcDbLine
 10
-166.5248999999999
 20
99.66500000000001
 30
0.0
 11
-229.5244999999999
 21
99.66500000000001
 31
0.0
  0
LINE
  5
FA0
330
1F
100
AcDbEntity
  8
0
  6
DASHED
 62
   171
100
AcDbLine
 10
-229.5244999999999
 20
127.9492
 30
0.0
 11
-166.5244999999998
 21
127.9492
 31
0.0
  0
LINE
  5
FA2
330
1F
100
AcDbEntity
  8
0
  6
Continuous
 62
     7
100
AcDbLine
 10
-263.0248
 20
133.2869999999998
 30
0.0
 11
-263.0248
 21
100.0953999999999
 31
0.0
  0
LINE
  5
FA3
330
1F
100
AcDbEntity
  8
0
  6
DASHED
 62
   171
100
AcDbLine
 10
-229.5244999999999
 20
127.9492
 30
0.0
 11
-229.5244999999999
 21
99.66500000000001
 31
0.0
  0
LINE
  5
FA4
330
1F
100
AcDbEntity
  8
0
  6
Continuous
 62
     7
100
AcDbLine
 10
-243.7748
 20
81.50109999999996
 30
0.0
 11
-261.2748
 21
81.50109999999996
 31
0.0
  0
LINE
  5
FA5
330
1F
100
AcDbEntity
  8
0
  6
Continuous
 62
     7
100
AcDbLine
 10
-236.0286
 20
101.1271999999999
 30
0.0
 11
-261.2749999999999
 21
101.1271
 31
0.0
  0
LINE
  5
FA6
330
1F
100
AcDbEntity
  8
0
  6
Continuous
 62
     7
100
AcDbLine
 10
-261.2748
 20
79.9319
 30
0.0
 11
-243.7748
 21
79.9319
 31
0.0
  0
LINE
  5
FA7
330
1F
100
AcDbEntity
  8
0
  6
Continuous
 62
     7
100
AcDbLine
 10
-275.4246999999999
 20
92.9198
 30
0.0
 11
-275.4246999999999
 21
57.63709999999999
 31
0.0
  0
ARC
  5
FA8
330
1F
100
AcDbEntity
  8
0
  6
Continuous
 62
     7
100
AcDbCircle
 10
-157.7249926298196
 20
75.68699256098395
 30
0.0
 40
120.0000073701807
100
AcDbArc
 50
179.9999964481315
 51
187.8485435536451
  0
LINE
  5
FA9
330
1F
100
AcDbEntity
  8
0
  6
Continuous
 62
     7
100
AcDbLine
 10
-268.5248
 20
40.9174
 30
0.0
 11
-269.3749
 21
40.9174
 31
0.0
  0
LINE
  5
FAA
330
1F
100
AcDbEntity
  8
0
  6
DASH_CENTER
 62
    40
100
AcDbLine
 10
-269.725
 20
37.2675
 30
0.0
 11
-268.5248
 21
37.2675
 31
0.0
  0
LINE
  5
FAB
330
1F
100
AcDbEntity
  8
0
  6
Continuous
 62
     7
100
AcDbLine
 10
-269.3749
 20
36.9177
 30
0.0
 11
-268.5248
 21
36.9177
 31
0.0
  0
LINE
  5
FAC
330
1F
100
AcDbEntity
  8
0
  6
DASH_CENTER
 62
    40
100
AcDbLine
 10
-269.725
 20
40.56759999999999
 30
0.0
 11
-268.5248
 21
40.56759999999999
 31
0.0
  0
LINE
  5
FAD
330
1F
100
AcDbEntity
  8
0
  6
Continuous
 62
     7
100
AcDbLine
 10
-265.3245999999999
 20
56.1371
 30
0.0
 11
-273.9246999999999
 21
56.1371
 31
0.0
  0
LINE
  5
FAE
330
1F
100
AcDbEntity
  8
0
  6
DASH_CENTER
 62
    30
100
AcDbLine
 10
-260.6806
 20
38.9174
 30
0.0
 11
-275.4604
 21
38.9174
 31
0.0
  0
LINE
  5
FAF
330
1F
100
AcDbEntity
  8
0
  6
Continuous
 62
     7
100
AcDbLine
 10
-269.725
 20
37.2675
 30
0.0
 11
-269.3749
 21
36.9177
 31
0.0
  0
LINE
  5
FB0
330
1F
100
AcDbEntity
  8
0
  6
Continuous
 62
     7
100
AcDbLine
 10
-269.725
 20
40.56759999999999
 30
0.0
 11
-269.3749
 21
40.9174
 31
0.0
  0
LINE
  5
FB1
330
1F
100
AcDbEntity
  8
0
  6
Continuous
 62
     7
100
AcDbLine
 10
-269.725
 20
40.56759999999999
 30
0.0
 11
-269.725
 21
37.2675
 31
0.0
  0
LINE
  5
FB2
330
1F
100
AcDbEntity
  8
0
  6
DASH_CENTER
 62
     7
100
AcDbLine
 10
-269.3749
 20
36.9177
 30
0.0
 11
-269.3749
 21
40.9174
 31
0.0
  0
ARC
  5
FB3
330
1F
100
AcDbEntity
  8
0
  6
Continuous
 62
     7
100
AcDbCircle
 10
-275.6099684889631
 20
59.43707370777847
 30
0.0
 40
1.000001584156602
100
AcDbArc
 50
187.8496171246915
 51
272.4684022418664
  0
LINE
  5
FB4
330
1F
100
AcDbEntity
  8
0
  6
Continuous
 62
     7
100
AcDbLine
 10
-275.5668
 20
58.438
 30
0.0
 11
-275.4246999999999
 21
58.438
 31
0.0
  0
LINE
  5
FB5
330
1F
100
AcDbEntity
  8
0
  6
Continuous
 62
     7
100
AcDbLine
 10
-275.4246999999999
 20
58.45439999999999
 30
0.0
 11
-275.4246999999999
 21
57.63709999999999
 31
0.0
  0
ARC
  5
FB6
330
1F
100
AcDbEntity
  8
0
  6
Continuous
 62
     7
100
AcDbCircle
 10
-273.9246999999999
 20
57.63709999999999
 30
0.0
 40
1.5
100
AcDbArc
 50
180.0
 51
270.0
  0
LINE
  5
FB7
330
1F
100
AcDbEntity
  8
0
  6
Continuous
 62
     7
100
AcDbLine
 10
-265.3249
 20
35.4174
 30
0.0
 11
-265.3249
 21
42.4174
 31
0.0
  0
LINE
  5
FB8
330
1F
100
AcDbEntity
  8
0
  6
Continuous
 62
     7
100
AcDbLine
 10
-265.3249
 20
35.4174
 30
0.0
 11
-265.6422
 21
34.86740000000001
 31
0.0
  0
LINE
  5
FB9
330
1F
100
AcDbEntity
  8
0
  6
Continuous
 62
     7
100
AcDbLine
 10
-265.3249
 20
42.4174
 30
0.0
 11
-265.6422
 21
42.96739999999998
 31
0.0
  0
LINE
  5
FBA
330
1F
100
AcDbEntity
  8
0
  6
Continuous
 62
     7
100
AcDbLine
 10
-268.5248
 20
42.4174
 30
0.0
 11
-268.2072
 21
42.96739999999998
 31
0.0
  0
LINE
  5
FBB
330
1F
100
AcDbEntity
  8
0
  6
Continuous
 62
     7
100
AcDbLine
 10
-265.6417
 20
40.9381
 30
0.0
 11
-268.2072
 21
40.9381
 31
0.0
  0
LINE
  5
FBC
330
1F
100
AcDbEntity
  8
0
  6
Continuous
 62
     7
100
AcDbLine
 10
-265.6417
 20
36.8967
 30
0.0
 11
-268.2072
 21
36.8967
 31
0.0
  0
ARC
  5
FBD
330
1F
100
AcDbEntity
  8
0
  6
Continuous
 62
     7
100
AcDbCircle
 10
-261.9364
 20
38.9174
 30
0.0
 40
6.588335232059661
100
AcDbArc
 50
162.1390046073208
 51
197.860995392679
  0
ARC
  5
FBE
330
1F
100
AcDbEntity
  8
0
  6
Continuous
 62
     7
100
AcDbCircle
 10
-271.9129858478146
 20
42.95897186270734
 30
0.0
 40
6.588374475895808
100
AcDbArc
 50
342.1375442905595
 51
355.5806523657638
  0
ARC
  5
FBF
330
1F
100
AcDbEntity
  8
0
  6
Continuous
 62
     7
100
AcDbCircle
 10
-271.913
 20
38.9174
 30
0.0
 40
6.588335232059772
100
AcDbArc
 50
342.1390046073216
 51
17.86099539267834
  0
ARC
  5
FC0
330
1F
100
AcDbEntity
  8
0
  6
Continuous
 62
     7
100
AcDbCircle
 10
-271.9129605258407
 20
34.87579956929445
 30
0.0
 40
6.588359137392985
100
AcDbArc
 50
4.420479372401389
 51
17.86275972211956
  0
LINE
  5
FC1
330
1F
100
AcDbEntity
  8
0
  6
Continuous
 62
     7
100
AcDbLine
 10
-268.2072
 20
34.86740000000001
 30
0.0
 11
-265.6422
 21
34.86740000000001
 31
0.0
  0
LINE
  5
FC2
330
1F
100
AcDbEntity
  8
0
  6
Continuous
 62
     7
100
AcDbLine
 10
-265.6422
 20
42.96739999999998
 30
0.0
 11
-268.2072
 21
42.96739999999998
 31
0.0
  0
LINE
  5
FC3
330
1F
100
AcDbEntity
  8
0
  6
Continuous
 62
     7
100
AcDbLine
 10
-268.5248
 20
42.4174
 30
0.0
 11
-268.5248
 21
35.4174
 31
0.0
  0
LINE
  5
FC4
330
1F
100
AcDbEntity
  8
0
  6
Continuous
 62
     7
100
AcDbLine
 10
-268.5248
 20
35.4174
 30
0.0
 11
-268.2072
 21
34.86740000000001
 31
0.0
  0
ARC
  5
FC5
330
1F
100
AcDbEntity
  8
0
  6
Continuous
 62
     7
100
AcDbCircle
 10
-261.9364141521854
 20
42.95897186270734
 30
0.0
 40
6.58837447589569
100
AcDbArc
 50
184.4193476342361
 51
197.8624557094411
  0
ARC
  5
FC6
330
1F
100
AcDbEntity
  8
0
  6
Continuous
 62
     7
100
AcDbCircle
 10
-261.9364394741593
 20
34.87579956929446
 30
0.0
 40
6.588359137392866
100
AcDbArc
 50
162.1372402778796
 51
175.5795206275986
  0
LINE
  5
FC7
330
1F
100
AcDbEntity
  8
0
  6
Continuous
 62
     7
100
AcDbLine
 10
-269.3749
 20
114.4564
 30
0.0
 11
-268.5248
 21
114.4564
 31
0.0
  0
LINE
  5
FC8
330
1F
100
AcDbEntity
  8
0
  6
DASH_CENTER
 62
    40
100
AcDbLine
 10
-269.725
 20
114.1064999999999
 30
0.0
 11
-268.5248
 21
114.1064999999999
 31
0.0
  0
LINE
  5
FC9
330
1F
100
AcDbEntity
  8
0
  6
Continuous
 62
     7
100
AcDbLine
 10
-268.5248
 20
110.4565999999999
 30
0.0
 11
-269.3749
 21
110.4565999999999
 31
0.0
  0
LINE
  5
FCA
330
1F
100
AcDbEntity
  8
0
  6
DASH_CENTER
 62
    40
100
AcDbLine
 10
-269.725
 20
110.8065
 30
0.0
 11
-268.5248
 21
110.8065
 31
0.0
  0
LINE
  5
FCB
330
1F
100
AcDbEntity
  8
0
  6
Continuous
 62
     7
100
AcDbLine
 10
-265.3245999999999
 20
95.23709999999999
 30
0.0
 11
-273.9246999999999
 21
95.23709999999999
 31
0.0
  0
LINE
  5
FCC
330
1F
100
AcDbEntity
  8
0
  6
DASH_CENTER
 62
    30
100
AcDbLine
 10
-260.6806
 20
112.4565999999999
 30
0.0
 11
-275.4604
 21
112.4565999999999
 31
0.0
  0
ARC
  5
FCD
330
1F
100
AcDbEntity
  8
0
  6
Continuous
 62
     7
100
AcDbCircle
 10
-273.9246999999999
 20
93.7371
 30
0.0
 40
1.5
100
AcDbArc
 50
90.0
 51
180.0
  0
ARC
  5
FCE
330
1F
100
AcDbEntity
  8
0
  6
Continuous
 62
     7
100
AcDbCircle
 10
-275.6099684889631
 20
91.93712629222154
 30
0.0
 40
1.00000158415663
100
AcDbArc
 50
87.53159775813355
 51
172.1503828753084
  0
ARC
  5
FCF
330
1F
100
AcDbEntity
  8
0
  6
Continuous
 62
     7
100
AcDbCircle
 10
-157.7249994575629
 20
75.68710790739061
 30
0.0
 40
120.0000005424372
100
AcDbArc
 50
172.1514562227223
 51
180.0000037755009
  0
LINE
  5
FD0
330
1F
100
AcDbEntity
  8
0
  6
Continuous
 62
     7
100
AcDbLine
 10
-275.4246999999999
 20
92.9198
 30
0.0
 11
-275.4246999999999
 21
93.7371
 31
0.0
  0
LINE
  5
FD1
330
1F
100
AcDbEntity
  8
0
  6
Continuous
 62
     7
100
AcDbLine
 10
-275.5668
 20
92.93609999999999
 30
0.0
 11
-275.4246999999999
 21
92.93609999999999
 31
0.0
  0
LINE
  5
FD2
330
1F
100
AcDbEntity
  8
0
  6
DASH_CENTER
 62
     7
100
AcDbLine
 10
-269.3749
 20
114.4564
 30
0.0
 11
-269.3749
 21
110.4565999999999
 31
0.0
  0
LINE
  5
FD3
330
1F
100
AcDbEntity
  8
0
  6
Continuous
 62
     7
100
AcDbLine
 10
-269.725
 20
110.8065
 30
0.0
 11
-269.725
 21
114.1064999999999
 31
0.0
  0
LINE
  5
FD4
330
1F
100
AcDbEntity
  8
0
  6
Continuous
 62
     7
100
AcDbLine
 10
-269.725
 20
110.8065
 30
0.0
 11
-269.3749
 21
110.4565999999999
 31
0.0
  0
LINE
  5
FD5
330
1F
100
AcDbEntity
  8
0
  6
Continuous
 62
     7
100
AcDbLine
 10
-269.725
 20
114.1064999999999
 30
0.0
 11
-269.3749
 21
114.4564
 31
0.0
  0
LINE
  5
FD6
330
1F
100
AcDbEntity
  8
0
  6
Continuous
 62
     7
100
AcDbLine
 10
-263.2748
 20
81.93189999999999
 30
0.0
 11
-263.2748
 21
99.1271
 31
0.0
  0
ARC
  5
FD7
330
1F
100
AcDbEntity
  8
0
  6
Continuous
 62
     7
100
AcDbCircle
 10
-261.2748
 20
81.93189999999999
 30
0.0
 40
2.0
100
AcDbArc
 50
180.0
 51
270.0
  0
ARC
  5
FD8
330
1F
100
AcDbEntity
  8
0
  6
Continuous
 62
     7
100
AcDbCircle
 10
-261.2748
 20
83.50109999999999
 30
0.0
 40
2.0
100
AcDbArc
 50
180.0
 51
270.0
  0
LINE
  5
FD9
330
1F
100
AcDbEntity
  8
0
  6
Continuous
 62
     7
100
AcDbLine
 10
-265.6417
 20
114.4773
 30
0.0
 11
-268.2072
 21
114.4773
 31
0.0
  0
LINE
  5
FDA
330
1F
100
AcDbEntity
  8
0
  6
Continuous
 62
     7
100
AcDbLine
 10
-268.5248
 20
115.9565999999999
 30
0.0
 11
-268.2072
 21
116.5066
 31
0.0
  0
LINE
  5
FDB
330
1F
100
AcDbEntity
  8
0
  6
Continuous
 62
     7
100
AcDbLine
 10
-265.6422
 20
108.4065999999999
 30
0.0
 11
-268.2072
 21
108.4065999999999
 31
0.0
  0
LINE
  5
FDC
330
1F
100
AcDbEntity
  8
0
  6
Continuous
 62
     7
100
AcDbLine
 10
-265.3249
 20
115.9565999999999
 30
0.0
 11
-265.3249
 21
108.9566
 31
0.0
  0
LINE
  5
FDD
330
1F
100
AcDbEntity
  8
0
  6
Continuous
 62
     7
100
AcDbLine
 10
-268.2072
 20
116.5066
 30
0.0
 11
-265.6422
 21
116.5066
 31
0.0
  0
LINE
  5
FDE
330
1F
100
AcDbEntity
  8
0
  6
Continuous
 62
     7
100
AcDbLine
 10
-268.5248
 20
108.9566
 30
0.0
 11
-268.5248
 21
115.9565999999999
 31
0.0
  0
LINE
  5
FDF
330
1F
100
AcDbEntity
  8
0
  6
Continuous
 62
     7
100
AcDbLine
 10
-265.6417
 20
110.4359
 30
0.0
 11
-268.2072
 21
110.4359
 31
0.0
  0
LINE
  5
FE0
330
1F
100
AcDbEntity
  8
0
  6
Continuous
 62
     7
100
AcDbLine
 10
-265.3249
 20
115.9565999999999
 30
0.0
 11
-265.6422
 21
116.5066
 31
0.0
  0
LINE
  5
FE1
330
1F
100
AcDbEntity
  8
0
  6
Continuous
 62
     7
100
AcDbLine
 10
-268.5248
 20
108.9566
 30
0.0
 11
-268.2072
 21
108.4065999999999
 31
0.0
  0
LINE
  5
FE2
330
1F
100
AcDbEntity
  8
0
  6
Continuous
 62
     7
100
AcDbLine
 10
-265.3249
 20
108.9566
 30
0.0
 11
-265.6422
 21
108.4065999999999
 31
0.0
  0
ARC
  5
FE3
330
1F
100
AcDbEntity
  8
0
  6
Continuous
 62
     7
100
AcDbCircle
 10
-261.9364141521854
 20
116.4981718627074
 30
0.0
 40
6.588374475895695
100
AcDbArc
 50
184.4193476342361
 51
197.8624557094411
  0
ARC
  5
FE4
330
1F
100
AcDbEntity
  8
0
  6
Continuous
 62
     7
100
AcDbCircle
 10
-261.9364394741593
 20
108.4149995692945
 30
0.0
 40
6.58835913739287
100
AcDbArc
 50
162.1372402778796
 51
175.5795206275986
  0
ARC
  5
FE5
330
1F
100
AcDbEntity
  8
0
  6
Continuous
 62
     7
100
AcDbCircle
 10
-261.9364
 20
112.4565999999999
 30
0.0
 40
6.588335232059663
100
AcDbArc
 50
162.1390046073208
 51
197.860995392679
  0
ARC
  5
FE6
330
1F
100
AcDbEntity
  8
0
  6
Continuous
 62
     7
100
AcDbCircle
 10
-271.9129605258407
 20
108.4149995692945
 30
0.0
 40
6.588359137392981
100
AcDbArc
 50
4.420479372401389
 51
17.86275972211956
  0
ARC
  5
FE7
330
1F
100
AcDbEntity
  8
0
  6
Continuous
 62
     7
100
AcDbCircle
 10
-271.9129858478146
 20
116.4981718627074
 30
0.0
 40
6.588374475895812
100
AcDbArc
 50
342.1375442905587
 51
355.580652365763
  0
ARC
  5
FE8
330
1F
100
AcDbEntity
  8
0
  6
Continuous
 62
     7
100
AcDbCircle
 10
-271.913
 20
112.4565999999999
 30
0.0
 40
6.588335232059767
100
AcDbArc
 50
342.1390046073216
 51
17.86099539267912
  0
ARC
  5
FE9
330
1F
100
AcDbEntity
  8
0
  6
Continuous
 62
     7
100
AcDbCircle
 10
-261.274799995
 20
99.1271000050005
 30
0.0
 40
2.000000004999999
100
AcDbArc
 50
90.00572972118431
 51
180.0000001432541
  0
LINE
  5
FEA
330
1F
100
AcDbEntity
  8
0
  6
Continuous
 62
     7
100
AcDbLine
 10
-232.7747
 20
68.19379999999999
 30
0.0
 11
-232.7747
 21
91.3104
 31
0.0
  0
LINE
  5
FEB
330
1F
100
AcDbEntity
  8
0
  6
Continuous
 62
     7
100
AcDbLine
 10
-240.7748999999999
 20
68.1939
 30
0.0
 11
-240.7748999999999
 21
91.3104
 31
0.0
  0
LINE
  5
FEC
330
1F
100
AcDbEntity
  8
0
  6
Continuous
 62
     7
100
AcDbLine
 10
-235.7746999999999
 20
91.3104
 30
0.0
 11
-235.7746999999999
 21
68.19379999999999
 31
0.0
  0
LINE
  5
FED
330
1F
100
AcDbEntity
  8
0
  6
Continuous
 62
     7
100
AcDbLine
 10
-243.7748
 20
91.3104
 30
0.0
 11
-243.7748
 21
68.19379999999999
 31
0.0
  0
LINE
  5
FEE
330
1F
100
AcDbEntity
  8
0
  6
Continuous
 62
     7
100
AcDbLine
 10
-236.775
 20
68.19379999999999
 30
0.0
 11
-236.775
 21
95.3104
 31
0.0
  0
LINE
  5
FEF
330
1F
100
AcDbEntity
  8
0
  6
Continuous
 62
     7
100
AcDbLine
 10
-239.7748999999999
 20
95.3104
 30
0.0
 11
-239.7748999999999
 21
68.19379999999999
 31
0.0
  0
ARC
  5
FF0
330
1F
100
AcDbEntity
  8
0
  6
Continuous
 62
    54
100
AcDbCircle
 10
-237.5247499999999
 20
69.4932
 30
0.0
 40
1.500165205069099
100
AcDbArc
 50
240.0014378087751
 51
299.9985621912228
  0
ARC
  5
FF1
330
1F
100
AcDbEntity
  8
0
  6
Continuous
 62
    54
100
AcDbCircle
 10
-243.02455
 20
66.8947
 30
0.0
 40
1.500165205069088
100
AcDbArc
 50
60.00143780877706
 51
119.9985621912246
  0
ARC
  5
FF2
330
1F
100
AcDbEntity
  8
0
  6
Continuous
 62
    54
100
AcDbCircle
 10
-241.52485
 20
69.4931
 30
0.0
 40
1.500078602107224
100
AcDbArc
 50
239.9995281325421
 51
300.0004718674596
  0
ARC
  5
FF3
330
1F
100
AcDbEntity
  8
0
  6
Continuous
 62
    54
100
AcDbCircle
 10
-239.02475
 20
66.8948
 30
0.0
 40
1.500078602107224
100
AcDbArc
 50
59.99952813254211
 51
120.0004718674597
  0
ARC
  5
FF4
330
1F
100
AcDbEntity
  8
0
  6
Continuous
 62
    54
100
AcDbCircle
 10
-235.02455
 20
66.8948
 30
0.0
 40
1.500078602107224
100
AcDbArc
 50
59.99952813254211
 51
120.0004718674597
  0
ARC
  5
FF5
330
1F
100
AcDbEntity
  8
0
  6
Continuous
 62
    54
100
AcDbCircle
 10
-233.52455
 20
69.4932
 30
0.0
 40
1.500165205069099
100
AcDbArc
 50
240.0014378087751
 51
299.9985621912228
  0
ARC
  5
FF6
330
1F
100
AcDbEntity
  8
0
  6
Continuous
 62
     7
100
AcDbCircle
 10
-238.2749
 20
95.3104
 30
0.0
 40
1.5
100
AcDbArc
 50
0.0
 51
180.0
  0
LINE
  5
FF7
330
1F
100
AcDbEntity
  8
0
  6
Continuous
 62
     7
100
AcDbLine
 10
-240.7748999999999
 20
79.9319
 30
0.0
 11
-239.7748999999999
 21
79.9319
 31
0.0
  0
LINE
  5
FF8
330
1F
100
AcDbEntity
  8
0
  6
Continuous
 62
     7
100
AcDbLine
 10
-239.7748999999999
 20
81.50109999999996
 30
0.0
 11
-240.7748999999999
 21
81.50109999999996
 31
0.0
  0
ARC
  5
FF9
330
1F
100
AcDbEntity
  8
0
  6
Continuous
 62
     7
100
AcDbCircle
 10
-242.2747999999999
 20
91.3104
 30
0.0
 40
1.499899999999995
100
AcDbArc
 50
0.0
 51
180.0
  0
ARC
  5
FFA
330
1F
100
AcDbEntity
  8
0
  6
Continuous
 62
     7
100
AcDbCircle
 10
-237.1519090488729
 20
91.31415191248185
 30
0.0
 40
9.877131971742773
100
AcDbArc
 50
296.3060594338236
 51
83.46972143232164
  0
ARC
  5
FFB
330
1F
100
AcDbEntity
  8
0
  6
Continuous
 62
     7
100
AcDbCircle
 10
-237.1518907125766
 20
89.74501495167265
 30
0.0
 40
9.87709071258792
100
AcDbArc
 50
296.3060590996495
 51
359.9999132671992
  0
LINE
  5
FFC
330
1F
100
AcDbEntity
  8
0
  6
Continuous
 62
     7
100
AcDbLine
 10
-236.775
 20
79.9319
 30
0.0
 11
-236.0292
 21
79.9319
 31
0.0
  0
LINE
  5
FFD
330
1F
100
AcDbEntity
  8
0
  6
Continuous
 62
     7
100
AcDbLine
 10
-236.029
 20
81.50109999999996
 30
0.0
 11
-236.775
 21
81.50109999999996
 31
0.0
  0
ARC
  5
FFE
330
1F
100
AcDbEntity
  8
0
  6
Continuous
 62
     7
100
AcDbCircle
 10
-234.2747999999999
 20
91.3104
 30
0.0
 40
1.499899999999995
100
AcDbArc
 50
0.0
 51
180.0
  0
ARC
  5
FFF
330
1F
100
AcDbEntity
  8
0
  6
Continuous
 62
     7
100
AcDbCircle
 10
-237.1496422809979
 20
91.31438753968422
 30
0.0
 40
9.877055600735772
100
AcDbArc
 50
276.5141749923474
 51
278.001885222959
  0
ARC
  5
1000
330
1F
100
AcDbEntity
  8
0
  6
Continuous
 62
     7
100
AcDbCircle
 10
-237.1530032270436
 20
89.74485911638931
 30
0.0
 40
9.877099792603187
100
AcDbArc
 50
276.5331853284644
 51
278.0215377678729
  0
LINE
  5
1001
330
1F
100
AcDbEntity
  8
0
  6
Continuous
 62
     7
100
AcDbLine
 10
-227.2748999999999
 20
89.74500000000002
 30
0.0
 11
-227.2748999999999
 21
91.3141
 31
0.0
  0
LINE
  5
1003
330
1F
100
AcDbEntity
  8
0
  6
Continuous
 62
     7
100
AcDbLine
 10
-265.3245999999999
 20
133.1870999999999
 30
0.0
 11
-263.0248
 21
133.1870999999999
 31
0.0
  0
LINE
  5
1008
330
1F
100
AcDbEntity
  8
0
  6
DASH_CENTER
 62
    30
100
AcDbLine
 10
-198.025
 20
151.3039
 30
0.0
 11
-198.025
 21
75.6871
 31
0.0
  0
LINE
  5
1009
330
1F
100
AcDbEntity
  8
0
  6
DASHED
 62
   171
100
AcDbLine
 10
-166.5248999999999
 20
99.66500000000001
 30
0.0
 11
-166.5244999999998
 21
127.9492
 31
0.0
  0
LINE
  5
100A
330
1F
100
AcDbEntity
  8
0
  6
Continuous
 62
     7
100
AcDbLine
 10
-213.5699999999999
 20
34.6871
 30
0.0
 11
-182.4798999999999
 21
34.6871
 31
0.0
  0
LINE
  5
100B
330
1F
100
AcDbEntity
  8
0
  6
Continuous
 62
     7
100
AcDbLine
 10
-198.3785
 20
28.74769999999999
 30
0.0
 11
-199.1918
 21
29.561
 31
0.0
  0
LINE
  5
100C
330
1F
100
AcDbEntity
  8
0
  6
Continuous
 62
     7
100
AcDbLine
 10
-199.1918
 20
29.561
 30
0.0
 11
-199.8989
 21
28.85389999999999
 31
0.0
  0
LINE
  5
100D
330
1F
100
AcDbEntity
  8
0
  6
Continuous
 62
     7
100
AcDbLine
 10
-199.0855999999999
 20
28.04059999999999
 30
0.0
 11
-199.8989
 21
28.85389999999999
 31
0.0
  0
LINE
  5
100E
330
1F
100
AcDbEntity
  8
0
  6
Continuous
 62
     7
100
AcDbLine
 10
-196.1511999999999
 20
28.85369999999999
 30
0.0
 11
-196.8583
 21
29.5608
 31
0.0
  0
LINE
  5
100F
330
1F
100
AcDbEntity
  8
0
  6
Continuous
 62
     7
100
AcDbLine
 10
-196.8583
 20
29.5608
 30
0.0
 11
-197.6714
 21
28.74769999999999
 31
0.0
  0
LINE
  5
1010
330
1F
100
AcDbEntity
  8
0
  6
Continuous
 62
     7
100
AcDbLine
 10
-196.1511999999999
 20
28.85369999999999
 30
0.0
 11
-196.9642999999999
 21
28.04059999999999
 31
0.0
  0
ARC
  5
1011
330
1F
100
AcDbEntity
  8
0
  6
Continuous
 62
     7
100
AcDbCircle
 10
-198.0249499999999
 20
29.10129999999999
 30
0.0
 40
0.5000305615659998
100
AcDbArc
 50
225.0040511758041
 51
314.9959488241928
  0
LINE
  5
1081
330
1F
100
AcDbEntity
  8
0
  6
Continuous
 62
     7
100
AcDbLine
 10
-115.0247999999999
 20
80.1871
 30
0.0
 11
-95.02480000000003
 21
80.1871
 31
0.0
  0
LINE
  5
1082
330
1F
100
AcDbEntity
  8
0
  6
Continuous
 62
     7
100
AcDbLine
 10
-96.02480000000007
 20
70.1871
 30
0.0
 11
-117.0247999999999
 21
70.1871
 31
0.0
  0
LINE
  5
1086
330
1F
100
AcDbEntity
  8
0
  6
Continuous
 62
     7
100
AcDbLine
 10
-133.725
 20
56.137
 30
0.0
 11
-125.1249
 21
56.137
 31
0.0
  0
LINE
  5
1087
330
1F
100
AcDbEntity
  8
0
  6
Continuous
 62
     7
100
AcDbLine
 10
-133.725
 20
95.23709999999999
 30
0.0
 11
-125.1249
 21
95.23709999999999
 31
0.0
  0
LINE
  5
1088
330
1F
100
AcDbEntity
  8
0
  6
DASH_CENTER
 62
    30
100
AcDbLine
 10
-138.3690999999999
 20
112.4565999999999
 30
0.0
 11
-123.5892999999999
 21
112.4565999999999
 31
0.0
  0
LINE
  5
1089
330
1F
100
AcDbEntity
  8
0
  6
DASH_CENTER
 62
    30
100
AcDbLine
 10
-138.3690999999999
 20
38.9175
 30
0.0
 11
-123.5892999999999
 21
38.9175
 31
0.0
  0
LINE
  5
108A
330
1F
100
AcDbEntity
  8
0
  6
Continuous
 62
     7
100
AcDbLine
 10
-133.725
 20
35.41749999999999
 30
0.0
 11
-133.725
 21
42.41749999999997
 31
0.0
  0
LINE
  5
108B
330
1F
100
AcDbEntity
  8
0
  6
Continuous
 62
     7
100
AcDbLine
 10
-131.1248999999999
 20
40.9988
 30
0.0
 11
-131.1248999999999
 21
36.8363
 31
0.0
  0
LINE
  5
108C
330
1F
100
AcDbEntity
  8
0
  6
Continuous
 62
     7
100
AcDbLine
 10
-133.725
 20
35.41749999999999
 30
0.0
 11
-132.3117
 21
35.54120000000001
 31
0.0
  0
LINE
  5
108D
330
1F
100
AcDbEntity
  8
0
  6
Continuous
 62
     7
100
AcDbLine
 10
-133.725
 20
42.41749999999997
 30
0.0
 11
-132.3117
 21
42.29380000000001
 31
0.0
  0
ARC
  5
108E
330
1F
100
AcDbEntity
  8
0
  6
Continuous
 62
     7
100
AcDbCircle
 10
-132.4250276083305
 20
36.83626986722656
 30
0.0
 40
1.300027608679833
100
AcDbArc
 50
275.0054300193793
 51
0.0013280339067241
  0
ARC
  5
108F
330
1F
100
AcDbEntity
  8
0
  6
Continuous
 62
     7
100
AcDbCircle
 10
-132.4249777991691
 20
40.99877577104689
 30
0.0
 40
1.299977799395102
100
AcDbArc
 50
0.0010678772795544
 51
84.99658141700033
  0
LINE
  5
1090
330
1F
100
AcDbEntity
  8
0
  6
Continuous
 62
     7
100
AcDbLine
 10
-133.725
 20
115.9565999999999
 30
0.0
 11
-132.3117
 21
115.833
 31
0.0
  0
LINE
  5
1091
330
1F
100
AcDbEntity
  8
0
  6
Continuous
 62
     7
100
AcDbLine
 10
-133.725
 20
108.9566999999999
 30
0.0
 11
-132.3117
 21
109.0802999999999
 31
0.0
  0
LINE
  5
1092
330
1F
100
AcDbEntity
  8
0
  6
Continuous
 62
     7
100
AcDbLine
 10
-131.1248999999999
 20
110.3754
 30
0.0
 11
-131.1248999999999
 21
114.5378999999999
 31
0.0
  0
LINE
  5
1093
330
1F
100
AcDbEntity
  8
0
  6
Continuous
 62
     7
100
AcDbLine
 10
-133.725
 20
115.9565999999999
 30
0.0
 11
-133.725
 21
108.9566999999999
 31
0.0
  0
ARC
  5
1094
330
1F
100
AcDbEntity
  8
0
  6
Continuous
 62
     7
100
AcDbCircle
 10
-132.4249777991691
 20
110.3754242289531
 30
0.0
 40
1.299977799395092
100
AcDbArc
 50
275.003418582998
 51
359.9989321227203
  0
ARC
  5
1095
330
1F
100
AcDbEntity
  8
0
  6
Continuous
 62
     7
100
AcDbCircle
 10
-132.4250276083305
 20
114.5379301327734
 30
0.0
 40
1.30002760867984
100
AcDbArc
 50
359.9986719660932
 51
84.99456998062067
  0
LINE
  5
1096
330
1F
100
AcDbEntity
  8
0
  6
Continuous
 62
     7
100
AcDbLine
 10
-118.0247999999999
 20
68.2871
 30
0.0
 11
-118.0247999999999
 21
83.08710000000003
 31
0.0
  0
LINE
  5
1097
330
1F
100
AcDbEntity
  8
0
  6
Continuous
 62
     7
100
AcDbLine
 10
-123.6248999999999
 20
92.9198
 30
0.0
 11
-123.6248999999999
 21
58.45439999999999
 31
0.0
  0
ARC
  5
1098
330
1F
100
AcDbEntity
  8
0
  6
Continuous
 62
     7
100
AcDbCircle
 10
-241.3248005424226
 20
75.6870920928653
 30
0.0
 40
120.000000542458
100
AcDbArc
 50
352.1514562225996
 51
359.999956028896
  0
LINE
  5
109B
330
1F
100
AcDbEntity
  8
0
  6
Continuous
 62
     7
100
AcDbLine
 10
-118.0247999999999
 20
68.2871
 30
0.0
 11
-121.5531
 21
68.2871
 31
0.0
  0
LINE
  5
109C
330
1F
100
AcDbEntity
  8
0
  6
Continuous
 62
     7
100
AcDbLine
 10
-123.6248999999999
 20
58.45439999999999
 30
0.0
 11
-123.6248999999999
 21
57.637
 31
0.0
  0
LINE
  5
109D
330
1F
100
AcDbEntity
  8
0
  6
Continuous
 62
     7
100
AcDbLine
 10
-123.4826999999999
 20
58.438
 30
0.0
 11
-123.6248999999999
 21
58.438
 31
0.0
  0
ARC
  5
109E
330
1F
100
AcDbEntity
  8
0
  6
Continuous
 62
     7
100
AcDbCircle
 10
-123.4396339714459
 20
59.43707165760095
 30
0.0
 40
1.000003741514319
100
AcDbArc
 50
267.5260092985642
 51
352.1505184935603
  0
ARC
  5
109F
330
1F
100
AcDbEntity
  8
0
  6
Continuous
 62
     7
100
AcDbCircle
 10
-125.1249
 20
57.637
 30
0.0
 40
1.5
100
AcDbArc
 50
270.0
 51
0.0
  0
ARC
  5
10A1
330
1F
100
AcDbEntity
  8
0
  6
Continuous
 62
     7
100
AcDbCircle
 10
-117.0247999999999
 20
69.1871
 30
0.0
 40
1.0
100
AcDbArc
 50
90.0
 51
180.0
  0
ARC
  5
10A2
330
1F
100
AcDbEntity
  8
0
  6
Continuous
 62
     7
100
AcDbCircle
 10
-125.1249
 20
93.7371
 30
0.0
 40
1.5
100
AcDbArc
 50
0.0
 51
90.0
  0
LINE
  5
10A3
330
1F
100
AcDbEntity
  8
0
  6
Continuous
 62
     7
100
AcDbLine
 10
-118.0247999999999
 20
83.08710000000003
 30
0.0
 11
-121.5531
 21
83.08710000000003
 31
0.0
  0
LINE
  5
10A4
330
1F
100
AcDbEntity
  8
0
  6
Continuous
 62
     7
100
AcDbLine
 10
-123.6248999999999
 20
92.9198
 30
0.0
 11
-123.6248999999999
 21
93.7371
 31
0.0
  0
LINE
  5
10A5
330
1F
100
AcDbEntity
  8
0
  6
Continuous
 62
     7
100
AcDbLine
 10
-123.4826999999999
 20
92.93609999999999
 30
0.0
 11
-123.6248999999999
 21
92.93609999999999
 31
0.0
  0
ARC
  5
10A6
330
1F
100
AcDbEntity
  8
0
  6
Continuous
 62
     7
100
AcDbCircle
 10
-123.4396339714459
 20
91.93712834239905
 30
0.0
 40
1.000003741514333
100
AcDbArc
 50
7.849481506439657
 51
92.47399070143398
  0
ARC
  5
10A7
330
1F
100
AcDbEntity
  8
0
  6
Continuous
 62
     7
100
AcDbCircle
 10
-241.3248005424369
 20
75.68710790739061
 30
0.0
 40
120.0000005424372
100
AcDbArc
 50
359.9999962244988
 51
7.84854377727767
  0
LINE
  5
10A8
330
1F
100
AcDbEntity
  8
0
  6
Continuous
 62
     7
100
AcDbLine
 10
-115.0247999999999
 20
80.1871
 30
0.0
 11
-115.0247999999999
 21
81.1871
 31
0.0
  0
ARC
  5
10A9
330
1F
100
AcDbEntity
  8
0
  6
Continuous
 62
     7
100
AcDbCircle
 10
-117.0247999999999
 20
82.18709999999999
 30
0.0
 40
1.0
100
AcDbArc
 50
180.0
 51
270.0
  0
LINE
  5
10AA
330
1F
100
AcDbEntity
  8
0
  6
Continuous
 62
     7
100
AcDbLine
 10
-117.0247999999999
 20
81.1871
 30
0.0
 11
-115.0247999999999
 21
81.1871
 31
0.0
  0
LINE
  5
10B0
330
1F
100
AcDbEntity
  8
0
  6
Continuous
 62
     7
100
AcDbLine
 10
-133.725
 20
133.1870999999999
 30
0.0
 11
-136.0248
 21
133.1870999999999
 31
0.0
  0
LINE
  5
10BF
330
1F
100
AcDbEntity
  8
0
  6
Continuous
 62
     7
100
AcDbLine
 10
-95.02480000000003
 20
71.1871
 30
0.0
 11
-95.02480000000003
 21
80.1871
 31
0.0
  0
LINE
  5
10C0
330
1F
100
AcDbEntity
  8
0
  6
Continuous
 62
     7
100
AcDbLine
 10
-96.02480000000007
 20
70.1871
 30
0.0
 11
-96.02480000000007
 21
80.1871
 31
0.0
  0
LINE
  5
10C5
330
1F
100
AcDbEntity
  8
0
  6
Continuous
 62
     7
100
AcDbLine
 10
-96.02480000000007
 20
70.1871
 30
0.0
 11
-95.02480000000003
 21
71.1871
 31
0.0
  0
LINE
  5
10C7
330
1F
100
AcDbEntity
  8
0
  6
Continuous
 62
     7
100
AcDbLine
 10
-95.02480000000003
 20
75.6871
 30
0.0
 11
-95.02480000000003
 21
80.1871
 31
0.0
  0
ARC
  5
10DD
330
1F
100
AcDbEntity
  8
0
  6
Continuous
 62
     7
100
AcDbCircle
 10
189.7790999999999
 20
75.68699999999998
 30
0.0
 40
57.59989999999999
100
AcDbArc
 50
180.0
 51
0.0
  0
ARC
  5
10DE
330
1F
100
AcDbEntity
  8
0
  6
Continuous
 62
     7
100
AcDbCircle
 10
189.7790250994902
 20
75.68696897517771
 30
0.0
 40
53.19998431069718
100
AcDbArc
 50
283.3062333940281
 51
301.6937866010668
  0
ARC
  5
10DF
330
1F
100
AcDbEntity
  8
0
  6
Continuous
 62
     7
100
AcDbCircle
 10
189.7790895451829
 20
75.68700433052909
 30
0.0
 40
53.20002208744721
100
AcDbArc
 50
238.3062199839462
 51
256.6937600209576
  0
LINE
  5
10E0
330
1F
100
AcDbEntity
  8
0
  6
DASH_CENTER
 62
    30
100
AcDbLine
 10
128.3009
 20
31.36639999999999
 30
0.0
 11
137.4653999999999
 21
24.9492
 31
0.0
  0
LINE
  5
10E1
330
1F
100
AcDbEntity
  8
0
  6
Continuous
 62
     7
100
AcDbLine
 10
130.1077
 20
27.51739999999999
 30
0.0
 11
132.5354
 21
30.98449999999999
 31
0.0
  0
LINE
  5
10E2
330
1F
100
AcDbEntity
  8
0
  6
Continuous
 62
     7
100
AcDbLine
 10
130.2555999999998
 20
23.8934
 30
0.0
 11
135.9914999999999
 21
32.08489999999999
 31
0.0
  0
LINE
  5
10E3
330
1F
100
AcDbEntity
  8
0
  6
Continuous
 62
     7
100
AcDbLine
 10
243.1671
 20
31.26879999999999
 30
0.0
 11
252.3197
 21
18.1689
 31
0.0
  0
LINE
  5
10E4
330
1F
100
AcDbEntity
  8
0
  6
Continuous
 62
     7
100
AcDbLine
 10
136.3909999999999
 20
31.26879999999999
 30
0.0
 11
127.2383999999999
 21
18.1689
 31
0.0
  0
LINE
  5
10E5
330
1F
100
AcDbEntity
  8
0
  6
Continuous
 62
     7
100
AcDbLine
 10
217.7292
 20
30.42089999999999
 30
0.0
 11
218.8914
 21
27.6152
 31
0.0
  0
LINE
  5
10E6
330
1F
100
AcDbEntity
  8
0
  6
DASH_CENTER
 62
    30
100
AcDbLine
 10
189.7790999999999
 20
-0.5331000000000046
 30
0.0
 11
189.7790999999999
 21
142.5269
 31
0.0
  0
LINE
  5
10EB
330
1F
100
AcDbEntity
  8
0
  6
Continuous
 62
     7
100
AcDbLine
 10
161.8289
 20
30.42089999999999
 30
0.0
 11
160.6666999999999
 21
27.6152
 31
0.0
  0
LINE
  5
10EC
330
1F
100
AcDbEntity
  8
0
  6
Continuous
 62
     7
100
AcDbLine
 10
99.6192
 20
19.39329999999999
 30
0.0
 11
99.6192
 21
38.7229
 31
0.0
  0
LINE
  5
10ED
330
1F
100
AcDbEntity
  8
0
  6
Continuous
 62
     7
100
AcDbLine
 10
96.61920000000002
 20
19.39329999999999
 30
0.0
 11
96.61920000000002
 21
38.97409999999999
 31
0.0
  0
ARC
  5
10F1
330
1F
100
AcDbEntity
  8
0
  6
Continuous
 62
     7
100
AcDbCircle
 10
210.9574875647608
 20
16.77830545348419
 30
0.0
 40
5.000032420876434
100
AcDbArc
 50
22.86594717427135
 51
109.7742674127232
  0
ARC
  5
10F2
330
1F
100
AcDbEntity
  8
0
  6
Continuous
 62
     7
100
AcDbCircle
 10
189.7790596124783
 20
75.68698327093246
 30
0.0
 40
56.19994950222896
100
AcDbArc
 50
283.8009155520378
 51
301.1991044430576
  0
LINE
  5
10F3
330
1F
100
AcDbEntity
  8
0
  6
Continuous
 62
     7
100
AcDbLine
 10
225.279
 20
13.68699999999999
 30
0.0
 11
189.7790999999999
 21
13.68699999999999
 31
0.0
  0
LINE
  5
10F4
330
1F
100
AcDbEntity
  8
0
  6
Continuous
 62
     7
100
AcDbLine
 10
189.7790999999999
 20
16.887
 30
0.0
 11
225.279
 21
16.887
 31
0.0
  0
LINE
  5
1111
330
1F
100
AcDbEntity
  8
0
  6
DASH_CENTER
 62
    30
100
AcDbLine
 10
105.3751
 20
8.293499999999994
 30
0.0
 11
89.50090000000001
 21
8.293499999999994
 31
0.0
  0
LINE
  5
111B
330
1F
100
AcDbEntity
  8
0
  6
DASH_CENTER
 62
    30
100
AcDbLine
 10
139.7790999999999
 20
-106.9360472665167
 30
0.0
 11
139.7790999999999
 21
-139.3406472665168
 31
0.0
  0
SPLINE
  5
111C
330
1F
100
AcDbEntity
  8
0
  6
Continuous
 62
    54
100
AcDbSpline
210
0.0
220
0.0
230
1.0
 70
     8
 71
     3
 72
   113
 73
   109
 74
   107
 42
0.0000000001
 43
0.0000000001
 44
0.00000001
 40
0.0
 40
0.0
 40
0.0
 40
0.0
 40
0.3707353852210508
 40
0.7414578682861635
 40
1.241319285967926
 40
1.741223760325089
 40
2.302556934941225
 40
2.863876853179327
 40
3.869480242730942
 40
4.8751043719559
 40
6.100170526254111
 40
7.325224494560132
 40
8.339261761309943
 40
9.353301408457351
 40
10.64779661315044
 40
11.94229066979114
 40
13.23391863466792
 40
14.52554756398859
 40
15.54677747578336
 40
16.56800541696416
 40
17.46444196161217
 40
18.36087824260337
 40
19.25740278430188
 40
19.92902926279836
 40
20.60065587912091
 40
21.27220725115604
 40
21.94374748791491
 40
22.45264446353361
 40
22.96155621031743
 40
23.47047271031064
 40
23.97949573983838
 40
24.48410836580927
 40
24.98883924498959
 40
25.4935786468042
 40
25.99832145869702
 40
26.50317578441865
 40
26.99496620785466
 40
27.48683631306579
 40
27.97863312743423
 40
28.47030174169818
 40
28.96189510972981
 40
29.44371303537054
 40
29.9255075150668
 40
30.40716139812484
 40
30.88855609262587
 40
31.4017918116653
 40
31.91521393502357
 40
32.42905591885483
 40
32.94320555835653
 40
33.45726068563674
 40
34.100030912335
 40
34.7423052776511
 40
35.38450143118438
 40
36.02686967181764
 40
36.64619223813386
 40
37.26538169603731
 40
37.88416888911303
 40
38.58241243682675
 40
39.28109729453451
 40
39.98058696652574
 40
40.37558562232946
 40
40.7705382208607
 40
41.16515837965797
 40
41.55942413159335
 40
41.95364875164077
 40
42.28483958298192
 40
42.616325997793
 40
42.94790906371256
 40
43.27935729429038
 40
43.61041256224194
 40
43.62216435311549
 40
43.63391585756125
 40
43.64569942797429
 40
43.65748301010012
 40
44.08687886264899
 40
44.51640487960823
 40
44.94629730163334
 40
45.37657722819552
 40
45.80708464230339
 40
46.23751206138307
 40
46.88128125389261
 40
47.52442020304857
 40
48.16731685863711
 40
48.81027591905226
 40
49.3109506764567
 40
49.81164373206542
 40
50.31228534970707
 40
50.32006899334362
 40
50.32785219474038
 40
50.33552002110024
 40
50.34318916950121
 40
50.50601944133681
 40
50.66951614351792
 40
50.8328560137299
 40
50.99556987106993
 40
51.15783529384766
 40
51.32077489851571
 40
51.36518863246395
 40
51.4092701485818
 40
51.45344925286313
 40
51.49167900378927
 40
51.52887099045587
 40
51.5691416037834
 40
51.61087720311489
 40
51.67921868422271
 40
51.74710934985309
 40
51.81546966145325
 40
51.88364073693848
 40
51.88364073693848
 40
51.88364073693848
 40
51.88364073693848
 10
124.7789999999999
 20
-137.5196472665168
 30
0.0
 10
124.9020488873087
 20
-137.5310794664529
 30
0.0
 10
125.1481423808634
 20
-137.5539434549786
 30
0.0
 10
125.5605876794271
 20
-137.5872976870452
 30
0.0
 10
126.0166772439063
 20
-137.614072628434
 30
0.0
 10
126.5366786422347
 20
-137.6341545764198
 30
0.0
 10
127.0774013040869
 20
-137.6467968953938
 30
0.0
 10
127.7867814059163
 20
-137.6550567810944
 30
0.0
 10
128.6443143251333
 20
-137.6562744283138
 30
0.0
 10
129.7230581715782
 20
-137.6489923404479
 30
0.0
 10
130.8749134259139
 20
-137.637108033034
 30
0.0
 10
132.0295330754271
 20
-137.6218644581339
 30
0.0
 10
133.1137899955835
 20
-137.6057161279041
 30
0.0
 10
134.2211745944504
 20
-137.5881362486452
 30
0.0
 10
135.4220234567688
 20
-137.5684828168929
 30
0.0
 10
136.715377809278
 20
-137.5466189682475
 30
0.0
 10
138.0077652091309
 20
-137.5240922416443
 30
0.0
 10
139.2090689385681
 20
-137.5026203794613
 30
0.0
 10
140.3202473213631
 20
-137.4823992757904
 30
0.0
 10
141.2997108139461
 20
-137.4642731450761
 30
0.0
 10
142.2375793344694
 20
-137.4466258125557
 30
0.0
 10
143.1337834019948
 20
-137.4245840135814
 30
0.0
 10
143.9548134066725
 20
-137.3951357675347
 30
0.0
 10
144.700479066733
 20
-137.3574550440622
 30
0.0
 10
145.3706298340482
 20
-137.3127955887424
 30
0.0
 10
146.039762829061
 20
-137.2550220793374
 30
0.0
 10
146.6534783248009
 20
-137.1877018567809
 30
0.0
 10
147.2116860607638
 20
-137.1131959646864
 30
0.0
 10
147.7144889890747
 20
-137.0342727958564
 30
0.0
 10
148.215138004344
 20
-136.9423770476608
 30
0.0
 10
148.7115588406774
 20
-136.8364589969495
 30
0.0
 10
149.2030697972541
 20
-136.7153589685274
 30
0.0
 10
149.6889411232476
 20
-136.5784515149837
 30
0.0
 10
150.1697720951942
 20
-136.4245944760202
 30
0.0
 10
150.6446277839746
 20
-136.2530242658126
 30
0.0
 10
151.1084328701085
 20
-136.0646550811961
 30
0.0
 10
151.5603097289039
 20
-135.859400569747
 30
0.0
 10
151.9994266237302
 20
-135.6375773555826
 30
0.0
 10
152.4285990054043
 20
-135.3971376426675
 30
0.0
 10
152.8465779982165
 20
-135.1378808463614
 30
0.0
 10
153.249402418615
 20
-134.8614634903015
 30
0.0
 10
153.636022673217
 20
-134.5682234310445
 30
0.0
 10
154.0059558894884
 20
-134.259343659748
 30
0.0
 10
154.3609539990229
 20
-133.9336183873622
 30
0.0
 10
154.7077202623788
 20
-133.584203702214
 30
0.0
 10
155.0442067687841
 20
-133.2104882644373
 30
0.0
 10
155.37066974594
 20
-132.8139388889959
 30
0.0
 10
155.6818566483081
 20
-132.4049546618211
 30
0.0
 10
155.9796982055507
 20
-131.985932722253
 30
0.0
 10
156.2901738364073
 20
-131.5234381983255
 30
0.0
 10
156.6125378454499
 20
-131.0176813453324
 30
0.0
 10
156.9466593881446
 20
-130.4689569212269
 30
0.0
 10
157.2726873398954
 20
-129.9155612627073
 30
0.0
 10
157.590132795536
 20
-129.3660294703299
 30
0.0
 10
157.9023681037371
 20
-128.8223485894104
 30
0.0
 10
158.2150918705766
 20
-128.2880234761265
 30
0.0
 10
158.5516218188945
 20
-127.737205270212
 30
0.0
 10
158.9199142584458
 20
-127.1751299686774
 30
0.0
 10
159.3109811706657
 20
-126.5960153090038
 30
0.0
 10
159.6426560318093
 20
-126.0987201328642
 30
0.0
 10
159.9099397593233
 20
-125.6802962086492
 30
0.0
 10
160.1152401374582
 20
-125.3429580849684
 30
0.0
 10
160.3104534693429
 20
-124.9999300406354
 30
0.0
 10
160.4927472829576
 20
-124.6501006927924
 30
0.0
 10
160.6503146991242
 20
-124.3115925433341
 30
0.0
 10
160.7834938476099
 20
-123.9853140219471
 30
0.0
 10
160.8955127231506
 20
-123.6732939930266
 30
0.0
 10
160.9943591318893
 20
-123.3567662551325
 30
0.0
 10
161.0800204365341
 20
-123.036576184147
 30
0.0
 10
161.1292331389702
 20
-122.8172044460398
 30
0.0
 10
161.1526868010553
 20
-122.7013689492612
 30
0.0
 10
161.1550047563428
 20
-122.689837309632
 30
0.0
 10
161.1573088232137
 20
-122.6782920835441
 30
0.0
 10
161.1866682982721
 20
-122.5301865172991
 30
0.0
 10
161.2367967510484
 20
-122.2442158095291
 30
0.0
 10
161.2948085301972
 20
-121.818461320496
 30
0.0
 10
161.3387693192174
 20
-121.3907471887899
 30
0.0
 10
161.3707924507671
 20
-120.9616684991395
 30
0.0
 10
161.3929892396712
 20
-120.5318061733933
 30
0.0
 10
161.409865605576
 20
-120.0305042064266
 30
0.0
 10
161.419815723293
 20
-119.4581135254949
 30
0.0
 10
161.4205583436998
 20
-118.8148236213714
 30
0.0
 10
161.4130134110483
 20
-118.1718563590256
 30
0.0
 10
161.4003507666161
 20
-117.576474627138
 30
0.0
 10
161.3856943547811
 20
-117.0285615583563
 30
0.0
 10
161.3752440997694
 20
-116.5279953234879
 30
0.0
 10
161.3737864608501
 20
-116.1915919235178
 30
0.0
 10
161.375418689451
 20
-116.0195301819524
 30
0.0
 10
161.3754981441498
 20
-116.0117856970452
 30
0.0
 10
161.3755858073494
 20
-116.0040794710072
 30
0.0
 10
161.376269487567
 20
-115.9446942836807
 30
0.0
 10
161.3765315171272
 20
-115.8333619864691
 30
0.0
 10
161.3779619526842
 20
-115.6701400750754
 30
0.0
 10
161.3842882945037
 20
-115.5070343763292
 30
0.0
 10
161.3994065566072
 20
-115.3448447932704
 30
0.0
 10
161.4272788527047
 20
-115.1843921672061
 30
0.0
 10
161.4609533476385
 20
-115.0655637598421
 30
0.0
 10
161.4901659874636
 20
-114.98696929823
 30
0.0
 10
161.50980080071
 20
-114.9471831453755
 30
0.0
 10
161.5351817513627
 20
-114.9130969022424
 30
0.0
 10
161.5655816725533
 20
-114.8868663752818
 30
0.0
 10
161.6013970826125
 20
-114.8701945140702
 30
0.0
 10
161.6422091326853
 20
-114.8706163063468
 30
0.0
 10
161.6905188577853
 20
-114.8846866645517
 30
0.0
 10
161.7437625855641
 20
-114.9119220495903
 30
0.0
 10
161.7980171595845
 20
-114.953600095029
 30
0.0
 10
161.8475827506293
 20
-115.0003927789245
 30
0.0
 10
161.8804094184679
 20
-115.0319103298636
 30
0.0
 10
161.8968
 20
-115.0476472665168
 30
0.0
 11
124.7789999999999
 21
-137.5196472665168
 31
0.0
 11
125.1482131727231
 21
-137.553208580331
 31
0.0
 11
125.5177631423999
 21
-137.5826700761167
 31
0.0
 11
126.0167394179379
 21
-137.6124041286074
 31
0.0
 11
126.5162529792
 21
-137.6321699033167
 31
0.0
 11
127.0774230824117
 21
-137.6456994361822
 31
0.0
 11
127.6386999999999
 21
-137.6526472665168
 31
0.0
 11
128.6443008547164
 21
-137.6549050836677
 31
0.0
 11
129.6499073344
 21
-137.6489471513167
 31
0.0
 11
130.8749104471286
 21
-137.6365191269157
 31
0.0
 11
132.0998604352
 21
-137.6205581849168
 31
0.0
 11
133.1137866364257
 21
-137.6055502982674
 31
0.0
 11
134.1277
 21
-137.5895472665168
 31
0.0
 11
135.4220219143843
 21
-137.5683666913949
 31
0.0
 11
136.7163310912
 21
-137.5464893657167
 31
0.0
 11
138.0077631976435
 21
-137.5239968330966
 31
0.0
 11
139.2991861695999
 21
-137.5009317401168
 31
0.0
 11
140.3202469580797
 21
-137.4823468280534
 31
0.0
 11
141.3413
 21
-137.4634472665168
 31
0.0
 11
142.237562098305
 21
-137.4457631006254
 31
0.0
 11
143.1337068476744
 21
-137.4229027842682
 31
0.0
 11
144.0296255744
 21
-137.3899499545167
 31
0.0
 11
144.7003761976803
 21
-137.3556610641553
 31
0.0
 11
145.3704899944201
 21
-137.3106076381797
 31
0.0
 11
146.0395178963499
 21
-137.2524448343723
 31
0.0
 11
146.7070108352
 21
-137.1788278105168
 31
0.0
 11
147.2114029577429
 21
-137.1112651097851
 31
0.0
 11
147.714121552229
 21
-137.0321122147389
 31
0.0
 11
148.2146320794005
 21
-136.9399969815816
 31
0.0
 11
148.7124
 21
-136.8335472665168
 31
0.0
 11
149.2023228894715
 21
-136.7126776479682
 31
0.0
 11
149.6880913887165
 21
-136.5756293879718
 31
0.0
 11
150.1687686838658
 21
-136.4216449676498
 31
0.0
 11
150.64341796105
 21
-136.2499668681243
 31
0.0
 11
151.1111024064
 21
-136.0598375705167
 31
0.0
 11
151.5588197438678
 21
-135.8563504546005
 31
0.0
 11
151.9977966324039
 21
-135.6344597342873
 31
0.0
 11
152.426783496686
 21
-135.3939719447319
 31
0.0
 11
152.8445307613921
 21
-135.1346936210901
 31
0.0
 11
153.2497888512
 21
-134.8564312985167
 31
0.0
 11
153.6336874942379
 21
-134.5652778246144
 31
0.0
 11
154.0035194665158
 21
-134.256489494253
 31
0.0
 11
154.3584139183358
 21
-133.9308510580235
 31
0.0
 11
154.6974999999999
 21
-133.5891472665168
 31
0.0
 11
155.0412899536128
 21
-133.2080706717153
 31
0.0
 11
155.3680054530145
 21
-132.8120160552627
 31
0.0
 11
155.6795504485696
 21
-132.4033923896509
 31
0.0
 11
155.9778288906431
 21
-131.9846086473717
 31
0.0
 11
156.2647447295999
 21
-131.5580738009167
 31
0.0
 11
156.6107577958298
 21
-131.0163833705703
 31
0.0
 11
156.9453355643579
 21
-130.468137005193
 31
0.0
 11
157.2718658323069
 21
-129.9151506728776
 31
0.0
 11
157.5937363968
 21
-129.3592403417168
 31
0.0
 11
157.90312438531
 21
-128.8227335722139
 31
0.0
 11
158.2168419143399
 21
-128.2889012982051
 31
0.0
 11
158.5404
 21
-127.7614472665168
 31
0.0
 11
158.9211703444389
 21
-127.1761627230936
 31
0.0
 11
159.3102810796179
 21
-126.5958581769934
 31
0.0
 11
159.6965117824
 21
-126.0126672601168
 31
0.0
 11
159.9087352254055
 21
-125.6795229245033
 31
0.0
 11
160.1136356244519
 21
-125.3418790565257
 31
0.0
 11
160.308376357676
 21
-124.9986573838748
 31
0.0
 11
160.490120803213
 21
-124.6487796342417
 31
0.0
 11
160.6560323392
 21
-124.2911675353167
 31
0.0
 11
160.7812479754516
 21
-123.9845596241114
 31
0.0
 11
160.8933020438263
 21
-123.6725866621844
 31
0.0
 11
160.9921802566175
 21
-123.3560895395344
 31
0.0
 11
161.0778683261191
 21
-123.0359091461598
 31
0.0
 11
161.1503519646246
 21
-122.7128863720586
 31
0.0
 11
161.1526841213569
 21
-122.7013683152038
 31
0.0
 11
161.155
 21
-122.6898472665168
 31
0.0
 11
161.1573063520323
 21
-122.6782916067788
 31
0.0
 11
161.159597858359
 21
-122.6667329820133
 31
0.0
 11
161.2340929603913
 21
-122.2438485084803
 31
0.0
 11
161.2924466184415
 21
-121.8183047976479
 31
0.0
 11
161.3367633779354
 21
-121.3907027404368
 31
0.0
 11
161.369147784298
 21
-120.9616432277669
 31
0.0
 11
161.3917043829546
 21
-120.5317271505588
 31
0.0
 11
161.4065377193313
 21
-120.101555399733
 31
0.0
 11
161.4180774167688
 21
-119.4578896413153
 31
0.0
 11
161.4191766715178
 21
-118.8147516316278
 31
0.0
 11
161.4119926240245
 21
-118.1718951164067
 31
0.0
 11
161.3986824147355
 21
-117.5290738413887
 31
0.0
 11
161.3861841233296
 21
-117.0285551051267
 31
0.0
 11
161.3766239886546
 21
-116.5279533275886
 31
0.0
 11
161.3753454080886
 21
-116.0273133427483
 31
0.0
 11
161.3754196967611
 21
-116.0195300536354
 31
0.0
 11
161.3754999999999
 21
-116.0117472665168
 31
0.0
 11
161.375585980315
 21
-116.0040799222287
 31
0.0
 11
161.3756730384525
 21
-115.9964112679766
 31
0.0
 11
161.3767046025795
 21
-115.8335842638223
 31
0.0
 11
161.3787804130244
 21
-115.6701007398504
 31
0.0
 11
161.3857722985246
 21
-115.5069105847992
 31
0.0
 11
161.4015520878188
 21
-115.3449636874062
 31
0.0
 11
161.4299916096451
 21
-115.1852099364093
 31
0.0
 11
161.4749626927418
 21
-115.0285992205469
 31
0.0
 11
161.4909136101049
 21
-114.9871486719167
 31
0.0
 11
161.510945798138
 21
-114.9478817458556
 31
0.0
 11
161.5376431688479
 21
-114.9126816945031
 31
0.0
 11
161.5669189108539
 21
-114.8880962365533
 31
0.0
 11
161.6010299622399
 21
-114.8732746311307
 31
0.0
 11
161.6412908980009
 21
-114.8723918616211
 31
0.0
 11
161.6816194455291
 21
-114.8831374860796
 31
0.0
 11
161.7427320538428
 21
-114.913728447907
 31
0.0
 11
161.7971241394645
 21
-114.9543565532976
 31
0.0
 11
161.8475590167365
 21
-115.0005025701883
 31
0.0
 11
161.8968
 21
-115.0476472665168
 31
0.0
  0
ARC
  5
111D
330
1F
100
AcDbEntity
  8
0
  6
Continuous
 62
     7
100
AcDbCircle
 10
144.2790999999999
 20
-123.0476472665168
 30
0.0
 40
10.0
100
AcDbArc
 50
270.0
 51
0.0
  0
LINE
  5
111E
330
1F
100
AcDbEntity
  8
0
  6
Continuous
 62
     7
100
AcDbLine
 10
134.7790999999999
 20
-115.0476472665168
 30
0.0
 11
161.8968
 21
-115.0476472665168
 31
0.0
  0
LINE
  5
111F
330
1F
100
AcDbEntity
  8
0
  6
DASH_CENTER
 62
    30
100
AcDbLine
 10
117.0353999999999
 20
-124.0476472665168
 30
0.0
 11
159.9103
 21
-124.0476472665168
 31
0.0
  0
LINE
  5
1128
330
1F
100
AcDbEntity
  8
0
  6
Continuous
 62
     7
100
AcDbLine
 10
124.7791
 20
-133.0476472665168
 30
0.0
 11
144.2790999999999
 21
-133.0476472665168
 31
0.0
  0
LINE
  5
1129
330
1F
100
AcDbEntity
  8
0
  6
Continuous
 62
     7
100
AcDbLine
 10
146.2790999999999
 20
-127.5476472665168
 30
0.0
 11
133.2791
 21
-127.5476472665168
 31
0.0
  0
LINE
  5
112A
330
1F
100
AcDbEntity
  8
0
  6
Continuous
 62
     7
100
AcDbLine
 10
146.2790999999999
 20
-120.5476472665168
 30
0.0
 11
133.2791
 21
-120.5476472665168
 31
0.0
  0
LINE
  5
112B
330
1F
100
AcDbEntity
  8
0
  6
Continuous
 62
     7
100
AcDbLine
 10
124.7791
 20
-125.0476472665167
 30
0.0
 11
124.7791
 21
-137.5195472665168
 31
0.0
  0
ARC
  5
112C
330
1F
100
AcDbEntity
  8
0
  6
Continuous
 62
     7
100
AcDbCircle
 10
134.7790999999999
 20
-125.0476472665167
 30
0.0
 40
10.0
100
AcDbArc
 50
90.0
 51
180.0
  0
ARC
  5
112D
330
1F
100
AcDbEntity
  8
0
  6
Continuous
 62
     7
100
AcDbCircle
 10
133.2791
 20
-124.0476472665168
 30
0.0
 40
3.5
100
AcDbArc
 50
90.0
 51
180.0
  0
ARC
  5
112E
330
1F
100
AcDbEntity
  8
0
  6
Continuous
 62
     7
100
AcDbCircle
 10
133.2791
 20
-124.0476472665168
 30
0.0
 40
3.5
100
AcDbArc
 50
180.0
 51
270.0
  0
ARC
  5
112F
330
1F
100
AcDbEntity
  8
0
  6
Continuous
 62
     7
100
AcDbCircle
 10
146.2790999999999
 20
-124.0476472665168
 30
0.0
 40
3.5
100
AcDbArc
 50
270.0
 51
0.0
  0
ARC
  5
1130
330
1F
100
AcDbEntity
  8
0
  6
Continuous
 62
     7
100
AcDbCircle
 10
146.2790999999999
 20
-124.0476472665168
 30
0.0
 40
3.5
100
AcDbArc
 50
0.0
 51
90.0
  0
LINE
  5
1132
330
1F
100
AcDbEntity
  8
0
  6
Continuous
 62
     7
100
AcDbLine
 10
154.2791
 20
-115.0476472665168
 30
0.0
 11
154.2791
 21
-123.0476472665168
 31
0.0
  0
ARC
  5
113A
330
1F
100
AcDbEntity
  8
0
  6
Continuous
 62
     7
100
AcDbCircle
 10
151.2790886377255
 20
18.88699657411971
 30
0.0
 40
2.999996574141236
100
AcDbArc
 50
270.0002170037063
 51
303.5573294902927
  0
LINE
  5
113B
330
1F
100
AcDbEntity
  8
0
  6
Continuous
 62
     7
100
AcDbLine
 10
154.2791
 20
16.887
 30
0.0
 11
124.7791
 21
16.887
 31
0.0
  0
LINE
  5
113C
330
1F
100
AcDbEntity
  8
0
  6
Continuous
 62
     7
100
AcDbLine
 10
154.2791
 20
12.68699999999999
 30
0.0
 11
124.7791
 21
12.68699999999999
 31
0.0
  0
ARC
  5
1148
330
1F
100
AcDbEntity
  8
0
  6
Continuous
 62
     7
100
AcDbCircle
 10
98.1193
 20
8.293499999999994
 30
0.0
 40
3.300015734810966
100
AcDbArc
 50
168.1510445606682
 51
11.84895543933176
  0
LINE
  5
1149
330
1F
100
AcDbEntity
  8
0
  6
DASH_CENTER
 62
    30
100
AcDbLine
 10
98.1193
 20
0.335400000000007
 30
0.0
 11
98.1193
 21
14.84839999999999
 31
0.0
  0
CIRCLE
  5
114A
330
1F
100
AcDbEntity
  8
0
  6
Continuous
 62
     7
100
AcDbCircle
 10
98.1193
 20
8.293499999999994
 30
0.0
 40
2.150000000000006
  0
LINE
  5
114B
330
1F
100
AcDbEntity
  8
0
  6
Continuous
 62
     7
100
AcDbLine
 10
100.1691
 20
19.39329999999999
 30
0.0
 11
96.0692
 21
19.39329999999999
 31
0.0
  0
LINE
  5
114C
330
1F
100
AcDbEntity
  8
0
  6
Continuous
 62
     7
100
AcDbLine
 10
96.0692
 20
14.59349999999998
 30
0.0
 11
100.1691
 21
14.59349999999998
 31
0.0
  0
LINE
  5
114D
330
1F
100
AcDbEntity
  8
0
  6
Continuous
 62
     7
100
AcDbLine
 10
96.0692
 20
19.39329999999999
 30
0.0
 11
96.0692
 21
14.59349999999998
 31
0.0
  0
LINE
  5
114E
330
1F
100
AcDbEntity
  8
0
  6
Continuous
 62
     7
100
AcDbLine
 10
96.0692
 20
14.59349999999998
 30
0.0
 11
94.8896
 21
8.9709
 31
0.0
  0
LINE
  5
114F
330
1F
100
AcDbEntity
  8
0
  6
Continuous
 62
     7
100
AcDbLine
 10
100.1691
 20
19.39329999999999
 30
0.0
 11
100.1691
 21
14.59349999999998
 31
0.0
  0
LINE
  5
1150
330
1F
100
AcDbEntity
  8
0
  6
Continuous
 62
     7
100
AcDbLine
 10
100.1691
 20
14.59349999999998
 30
0.0
 11
101.3487999999999
 21
8.9709
 31
0.0
  0
LINE
  5
1159
330
1F
100
AcDbEntity
  8
0
  6
Continuous
 62
     7
100
AcDbLine
 10
151.2790999999999
 20
15.887
 30
0.0
 11
124.7791
 21
15.887
 31
0.0
  0
ARC
  5
115C
330
1F
100
AcDbEntity
  8
0
  6
Continuous
 62
     7
100
AcDbCircle
 10
124.779158792008
 20
19.88703064270151
 30
0.0
 40
3.000030643277582
100
AcDbArc
 50
269.9988771668277
 51
325.0586447866816
  0
LINE
  5
115D
330
1F
100
AcDbEntity
  8
0
  6
Continuous
 62
     7
100
AcDbLine
 10
124.7791
 20
16.887
 30
0.0
 11
124.7791
 21
12.68699999999999
 31
0.0
  0
ARC
  5
115E
330
1F
100
AcDbEntity
  8
0
  6
Continuous
 62
     7
100
AcDbCircle
 10
131.1726041915204
 20
26.77176816601527
 30
0.0
 40
1.29999529574881
100
AcDbArc
 50
145.0007981829888
 51
230.0009595065724
  0
LINE
  5
115F
330
1F
100
AcDbEntity
  8
0
  6
Continuous
 62
     7
100
AcDbLine
 10
130.2555999999998
 20
23.8934
 30
0.0
 11
130.9111
 21
23.4345
 31
0.0
  0
LINE
  5
1160
330
1F
100
AcDbEntity
  8
0
  6
Continuous
 62
     7
100
AcDbLine
 10
131.116
 20
25.1221
 30
0.0
 11
130.3369
 21
25.7759
 31
0.0
  0
LINE
  5
1161
330
1F
100
AcDbEntity
  8
0
  6
DASH_CENTER
 62
    30
100
AcDbLine
 10
139.7790999999999
 20
2.780299999999995
 30
0.0
 11
139.7790999999999
 21
21.12449999999998
 31
0.0
  0
ARC
  5
1167
330
1F
100
AcDbEntity
  8
0
  6
Continuous
 62
     7
100
AcDbCircle
 10
189.7790839646404
 20
75.68700193077787
 30
0.0
 40
58.80000193078007
100
AcDbArc
 50
256.2684043388002
 51
270.0000156251431
  0
LINE
  5
1168
330
1F
100
AcDbEntity
  8
0
  6
Continuous
 62
     7
100
AcDbLine
 10
154.2791
 20
13.68699999999999
 30
0.0
 11
189.7790999999999
 21
13.68699999999999
 31
0.0
  0
LINE
  5
1169
330
1F
100
AcDbEntity
  8
0
  6
Continuous
 62
     7
100
AcDbLine
 10
189.7790999999999
 20
16.887
 30
0.0
 11
154.2791
 21
16.887
 31
0.0
  0
ARC
  5
116C
330
1F
100
AcDbEntity
  8
0
  6
Continuous
 62
     7
100
AcDbCircle
 10
189.778982173996
 20
75.68704880484219
 30
0.0
 40
56.19997540278586
100
AcDbArc
 50
238.8009809314635
 51
256.1992570276379
  0
ARC
  5
116D
330
1F
100
AcDbEntity
  8
0
  6
Continuous
 62
     7
100
AcDbCircle
 10
168.6006124352389
 20
16.77830545348422
 30
0.0
 40
5.000032420876438
100
AcDbArc
 50
70.22573258727833
 51
157.1340528257285
  0
ARC
  5
116E
330
1F
100
AcDbEntity
  8
0
  6
Continuous
 62
     7
100
AcDbCircle
 10
154.5958578789165
 20
13.8870174537182
 30
0.0
 40
2.999982546840132
100
AcDbArc
 50
90.00110541231441
 51
123.5608652041144
  0
LINE
  5
116F
330
1F
100
AcDbEntity
  8
0
  6
Continuous
 62
     7
100
AcDbLine
 10
154.2791
 20
13.68699999999999
 30
0.0
 11
154.2791
 21
12.68699999999999
 31
0.0
  0
ARC
  5
1170
330
1F
100
AcDbEntity
  8
0
  6
Continuous
 62
     7
100
AcDbCircle
 10
161.2293557763154
 20
19.88703700933976
 30
0.0
 40
3.000037009858258
100
AcDbArc
 50
269.9989347639832
 51
337.1321156698921
  0
ARC
  5
1171
330
1F
100
AcDbEntity
  8
0
  6
Continuous
 62
     7
100
AcDbCircle
 10
176.5337069581675
 20
21.48196058446971
 30
0.0
 40
2.999978110365601
100
AcDbArc
 50
217.5888747916158
 51
256.2705562531756
  0
ARC
  5
1172
330
1F
100
AcDbEntity
  8
0
  6
Continuous
 62
     7
100
AcDbCircle
 10
171.7791219640188
 20
17.82198470853839
 30
0.0
 40
3.000006805706227
100
AcDbArc
 50
37.58736128128438
 51
72.72097466822207
  0
LINE
  5
1173
330
1F
100
AcDbEntity
  8
0
  6
Continuous
 62
     7
100
AcDbLine
 10
177.5349
 20
23.91529999999999
 30
0.0
 11
176.3727
 21
21.10959999999999
 31
0.0
  0
ARC
  5
1179
330
1F
100
AcDbEntity
  8
0
  6
Continuous
 62
     7
100
AcDbCircle
 10
189.7790174642165
 20
75.68699006199985
 30
0.0
 40
58.79999006205776
100
AcDbArc
 50
270.0000804243674
 51
283.7315970539555
  0
ARC
  5
117A
330
1F
100
AcDbEntity
  8
0
  6
Continuous
 62
     7
100
AcDbCircle
 10
207.7789780359811
 20
17.82198470853839
 30
0.0
 40
3.000006805706234
100
AcDbArc
 50
107.2790253317779
 51
142.4126387187155
  0
ARC
  5
117B
330
1F
100
AcDbEntity
  8
0
  6
Continuous
 62
     7
100
AcDbCircle
 10
203.0243930418325
 20
21.48196058446971
 30
0.0
 40
2.999978110365593
100
AcDbArc
 50
283.7294437468242
 51
322.4111252083824
  0
LINE
  5
117C
330
1F
100
AcDbEntity
  8
0
  6
Continuous
 62
     7
100
AcDbLine
 10
202.0233
 20
23.91529999999999
 30
0.0
 11
203.1854
 21
21.10959999999999
 31
0.0
  0
LINE
  5
118A
330
1F
100
AcDbEntity
  8
0
  6
Continuous
 62
     7
100
AcDbLine
 10
225.279
 20
16.887
 30
0.0
 11
254.779
 21
16.887
 31
0.0
  0
LINE
  5
118B
330
1F
100
AcDbEntity
  8
0
  6
Continuous
 62
     7
100
AcDbLine
 10
225.279
 20
12.68699999999999
 30
0.0
 11
254.779
 21
12.68699999999999
 31
0.0
  0
LINE
  5
118C
330
1F
100
AcDbEntity
  8
0
  6
Continuous
 62
     7
100
AcDbLine
 10
228.2788
 20
15.887
 30
0.0
 11
254.779
 21
15.887
 31
0.0
  0
ARC
  5
1195
330
1F
100
AcDbEntity
  8
0
  6
Continuous
 62
     7
100
AcDbCircle
 10
218.3288136538541
 20
19.88699093991048
 30
0.0
 40
2.999990939941568
100
AcDbArc
 50
202.867300506105
 51
269.9997392298044
  0
ARC
  5
1196
330
1F
100
AcDbEntity
  8
0
  6
Continuous
 62
     7
100
AcDbCircle
 10
228.2788113622745
 20
18.88699657411971
 30
0.0
 40
2.999996574141236
100
AcDbArc
 50
236.4426705097068
 51
269.9997829962936
  0
ARC
  5
1197
330
1F
100
AcDbEntity
  8
0
  6
Continuous
 62
     7
100
AcDbCircle
 10
224.9620504519143
 20
13.88704509979952
 30
0.0
 40
2.999954903927953
100
AcDbArc
 50
56.43897548634811
 51
89.99714379901901
  0
LINE
  5
1198
330
1F
100
AcDbEntity
  8
0
  6
Continuous
 62
     7
100
AcDbLine
 10
225.279
 20
13.68699999999999
 30
0.0
 11
225.279
 21
12.68699999999999
 31
0.0
  0
LINE
  5
1199
330
1F
100
AcDbEntity
  8
0
  6
DASH_CENTER
 62
    30
100
AcDbLine
 10
239.7791
 20
2.780299999999995
 30
0.0
 11
239.7791
 21
21.1682
 31
0.0
  0
ARC
  5
119E
330
1F
100
AcDbEntity
  8
0
  6
Continuous
 62
     7
100
AcDbCircle
 10
254.7789412079918
 20
19.8870306427015
 30
0.0
 40
3.000030643277578
100
AcDbArc
 50
214.9413552133183
 51
270.0011228331721
  0
LINE
  5
119F
330
1F
100
AcDbEntity
  8
0
  6
Continuous
 62
     7
100
AcDbLine
 10
254.779
 20
16.887
 30
0.0
 11
254.779
 21
12.68699999999999
 31
0.0
  0
CIRCLE
  5
11AF
330
1F
100
AcDbEntity
  8
0
  6
Continuous
 62
     7
100
AcDbCircle
 10
189.7790999999999
 20
75.68699999999998
 30
0.0
 40
46.0
  0
ARC
  5
11B0
330
1F
100
AcDbEntity
  8
0
  6
Continuous
 62
     7
100
AcDbCircle
 10
189.7790999999999
 20
75.68699999999998
 30
0.0
 40
57.59989999999999
100
AcDbArc
 50
0.0
 51
90.0
  0
ARC
  5
11B1
330
1F
100
AcDbEntity
  8
0
  6
Continuous
 62
     7
100
AcDbCircle
 10
189.7790250994902
 20
75.68703102482229
 30
0.0
 40
53.19998431069718
100
AcDbArc
 50
58.3062133989331
 51
76.69376660597172
  0
ARC
  5
11B2
330
1F
100
AcDbEntity
  8
0
  6
Continuous
 62
     7
100
AcDbCircle
 10
189.7790596124783
 20
75.68701672906752
 30
0.0
 40
56.19994950222896
100
AcDbArc
 50
58.80089555694242
 51
76.19908444796212
  0
LINE
  5
11B6
330
1F
100
AcDbEntity
  8
0
  6
Continuous
 62
     7
100
AcDbLine
 10
213.7569
 20
127.949
 30
0.0
 11
214.5100999999999
 21
128.7023
 31
0.0
  0
ARC
  5
11BB
330
1F
100
AcDbEntity
  8
0
  6
Continuous
 62
     7
100
AcDbCircle
 10
-19.38329999999998
 20
75.68699999999998
 30
0.0
 40
5.5
100
AcDbArc
 50
180.0
 51
0.0
  0
LINE
  5
11BC
330
1F
100
AcDbEntity
  8
0
  6
DASH_CENTER
 62
    30
100
AcDbLine
 10
-19.38329999999998
 20
67.5364
 30
0.0
 11
-19.38329999999998
 21
85.77519999999998
 31
0.0
  0
ARC
  5
11C6
330
1F
100
AcDbEntity
  8
0
  6
Continuous
 62
     7
100
AcDbCircle
 10
-19.38329999999998
 20
75.68699999999998
 30
0.0
 40
5.5
100
AcDbArc
 50
90.0
 51
180.0
  0
LINE
  5
11C7
330
1F
100
AcDbEntity
  8
0
  6
Continuous
 62
     7
100
AcDbLine
 10
-22.54570000000001
 20
80.187
 30
0.0
 11
-16.2209
 21
80.187
 31
0.0
  0
LINE
  5
11C8
330
1F
100
AcDbEntity
  8
0
  6
DASH_CENTER
 62
    30
100
AcDbLine
 10
-28.63769999999999
 20
75.68699999999998
 30
0.0
 11
-9.668499999999994
 21
75.68699999999998
 31
0.0
  0
ARC
  5
11C9
330
1F
100
AcDbEntity
  8
0
  6
Continuous
 62
     7
100
AcDbCircle
 10
-19.38329999999998
 20
75.68699999999998
 30
0.0
 40
5.499999999999997
100
AcDbArc
 50
0.0
 51
90.0
  0
CIRCLE
  5
11CA
330
1F
100
AcDbEntity
  8
0
  6
Continuous
 62
     7
100
AcDbCircle
 10
153.0097
 20
112.4561
 30
0.0
 40
3.499966435553329
  0
CIRCLE
  5
11CB
330
1F
100
AcDbEntity
  8
0
  6
Continuous
 62
     7
100
AcDbCircle
 10
153.0097
 20
38.9174
 30
0.0
 40
3.500037145517185
  0
ARC
  5
11CC
330
1F
100
AcDbEntity
  8
0
  6
Continuous
 62
     7
100
AcDbCircle
 10
189.7790999999999
 20
75.68699999999998
 30
0.0
 40
57.59990000000001
100
AcDbArc
 50
90.0
 51
180.0
  0
ARC
  5
11CD
330
1F
100
AcDbEntity
  8
0
  6
Continuous
 62
     7
100
AcDbCircle
 10
152.0096999999998
 20
111.4561
 30
0.0
 40
0.5
100
AcDbArc
 50
0.0
 51
90.0
  0
ARC
  5
11CE
330
1F
100
AcDbEntity
  8
0
  6
Continuous
 62
     7
100
AcDbCircle
 10
152.0096999999998
 20
113.4561
 30
0.0
 40
0.5
100
AcDbArc
 50
270.0
 51
0.0
  0
ARC
  5
11CF
330
1F
100
AcDbEntity
  8
0
  6
DASH_CENTER
 62
    30
100
AcDbCircle
 10
189.7792550661641
 20
75.68675197245418
 30
0.0
 40
52.0000071508443
100
AcDbArc
 50
125.239343166398
 51
143.6060755026646
  0
ARC
  5
11D0
330
1F
100
AcDbEntity
  8
0
  6
Continuous
 62
     7
100
AcDbCircle
 10
152.0096999999998
 20
39.9174
 30
0.0
 40
0.5
100
AcDbArc
 50
270.0
 51
0.0
  0
ARC
  5
11D1
330
1F
100
AcDbEntity
  8
0
  6
Continuous
 62
     7
100
AcDbCircle
 10
152.0096999999998
 20
37.9174
 30
0.0
 40
0.5
100
AcDbArc
 50
0.0
 51
90.0
  0
ARC
  5
11D2
330
1F
100
AcDbEntity
  8
0
  6
DASH_CENTER
 62
    30
100
AcDbCircle
 10
189.7794046662884
 20
75.68669320119505
 30
0.0
 40
52.0000079684863
100
AcDbArc
 50
215.2388543545335
 51
233.6055879905595
  0
LINE
  5
11D3
330
1F
100
AcDbEntity
  8
0
  6
DASH_CENTER
 62
    30
100
AcDbLine
 10
158.8217
 20
106.6440999999999
 30
0.0
 11
147.0432
 21
118.4223999999999
 31
0.0
  0
LINE
  5
11D4
330
1F
100
AcDbEntity
  8
0
  6
DASH_CENTER
 62
    30
100
AcDbLine
 10
158.8217999999999
 20
44.72949999999999
 30
0.0
 11
147.0434
 21
32.9509
 31
0.0
  0
LINE
  5
11D5
330
1F
100
AcDbEntity
  8
0
  6
Continuous
 62
     7
100
AcDbLine
 10
147.7315
 20
69.687
 30
0.0
 11
159.2791
 21
69.687
 31
0.0
  0
LINE
  5
11D6
330
1F
100
AcDbEntity
  8
0
  6
Continuous
 62
     7
100
AcDbLine
 10
147.7313999999998
 20
81.68700000000002
 30
0.0
 11
159.2791
 21
81.68700000000002
 31
0.0
  0
LINE
  5
11D8
330
1F
100
AcDbEntity
  8
0
  6
Continuous
 62
     7
100
AcDbLine
 10
118.9837
 20
93.1033
 30
0.0
 11
131.3566999999999
 21
89.78800000000004
 31
0.0
  0
LINE
  5
11D9
330
1F
100
AcDbEntity
  8
0
  6
Continuous
 62
     7
100
AcDbLine
 10
120.5366
 20
98.89879999999999
 30
0.0
 11
133.0544999999998
 21
95.5447
 31
0.0
  0
LINE
  5
11DA
330
1F
100
AcDbEntity
  8
0
  6
Continuous
 62
     7
100
AcDbLine
 10
119.7602
 20
96.00100000000001
 30
0.0
 11
132.1331999999999
 21
92.6858
 31
0.0
  0
LINE
  5
11DB
330
1F
100
AcDbEntity
  8
0
  6
Continuous
 62
     7
100
AcDbLine
 10
118.2073
 20
90.2055
 30
0.0
 11
130.7252
 21
86.85140000000002
 31
0.0
  0
LINE
  5
11DC
330
1F
100
AcDbEntity
  8
0
  6
Continuous
 62
     7
100
AcDbLine
 10
105.6192
 20
80.54619999999998
 30
0.0
 11
105.6192
 21
51.5041
 31
0.0
  0
LINE
  5
11DD
330
1F
100
AcDbEntity
  8
0
  6
Continuous
 62
     7
100
AcDbLine
 10
99.6192
 20
80.54619999999998
 30
0.0
 11
99.6192
 21
51.5041
 31
0.0
  0
LINE
  5
11DE
330
1F
100
AcDbEntity
  8
0
  6
Continuous
 62
     7
100
AcDbLine
 10
102.6191999999999
 20
80.54619999999998
 30
0.0
 11
102.6191999999999
 21
51.5041
 31
0.0
  0
LINE
  5
11DF
330
1F
100
AcDbEntity
  8
0
  6
Continuous
 62
     7
100
AcDbLine
 10
96.61920000000002
 20
80.54619999999998
 30
0.0
 11
96.61920000000002
 21
51.5041
 31
0.0
  0
SPLINE
  5
11E0
330
1F
100
AcDbEntity
  8
0
  6
Continuous
 62
    54
100
AcDbSpline
210
0.0
220
0.0
230
1.0
 70
     8
 71
     3
 72
   183
 73
   179
 74
   177
 42
0.0000000001
 43
0.0000000001
 44
0.00000001
 40
0.0
 40
0.0
 40
0.0
 40
0.0
 40
0.0650619616725724
 40
0.1301168610722864
 40
0.1951882704758329
 40
0.2603605792490566
 40
0.312585228501579
 40
0.364842129072758
 40
0.4170399657540197
 40
0.4691492018501824
 40
0.5212132450500768
 40
0.5684550898160276
 40
0.6157661529308696
 40
0.6631269462578465
 40
0.7104949565374885
 40
0.7578086344328627
 40
0.8067565171867993
 40
0.8556750981752221
 40
0.9046352819940722
 40
0.9536694162563088
 40
1.002775730680531
 40
1.051922864325045
 40
1.101054273429226
 40
1.178184207003346
 40
1.255163901374907
 40
1.33205992432675
 40
1.408926833284487
 40
1.485807609573962
 40
1.564412531148749
 40
1.643030889940481
 40
1.721643076552684
 40
1.800247177572414
 40
1.867172697281887
 40
1.934109641382589
 40
2.001054867926567
 40
2.067996587534184
 40
2.134914974141319
 40
2.209291084358248
 40
2.283659524859493
 40
2.358042184681189
 40
2.432436597780481
 40
2.508722695302731
 40
2.584989233660333
 40
2.661247075748184
 40
2.72591292127183
 40
2.79059674650482
 40
2.85528796147709
 40
2.919987563748767
 40
2.980747395965746
 40
3.041503898756807
 40
3.102247750377955
 40
3.162984144168008
 40
3.210673813514051
 40
3.258363154143271
 40
3.306054582258682
 40
3.353762461075392
 40
3.408921301932669
 40
3.464091969760669
 40
3.519247023714634
 40
3.57438047393748
 40
3.620894598135364
 40
3.667423913002015
 40
3.713972385848466
 40
3.760529568616713
 40
3.807071925622699
 40
3.862699801712838
 40
3.918307843540116
 40
3.973915762173709
 40
4.02951412442153
 40
4.106947025353637
 40
4.18437644404179
 40
4.261822057261517
 40
4.339277231593653
 40
4.391991856486023
 40
4.444696590133931
 40
4.497395746543846
 40
4.550122380225557
 40
4.6029460352172
 40
4.655980094420965
 40
4.691001654867871
 40
4.726070628132296
 40
4.761094110589754
 40
4.796004236984526
 40
4.830762891420276
 40
4.865366930827454
 40
4.899853705861925
 40
4.936125229968456
 40
4.97248554519664
 40
5.009010988178062
 40
5.045727347492386
 40
5.082616607620515
 40
5.119623604857769
 40
5.156662194275601
 40
5.193620752035362
 40
5.257976759919742
 40
5.321951139232536
 40
5.385740960254686
 40
5.449488950364937
 40
5.513307110215238
 40
5.566232593002692
 40
5.619203486494845
 40
5.672164210827485
 40
5.725088998094056
 40
5.777992662215482
 40
5.836840768359835
 40
5.895751603398202
 40
5.954715173014371
 40
6.013701125642505
 40
6.072660965442429
 40
6.140391422738201
 40
6.208080927916737
 40
6.275761996928767
 40
6.343425378162304
 40
6.41024764084531
 40
6.47707100914547
 40
6.543928915825456
 40
6.596338148125552
 40
6.648736693354721
 40
6.701096224818861
 40
6.753434030136316
 40
6.811398496885565
 40
6.869428096686117
 40
6.927489241770746
 40
6.985528450303724
 40
7.039517894326039
 40
7.093490043998545
 40
7.147477301269699
 40
7.201484957228324
 40
7.255496309347886
 40
7.369430805312752
 40
7.483318346272444
 40
7.597186657431808
 40
7.711035036330764
 40
7.812783677761074
 40
7.914532345103558
 40
8.016310586803205
 40
8.118167328673759
 40
8.220174927928617
 40
8.274895343058068
 40
8.329622885202542
 40
8.384312566158536
 40
8.438945355086493
 40
8.493534228439521
 40
8.548130251426256
 40
8.602828439738905
 40
8.648498487844671
 40
8.694269664783528
 40
8.740082227249853
 40
8.785886279503534
 40
8.831643707919319
 40
8.877330228328517
 40
8.922937535323576
 40
8.968475521703696
 40
9.01258340590178
 40
9.056705930930919
 40
9.100872592194285
 40
9.145090523998891
 40
9.189346656187689
 40
9.233609849655145
 40
9.277832936688
 40
9.333397525729958
 40
9.388860327607311
 40
9.444270321142019
 40
9.499667432199052
 40
9.50089243996924
 40
9.502116691820374
 40
9.503337014054064
 40
9.504558061348738
 40
9.547261744650613
 40
9.590000234867735
 40
9.632834343070742
 40
9.675749720181075
 40
9.718672703816491
 40
9.776214670019102
 40
9.833616723970639
 40
9.890962201638791
 40
9.955053336581073
 40
10.01918285407864
 40
10.01918285407864
 40
10.01918285407864
 40
10.01918285407864
 10
96.61920000000002
 20
51.5041
 30
0.0
 10
96.63070339486509
 20
51.48571488200936
 30
0.0
 10
96.65370894817302
 20
51.44894664933538
 30
0.0
 10
96.68885435488466
 20
51.39418904248294
 30
0.0
 10
96.72535919793862
 20
51.34027606816409
 30
0.0
 10
96.761323587461
 20
51.29120009186464
 30
0.0
 10
96.79676446968791
 20
51.24711003858084
 30
0.0
 10
96.83135192077664
 20
51.2079491788658
 30
0.0
 10
96.86796648404946
 20
51.17072074729226
 30
0.0
 10
96.90674731763319
 20
51.13583957082511
 30
0.0
 10
96.94655059535547
 20
51.1047294061916
 30
0.0
 10
96.9871892626651
 20
51.07751259656972
 30
0.0
 10
97.02818475134007
 20
51.05384336263911
 30
0.0
 10
97.07063956229614
 20
51.03281451386857
 30
0.0
 10
97.11430157515081
 20
51.01442649138529
 30
0.0
 10
97.15947470769794
 20
50.99848321546879
 30
0.0
 10
97.20600491269845
 20
50.98508582920898
 30
0.0
 10
97.25373002032563
 20
50.97413985168369
 30
0.0
 10
97.30196265562549
 20
50.96556538166398
 30
0.0
 10
97.3505850068885
 20
50.9591208133823
 30
0.0
 10
97.39947976886995
 20
50.95456505177855
 30
0.0
 10
97.44853008346737
 20
50.95165796701536
 30
0.0
 10
97.50697824957001
 20
50.94987415703664
 30
0.0
 10
97.57474136592518
 20
50.94988335016065
 30
0.0
 10
97.651708456477
 20
50.95267615545959
 30
0.0
 10
97.72844389665825
 20
50.95813012269307
 30
0.0
 10
97.80492197712101
 20
50.96612464788019
 30
0.0
 10
97.88167125362779
 20
50.97661486761099
 30
0.0
 10
97.95864182890028
 20
50.98953599560081
 30
0.0
 10
98.03571443168824
 20
51.00509298061944
 30
0.0
 10
98.11219722543434
 20
51.02333558921538
 30
0.0
 10
98.1841968708526
 20
51.04336249704289
 30
0.0
 10
98.25170394911248
 20
51.06481850516136
 30
0.0
 10
98.31482311407553
 20
51.08713114153299
 30
0.0
 10
98.37723362364314
 20
51.11136755521989
 30
0.0
 10
98.43890245960551
 20
51.13741509173616
 30
0.0
 10
98.50207477591361
 20
51.16619900678784
 30
0.0
 10
98.56663651767872
 20
51.19783546678103
 30
0.0
 10
98.63266952773557
 20
51.23207040200968
 30
0.0
 10
98.69815972980696
 20
51.2673402250323
 30
0.0
 10
98.76389704932226
 20
51.30348983907312
 30
0.0
 10
98.83011704680034
 20
51.34006434435447
 30
0.0
 10
98.89723799188288
 20
51.37628984695439
 30
0.0
 10
98.96167564014834
 20
51.40931246940067
 30
0.0
 10
99.02359939838104
 20
51.43870563068171
 30
0.0
 10
99.08283831405128
 20
51.46469770941791
 30
0.0
 10
99.14287993499488
 20
51.48881146613614
 30
0.0
 10
99.20246692279841
 20
51.51045565444503
 30
0.0
 10
99.26151354966373
 20
51.5296367241358
 30
0.0
 10
99.31993362607256
 20
51.54636102601852
 30
0.0
 10
99.3789316682848
 20
51.56088865815137
 30
0.0
 10
99.43419225262751
 20
51.5721988559152
 30
0.0
 10
99.48553657573846
 20
51.58072819023828
 30
0.0
 10
99.53283670023331
 20
51.58689599173357
 30
0.0
 10
99.58034076768136
 20
51.5913018883752
 30
0.0
 10
99.63046961254681
 20
51.59396301297902
 30
0.0
 10
99.6831687609557
 20
51.59438980922333
 30
0.0
 10
99.73830544125858
 20
51.59206167629772
 30
0.0
 10
99.79323673486245
 20
51.58683434212105
 30
0.0
 10
99.8449452664089
 20
51.57901248168382
 30
0.0
 10
99.89333567268339
 20
51.56902258996321
 30
0.0
 10
99.93843487511217
 20
51.55750554253017
 30
0.0
 10
99.9829955589093
 20
51.54401090066524
 30
0.0
 10
100.0269574738386
 20
51.52866860322905
 30
0.0
 10
100.0730939746342
 20
51.51049234751005
 30
0.0
 10
100.1212065887461
 20
51.48921079711676
 30
0.0
 10
100.1711425411154
 20
51.46469969390729
 30
0.0
 10
100.2201841743799
 20
51.43847212809328
 30
0.0
 10
100.2747312173384
 20
51.40717582938272
 30
0.0
 10
100.3345237018124
 20
51.37046304340858
 30
0.0
 10
100.3996198648691
 20
51.3285205736112
 30
0.0
 10
100.4643516782083
 20
51.28600913559708
 30
0.0
 10
100.5223596481655
 20
51.24826493908122
 30
0.0
 10
100.5739312998047
 20
51.21576040316785
 30
0.0
 10
100.619042487464
 20
51.18849553912175
 30
0.0
 10
100.6648482115017
 20
51.16239986293966
 30
0.0
 10
100.7115252083908
 20
51.13780247114954
 30
0.0
 10
100.7592495242065
 20
51.11503372501513
 30
0.0
 10
100.8025495364451
 20
51.09680478664538
 30
0.0
 10
100.8410465763355
 20
51.0825534174198
 30
0.0
 10
100.874370478565
 20
51.07169464629899
 30
0.0
 10
100.9081131394269
 20
51.0623454344176
 30
0.0
 10
100.9421853935036
 20
51.05472579791107
 30
0.0
 10
100.9764983675268
 20
51.04905698629377
 30
0.0
 10
101.0109628266226
 20
51.04556145581227
 30
0.0
 10
101.0460976720388
 20
51.04444386836807
 30
0.0
 10
101.0818021376121
 20
51.04609382469586
 30
0.0
 10
101.1179590697805
 20
51.05041412181478
 30
0.0
 10
101.1538979229626
 20
51.05710935521071
 30
0.0
 10
101.1895550623837
 20
51.06591504158078
 30
0.0
 10
101.2248678004432
 20
51.07656834542613
 30
0.0
 10
101.2597727423562
 20
51.08880774558389
 30
0.0
 10
101.294206067775
 20
51.10237294183568
 30
0.0
 10
101.3365538286917
 20
51.12065063175155
 30
0.0
 10
101.3863198585535
 20
51.14433398736803
 30
0.0
 10
101.4431108486157
 20
51.17395042982261
 30
0.0
 10
101.4989458219657
 20
51.2049052243406
 30
0.0
 10
101.5542848455176
 20
51.23662624265827
 30
0.0
 10
101.606393666022
 20
51.26669880081384
 30
0.0
 10
101.655606919172
 20
51.29460059137683
 30
0.0
 10
101.7020594060028
 20
51.32002588445174
 30
0.0
 10
101.7490885972026
 20
51.3443747280219
 30
0.0
 10
101.7968387272842
 20
51.3672356000821
 30
0.0
 10
101.8472624152509
 20
51.38897430064921
 30
0.0
 10
101.9005940745232
 20
51.40884840060818
 30
0.0
 10
101.9567800271822
 20
51.4266236699472
 30
0.0
 10
102.0137934441848
 20
51.44170691442662
 30
0.0
 10
102.071446593408
 20
51.45418981325675
 30
0.0
 10
102.1324644095718
 20
51.4646644201161
 30
0.0
 10
102.1967692583885
 20
51.47278617254811
 30
0.0
 10
102.2642488549246
 20
51.47845374526664
 30
0.0
 10
102.3318623794083
 20
51.48167923908406
 30
0.0
 10
102.3992500472922
 20
51.48283983343864
 30
0.0
 10
102.4663555257637
 20
51.48233780681397
 30
0.0
 10
102.5331746642833
 20
51.48087578482384
 30
0.0
 10
102.5951838703982
 20
51.4792588811883
 30
0.0
 10
102.6523934536882
 20
51.47807259521446
 30
0.0
 10
102.7047618586954
 20
51.47653827805815
 30
0.0
 10
102.7570652960501
 20
51.47386252831342
 30
0.0
 10
102.8111008200566
 20
51.46918816435555
 30
0.0
 10
102.8667104875375
 20
51.46150338690134
 30
0.0
 10
102.9237273132774
 20
51.45064450858519
 30
0.0
 10
102.9801748640644
 20
51.43703555896609
 30
0.0
 10
103.0346401980228
 20
51.42121580659368
 30
0.0
 10
103.087085161908
 20
51.40352855478821
 30
0.0
 10
103.1376006553003
 20
51.38446604678234
 30
0.0
 10
103.1875254890889
 20
51.36389821852365
 30
0.0
 10
103.2369444599939
 20
51.34211650254577
 30
0.0
 10
103.3040748993486
 20
51.31100973409864
 30
0.0
 10
103.3884890118973
 20
51.26975898890697
 30
0.0
 10
103.4898916980056
 20
51.2178881891076
 30
0.0
 10
103.5908198437912
 20
51.16516773757713
 30
0.0
 10
103.6882232470381
 20
51.11443756815936
 30
0.0
 10
103.7825470995509
 20
51.06654860185916
 30
0.0
 10
103.8738981499713
 20
51.0217091751965
 30
0.0
 10
103.9660413418544
 20
50.97843074033794
 30
0.0
 10
104.0591487719508
 20
50.93704910277861
 30
0.0
 10
104.1387591977672
 20
50.90397955948896
 30
0.0
 10
104.2044225895726
 20
50.87834891678354
 30
0.0
 10
104.2557985650812
 20
50.85951962604074
 30
0.0
 10
104.3076344647722
 20
50.84207891778866
 30
0.0
 10
104.3599720762079
 20
50.82635472144252
 30
0.0
 10
104.412853421866
 20
50.81267610183035
 30
0.0
 10
104.4663198129591
 20
50.80137306594564
 30
0.0
 10
104.5173602809625
 20
50.79326322254232
 30
0.0
 10
104.5658183321147
 20
50.788111789166
 30
0.0
 10
104.6115103937247
 20
50.78545546697029
 30
0.0
 10
104.6573234487136
 20
50.78504544551744
 30
0.0
 10
104.7030952147977
 20
50.78695641929903
 30
0.0
 10
104.7486632739961
 20
50.79126356581039
 30
0.0
 10
104.79386527784
 20
50.7980423192374
 30
0.0
 10
104.8385383354419
 20
50.8073683564238
 30
0.0
 10
104.8820730519698
 20
50.81919644647709
 30
0.0
 10
104.924331358016
 20
50.8335062773694
 30
0.0
 10
104.9652786202224
 20
50.85002797487719
 30
0.0
 10
105.0053102813861
 20
50.86874002115528
 30
0.0
 10
105.0443816238561
 20
50.88947259549736
 30
0.0
 10
105.082448049203
 20
50.91205623970383
 30
0.0
 10
105.119464982619
 20
50.93632211546537
 30
0.0
 10
105.1584866685077
 20
50.96432501908532
 30
0.0
 10
105.1991477364354
 20
50.99637229354641
 30
0.0
 10
105.2409958586702
 20
51.03282916994967
 30
0.0
 10
105.2810014997967
 20
51.07121533229437
 30
0.0
 10
105.306714096235
 20
51.09831948532212
 30
0.0
 10
105.3196527719106
 20
51.11261575173051
 30
0.0
 10
105.3204927941982
 20
51.11350527376834
 30
0.0
 10
105.3213696684118
 20
51.11435658708159
 30
0.0
 10
105.3323795832859
 20
51.124614672513
 30
0.0
 10
105.3527502026869
 20
51.14513847366037
 30
0.0
 10
105.3808441226693
 20
51.17740347442363
 30
0.0
 10
105.40718881088
 20
51.21119387629775
 30
0.0
 10
105.4320756371987
 20
51.24613885624542
 30
0.0
 10
105.4585112339759
 20
51.28596166705989
 30
0.0
 10
105.4864509093263
 20
51.33056492772499
 30
0.0
 10
105.5152126402622
 20
51.38028845728968
 30
0.0
 10
105.5429861222433
 20
51.43305933611688
 30
0.0
 10
105.5691718957006
 20
51.48911627200532
 30
0.0
 10
105.5863889180249
 20
51.52823485218791
 30
0.0
 10
105.5949999999999
 20
51.5478
 30
0.0
 11
96.61920000000002
 21
51.5041
 31
0.0
 11
96.65381598992473
 21
51.44901105260465
 31
0.0
 11
96.68907445362414
 21
51.39433948152674
 31
0.0
 11
96.72567132657906
 21
51.34053467487579
 31
0.0
 11
96.76430254427032
 21
51.28804602076124
 31
0.0
 11
96.79706712391904
 21
51.2473778983794
 31
0.0
 11
96.83170771042533
 21
51.20825228515927
 31
0.0
 11
96.86835661162589
 21
51.17108412413353
 31
0.0
 11
96.90714613535739
 21
51.13628835833484
 31
0.0
 11
96.94820858945655
 21
51.10427993079585
 31
0.0
 11
96.98744625605735
 21
51.07797028629366
 31
0.0
 11
97.02840723562637
 21
51.05429466967746
 31
0.0
 11
97.07083852294935
 21
51.03325588223277
 31
0.0
 11
97.114487112812
 21
51.01485672524511
 31
0.0
 11
97.1591
 21
50.9991
 31
0.0
 11
97.20612555566713
 21
50.98551720510259
 31
0.0
 11
97.25379629926877
 21
50.97453869207059
 31
0.0
 11
97.30199293994552
 21
50.96592571312942
 31
0.0
 11
97.35059618683814
 21
50.95943952050445
 31
0.0
 11
97.39948674908736
 21
50.95484136642102
 31
0.0
 11
97.4485453358338
 21
50.95189250310454
 31
0.0
 11
97.49765265621821
 21
50.95035418278038
 31
0.0
 11
97.57478258933936
 21
50.95034831584852
 31
0.0
 11
97.65171230275827
 21
50.95312185270859
 31
0.0
 11
97.72841615810431
 21
50.95855479769367
 31
0.0
 11
97.80486851700679
 21
50.9665271551368
 31
0.0
 11
97.88104374109508
 21
50.97691892937104
 31
0.0
 11
97.95855955487008
 21
50.98995857217647
 31
0.0
 11
98.03561818311251
 21
51.00554106643806
 31
0.0
 11
98.11207865507256
 21
51.02380775982338
 31
0.0
 11
98.1878
 21
51.0449
 31
0.0
 11
98.25158642713535
 21
51.06515628012982
 31
0.0
 11
98.31470157072173
 21
51.08745051971999
 31
0.0
 11
98.37711204338241
 21
51.11167026874658
 31
0.0
 11
98.43878445774063
 21
51.13770307718565
 31
0.0
 11
98.4996854264197
 21
51.16543649501323
 31
0.0
 11
98.5665115975768
 21
51.19808720098825
 31
0.0
 11
98.63257397614271
 21
51.2322401959177
 31
0.0
 11
98.69810411933421
 21
51.26743366687566
 31
0.0
 11
98.763333584368
 21
51.30320580093629
 31
0.0
 11
98.83018231312359
 21
51.33995925142093
 31
0.0
 11
98.89736792699352
 21
51.37605188428004
 31
0.0
 11
98.9653
 21
51.4107
 31
0.0
 11
99.0237270583948
 21
51.43841191829255
 31
0.0
 11
99.08296810260651
 21
51.46438297755281
 31
0.0
 11
99.14300650198757
 21
51.48847330521149
 31
0.0
 11
99.2038256258905
 21
51.51054302869937
 31
0.0
 11
99.26161924811385
 21
51.52929548015887
 31
0.0
 11
99.32003528968245
 21
51.54599633982961
 31
0.0
 11
99.37902257303715
 21
51.56049861232523
 31
0.0
 11
99.43852992061877
 21
51.57265530225931
 31
0.0
 11
99.48557770464681
 21
51.58045341600242
 31
0.0
 11
99.53286899267169
 21
51.58660217883014
 31
0.0
 11
99.58035826451544
 21
51.59098867780763
 31
0.0
 11
99.62800000000001
 21
51.59349999999999
 31
0.0
 11
99.68315718531568
 21
51.59392735245547
 31
0.0
 11
99.73827780808488
 21
51.5915779841332
 31
0.0
 11
99.7931825422809
 21
51.58632916170486
 31
0.0
 11
99.84769206187666
 21
51.57805815184205
 31
0.0
 11
99.89324948943732
 21
51.5686728153086
 31
0.0
 11
99.93833666460345
 21
51.55717830465254
 31
0.0
 11
99.98289230286694
 21
51.54370405436577
 31
0.0
 11
100.0268551197196
 21
51.52837949894024
 31
0.0
 11
100.0701638306533
 21
51.51133407286788
 31
0.0
 11
100.1210557226442
 21
51.48887353139453
 31
0.0
 11
100.1709949887563
 21
51.46441286887278
 31
0.0
 11
100.2200527181533
 21
51.43822929013159
 31
0.0
 11
100.2682999999999
 21
51.4106
 31
0.0
 11
100.3343741627065
 21
51.37022600890279
 31
0.0
 11
100.3995535796023
 21
51.32842937652125
 31
0.0
 11
100.4643792628739
 21
51.28605658122001
 31
0.0
 11
100.52939222471
 21
51.24395410136372
 31
0.0
 11
100.5740209233864
 21
51.21589860412317
 31
0.0
 11
100.6191592577904
 21
51.18868978736138
 31
0.0
 11
100.6649795525248
 21
51.16265708350024
 31
0.0
 11
100.7116541321924
 21
51.13812992496163
 31
0.0
 11
100.7593553213959
 21
51.11543774416743
 31
0.0
 11
100.8082554447384
 21
51.09490997353959
 31
0.0
 11
100.8411080276142
 21
51.08277665197674
 31
0.0
 11
100.8744607774181
 21
51.07194027970193
 31
0.0
 11
100.9082214932832
 21
51.06262049506806
 31
0.0
 11
100.9422979743413
 21
51.05503693642802
 31
0.0
 11
100.9765980197252
 21
51.04940924213472
 31
0.0
 11
101.0110294285673
 21
51.04595705054109
 31
0.0
 11
101.0455
 21
51.0449
 31
0.0
 11
101.0817348636281
 21
51.04653037333733
 31
0.0
 11
101.1178438955234
 21
51.05079773052993
 31
0.0
 11
101.1537600397571
 21
51.05744141675273
 31
0.0
 11
101.1894162404006
 21
51.06620077718064
 31
0.0
 11
101.2247454415252
 21
51.07681515698853
 31
0.0
 11
101.2596805872024
 21
51.08902390135135
 31
0.0
 11
101.2941546215035
 21
51.10256635544396
 31
0.0
 11
101.3281004884999
 21
51.11718186444128
 31
0.0
 11
101.3862577806965
 21
51.14473953320979
 31
0.0
 11
101.4430355574837
 21
51.17421842844354
 31
0.0
 11
101.4988829193961
 21
51.20504396049193
 31
0.0
 11
101.5542489669676
 21
51.23664153970427
 31
0.0
 11
101.6095828007328
 21
51.26843657642988
 31
0.0
 11
101.6556582955707
 21
51.29447799534329
 31
0.0
 11
101.70215857303
 21
51.31984805149396
 31
0.0
 11
101.7492228229973
 21
51.34413374054496
 31
0.0
 11
101.7969902353585
 21
51.36692205815928
 31
0.0
 11
101.8456
 21
51.3878
 31
0.0
 11
101.9007343218097
 21
51.40837440525288
 31
0.0
 11
101.9568937133314
 21
51.42616792163842
 31
0.0
 11
102.0138901857558
 21
51.44127105607736
 31
0.0
 11
102.0715357502733
 21
51.45377431549039
 31
0.0
 11
102.1296424180744
 21
51.46376820679829
 31
0.0
 11
102.1968311049878
 21
51.4723177794632
 31
0.0
 11
102.2642776979904
 21
51.47804719480072
 31
0.0
 11
102.3318788065409
 21
51.48133614931431
 31
0.0
 11
102.3995310400976
 21
51.48256433950741
 31
0.0
 11
102.4663521831155
 21
51.48217751614828
 31
0.0
 11
102.5331619509528
 21
51.48082938078132
 31
0.0
 11
102.6
 21
51.4792
 31
0.0
 11
102.6523954418109
 21
51.47799779133812
 31
0.0
 11
102.7047679882199
 21
51.47634736026375
 31
0.0
 11
102.7570530446916
 21
51.47355569359238
 31
0.0
 11
102.8091860166904
 21
51.46892977813963
 31
0.0
 11
102.8666084906002
 21
51.46102162459412
 31
0.0
 11
102.9236180684098
 21
51.45018915084995
 31
0.0
 11
102.9800671668689
 21
51.43660254540153
 31
0.0
 11
103.0358082027275
 21
51.42043199674333
 31
0.0
 11
103.0869823719136
 21
51.40322547270613
 31
0.0
 11
103.137496595858
 21
51.3842174187661
 31
0.0
 11
103.1874329149365
 21
51.36369942717026
 31
0.0
 11
103.2368733695252
 21
51.34196309016585
 31
0.0
 11
103.2858999999999
 21
51.3193
 31
0.0
 11
103.3883463809247
 21
51.26944211821433
 31
0.0
 11
103.4898225525894
 21
51.2177414553858
 31
0.0
 11
103.5908363997203
 21
51.16518486742897
 31
0.0
 11
103.6918958070425
 21
51.1127592102585
 31
0.0
 11
103.7826495410767
 21
51.06675327849806
 31
0.0
 11
103.8740158534384
 21
51.02197618353003
 31
0.0
 11
103.9661651318789
 21
50.97876367463353
 31
0.0
 11
104.0592677641492
 21
50.93745150108774
 31
0.0
 11
104.1534941380011
 21
50.89837541217179
 31
0.0
 11
104.2044880836796
 21
50.87852745712034
 31
0.0
 11
104.2558917301679
 21
50.85974531189309
 31
0.0
 11
104.3077434924729
 21
50.84235692697233
 31
0.0
 11
104.3600817856015
 21
50.82669025284035
 31
0.0
 11
104.412945024561
 21
50.81307323997943
 31
0.0
 11
104.4663716243583
 21
50.80183383887188
 31
0.0
 11
104.5204
 21
50.7933
 31
0.0
 11
104.5658147689639
 21
50.78847796348973
 31
0.0
 11
104.6115093279246
 21
50.78583071944896
 31
0.0
 11
104.6573201591359
 21
50.78543246851056
 31
0.0
 11
104.7030837448517
 21
50.78735741130744
 31
0.0
 11
104.7486365673254
 21
50.7916797484725
 31
0.0
 11
104.7938151088114
 21
50.79847368063862
 31
0.0
 11
104.8384558515631
 21
50.80781340843869
 31
0.0
 11
104.8823952778343
 21
50.81977313250559
 31
0.0
 11
104.9241805249163
 21
50.83389752819047
 31
0.0
 11
104.9651069349819
 21
50.85038467933978
 31
0.0
 11
105.0051282770932
 21
50.86906584958917
 31
0.0
 11
105.0441983203125
 21
50.88977230257436
 31
0.0
 11
105.0822708337024
 21
50.91233530193092
 31
0.0
 11
105.1192995863247
 21
50.93658611129452
 31
0.0
 11
105.1552383472418
 21
50.96235599430084
 31
0.0
 11
105.1988831944121
 21
50.99674423122642
 31
0.0
 11
105.240708708774
 21
51.0331687931156
 31
0.0
 11
105.280697148881
 21
51.07152491401922
 31
0.0
 11
105.3188307732863
 21
51.11170782798811
 31
0.0
 11
105.3196561434552
 21
51.11261303962486
 31
0.0
 11
105.3204999999999
 21
51.1135
 31
0.0
 11
105.3213723300461
 21
51.11435336194769
 31
0.0
 11
105.322262544971
 21
51.11518910942479
 31
0.0
 11
105.3523995838224
 21
51.14544408271825
 31
0.0
 11
105.3805248741904
 21
51.17762399166644
 31
0.0
 11
105.4069234219841
 21
51.21135643084556
 31
0.0
 11
105.4318802331132
 21
51.24626899483185
 31
0.0
 11
105.455680313487
 21
51.2819892782015
 31
0.0
 11
105.4861863345944
 21
51.33077923993027
 31
0.0
 11
105.5148878535349
 21
51.38049058848803
 31
0.0
 11
105.5415543702183
 21
51.43125869998046
 31
0.0
 11
105.5689474768005
 21
51.48920084088014
 31
0.0
 11
105.5949999999999
 21
51.5478
 31
0.0
  0
SPLINE
  5
11E1
330
1F
100
AcDbEntity
  8
0
  6
Continuous
 62
    54
100
AcDbSpline
210
0.0
220
0.0
230
1.0
 70
     8
 71
     3
 72
    31
 73
    27
 74
    25
 42
0.0000000001
 43
0.0000000001
 44
0.00000001
 40
0.0
 40
0.0
 40
0.0
 40
0.0
 40
0.1657962453519607
 40
0.3316204410703853
 40
0.4948071030823474
 40
0.6579079056579213
 40
0.7384206781363637
 40
0.818914533213136
 40
0.9800528746839024
 40
1.141378645618494
 40
1.305340745959427
 40
1.469248465753289
 40
1.552004949768334
 40
1.634759695566289
 40
1.798232667202618
 40
1.961800106696693
 40
2.110938141773964
 40
2.259867117458355
 40
2.325392836603576
 40
2.390910170026056
 40
2.505882956427913
 40
2.620960647157427
 40
2.728484566624798
 40
2.836098104123599
 40
2.889597537740144
 40
2.943071186840389
 40
2.943071186840389
 40
2.943071186840389
 40
2.943071186840389
 10
96.6839
 20
39.0371
 30
0.0
 10
96.73898842953212
 20
39.04152179853343
 30
0.0
 10
96.84917457667378
 20
39.05036612643848
 30
0.0
 10
97.01382498445017
 20
39.06043108346669
 30
0.0
 10
97.17787380828793
 20
39.0642189561049
 30
0.0
 10
97.31351282626938
 20
39.05935744552094
 30
0.0
 10
97.42108198582164
 20
39.04900635442617
 30
0.0
 10
97.52743660326579
 20
39.03389190193505
 30
0.0
 10
97.65878497133442
 20
39.00483316248463
 30
0.0
 10
97.81410929035565
 20
38.95799690662234
 30
0.0
 10
97.96774832870637
 20
38.90324654720305
 30
0.0
 10
98.09550380054956
 20
38.85411793305343
 30
0.0
 10
98.19801115399846
 20
38.81475132971398
 30
0.0
 10
98.30061794466374
 20
38.77605380681832
 30
0.0
 10
98.42927229149893
 20
38.73008315913377
 30
0.0
 10
98.5807853470732
 20
38.68258991267093
 30
0.0
 10
98.72993381943382
 20
38.64434524016664
 30
0.0
 10
98.84973412408463
 20
38.62440011026598
 30
0.0
 10
98.94284119023108
 20
38.61723630849304
 30
0.0
 10
99.02494937570132
 20
38.61721002327156
 30
0.0
 10
99.12305460033568
 20
38.6306590078631
 30
0.0
 10
99.23111240550035
 20
38.66374677141293
 30
0.0
 10
99.33052690364153
 20
38.71168190039734
 30
0.0
 10
99.40707148484712
 20
38.7582792016922
 30
0.0
 10
99.46680069047646
 20
38.79763339202449
 30
0.0
 10
99.49633593895036
 20
38.81761273233056
 30
0.0
 10
99.51109999999999
 20
38.82759999999999
 30
0.0
 11
96.6839
 21
39.0371
 31
0.0
 11
96.84920598124231
 21
39.04984078466464
 31
0.0
 11
97.0147528
 21
39.059428
 31
0.0
 11
97.17790831732497
 21
39.06261607646352
 31
0.0
 11
97.3408824
 21
39.056188
 31
0.0
 11
97.42101787425959
 21
39.04840261055936
 31
0.0
 11
97.5007
 21
39.037
 31
0.0
 11
97.65818895446761
 21
39.00290023168889
 31
0.0
 11
97.81284720000002
 21
38.957
 31
0.0
 11
97.96752424293041
 21
38.90260714681744
 31
0.0
 11
98.1207576
 21
38.84442399999999
 31
0.0
 11
98.19804121284208
 21
38.81482875131387
 31
0.0
 11
98.2755
 21
38.78569999999999
 31
0.0
 11
98.42958888586796
 21
38.73111037329557
 31
0.0
 11
98.585796
 21
38.682596
 31
0.0
 11
98.73047912039485
 21
38.64641661221714
 31
0.0
 11
98.87753199999998
 21
38.622852
 31
0.0
 11
98.94288306536758
 21
38.61807096203579
 31
0.0
 11
99.0084
 21
38.61829999999999
 31
0.0
 11
99.12234056907005
 21
38.63367168986906
 31
0.0
 11
99.23239760000001
 21
38.66729199999999
 31
0.0
 11
99.32963349047115
 21
38.71318944134132
 31
0.0
 11
99.4220168
 21
38.76837999999999
 31
0.0
 11
99.46674778464904
 21
38.79772839771245
 31
0.0
 11
99.51109999999999
 21
38.82759999999999
 31
0.0
  0
ARC
  5
11E2
330
1F
100
AcDbEntity
  8
0
  6
Continuous
 62
     7
100
AcDbCircle
 10
115.6191835462932
 20
80.54618737453484
 30
0.0
 40
18.99998354629735
100
AcDbArc
 50
75.00044064595257
 51
179.9999619270264
  0
ARC
  5
11E3
330
1F
100
AcDbEntity
  8
0
  6
Continuous
 62
     7
100
AcDbCircle
 10
115.6191800630854
 20
80.546184701801
 30
0.0
 40
15.99998006309284
100
AcDbArc
 50
75.00029519349536
 51
179.9999452172915
  0
ARC
  5
11E4
330
1F
100
AcDbEntity
  8
0
  6
Continuous
 62
     7
100
AcDbCircle
 10
115.6192248762705
 20
80.54621908838692
 30
0.0
 40
13.00002487628453
100
AcDbArc
 50
75.00036001213494
 51
180.000084129378
  0
ARC
  5
11E5
330
1F
100
AcDbEntity
  8
0
  6
Continuous
 62
     7
100
AcDbCircle
 10
115.6192084524887
 20
80.54620648589729
 30
0.0
 40
10.00000845249074
100
AcDbArc
 50
75.00059964075383
 51
180.0000371614226
  0
ARC
  5
11E7
330
1F
100
AcDbEntity
  8
0
  6
Continuous
 62
     7
100
AcDbCircle
 10
189.7789957663235
 20
75.68725163836329
 30
0.0
 40
56.20003588625022
100
AcDbArc
 50
193.8012206716606
 51
211.1994220816304
  0
ARC
  5
11E8
330
1F
100
AcDbEntity
  8
0
  6
Continuous
 62
     7
100
AcDbCircle
 10
142.9488083926121
 20
26.68700437438619
 30
0.0
 40
7.999995625618207
100
AcDbArc
 50
90.00006010768853
 51
145.0586749120042
  0
LINE
  5
11E9
330
1F
100
AcDbEntity
  8
0
  6
Continuous
 62
     7
100
AcDbLine
 10
135.9914999999999
 20
32.08489999999999
 30
0.0
 11
136.6467
 21
31.62599999999999
 31
0.0
  0
LINE
  5
11EA
330
1F
100
AcDbEntity
  8
0
  6
Continuous
 62
     7
100
AcDbLine
 10
138.0072999999998
 20
63.4429
 30
0.0
 11
135.2015
 21
62.2805
 31
0.0
  0
ARC
  5
11EB
330
1F
100
AcDbEntity
  8
0
  6
Continuous
 62
     7
100
AcDbCircle
 10
133.6000984076184
 20
30.2388996469628
 30
0.0
 40
1.299972501631228
100
AcDbArc
 50
59.99921921899938
 51
145.0017885610536
  0
LINE
  5
11EC
330
1F
100
AcDbEntity
  8
0
  6
Continuous
 62
     7
100
AcDbLine
 10
135.0834999999999
 20
30.7813
 30
0.0
 11
134.2502
 21
31.3647
 31
0.0
  0
ARC
  5
11ED
330
1F
100
AcDbEntity
  8
0
  6
Continuous
 62
     7
100
AcDbCircle
 10
189.7791043305289
 20
75.68698954518308
 30
0.0
 40
53.20002208744721
100
AcDbArc
 50
193.3062399790413
 51
211.6937800160541
  0
LINE
  5
11EE
330
1F
100
AcDbEntity
  8
0
  6
Continuous
 62
     7
100
AcDbLine
 10
144.5129999999998
 20
47.7368
 30
0.0
 11
141.7072
 21
46.57469999999999
 31
0.0
  0
LINE
  5
11EF
330
1F
100
AcDbEntity
  8
0
  6
Continuous
 62
     7
100
AcDbLine
 10
142.9488
 20
34.687
 30
0.0
 11
146.1631999999999
 21
34.687
 31
0.0
  0
ARC
  5
11F0
330
1F
100
AcDbEntity
  8
0
  6
Continuous
 62
     7
100
AcDbCircle
 10
146.163163573258
 20
26.68701386393987
 30
0.0
 40
7.999986136143047
100
AcDbArc
 50
48.32682589839526
 51
89.99973911222594
  0
LINE
  5
11F1
330
1F
100
AcDbEntity
  8
0
  6
Continuous
 62
     7
100
AcDbLine
 10
150.8598
 20
38.4174
 30
0.0
 11
150.8598
 21
39.4174
 31
0.0
  0
LINE
  5
11F2
330
1F
100
AcDbEntity
  8
0
  6
Continuous
 62
     7
100
AcDbLine
 10
152.0096999999998
 20
39.4174
 30
0.0
 11
150.8598
 21
39.4174
 31
0.0
  0
LINE
  5
11F3
330
1F
100
AcDbEntity
  8
0
  6
Continuous
 62
     7
100
AcDbLine
 10
152.0096999999998
 20
38.4174
 30
0.0
 11
150.8598
 21
38.4174
 31
0.0
  0
ARC
  5
11F4
330
1F
100
AcDbEntity
  8
0
  6
Continuous
 62
     7
100
AcDbCircle
 10
147.7314215191904
 20
66.68702661217311
 30
0.0
 40
2.999973388853433
100
AcDbArc
 50
89.99850111365082
 51
192.0819621771483
  0
ARC
  5
11F5
330
1F
100
AcDbEntity
  8
0
  6
Continuous
 62
     7
100
AcDbCircle
 10
136.6199360380839
 20
99.13291326981124
 30
0.0
 40
2.000013723334205
100
AcDbArc
 50
64.22876800889207
 51
156.2002943325595
  0
ARC
  5
11F6
330
1F
100
AcDbEntity
  8
0
  6
Continuous
 62
     7
100
AcDbCircle
 10
189.7790686262592
 20
75.68692425712685
 30
0.0
 40
56.20004082737203
100
AcDbArc
 50
148.8009098026129
 51
166.1990702022905
  0
LINE
  5
11F7
330
1F
100
AcDbEntity
  8
0
  6
Continuous
 62
     7
100
AcDbLine
 10
138.0074
 20
87.93110000000002
 30
0.0
 11
135.2016
 21
89.09350000000001
 31
0.0
  0
ARC
  5
11F8
330
1F
100
AcDbEntity
  8
0
  6
Continuous
 62
     7
100
AcDbCircle
 10
189.7790382829182
 20
75.68676966736386
 30
0.0
 40
60.10002922501904
100
AcDbArc
 50
156.1998476377056
 51
173.8003203863517
  0
ARC
  5
11F9
330
1F
100
AcDbEntity
  8
0
  6
Continuous
 62
     7
100
AcDbCircle
 10
132.0188181327978
 20
81.96117822567066
 30
0.0
 40
2.000018600962774
100
AcDbArc
 50
173.7993933032761
 51
265.7729874454683
  0
LINE
  5
11FA
330
1F
100
AcDbEntity
  8
0
  6
Continuous
 62
     7
100
AcDbLine
 10
131.8713999999999
 20
79.9666
 30
0.0
 11
132.3357
 21
79.9323
 31
0.0
  0
ARC
  5
11FB
330
1F
100
AcDbEntity
  8
0
  6
Continuous
 62
     7
100
AcDbCircle
 10
189.7791318930575
 20
75.68707699710451
 30
0.0
 40
53.20001057963292
100
AcDbArc
 50
148.3062965572578
 51
166.6939414018438
  0
ARC
  5
11FC
330
1F
100
AcDbEntity
  8
0
  6
Continuous
 62
     7
100
AcDbCircle
 10
147.7314215183631
 20
84.68697338794292
 30
0.0
 40
2.999973388020111
100
AcDbArc
 50
167.9180378217111
 51
269.9995890258918
  0
LINE
  5
11FD
330
1F
100
AcDbEntity
  8
0
  6
Continuous
 62
     7
100
AcDbLine
 10
144.5129
 20
103.6372
 30
0.0
 11
141.7072
 21
104.7992999999999
 31
0.0
  0
LINE
  5
11FE
330
1F
100
AcDbEntity
  8
0
  6
Continuous
 62
     7
100
AcDbLine
 10
137.4894999999999
 20
100.9339999999999
 30
0.0
 11
137.9087
 21
100.7314999999999
 31
0.0
  0
LINE
  5
11FF
330
1F
100
AcDbEntity
  8
0
  6
Continuous
 62
     7
100
AcDbLine
 10
150.8598
 20
111.9561
 30
0.0
 11
150.8598
 21
112.9561
 31
0.0
  0
LINE
  5
1200
330
1F
100
AcDbEntity
  8
0
  6
Continuous
 62
     7
100
AcDbLine
 10
150.8598
 20
111.9561
 30
0.0
 11
152.0096999999998
 21
111.9561
 31
0.0
  0
LINE
  5
1201
330
1F
100
AcDbEntity
  8
0
  6
Continuous
 62
     7
100
AcDbLine
 10
150.8598
 20
112.9561
 30
0.0
 11
152.0096999999998
 21
112.9561
 31
0.0
  0
LINE
  5
1205
330
1F
100
AcDbEntity
  8
0
  6
Continuous
 62
     7
100
AcDbLine
 10
183.7790999999999
 20
106.187
 30
0.0
 11
183.7790999999999
 21
117.7346
 31
0.0
  0
LINE
  5
1206
330
1F
100
AcDbEntity
  8
0
  6
Continuous
 62
     7
100
AcDbLine
 10
195.7791
 20
106.187
 30
0.0
 11
195.7791
 21
117.7346
 31
0.0
  0
CIRCLE
  5
1207
330
1F
100
AcDbEntity
  8
0
  6
Continuous
 62
     7
100
AcDbCircle
 10
189.7790999999999
 20
75.68680000000002
 30
0.0
 40
17.25
  0
CIRCLE
  5
1208
330
1F
100
AcDbEntity
  8
0
  6
Continuous
 62
     7
100
AcDbCircle
 10
189.7790999999999
 20
75.68699999999998
 30
0.0
 40
7.75
  0
CIRCLE
  5
1209
330
1F
100
AcDbEntity
  8
0
  6
Continuous
 62
     7
100
AcDbCircle
 10
189.7790999999999
 20
75.68699999999998
 30
0.0
 40
24.0
  0
CIRCLE
  5
120A
330
1F
100
AcDbEntity
  8
0
  6
Continuous
 62
     7
100
AcDbCircle
 10
189.7790999999999
 20
75.68699999999998
 30
0.0
 40
19.54990000000001
  0
CIRCLE
  5
120B
330
1F
100
AcDbEntity
  8
0
  6
Continuous
 62
     7
100
AcDbCircle
 10
189.7790999999999
 20
75.68699999999998
 30
0.0
 40
7.400000000000003
  0
ARC
  5
120C
330
1F
100
AcDbEntity
  8
0
  6
Continuous
 62
     7
100
AcDbCircle
 10
186.7791
 20
106.187
 30
0.0
 40
3.0
100
AcDbArc
 50
180.0
 51
270.0
  0
ARC
  5
120D
330
1F
100
AcDbEntity
  8
0
  6
Continuous
 62
     7
100
AcDbCircle
 10
186.7791
 20
45.18699999999999
 30
0.0
 40
3.0
100
AcDbArc
 50
90.0
 51
180.0
  0
ARC
  5
120E
330
1F
100
AcDbEntity
  8
0
  6
Continuous
 62
     7
100
AcDbCircle
 10
180.7790777194404
 20
33.63938198344778
 30
0.0
 40
3.000022280613766
100
AcDbArc
 50
257.9191926209542
 51
0.0003440882461318
  0
LINE
  5
120F
330
1F
100
AcDbEntity
  8
0
  6
Continuous
 62
     7
100
AcDbLine
 10
162.2791
 20
72.68699999999999
 30
0.0
 11
162.2791
 21
78.68700000000003
 31
0.0
  0
ARC
  5
1210
330
1F
100
AcDbEntity
  8
0
  6
Continuous
 62
     7
100
AcDbCircle
 10
154.0097
 20
39.9174
 30
0.0
 40
0.5
100
AcDbArc
 50
180.0
 51
270.0
  0
ARC
  5
1211
330
1F
100
AcDbEntity
  8
0
  6
Continuous
 62
     7
100
AcDbCircle
 10
154.0097
 20
37.9174
 30
0.0
 40
0.5
100
AcDbArc
 50
90.0
 51
180.0
  0
LINE
  5
1212
330
1F
100
AcDbEntity
  8
0
  6
Continuous
 62
     7
100
AcDbLine
 10
153.5097
 20
41.0676
 30
0.0
 11
152.5097
 21
41.0676
 31
0.0
  0
LINE
  5
1213
330
1F
100
AcDbEntity
  8
0
  6
Continuous
 62
     7
100
AcDbLine
 10
153.5097
 20
36.7675
 30
0.0
 11
152.5097
 21
36.7675
 31
0.0
  0
LINE
  5
1214
330
1F
100
AcDbEntity
  8
0
  6
Continuous
 62
     7
100
AcDbLine
 10
155.1596
 20
38.4174
 30
0.0
 11
155.1596
 21
39.4174
 31
0.0
  0
LINE
  5
1215
330
1F
100
AcDbEntity
  8
0
  6
Continuous
 62
     7
100
AcDbLine
 10
155.1596
 20
39.4174
 30
0.0
 11
154.0097
 21
39.4174
 31
0.0
  0
LINE
  5
1216
330
1F
100
AcDbEntity
  8
0
  6
Continuous
 62
     7
100
AcDbLine
 10
155.1596
 20
38.4174
 30
0.0
 11
154.0097
 21
38.4174
 31
0.0
  0
LINE
  5
1217
330
1F
100
AcDbEntity
  8
0
  6
Continuous
 62
     7
100
AcDbLine
 10
153.5097
 20
39.9174
 30
0.0
 11
153.5097
 21
41.0676
 31
0.0
  0
LINE
  5
1218
330
1F
100
AcDbEntity
  8
0
  6
Continuous
 62
     7
100
AcDbLine
 10
152.5097
 20
39.9174
 30
0.0
 11
152.5097
 21
41.0676
 31
0.0
  0
LINE
  5
1219
330
1F
100
AcDbEntity
  8
0
  6
Continuous
 62
     7
100
AcDbLine
 10
153.5097
 20
36.7675
 30
0.0
 11
153.5097
 21
37.9174
 31
0.0
  0
LINE
  5
121A
330
1F
100
AcDbEntity
  8
0
  6
Continuous
 62
     7
100
AcDbLine
 10
152.5097
 20
36.7675
 30
0.0
 11
152.5097
 21
37.9174
 31
0.0
  0
ARC
  5
121B
330
1F
100
AcDbEntity
  8
0
  6
Continuous
 62
     7
100
AcDbCircle
 10
159.2791
 20
72.68699999999999
 30
0.0
 40
3.0
100
AcDbArc
 50
270.0
 51
0.0
  0
ARC
  5
121C
330
1F
100
AcDbEntity
  8
0
  6
Continuous
 62
     7
100
AcDbCircle
 10
159.2791
 20
78.68700000000003
 30
0.0
 40
3.0
100
AcDbArc
 50
0.0
 51
90.0
  0
ARC
  5
121D
330
1F
100
AcDbEntity
  8
0
  6
Continuous
 62
     7
100
AcDbCircle
 10
154.0097
 20
113.4561
 30
0.0
 40
0.5
100
AcDbArc
 50
180.0
 51
270.0
  0
ARC
  5
121E
330
1F
100
AcDbEntity
  8
0
  6
Continuous
 62
     7
100
AcDbCircle
 10
154.0097
 20
111.4561
 30
0.0
 40
0.5
100
AcDbArc
 50
90.0
 51
180.0
  0
LINE
  5
121F
330
1F
100
AcDbEntity
  8
0
  6
Continuous
 62
     7
100
AcDbLine
 10
155.1598
 20
111.9561
 30
0.0
 11
155.1598
 21
112.9561
 31
0.0
  0
LINE
  5
1220
330
1F
100
AcDbEntity
  8
0
  6
Continuous
 62
     7
100
AcDbLine
 10
152.5097
 20
110.3061999999999
 30
0.0
 11
153.5097
 21
110.3061999999999
 31
0.0
  0
LINE
  5
1221
330
1F
100
AcDbEntity
  8
0
  6
Continuous
 62
     7
100
AcDbLine
 10
152.5097
 20
114.606
 30
0.0
 11
153.5097
 21
114.606
 31
0.0
  0
LINE
  5
1222
330
1F
100
AcDbEntity
  8
0
  6
Continuous
 62
     7
100
AcDbLine
 10
153.5097
 20
113.4561
 30
0.0
 11
153.5097
 21
114.606
 31
0.0
  0
LINE
  5
1223
330
1F
100
AcDbEntity
  8
0
  6
Continuous
 62
     7
100
AcDbLine
 10
152.5097
 20
113.4561
 30
0.0
 11
152.5097
 21
114.606
 31
0.0
  0
LINE
  5
1224
330
1F
100
AcDbEntity
  8
0
  6
Continuous
 62
     7
100
AcDbLine
 10
153.5097
 20
110.3061999999999
 30
0.0
 11
153.5097
 21
111.4561
 31
0.0
  0
LINE
  5
1225
330
1F
100
AcDbEntity
  8
0
  6
Continuous
 62
     7
100
AcDbLine
 10
152.5097
 20
110.3061999999999
 30
0.0
 11
152.5097
 21
111.4561
 31
0.0
  0
LINE
  5
1226
330
1F
100
AcDbEntity
  8
0
  6
Continuous
 62
     7
100
AcDbLine
 10
154.0097
 20
111.9561
 30
0.0
 11
155.1598
 21
111.9561
 31
0.0
  0
LINE
  5
1227
330
1F
100
AcDbEntity
  8
0
  6
Continuous
 62
     7
100
AcDbLine
 10
154.0097
 20
112.9561
 30
0.0
 11
155.1598
 21
112.9561
 31
0.0
  0
CIRCLE
  5
1228
330
1F
100
AcDbEntity
  8
0
  6
Continuous
 62
     7
100
AcDbCircle
 10
189.779
 20
75.68699999999998
 30
0.0
 40
5.5
  0
ARC
  5
1229
330
1F
100
AcDbEntity
  8
0
  6
Continuous
 62
     7
100
AcDbCircle
 10
198.7790222805594
 20
33.63938198344778
 30
0.0
 40
3.000022280613743
100
AcDbArc
 50
179.9996559117538
 51
282.0808073790456
  0
LINE
  5
122A
330
1F
100
AcDbEntity
  8
0
  6
Continuous
 62
     7
100
AcDbLine
 10
186.7791
 20
48.18699999999999
 30
0.0
 11
192.7791
 21
48.18699999999999
 31
0.0
  0
LINE
  5
122B
330
1F
100
AcDbEntity
  8
0
  6
Continuous
 62
     7
100
AcDbLine
 10
183.7790999999999
 20
33.6394
 30
0.0
 11
183.7790999999999
 21
45.18699999999999
 31
0.0
  0
ARC
  5
122C
330
1F
100
AcDbEntity
  8
0
  6
Continuous
 62
     7
100
AcDbCircle
 10
192.7791
 20
45.18699999999999
 30
0.0
 40
3.0
100
AcDbArc
 50
0.0
 51
90.0
  0
LINE
  5
122D
330
1F
100
AcDbEntity
  8
0
  6
Continuous
 62
     7
100
AcDbLine
 10
195.7791
 20
33.6394
 30
0.0
 11
195.7791
 21
45.18699999999999
 31
0.0
  0
LINE
  5
122E
330
1F
100
AcDbEntity
  8
0
  6
Continuous
 62
     7
100
AcDbLine
 10
186.6167
 20
80.18700000000002
 30
0.0
 11
192.9413
 21
80.18700000000002
 31
0.0
  0
POINT
  5
122F
330
1F
100
AcDbEntity
  8
0
 62
    40
100
AcDbPoint
 10
189.7790999999999
 20
75.68699999999998
 30
0.0
  0
POINT
  5
1230
330
1F
100
AcDbEntity
  8
0
 62
    40
100
AcDbPoint
 10
189.7790999999999
 20
75.68699999999998
 30
0.0
  0
LINE
  5
1231
330
1F
100
AcDbEntity
  8
0
  6
Continuous
 62
     7
100
AcDbLine
 10
186.7791
 20
103.187
 30
0.0
 11
192.7791
 21
103.187
 31
0.0
  0
ARC
  5
1232
330
1F
100
AcDbEntity
  8
0
  6
Continuous
 62
     7
100
AcDbCircle
 10
192.7791
 20
106.187
 30
0.0
 40
3.0
100
AcDbArc
 50
270.0
 51
0.0
  0
ARC
  5
1234
330
1F
100
AcDbEntity
  8
0
  6
Continuous
 62
     7
100
AcDbCircle
 10
180.7790672539244
 20
117.7346264784695
 30
0.0
 40
3.000032746192383
100
AcDbArc
 50
359.9994943040043
 51
102.0825132964787
  0
ARC
  5
1235
330
1F
100
AcDbEntity
  8
0
  6
Continuous
 62
     7
100
AcDbCircle
 10
189.778982173996
 20
75.68695119515779
 30
0.0
 40
56.19997540278586
100
AcDbArc
 50
103.800742972362
 51
121.1990190685362
  0
ARC
  5
1236
330
1F
100
AcDbEntity
  8
0
  6
Continuous
 62
     7
100
AcDbCircle
 10
189.7790895451829
 20
75.68699566947088
 30
0.0
 40
53.20002208744721
100
AcDbArc
 50
103.3062399790423
 51
121.6937800160537
  0
LINE
  5
1237
330
1F
100
AcDbEntity
  8
0
  6
Continuous
 62
     7
100
AcDbLine
 10
161.8289
 20
120.9531
 30
0.0
 11
160.6666999999999
 21
123.7587999999999
 31
0.0
  0
LINE
  5
1238
330
1F
100
AcDbEntity
  8
0
  6
Continuous
 62
     7
100
AcDbLine
 10
177.5349
 20
127.4586999999999
 30
0.0
 11
176.3727
 21
130.2643999999999
 31
0.0
  0
ARC
  5
1239
330
1F
100
AcDbEntity
  8
0
  6
Continuous
 62
     7
100
AcDbCircle
 10
198.7791222805597
 20
117.7346180165522
 30
0.0
 40
3.00002228061375
100
AcDbArc
 50
77.91919262095426
 51
180.000344088246
  0
LINE
  5
123A
330
1F
100
AcDbEntity
  8
0
  6
Continuous
 62
     7
100
AcDbLine
 10
202.0233
 20
127.4586999999999
 30
0.0
 11
203.1854999999999
 21
130.2643999999999
 31
0.0
  0
ARC
  5
1240
330
1F
100
AcDbEntity
  8
0
  6
Continuous
 62
     7
100
AcDbCircle
 10
189.7790562813114
 20
75.68704371884303
 30
0.0
 40
58.49997323239708
100
AcDbArc
 50
25.00842870324843
 51
64.99136872542748
  0
ARC
  5
1241
330
1F
100
AcDbEntity
  8
0
  6
DASH_CENTER
 62
    30
100
AcDbCircle
 10
189.7786953337115
 20
75.68690679880496
 30
0.0
 40
52.00000796848629
100
AcDbArc
 50
35.23885435453365
 51
53.6055879905597
  0
LINE
  5
1242
330
1F
100
AcDbEntity
  8
0
  6
DASH_CENTER
 62
    30
100
AcDbLine
 10
220.7362999999999
 20
106.6440999999999
 30
0.0
 11
232.5147
 21
118.4227
 31
0.0
  0
LINE
  5
1243
330
1F
100
AcDbEntity
  8
0
  6
Continuous
 62
     7
100
AcDbLine
 10
217.2791
 20
72.68699999999999
 30
0.0
 11
217.2791
 21
78.68700000000003
 31
0.0
  0
CIRCLE
  5
1244
330
1F
100
AcDbEntity
  8
0
  6
Continuous
 62
     7
100
AcDbCircle
 10
226.5483999999999
 20
38.9174
 30
0.0
 40
3.499895724160928
  0
ARC
  5
1245
330
1F
100
AcDbEntity
  8
0
  6
Continuous
 62
     7
100
AcDbCircle
 10
233.3949364267418
 20
26.68701386393987
 30
0.0
 40
7.999986136143047
100
AcDbArc
 50
90.00026088777405
 51
131.6731741016041
  0
ARC
  5
1246
330
1F
100
AcDbEntity
  8
0
  6
DASH_CENTER
 62
    30
100
AcDbCircle
 10
189.7788449338358
 20
75.68684802754582
 30
0.0
 40
52.00000715084429
100
AcDbArc
 50
305.2393431663982
 51
323.6060755026648
  0
LINE
  5
1247
330
1F
100
AcDbEntity
  8
0
  6
DASH_CENTER
 62
    30
100
AcDbLine
 10
220.7364
 20
44.72949999999999
 30
0.0
 11
232.5149999999999
 21
32.9512
 31
0.0
  0
LINE
  5
1248
330
1F
100
AcDbEntity
  8
0
  6
Continuous
 62
     7
100
AcDbLine
 10
220.2790999999999
 20
69.687
 30
0.0
 11
231.8266
 21
69.687
 31
0.0
  0
ARC
  5
1249
330
1F
100
AcDbEntity
  8
0
  6
Continuous
 62
     7
100
AcDbCircle
 10
225.5484
 20
37.9174
 30
0.0
 40
0.5
100
AcDbArc
 50
0.0
 51
90.0
  0
ARC
  5
124A
330
1F
100
AcDbEntity
  8
0
  6
Continuous
 62
     7
100
AcDbCircle
 10
225.5484
 20
39.9174
 30
0.0
 40
0.5
100
AcDbArc
 50
270.0
 51
0.0
  0
ARC
  5
124B
330
1F
100
AcDbEntity
  8
0
  6
Continuous
 62
     7
100
AcDbCircle
 10
227.5484
 20
39.9174
 30
0.0
 40
0.5
100
AcDbArc
 50
180.0
 51
270.0
  0
ARC
  5
124C
330
1F
100
AcDbEntity
  8
0
  6
Continuous
 62
     7
100
AcDbCircle
 10
227.5484
 20
37.9174
 30
0.0
 40
0.5
100
AcDbArc
 50
90.0
 51
180.0
  0
LINE
  5
124D
330
1F
100
AcDbEntity
  8
0
  6
Continuous
 62
     7
100
AcDbLine
 10
227.0483999999999
 20
37.9174
 30
0.0
 11
227.0483999999999
 21
36.7675
 31
0.0
  0
LINE
  5
124E
330
1F
100
AcDbEntity
  8
0
  6
Continuous
 62
     7
100
AcDbLine
 10
226.0483999999999
 20
41.0673
 30
0.0
 11
226.0483999999999
 21
39.9174
 31
0.0
  0
LINE
  5
124F
330
1F
100
AcDbEntity
  8
0
  6
Continuous
 62
     7
100
AcDbLine
 10
227.0483999999999
 20
41.0673
 30
0.0
 11
227.0483999999999
 21
39.9174
 31
0.0
  0
LINE
  5
1250
330
1F
100
AcDbEntity
  8
0
  6
Continuous
 62
     7
100
AcDbLine
 10
225.5484
 20
39.4174
 30
0.0
 11
224.3983
 21
39.4174
 31
0.0
  0
LINE
  5
1251
330
1F
100
AcDbEntity
  8
0
  6
Continuous
 62
     7
100
AcDbLine
 10
225.5484
 20
38.4174
 30
0.0
 11
224.3983
 21
38.4174
 31
0.0
  0
LINE
  5
1252
330
1F
100
AcDbEntity
  8
0
  6
Continuous
 62
     7
100
AcDbLine
 10
228.6982999999999
 20
39.4174
 30
0.0
 11
227.5484
 21
39.4174
 31
0.0
  0
LINE
  5
1253
330
1F
100
AcDbEntity
  8
0
  6
Continuous
 62
     7
100
AcDbLine
 10
228.6982999999999
 20
38.4174
 30
0.0
 11
227.5484
 21
38.4174
 31
0.0
  0
LINE
  5
1254
330
1F
100
AcDbEntity
  8
0
  6
Continuous
 62
     7
100
AcDbLine
 10
224.3983
 20
39.4174
 30
0.0
 11
224.3983
 21
38.4174
 31
0.0
  0
LINE
  5
1255
330
1F
100
AcDbEntity
  8
0
  6
Continuous
 62
     7
100
AcDbLine
 10
228.6982999999999
 20
39.4174
 30
0.0
 11
228.6982999999999
 21
38.4174
 31
0.0
  0
LINE
  5
1256
330
1F
100
AcDbEntity
  8
0
  6
Continuous
 62
     7
100
AcDbLine
 10
227.0483999999999
 20
41.0673
 30
0.0
 11
226.0483999999999
 21
41.0673
 31
0.0
  0
LINE
  5
1257
330
1F
100
AcDbEntity
  8
0
  6
Continuous
 62
     7
100
AcDbLine
 10
227.0483999999999
 20
36.7675
 30
0.0
 11
226.0483999999999
 21
36.7675
 31
0.0
  0
LINE
  5
1258
330
1F
100
AcDbEntity
  8
0
  6
Continuous
 62
     7
100
AcDbLine
 10
226.0483999999999
 20
37.9174
 30
0.0
 11
226.0483999999999
 21
36.7675
 31
0.0
  0
ARC
  5
1259
330
1F
100
AcDbEntity
  8
0
  6
Continuous
 62
     7
100
AcDbCircle
 10
220.2790999999999
 20
72.68699999999999
 30
0.0
 40
3.0
100
AcDbArc
 50
180.0
 51
270.0
  0
ARC
  5
125A
330
1F
100
AcDbEntity
  8
0
  6
Continuous
 62
     7
100
AcDbCircle
 10
189.7790810247975
 20
75.68695418983168
 30
0.0
 40
53.19993088635118
100
AcDbArc
 50
328.3062040863084
 51
346.6937759185955
  0
ARC
  5
125B
330
1F
100
AcDbEntity
  8
0
  6
Continuous
 62
     7
100
AcDbCircle
 10
189.779189588619
 20
75.68721628262759
 30
0.0
 40
56.19994456131781
100
AcDbArc
 50
328.8005636726961
 51
346.1987935740125
  0
ARC
  5
125C
330
1F
100
AcDbEntity
  8
0
  6
Continuous
 62
     7
100
AcDbCircle
 10
236.6092916073879
 20
26.68700437438619
 30
0.0
 40
7.999995625618221
100
AcDbArc
 50
34.9413250879956
 51
89.99993989231148
  0
LINE
  5
125D
330
1F
100
AcDbEntity
  8
0
  6
Continuous
 62
     7
100
AcDbLine
 10
235.0451
 20
47.7368
 30
0.0
 11
237.8509
 21
46.57469999999999
 31
0.0
  0
LINE
  5
125E
330
1F
100
AcDbEntity
  8
0
  6
Continuous
 62
     7
100
AcDbLine
 10
236.6092999999999
 20
34.687
 30
0.0
 11
233.3949
 21
34.687
 31
0.0
  0
ARC
  5
125F
330
1F
100
AcDbEntity
  8
0
  6
Continuous
 62
     7
100
AcDbCircle
 10
231.8265784816369
 20
66.68702661205711
 30
0.0
 40
2.999973388020088
100
AcDbArc
 50
347.918037821711
 51
89.99958902589193
  0
LINE
  5
1260
330
1F
100
AcDbEntity
  8
0
  6
Continuous
 62
     7
100
AcDbLine
 10
241.5507999999999
 20
63.4429
 30
0.0
 11
244.3564
 21
62.2805
 31
0.0
  0
CIRCLE
  5
1261
330
1F
100
AcDbEntity
  8
0
  6
Continuous
 62
     7
100
AcDbCircle
 10
226.5483999999999
 20
112.4562
 30
0.0
 40
3.500037145517178
  0
LINE
  5
1262
330
1F
100
AcDbEntity
  8
0
  6
Continuous
 62
     7
100
AcDbLine
 10
220.2790999999999
 20
81.68700000000002
 30
0.0
 11
231.8266
 21
81.68700000000002
 31
0.0
  0
ARC
  5
1263
330
1F
100
AcDbEntity
  8
0
  6
Continuous
 62
     7
100
AcDbCircle
 10
220.2790999999999
 20
78.68700000000003
 30
0.0
 40
3.0
100
AcDbArc
 50
90.0
 51
180.0
  0
ARC
  5
1264
330
1F
100
AcDbEntity
  8
0
  6
Continuous
 62
     7
100
AcDbCircle
 10
227.5484
 20
111.4562
 30
0.0
 40
0.5
100
AcDbArc
 50
90.0
 51
180.0
  0
ARC
  5
1265
330
1F
100
AcDbEntity
  8
0
  6
Continuous
 62
     7
100
AcDbCircle
 10
225.5484
 20
111.4562
 30
0.0
 40
0.5
100
AcDbArc
 50
0.0
 51
90.0
  0
ARC
  5
1266
330
1F
100
AcDbEntity
  8
0
  6
Continuous
 62
     7
100
AcDbCircle
 10
225.5484
 20
113.4562
 30
0.0
 40
0.5
100
AcDbArc
 50
270.0
 51
0.0
  0
ARC
  5
1267
330
1F
100
AcDbEntity
  8
0
  6
Continuous
 62
     7
100
AcDbCircle
 10
227.5484
 20
113.4562
 30
0.0
 40
0.5
100
AcDbArc
 50
180.0
 51
270.0
  0
LINE
  5
1268
330
1F
100
AcDbEntity
  8
0
  6
Continuous
 62
     7
100
AcDbLine
 10
226.0483999999999
 20
110.3059999999999
 30
0.0
 11
227.0483999999999
 21
110.3059999999999
 31
0.0
  0
LINE
  5
1269
330
1F
100
AcDbEntity
  8
0
  6
Continuous
 62
     7
100
AcDbLine
 10
226.0483999999999
 20
114.6060999999999
 30
0.0
 11
227.0483999999999
 21
114.6060999999999
 31
0.0
  0
LINE
  5
126A
330
1F
100
AcDbEntity
  8
0
  6
Continuous
 62
     7
100
AcDbLine
 10
224.3985
 20
112.9561999999999
 30
0.0
 11
224.3985
 21
111.9561999999999
 31
0.0
  0
LINE
  5
126B
330
1F
100
AcDbEntity
  8
0
  6
Continuous
 62
     7
100
AcDbLine
 10
228.6982999999999
 20
112.9561999999999
 30
0.0
 11
228.6982999999999
 21
111.9561999999999
 31
0.0
  0
LINE
  5
126C
330
1F
100
AcDbEntity
  8
0
  6
Continuous
 62
     7
100
AcDbLine
 10
227.5484
 20
111.9561999999999
 30
0.0
 11
228.6982999999999
 21
111.9561999999999
 31
0.0
  0
LINE
  5
126D
330
1F
100
AcDbEntity
  8
0
  6
Continuous
 62
     7
100
AcDbLine
 10
227.5484
 20
112.9561999999999
 30
0.0
 11
228.6982999999999
 21
112.9561999999999
 31
0.0
  0
LINE
  5
126E
330
1F
100
AcDbEntity
  8
0
  6
Continuous
 62
     7
100
AcDbLine
 10
224.3985
 20
111.9561999999999
 30
0.0
 11
225.5484
 21
111.9561999999999
 31
0.0
  0
LINE
  5
126F
330
1F
100
AcDbEntity
  8
0
  6
Continuous
 62
     7
100
AcDbLine
 10
224.3985
 20
112.9561999999999
 30
0.0
 11
225.5484
 21
112.9561999999999
 31
0.0
  0
LINE
  5
1270
330
1F
100
AcDbEntity
  8
0
  6
Continuous
 62
     7
100
AcDbLine
 10
226.0483999999999
 20
111.4562
 30
0.0
 11
226.0483999999999
 21
110.3059999999999
 31
0.0
  0
LINE
  5
1271
330
1F
100
AcDbEntity
  8
0
  6
Continuous
 62
     7
100
AcDbLine
 10
227.0483999999999
 20
111.4562
 30
0.0
 11
227.0483999999999
 21
110.3059999999999
 31
0.0
  0
LINE
  5
1272
330
1F
100
AcDbEntity
  8
0
  6
Continuous
 62
     7
100
AcDbLine
 10
226.0483999999999
 20
114.6060999999999
 30
0.0
 11
226.0483999999999
 21
113.4562
 31
0.0
  0
LINE
  5
1273
330
1F
100
AcDbEntity
  8
0
  6
Continuous
 62
     7
100
AcDbLine
 10
227.0483999999999
 20
114.6060999999999
 30
0.0
 11
227.0483999999999
 21
113.4562
 31
0.0
  0
ARC
  5
1274
330
1F
100
AcDbEntity
  8
0
  6
Continuous
 62
     7
100
AcDbCircle
 10
189.7791163801488
 20
75.68696045484163
 30
0.0
 40
53.19989310960283
100
AcDbArc
 50
13.30621749636825
 51
31.69380249872778
  0
ARC
  5
1275
330
1F
100
AcDbEntity
  8
0
  6
Continuous
 62
     7
100
AcDbCircle
 10
189.7791167290675
 20
75.68695961247826
 30
0.0
 40
56.199949502229
100
AcDbArc
 50
13.80091555203768
 51
31.199104443058
  0
ARC
  5
1276
330
1F
100
AcDbEntity
  8
0
  6
Continuous
 62
     7
100
AcDbCircle
 10
231.8265784816369
 20
84.6869733879429
 30
0.0
 40
2.999973388020075
100
AcDbArc
 50
270.000410974108
 51
12.08196217828889
  0
LINE
  5
1277
330
1F
100
AcDbEntity
  8
0
  6
Continuous
 62
     7
100
AcDbLine
 10
241.5507999999999
 20
87.93110000000002
 30
0.0
 11
244.3564
 21
89.09350000000001
 31
0.0
  0
LINE
  5
1278
330
1F
100
AcDbEntity
  8
0
  6
Continuous
 62
     7
100
AcDbLine
 10
235.0452
 20
103.6372
 30
0.0
 11
237.8509
 21
104.7992999999999
 31
0.0
  0
LINE
  5
1279
330
1F
100
AcDbEntity
  8
0
  6
Continuous
 62
     7
100
AcDbLine
 10
242.0411
 20
99.6648
 30
0.0
 11
242.7944
 21
100.4179999999999
 31
0.0
  0
LINE
  5
1280
330
1F
100
AcDbEntity
  8
0
  6
Continuous
 62
     7
100
AcDbLine
 10
217.7292
 20
120.9531
 30
0.0
 11
218.8914
 21
123.7587999999999
 31
0.0
  0
MTEXT
  5
1292
330
1F
100
AcDbEntity
  8
0
100
AcDbMText
 10
-76.8675152411148
 20
-120.470879472651
 30
0.0
 40
8.0
 41
124.1895755239672
 71
     1
 72
     1
  1
AEM-TBH 4P 0.1kW
 73
     1
 44
1.0
  0
VIEWPORT
  5
71
330
55
100
AcDbEntity
 67
     1
  8
0
100
AcDbViewport
 10
133.3499908447265
 20
101.5999970436096
 30
0.0
 40
381.3957395593833
 41
218.2856291881582
 68
     1
 69
     1
 12
133.3499908447265
 22
101.5999970436096
 13
0.0
 23
0.0
 14
10.0
 24
10.0
 15
10.0
 25
10.0
 16
0.0
 26
0.0
 36
1.0
 17
0.0
 27
0.0
 37
0.0
 42
50.0
 43
0.0
 44
0.0
 45
218.2856291881582
 50
0.0
 51
0.0
 72
   100
 90
    32800
  1

281
     0
 71
     1
 74
     0
110
0.0
120
0.0
130
0.0
111
1.0
121
0.0
131
0.0
112
0.0
122
1.0
132
0.0
 79
     0
146
0.0
  0
VIEWPORT
  5
73
330
55
100
AcDbEntity
 67
     1
  8
0
100
AcDbViewport
 10
133.3499939441679
 20
101.5999939441679
 30
0.0
 40
213.3599903106689
 41
162.5599903106689
 68
     2
 69
     2
 12
210.0
 22
148.5
 13
0.0
 23
0.0
 14
10.0
 24
10.0
 15
10.0
 25
10.0
 16
0.0
 26
0.0
 36
1.0
 17
0.0
 27
0.0
 37
0.0
 42
50.0
 43
0.0
 44
0.0
 45
324.0677920111345
 50
0.0
 51
0.0
 72
   100
 90
    32864
  1

281
     0
 71
     1
 74
     0
110
0.0
120
0.0
130
0.0
111
1.0
121
0.0
131
0.0
112
0.0
122
1.0
132
0.0
 79
     0
146
0.0
  0
ENDSEC
  0
SECTION
  2
OBJECTS
  0
DICTIONARY
  5
C
330
0
100
AcDbDictionary
281
     1
  3
ACAD_GROUP
350
D
  3
ACAD_LAYOUT
350
1A
  3
ACAD_MLINESTYLE
350
17
  3
ACAD_PLOTSETTINGS
350
19
  3
ACAD_PLOTSTYLENAME
350
E
  3
AcDbVariableDictionary
350
5E
  0
DICTIONARY
  5
D
102
{ACAD_REACTORS
330
C
102
}
330
C
100
AcDbDictionary
281
     1
  0
DICTIONARY
  5
1A
102
{ACAD_REACTORS
330
C
102
}
330
C
100
AcDbDictionary
281
     1
  3
Model
350
22
  3
ﾚｲｱｳﾄ1
350
51
  3
ﾚｲｱｳﾄ2
350
56
  0
DICTIONARY
  5
17
102
{ACAD_REACTORS
330
C
102
}
330
C
100
AcDbDictionary
281
     1
  3
Standard
350
18
  0
DICTIONARY
  5
19
102
{ACAD_REACTORS
330
C
102
}
330
C
100
AcDbDictionary
281
     1
  0
ACDBDICTIONARYWDFLT
  5
E
102
{ACAD_REACTORS
330
C
102
}
330
C
100
AcDbDictionary
281
     1
  3
Normal
350
F
100
AcDbDictionaryWithDefault
340
F
  0
DICTIONARY
  5
5E
102
{ACAD_REACTORS
330
C
102
}
330
C
100
AcDbDictionary
281
     1
  3
DIMASSOC
350
5F
  3
HIDETEXT
350
63
  0
LAYOUT
  5
22
102
{ACAD_REACTORS
330
1A
102
}
330
1A
100
AcDbPlotSettings
  1

  2
none_device
  4
ANSI_A_(8.50_x_11.00_Inches)
  6

 40
6.349999904632567
 41
19.04999923706053
 42
6.350006103515625
 43
19.04998779296875
 44
215.8999938964842
 45
279.3999938964843
 46
0.0
 47
0.0
 48
0.0
 49
0.0
140
0.0
141
0.0
142
1.0
143
78.436453180766
 70
 11952
 72
     0
 73
     1
 74
     0
  7

 75
     0
147
0.0127491741332998
148
0.0
149
0.0
100
AcDbLayout
  1
Model
 70
     1
 71
     0
 10
0.0
 20
0.0
 11
12.0
 21
9.0
 12
0.0
 22
0.0
 32
0.0
 14
0.0
 24
0.0
 34
0.0
 15
0.0
 25
0.0
 35
0.0
146
0.0
 13
0.0
 23
0.0
 33
0.0
 16
1.0
 26
0.0
 36
0.0
 17
0.0
 27
1.0
 37
0.0
 76
     0
330
1F
  0
LAYOUT
  5
51
102
{ACAD_REACTORS
330
1A
102
}
330
1A
100
AcDbPlotSettings
  1

  2
none_device
  4
Letter_(8.50_x_11.00_Inches)
  6

 40
6.349999904632567
 41
6.349999904632567
 42
6.350006103515625
 43
6.350006103515625
 44
215.8999938964842
 45
279.3999938964843
 46
0.0
 47
0.0
 48
0.0
 49
0.0
140
0.0
141
0.0
142
1.0
143
1.0
 70
   688
 72
     1
 73
     1
 74
     5
  7

 75
    16
147
1.0
148
0.0
149
0.0
100
AcDbLayout
  1
ﾚｲｱｳﾄ1
 70
     1
 71
     1
 10
-6.350006103515625
 20
-6.349999904632567
 11
273.0499877929687
 21
209.5499939918517
 12
0.0
 22
0.0
 32
0.0
 14
26.66076962115562
 24
20.31135699206657
 34
-0.0015258207003583
 15
240.039213369355
 25
182.8886381005154
 35
0.0000000349246037
146
0.0
 13
0.0
 23
0.0
 33
0.0
 16
1.0
 26
0.0
 36
0.0
 17
0.0
 27
1.0
 37
0.0
 76
     0
330
50
331
6B
  0
LAYOUT
  5
56
102
{ACAD_REACTORS
330
1A
102
}
330
1A
100
AcDbPlotSettings
  1

  2
none_device
  4
Letter_(8.50_x_11.00_Inches)
  6

 40
6.349999904632567
 41
6.349999904632567
 42
6.350006103515625
 43
6.350006103515625
 44
215.8999938964842
 45
279.3999938964843
 46
0.0
 47
0.0
 48
0.0
 49
0.0
140
0.0
141
0.0
142
1.0
143
1.0
 70
   688
 72
     1
 73
     1
 74
     5
  7

 75
    16
147
1.0
148
0.0
149
0.0
100
AcDbLayout
  1
ﾚｲｱｳﾄ2
 70
     1
 71
     2
 10
-6.350006103515625
 20
-6.349999904632567
 11
273.0499877929687
 21
209.5499939918517
 12
0.0
 22
0.0
 32
0.0
 14
26.66076962115562
 24
20.31135699206657
 34
-0.0015258207003583
 15
240.039213369355
 25
182.8886381005154
 35
0.0000000349246037
146
0.0
 13
0.0
 23
0.0
 33
0.0
 16
1.0
 26
0.0
 36
0.0
 17
0.0
 27
1.0
 37
0.0
 76
     0
330
55
331
71
  0
MLINESTYLE
  5
18
102
{ACAD_REACTORS
330
17
102
}
330
17
100
AcDbMlineStyle
  2
STANDARD
 70
     0
  3

 62
   256
 51
90.0
 52
90.0
 71
     2
 49
0.5
 62
   256
  6
BYLAYER
 49
-0.5
 62
   256
  6
BYLAYER
  0
ACDBPLACEHOLDER
  5
F
102
{ACAD_REACTORS
330
E
102
}
330
E
  0
DICTIONARYVAR
  5
5F
102
{ACAD_REACTORS
330
5E
102
}
330
5E
100
DictionaryVariables
280
     0
  1
2
  0
DICTIONARYVAR
  5
63
102
{ACAD_REACTORS
330
5E
102
}
330
5E
100
DictionaryVariables
280
     0
  1
1
  0
ENDSEC
  0
EOF
