  0
SECTION
  2
HEADER
  9
$ACADVER
  1
AC1015
  9
$ACADMAINTVER
 70
    14
  9
$DWGCODEPAGE
  3
ANSI_932
  9
$INSBASE
 10
0.0
 20
0.0
 30
0.0
  9
$EXTMIN
 10
-296.4034628966056
 20
-177.0129785243341
 30
0.0
  9
$EXTMAX
 10
285.9581126597035
 20
96.44576272330985
 30
0.0
  9
$LIMMIN
 10
0.0
 20
0.0
  9
$LIMMAX
 10
420.0
 20
297.0
  9
$ORTHOMODE
 70
     0
  9
$REGENMODE
 70
     1
  9
$FILLMODE
 70
     1
  9
$QTEXTMODE
 70
     0
  9
$MIRRTEXT
 70
     1
  9
$LTSCALE
 40
1.0
  9
$ATTMODE
 70
     1
  9
$TEXTSIZE
 40
2.5
  9
$TRACEWID
 40
1.0
  9
$TEXTSTYLE
  7
Standard
  9
$CLAYER
  8
0
  9
$CELTYPE
  6
ByLayer
  9
$CECOLOR
 62
   256
  9
$CELTSCALE
 40
1.0
  9
$DISPSILH
 70
     0
  9
$DIMSCALE
 40
1.0
  9
$DIMASZ
 40
2.5
  9
$DIMEXO
 40
0.625
  9
$DIMDLI
 40
3.75
  9
$DIMRND
 40
0.0
  9
$DIMDLE
 40
0.0
  9
$DIMEXE
 40
1.25
  9
$DIMTP
 40
0.0
  9
$DIMTM
 40
0.0
  9
$DIMTXT
 40
2.5
  9
$DIMCEN
 40
2.5
  9
$DIMTSZ
 40
0.0
  9
$DIMTOL
 70
     0
  9
$DIMLIM
 70
     0
  9
$DIMTIH
 70
     0
  9
$DIMTOH
 70
     0
  9
$DIMSE1
 70
     0
  9
$DIMSE2
 70
     0
  9
$DIMTAD
 70
     1
  9
$DIMZIN
 70
     8
  9
$DIMBLK
  1

  9
$DIMASO
 70
     1
  9
$DIMSHO
 70
     1
  9
$DIMPOST
  1

  9
$DIMAPOST
  1

  9
$DIMALT
 70
     0
  9
$DIMALTD
 70
     3
  9
$DIMALTF
 40
0.03937007874016
  9
$DIMLFAC
 40
1.0
  9
$DIMTOFL
 70
     1
  9
$DIMTVP
 40
0.0
  9
$DIMTIX
 70
     0
  9
$DIMSOXD
 70
     0
  9
$DIMSAH
 70
     0
  9
$DIMBLK1
  1

  9
$DIMBLK2
  1

  9
$DIMSTYLE
  2
ISO-25
  9
$DIMCLRD
 70
     0
  9
$DIMCLRE
 70
     0
  9
$DIMCLRT
 70
     0
  9
$DIMTFAC
 40
1.0
  9
$DIMGAP
 40
0.625
  9
$DIMJUST
 70
     0
  9
$DIMSD1
 70
     0
  9
$DIMSD2
 70
     0
  9
$DIMTOLJ
 70
     0
  9
$DIMTZIN
 70
     8
  9
$DIMALTZ
 70
     0
  9
$DIMALTTZ
 70
     0
  9
$DIMUPT
 70
     0
  9
$DIMDEC
 70
     2
  9
$DIMTDEC
 70
     2
  9
$DIMALTU
 70
     2
  9
$DIMALTTD
 70
     3
  9
$DIMTXSTY
  7
Standard
  9
$DIMAUNIT
 70
     0
  9
$DIMADEC
 70
     0
  9
$DIMALTRND
 40
0.0
  9
$DIMAZIN
 70
     0
  9
$DIMDSEP
 70
    44
  9
$DIMATFIT
 70
     3
  9
$DIMFRAC
 70
     0
  9
$DIMLDRBLK
  1

  9
$DIMLUNIT
 70
     2
  9
$DIMLWD
 70
    -2
  9
$DIMLWE
 70
    -2
  9
$DIMTMOVE
 70
     0
  9
$LUNITS
 70
     2
  9
$LUPREC
 70
     4
  9
$SKETCHINC
 40
1.0
  9
$FILLETRAD
 40
10.0
  9
$AUNITS
 70
     0
  9
$AUPREC
 70
     0
  9
$MENU
  1
.
  9
$ELEVATION
 40
0.0
  9
$PELEVATION
 40
0.0
  9
$THICKNESS
 40
0.0
  9
$LIMCHECK
 70
     0
  9
$CHAMFERA
 40
10.0
  9
$CHAMFERB
 40
10.0
  9
$CHAMFERC
 40
20.0
  9
$CHAMFERD
 40
0.0
  9
$SKPOLY
 70
     0
  9
$TDCREATE
 40
2456035.878488854
  9
$TDUCREATE
 40
2456035.503488854
  9
$TDUPDATE
 40
2456037.685291875
  9
$TDUUPDATE
 40
2456037.310291875
  9
$TDINDWG
 40
0.0024122917
  9
$TDUSRTIMER
 40
0.0024122917
  9
$USRTIMER
 70
     1
  9
$ANGBASE
 50
0.0
  9
$ANGDIR
 70
     0
  9
$PDMODE
 70
     0
  9
$PDSIZE
 40
0.0
  9
$PLINEWID
 40
0.0
  9
$SPLFRAME
 70
     0
  9
$SPLINETYPE
 70
     6
  9
$SPLINESEGS
 70
     8
  9
$HANDSEED
  5
EBA
  9
$SURFTAB1
 70
     6
  9
$SURFTAB2
 70
     6
  9
$SURFTYPE
 70
     6
  9
$SURFU
 70
     6
  9
$SURFV
 70
     6
  9
$UCSBASE
  2

  9
$UCSNAME
  2

  9
$UCSORG
 10
0.0
 20
0.0
 30
0.0
  9
$UCSXDIR
 10
1.0
 20
0.0
 30
0.0
  9
$UCSYDIR
 10
0.0
 20
1.0
 30
0.0
  9
$UCSORTHOREF
  2

  9
$UCSORTHOVIEW
 70
     0
  9
$UCSORGTOP
 10
0.0
 20
0.0
 30
0.0
  9
$UCSORGBOTTOM
 10
0.0
 20
0.0
 30
0.0
  9
$UCSORGLEFT
 10
0.0
 20
0.0
 30
0.0
  9
$UCSORGRIGHT
 10
0.0
 20
0.0
 30
0.0
  9
$UCSORGFRONT
 10
0.0
 20
0.0
 30
0.0
  9
$UCSORGBACK
 10
0.0
 20
0.0
 30
0.0
  9
$PUCSBASE
  2

  9
$PUCSNAME
  2

  9
$PUCSORG
 10
0.0
 20
0.0
 30
0.0
  9
$PUCSXDIR
 10
1.0
 20
0.0
 30
0.0
  9
$PUCSYDIR
 10
0.0
 20
1.0
 30
0.0
  9
$PUCSORTHOREF
  2

  9
$PUCSORTHOVIEW
 70
     0
  9
$PUCSORGTOP
 10
0.0
 20
0.0
 30
0.0
  9
$PUCSORGBOTTOM
 10
0.0
 20
0.0
 30
0.0
  9
$PUCSORGLEFT
 10
0.0
 20
0.0
 30
0.0
  9
$PUCSORGRIGHT
 10
0.0
 20
0.0
 30
0.0
  9
$PUCSORGFRONT
 10
0.0
 20
0.0
 30
0.0
  9
$PUCSORGBACK
 10
0.0
 20
0.0
 30
0.0
  9
$USERI1
 70
     0
  9
$USERI2
 70
     0
  9
$USERI3
 70
     0
  9
$USERI4
 70
     0
  9
$USERI5
 70
     0
  9
$USERR1
 40
0.0
  9
$USERR2
 40
0.0
  9
$USERR3
 40
0.0
  9
$USERR4
 40
0.0
  9
$USERR5
 40
0.0
  9
$WORLDVIEW
 70
     1
  9
$SHADEDGE
 70
     3
  9
$SHADEDIF
 70
    70
  9
$TILEMODE
 70
     1
  9
$MAXACTVP
 70
    64
  9
$PINSBASE
 10
0.0
 20
0.0
 30
0.0
  9
$PLIMCHECK
 70
     0
  9
$PEXTMIN
 10
26.66076962115562
 20
20.31135699206657
 30
-0.0015258207003583
  9
$PEXTMAX
 10
240.039213369355
 20
182.8886381005154
 30
0.0000000349246037
  9
$PLIMMIN
 10
-6.350006103515625
 20
-6.349999904632567
  9
$PLIMMAX
 10
273.0499877929687
 20
209.5499939918517
  9
$UNITMODE
 70
     0
  9
$VISRETAIN
 70
     1
  9
$PLINEGEN
 70
     0
  9
$PSLTSCALE
 70
     1
  9
$TREEDEPTH
 70
  3020
  9
$CMLSTYLE
  2
Standard
  9
$CMLJUST
 70
     0
  9
$CMLSCALE
 40
20.0
  9
$PROXYGRAPHICS
 70
     1
  9
$MEASUREMENT
 70
     1
  9
$CELWEIGHT
370
    -1
  9
$ENDCAPS
280
     0
  9
$JOINSTYLE
280
     0
  9
$LWDISPLAY
290
     0
  9
$INSUNITS
 70
     4
  9
$HYPERLINKBASE
  1

  9
$STYLESHEET
  1

  9
$XEDIT
290
     1
  9
$CEPSNTYPE
380
     0
  9
$PSTYLEMODE
290
     1
  9
$FINGERPRINTGUID
  2
{FDEAD578-A652-11D2-9A35-0060089B3A3F}
  9
$VERSIONGUID
  2
{B4DC8641-2584-469F-B807-69C0470D2B89}
  9
$EXTNAMES
290
     1
  9
$PSVPSCALE
 40
0.0
  9
$OLESTARTUP
290
     0
  0
ENDSEC
  0
SECTION
  2
CLASSES
  0
CLASS
  1
ACDBDICTIONARYWDFLT
  2
AcDbDictionaryWithDefault
  3
AutoCAD 2000
 90
        0
280
     0
281
     0
  0
CLASS
  1
ACDBPLACEHOLDER
  2
AcDbPlaceHolder
  3
AutoCAD 2000
 90
        0
280
     0
281
     0
  0
CLASS
  1
LAYOUT
  2
AcDbLayout
  3
AutoCAD 2000
 90
        0
280
     0
281
     0
  0
CLASS
  1
DICTIONARYVAR
  2
AcDbDictionaryVar
  3
AutoCAD 2000
 90
        0
280
     0
281
     0
  0
ENDSEC
  0
SECTION
  2
TABLES
  0
TABLE
  2
VPORT
  5
8
330
0
100
AcDbSymbolTable
 70
     3
  0
VPORT
  5
EB9
330
8
100
AcDbSymbolTableRecord
100
AcDbViewportTableRecord
  2
*Active
 70
     0
 10
0.0
 20
0.0
 11
1.0
 21
1.0
 12
7.607362494830397
 22
-40.28597212348365
 13
0.0
 23
0.0
 14
10.0
 24
10.0
 15
10.0
 25
10.0
 16
0.0
 26
0.0
 36
1.0
 17
0.0
 27
0.0
 37
0.0
 40
296.6561464273455
 41
2.056994818652849
 42
50.0
 43
0.0
 44
0.0
 50
0.0
 51
0.0
 71
     0
 72
   100
 73
     1
 74
     3
 75
     0
 76
     0
 77
     0
 78
     0
281
     0
 65
     1
110
0.0
120
0.0
130
0.0
111
1.0
121
0.0
131
0.0
112
0.0
122
1.0
132
0.0
 79
     0
146
0.0
  0
ENDTAB
  0
TABLE
  2
LTYPE
  5
5
330
0
100
AcDbSymbolTable
 70
     3
  0
LTYPE
  5
14
330
5
100
AcDbSymbolTableRecord
100
AcDbLinetypeTableRecord
  2
ByBlock
 70
     0
  3

 72
    65
 73
     0
 40
0.0
  0
LTYPE
  5
15
330
5
100
AcDbSymbolTableRecord
100
AcDbLinetypeTableRecord
  2
ByLayer
 70
     0
  3

 72
    65
 73
     0
 40
0.0
  0
LTYPE
  5
16
330
5
100
AcDbSymbolTableRecord
100
AcDbLinetypeTableRecord
  2
Continuous
 70
     0
  3
Solid line
 72
    65
 73
     0
 40
0.0
  0
LTYPE
  5
8C
330
5
100
AcDbSymbolTableRecord
100
AcDbLinetypeTableRecord
  2
DASHED
 70
     0
  3
Dashed
 72
    65
 73
     2
 40
15.0
 49
7.0
 74
     0
 49
-8.0
 74
     0
  0
LTYPE
  5
8D
330
5
100
AcDbSymbolTableRecord
100
AcDbLinetypeTableRecord
  2
DASH_CENTER
 70
     0
  3
Dash_Center
 72
    65
 73
     4
 40
14.0
 49
11.0
 74
     0
 49
-1.0
 74
     0
 49
1.0
 74
     0
 49
-1.0
 74
     0
  0
ENDTAB
  0
TABLE
  2
LAYER
  5
2
330
0
100
AcDbSymbolTable
 70
     1
  0
LAYER
  5
10
330
2
100
AcDbSymbolTableRecord
100
AcDbLayerTableRecord
  2
0
 70
     0
 62
     7
  6
Continuous
370
    -3
390
F
  0
ENDTAB
  0
TABLE
  2
STYLE
  5
3
330
0
100
AcDbSymbolTable
 70
    27
  0
STYLE
  5
11
330
3
100
AcDbSymbolTableRecord
100
AcDbTextStyleTableRecord
  2
Standard
 70
     0
 40
0.0
 41
1.0
 50
0.0
 71
     0
 42
2.5
  3
txt
  4

  0
STYLE
  5
8E
330
3
100
AcDbSymbolTableRecord
100
AcDbTextStyleTableRecord
  2
CONVERTER_1
 70
     0
 40
0.0
 41
0.7565
 50
0.0
 71
     0
 42
0.2
  3
txt.shx
  4

  0
STYLE
  5
8F
330
3
100
AcDbSymbolTableRecord
100
AcDbTextStyleTableRecord
  2
CONVERTER_2
 70
     0
 40
0.0
 41
0.7565
 50
0.0
 71
     0
 42
0.2
  3
txt.shx
  4
bigfont.shx
  0
STYLE
  5
90
330
3
100
AcDbSymbolTableRecord
100
AcDbTextStyleTableRecord
  2
CONVERTER_3
 70
     0
 40
0.0
 41
0.89
 50
0.0
 71
     0
 42
0.2
  3
txt.shx
  4
bigfont.shx
  0
STYLE
  5
91
330
3
100
AcDbSymbolTableRecord
100
AcDbTextStyleTableRecord
  2
CONVERTER_4
 70
     0
 40
0.0
 41
0.73425
 50
0.0
 71
     0
 42
0.2
  3
txt.shx
  4

  0
STYLE
  5
92
330
3
100
AcDbSymbolTableRecord
100
AcDbTextStyleTableRecord
  2
CONVERTER_5
 70
     0
 40
0.0
 41
1.0
 50
0.0
 71
     0
 42
0.2
  3
monotxt.shx
  4

  0
STYLE
  5
93
330
3
100
AcDbSymbolTableRecord
100
AcDbTextStyleTableRecord
  2
CONVERTER_6
 70
     0
 40
0.0
 41
0.89
 50
0.0
 71
     0
 42
0.2
  3
txt.shx
  4

  0
STYLE
  5
94
330
3
100
AcDbSymbolTableRecord
100
AcDbTextStyleTableRecord
  2
CONVERTER_7
 70
     0
 40
0.0
 41
0.97612903225807
 50
0.0
 71
     0
 42
0.2
  3
txt.shx
  4
bigfont.shx
  0
STYLE
  5
95
330
3
100
AcDbSymbolTableRecord
100
AcDbTextStyleTableRecord
  2
CONVERTER_8
 70
     0
 40
0.0
 41
1.008666666666669
 50
0.0
 71
     0
 42
0.2
  3
txt.shx
  4
bigfont.shx
  0
STYLE
  5
96
330
3
100
AcDbSymbolTableRecord
100
AcDbTextStyleTableRecord
  2
CONVERTER_9
 70
     0
 40
0.0
 41
0.945625
 50
0.0
 71
     0
 42
0.2
  3
txt.shx
  4
bigfont.shx
  0
STYLE
  5
97
330
3
100
AcDbSymbolTableRecord
100
AcDbTextStyleTableRecord
  2
CONVERTER_10
 70
     0
 40
0.0
 41
1.62688172043011
 50
0.0
 71
     0
 42
0.2
  3
txt.shx
  4
bigfont.shx
  0
STYLE
  5
98
330
3
100
AcDbSymbolTableRecord
100
AcDbTextStyleTableRecord
  2
CONVERTER_11
 70
     0
 40
0.0
 41
1.68111111111111
 50
0.0
 71
     0
 42
0.2
  3
txt.shx
  4
bigfont.shx
  0
STYLE
  5
99
330
3
100
AcDbSymbolTableRecord
100
AcDbTextStyleTableRecord
  2
CONVERTER_12
 70
     0
 40
0.0
 41
0.8362966374942399
 50
0.0
 71
     0
 42
0.2
  3
txt.shx
  4
bigfont.shx
  0
STYLE
  5
9A
330
3
100
AcDbSymbolTableRecord
100
AcDbTextStyleTableRecord
  2
CONVERTER_13
 70
     0
 40
0.0
 41
0.85884578997162
 50
0.0
 71
     0
 42
0.2
  3
txt.shx
  4
bigfont.shx
  0
STYLE
  5
9B
330
3
100
AcDbSymbolTableRecord
100
AcDbTextStyleTableRecord
  2
CONVERTER_14
 70
     0
 40
0.0
 41
0.83262578616352
 50
0.0
 71
     0
 42
0.2
  3
txt.shx
  4
bigfont.shx
  0
STYLE
  5
9C
330
3
100
AcDbSymbolTableRecord
100
AcDbTextStyleTableRecord
  2
CONVERTER_15
 70
     0
 40
0.0
 41
0.7719387755102
 50
0.0
 71
     0
 42
0.2
  3
txt.shx
  4
bigfont.shx
  0
STYLE
  5
9D
330
3
100
AcDbSymbolTableRecord
100
AcDbTextStyleTableRecord
  2
CONVERTER_16
 70
     0
 40
0.0
 41
0.94933333333333
 50
0.0
 71
     0
 42
0.2
  3
txt.shx
  4

  0
STYLE
  5
9E
330
3
100
AcDbSymbolTableRecord
100
AcDbTextStyleTableRecord
  2
CONVERTER_17
 70
     0
 40
0.0
 41
1.078787878787879
 50
0.0
 71
     0
 42
0.2
  3
txt.shx
  4

  0
STYLE
  5
9F
330
3
100
AcDbSymbolTableRecord
100
AcDbTextStyleTableRecord
  2
CONVERTER_18
 70
     0
 40
0.0
 41
1.148387096774188
 50
0.0
 71
     0
 42
0.2
  3
txt.shx
  4

  0
STYLE
  5
A0
330
3
100
AcDbSymbolTableRecord
100
AcDbTextStyleTableRecord
  2
CONVERTER_19
 70
     0
 40
0.0
 41
1.1125
 50
0.0
 71
     0
 42
0.2
  3
txt.shx
  4

  0
STYLE
  5
A1
330
3
100
AcDbSymbolTableRecord
100
AcDbTextStyleTableRecord
  2
CONVERTER_20
 70
     0
 40
0.0
 41
1.01714285714286
 50
0.0
 71
     0
 42
0.2
  3
txt.shx
  4

  0
STYLE
  5
A2
330
3
100
AcDbSymbolTableRecord
100
AcDbTextStyleTableRecord
  2
CONVERTER_21
 70
     0
 40
0.0
 41
1.424
 50
0.0
 71
     0
 42
0.2
  3
txt.shx
  4

  0
STYLE
  5
A3
330
3
100
AcDbSymbolTableRecord
100
AcDbTextStyleTableRecord
  2
CONVERTER_22
 70
     0
 40
0.0
 41
0.6230000000000002
 50
0.0
 71
     0
 42
0.2
  3
txt.shx
  4

  0
STYLE
  5
A4
330
3
100
AcDbSymbolTableRecord
100
AcDbTextStyleTableRecord
  2
CONVERTER_23
 70
     0
 40
0.0
 41
0.741666637
 50
0.0
 71
     0
 42
0.2
  3
txt.shx
  4

  0
STYLE
  5
A5
330
3
100
AcDbSymbolTableRecord
100
AcDbTextStyleTableRecord
  2
CONVERTER_24
 70
     0
 40
0.0
 41
0.8455
 50
0.0
 71
     0
 42
0.2
  3
txt.shx
  4

  0
STYLE
  5
A6
330
3
100
AcDbSymbolTableRecord
100
AcDbTextStyleTableRecord
  2
CONVERTER_25
 70
     0
 40
0.0
 41
0.8009999999999999
 50
0.0
 71
     0
 42
0.2
  3
txt.shx
  4

  0
STYLE
  5
A7
330
3
100
AcDbSymbolTableRecord
100
AcDbTextStyleTableRecord
  2
CONVERTER_26
 70
     0
 40
0.0
 41
0.8009999999999999
 50
0.0
 71
     0
 42
0.2
  3
txt.shx
  4
bigfont.shx
  0
ENDTAB
  0
TABLE
  2
VIEW
  5
6
330
0
100
AcDbSymbolTable
 70
     0
  0
ENDTAB
  0
TABLE
  2
UCS
  5
7
330
0
100
AcDbSymbolTable
 70
     0
  0
ENDTAB
  0
TABLE
  2
APPID
  5
9
330
0
100
AcDbSymbolTable
 70
     1
  0
APPID
  5
12
330
9
100
AcDbSymbolTableRecord
100
AcDbRegAppTableRecord
  2
ACAD
 70
     0
  0
ENDTAB
  0
TABLE
  2
DIMSTYLE
  5
A
330
0
100
AcDbSymbolTable
 70
     2
100
AcDbDimStyleTable
 71
     0
  0
DIMSTYLE
105
27
330
A
100
AcDbSymbolTableRecord
100
AcDbDimStyleTableRecord
  2
ISO-25
 70
     0
 41
2.5
 42
0.625
 43
3.75
 44
1.25
 73
     0
 74
     0
 77
     1
 78
     8
140
2.5
141
2.5
143
0.03937007874016
147
0.625
171
     3
172
     1
271
     2
272
     2
274
     3
278
    44
283
     0
284
     8
340
11
  0
DIMSTYLE
105
A8
330
A
100
AcDbSymbolTableRecord
100
AcDbDimStyleTableRecord
  2
Standard
 70
     0
340
11
  0
ENDTAB
  0
TABLE
  2
BLOCK_RECORD
  5
1
330
0
100
AcDbSymbolTable
 70
     2
  0
BLOCK_RECORD
  5
1F
330
1
100
AcDbSymbolTableRecord
100
AcDbBlockTableRecord
  2
*Model_Space
340
22
  0
BLOCK_RECORD
  5
55
330
1
100
AcDbSymbolTableRecord
100
AcDbBlockTableRecord
  2
*Paper_Space
340
56
  0
BLOCK_RECORD
  5
50
330
1
100
AcDbSymbolTableRecord
100
AcDbBlockTableRecord
  2
*Paper_Space0
340
51
  0
BLOCK_RECORD
  5
86
330
1
100
AcDbSymbolTableRecord
100
AcDbBlockTableRecord
  2
_Open30
340
0
102
{BLKREFS
331
60A
331
609
331
16B
331
E9
331
FD
331
168
331
16D
331
14C
331
108
331
105
331
102
331
FF
331
11F
331
119
331
19F
331
5AA
331
19E
331
558
331
55B
331
5A5
331
5A9
331
55C
331
5A6
331
5A8
331
59A
331
59F
331
79B
331
6E0
331
799
331
6DF
331
61C
331
61A
331
6BA
331
614
331
6C5
331
674
331
6B9
331
61E
331
621
331
616
331
637
331
630
331
6B2
331
6A6
331
6CC
331
6C9
331
76E
331
79D
331
6F5
331
6F4
331
D76
331
DA8
331
DB4
331
DBB
331
DBC
331
DC7
331
DCB
331
DCE
331
DE1
331
DE2
331
DF6
331
DF7
331
E70
331
E9B
331
E9D
331
E9F
331
C5A
331
C5D
331
C5E
331
C9C
331
CA1
331
CA7
331
CA8
331
CAA
331
CAB
331
CAC
331
D0B
331
D0C
331
D16
331
D18
331
D1C
331
D1E
331
D20
331
D23
331
D32
331
D39
331
7EB
331
7FF
331
801
331
804
331
807
331
80A
331
81B
331
821
331
84E
331
86A
331
86D
331
86F
331
8A0
331
8A1
102
}
  0
ENDTAB
  0
ENDSEC
  0
SECTION
  2
BLOCKS
  0
BLOCK
  5
20
330
1F
100
AcDbEntity
  8
0
100
AcDbBlockBegin
  2
*Model_Space
 70
     0
 10
0.0
 20
0.0
 30
0.0
  3
*Model_Space
  1

  0
ENDBLK
  5
21
330
1F
100
AcDbEntity
  8
0
100
AcDbBlockEnd
  0
BLOCK
  5
57
330
55
100
AcDbEntity
 67
     1
  8
0
100
AcDbBlockBegin
  2
*Paper_Space
 70
     0
 10
0.0
 20
0.0
 30
0.0
  3
*Paper_Space
  1

  0
ENDBLK
  5
58
330
55
100
AcDbEntity
 67
     1
  8
0
100
AcDbBlockEnd
  0
BLOCK
  5
52
330
50
100
AcDbEntity
  8
0
100
AcDbBlockBegin
  2
*Paper_Space0
 70
     0
 10
0.0
 20
0.0
 30
0.0
  3
*Paper_Space0
  1

  0
VIEWPORT
  5
6B
330
50
100
AcDbEntity
  8
0
100
AcDbViewport
 10
133.3499908447265
 20
101.5999970436096
 30
0.0
 40
381.3957395593833
 41
218.2856291881582
 69
     0
 12
133.3499908447265
 22
101.5999970436096
 13
0.0
 23
0.0
 14
10.0
 24
10.0
 15
10.0
 25
10.0
 16
0.0
 26
0.0
 36
1.0
 17
0.0
 27
0.0
 37
0.0
 42
50.0
 43
0.0
 44
0.0
 45
218.2856291881582
 50
0.0
 51
0.0
 72
   100
 90
    32800
  1

281
     0
 71
     1
 74
     0
110
0.0
120
0.0
130
0.0
111
1.0
121
0.0
131
0.0
112
0.0
122
1.0
132
0.0
 79
     0
146
0.0
  0
VIEWPORT
  5
6D
330
50
100
AcDbEntity
  8
0
100
AcDbViewport
 10
133.3499939441679
 20
101.5999939441679
 30
0.0
 40
213.3599903106689
 41
162.5599903106689
 69
     0
 12
210.0
 22
148.5
 13
0.0
 23
0.0
 14
10.0
 24
10.0
 15
10.0
 25
10.0
 16
0.0
 26
0.0
 36
1.0
 17
0.0
 27
0.0
 37
0.0
 42
50.0
 43
0.0
 44
0.0
 45
324.0677920111345
 50
0.0
 51
0.0
 72
   100
 90
    32864
  1

281
     0
 71
     1
 74
     0
110
0.0
120
0.0
130
0.0
111
1.0
121
0.0
131
0.0
112
0.0
122
1.0
132
0.0
 79
     0
146
0.0
  0
ENDBLK
  5
53
330
50
100
AcDbEntity
  8
0
100
AcDbBlockEnd
  0
BLOCK
  5
8A
330
86
100
AcDbEntity
  8
0
100
AcDbBlockBegin
  2
_Open30
 70
     0
 10
0.0
 20
0.0
 30
0.0
  3
_Open30
  1

  0
LINE
  5
87
330
86
100
AcDbEntity
  8
0
  6
ByBlock
 62
     0
370
    -2
100
AcDbLine
 10
-1.0
 20
0.267949
 30
0.0
 11
0.0
 21
0.0
 31
0.0
  0
LINE
  5
88
330
86
100
AcDbEntity
  8
0
  6
ByBlock
 62
     0
370
    -2
100
AcDbLine
 10
0.0
 20
0.0
 30
0.0
 11
-1.0
 21
-0.267949
 31
0.0
  0
LINE
  5
89
330
86
100
AcDbEntity
  8
0
  6
ByBlock
 62
     0
370
    -2
100
AcDbLine
 10
0.0
 20
0.0
 30
0.0
 11
-1.0
 21
0.0
 31
0.0
  0
ENDBLK
  5
8B
330
86
100
AcDbEntity
  8
0
100
AcDbBlockEnd
  0
ENDSEC
  0
SECTION
  2
ENTITIES
  0
LINE
  5
7AE
330
1F
100
AcDbEntity
  8
0
  6
DASH_CENTER
 62
    30
100
AcDbLine
 10
-22.75669231051778
 20
13.80896272330982
 30
0.0
 11
1.777107689482363
 21
13.80896272330982
 31
0.0
  0
ARC
  5
7B5
330
1F
100
AcDbEntity
  8
0
  6
Continuous
 62
     7
100
AcDbCircle
 10
-160.7273628966056
 20
13.80896272330982
 30
0.0
 40
122.2999960983235
100
AcDbArc
 50
180.0
 51
187.4028340775918
  0
ARC
  5
7B6
330
1F
100
AcDbEntity
  8
0
  6
Continuous
 62
     7
100
AcDbCircle
 10
-233.4275609457602
 20
13.8089928791256
 30
0.0
 40
122.2999980491582
100
AcDbArc
 50
352.5971517948438
 51
359.9999858724365
  0
LINE
  5
7B7
330
1F
100
AcDbEntity
  8
0
  6
Continuous
 62
     7
100
AcDbLine
 10
-237.8274628966056
 20
15.80412829874694
 30
0.0
 11
-230.5830628966056
 21
-3.462437276690028
 31
0.0
  0
LINE
  5
7B8
330
1F
100
AcDbEntity
  8
0
  6
Continuous
 62
     7
100
AcDbLine
 10
-243.8274628966056
 20
15.80359639643392
 30
0.0
 11
-251.0716628966056
 21
-3.462437276690028
 31
0.0
  0
LINE
  5
7B9
330
1F
100
AcDbEntity
  8
0
  6
Continuous
 62
     7
100
AcDbLine
 10
-237.8274628966056
 20
15.43396272330983
 30
0.0
 11
-237.8274628966056
 21
-6.412837276690201
 31
0.0
  0
LINE
  5
7BA
330
1F
100
AcDbEntity
  8
0
  6
Continuous
 62
     7
100
AcDbLine
 10
-240.8274628966057
 20
15.43396272330983
 30
0.0
 11
-240.8274628966057
 21
-6.412837276690201
 31
0.0
  0
LINE
  5
7BB
330
1F
100
AcDbEntity
  8
0
  6
Continuous
 62
     7
100
AcDbLine
 10
-243.8274628966056
 20
15.43396272330983
 30
0.0
 11
-243.8274628966056
 21
-6.412837276690201
 31
0.0
  0
LINE
  5
7BC
330
1F
100
AcDbEntity
  8
0
  6
Continuous
 62
     7
100
AcDbLine
 10
-123.5275628966057
 20
13.80896272330982
 30
0.0
 11
-123.5275628966057
 21
-51.69103727669017
 31
0.0
  0
LINE
  5
7BD
330
1F
100
AcDbEntity
  8
0
  6
Continuous
 62
     7
100
AcDbLine
 10
-125.8275628966055
 20
-51.79083727669013
 30
0.0
 11
-125.8275628966055
 21
13.80916272331001
 31
0.0
  0
LINE
  5
7BE
330
1F
100
AcDbEntity
  8
0
  6
Continuous
 62
     7
100
AcDbLine
 10
-268.3275628966055
 20
-51.79113727669005
 30
0.0
 11
-268.3275628966055
 21
13.80916272331001
 31
0.0
  0
LINE
  5
7BF
330
1F
100
AcDbEntity
  8
0
  6
Continuous
 62
     7
100
AcDbLine
 10
-233.3911628966057
 20
-4.518337276690089
 30
0.0
 11
-237.8272628966056
 21
7.27956272330994
 31
0.0
  0
LINE
  5
7C0
330
1F
100
AcDbEntity
  8
0
  6
Continuous
 62
     7
100
AcDbLine
 10
-280.7271628966054
 20
-5.241137276690099
 30
0.0
 11
-280.7271628966054
 21
13.80896272330982
 31
0.0
  0
LINE
  5
7C1
330
1F
100
AcDbEntity
  8
0
  6
Continuous
 62
     7
100
AcDbLine
 10
-113.4275628966057
 20
-5.240837276690172
 30
0.0
 11
-113.4275628966057
 21
13.80896272330982
 31
0.0
  0
LINE
  5
7C2
330
1F
100
AcDbEntity
  8
0
  6
Continuous
 62
     7
100
AcDbLine
 10
-270.6272628966055
 20
13.80896272330982
 30
0.0
 11
-270.6272628966055
 21
-51.69103727669017
 31
0.0
  0
LINE
  5
7C3
330
1F
100
AcDbEntity
  8
0
  6
Continuous
 62
     7
100
AcDbLine
 10
-248.2636628966055
 20
-4.518337276690089
 30
0.0
 11
-243.8274628966056
 21
7.27956272330994
 31
0.0
  0
LINE
  5
7C4
330
1F
100
AcDbEntity
  8
0
  6
DASH_CENTER
 62
    30
100
AcDbLine
 10
-198.8275628966056
 20
96.44576272330985
 30
0.0
 11
-198.8275628966056
 21
-73.48913727669014
 31
0.0
  0
ARC
  5
7EC
330
1F
100
AcDbEntity
  8
0
  6
Continuous
 62
     7
100
AcDbCircle
 10
-154.26570604178
 20
-50.69010329258684
 30
0.0
 40
4.999966016082803
100
AcDbArc
 50
13.54769959293806
 51
89.99950558935898
  0
LINE
  5
7ED
330
1F
100
AcDbEntity
  8
0
  6
Continuous
 62
     7
100
AcDbLine
 10
-171.3274628966058
 20
-53.9902372766901
 30
0.0
 11
-143.8274628966058
 21
-53.9902372766901
 31
0.0
  0
LINE
  5
7EE
330
1F
100
AcDbEntity
  8
0
  6
Continuous
 62
     7
100
AcDbLine
 10
-173.8274628966056
 20
-57.19043727669009
 30
0.0
 11
-143.8274628966058
 21
-57.19013727669016
 31
0.0
  0
LINE
  5
7EF
330
1F
100
AcDbEntity
  8
0
  6
Continuous
 62
     7
100
AcDbLine
 10
-162.8275628966056
 20
-1.440637276690039
 30
0.0
 11
-141.8275628966056
 21
-1.440637276690039
 31
0.0
  0
LINE
  5
7F0
330
1F
100
AcDbEntity
  8
0
  6
Continuous
 62
     7
100
AcDbLine
 10
-141.8275628966056
 20
-9.44063727669004
 30
0.0
 11
-162.8275628966056
 21
-9.44063727669004
 31
0.0
  0
LINE
  5
7F1
330
1F
100
AcDbEntity
  8
0
  6
Continuous
 62
     7
100
AcDbLine
 10
-141.8275628966056
 20
-29.44063727669004
 30
0.0
 11
-162.8275628966056
 21
-29.44063727669004
 31
0.0
  0
LINE
  5
7F2
330
1F
100
AcDbEntity
  8
0
  6
Continuous
 62
     7
100
AcDbLine
 10
-141.8275628966056
 20
-8.44063727669004
 30
0.0
 11
-162.8275628966056
 21
-8.44063727669004
 31
0.0
  0
LINE
  5
7F3
330
1F
100
AcDbEntity
  8
0
  6
Continuous
 62
     7
100
AcDbLine
 10
-141.8275628966056
 20
-16.44063727669004
 30
0.0
 11
-162.8275628966056
 21
-16.44063727669004
 31
0.0
  0
LINE
  5
7F4
330
1F
100
AcDbEntity
  8
0
  6
Continuous
 62
     7
100
AcDbLine
 10
-141.8275628966056
 20
-34.94063727669004
 30
0.0
 11
-162.8275628966056
 21
-34.94063727669004
 31
0.0
  0
LINE
  5
7F5
330
1F
100
AcDbEntity
  8
0
  6
Continuous
 62
     7
100
AcDbLine
 10
-141.8275628966056
 20
-33.44063727669004
 30
0.0
 11
-162.8275628966056
 21
-33.44063727669004
 31
0.0
  0
LINE
  5
7F6
330
1F
100
AcDbEntity
  8
0
  6
Continuous
 62
     7
100
AcDbLine
 10
-141.8275628966056
 20
-22.24063727668998
 30
0.0
 11
-162.8275628966056
 21
-22.24063727668998
 31
0.0
  0
LINE
  5
7F7
330
1F
100
AcDbEntity
  8
0
  6
Continuous
 62
     7
100
AcDbLine
 10
-141.8275628966056
 20
-23.44063727669003
 30
0.0
 11
-162.8275628966056
 21
-23.44063727669003
 31
0.0
  0
LINE
  5
80B
330
1F
100
AcDbEntity
  8
0
  6
Continuous
 62
     7
100
AcDbLine
 10
-223.8274628966056
 20
-56.19043727669009
 30
0.0
 11
-173.8274628966056
 21
-56.19043727669009
 31
0.0
  0
LINE
  5
80C
330
1F
100
AcDbEntity
  8
0
  6
Continuous
 62
     7
100
AcDbLine
 10
-225.3274628966056
 20
-52.99063727669
 30
0.0
 11
-172.3274628966056
 21
-52.99023727669009
 31
0.0
  0
LINE
  5
80D
330
1F
100
AcDbEntity
  8
0
  6
Continuous
 62
     7
100
AcDbLine
 10
-179.6460628966056
 20
-30.19043727669009
 30
0.0
 11
-218.0088628966057
 21
-30.19043727669009
 31
0.0
  0
LINE
  5
80E
330
1F
100
AcDbEntity
  8
0
  6
Continuous
 62
     7
100
AcDbLine
 10
-216.8275628966056
 20
-29.44063727669004
 30
0.0
 11
-237.8275628966056
 21
-29.44063727669004
 31
0.0
  0
LINE
  5
80F
330
1F
100
AcDbEntity
  8
0
  6
Continuous
 62
     7
100
AcDbLine
 10
-216.8275628966056
 20
-16.44063727669004
 30
0.0
 11
-237.8275628966056
 21
-16.44063727669004
 31
0.0
  0
LINE
  5
810
330
1F
100
AcDbEntity
  8
0
  6
Continuous
 62
     7
100
AcDbLine
 10
-216.8275628966056
 20
-22.24063727668998
 30
0.0
 11
-237.8275628966056
 21
-22.24063727668998
 31
0.0
  0
LINE
  5
811
330
1F
100
AcDbEntity
  8
0
  6
Continuous
 62
     7
100
AcDbLine
 10
-216.8275628966056
 20
-23.44063727669003
 30
0.0
 11
-237.8275628966056
 21
-23.44063727669003
 31
0.0
  0
ARC
  5
812
330
1F
100
AcDbEntity
  8
0
  6
Continuous
 62
     7
100
AcDbCircle
 10
-243.3892197514312
 20
-50.69010329258684
 30
0.0
 40
4.999966016082826
100
AcDbArc
 50
90.00049441064103
 51
166.4523004070619
  0
ARC
  5
813
330
1F
100
AcDbEntity
  8
0
  6
Continuous
 62
     7
100
AcDbCircle
 10
-235.3953699570838
 20
-38.19014350303532
 30
0.0
 40
7.499993773658168
100
AcDbArc
 50
270.0000539381231
 51
352.8154362339995
  0
LINE
  5
814
330
1F
100
AcDbEntity
  8
0
  6
Continuous
 62
     7
100
AcDbLine
 10
-227.9173628966056
 20
-38.83683727669017
 30
0.0
 11
-229.4966628966054
 21
-51.36523727669009
 31
0.0
  0
ARC
  5
816
330
1F
100
AcDbEntity
  8
0
  6
Continuous
 62
     7
100
AcDbCircle
 10
-250.9026954709111
 20
-51.99026293504974
 30
0.0
 40
1.999974341905635
100
AcDbArc
 50
270.0009331970809
 51
346.4531620128803
  0
LINE
  5
817
330
1F
100
AcDbEntity
  8
0
  6
Continuous
 62
     7
100
AcDbLine
 10
-223.8274628966056
 20
-57.19043727669009
 30
0.0
 11
-253.8274628966056
 21
-57.19013727669016
 31
0.0
  0
LINE
  5
818
330
1F
100
AcDbEntity
  8
0
  6
Continuous
 62
     7
100
AcDbLine
 10
-226.3274628966057
 20
-53.9902372766901
 30
0.0
 11
-253.8274628966056
 21
-53.9902372766901
 31
0.0
  0
LINE
  5
819
330
1F
100
AcDbEntity
  8
0
  6
Continuous
 62
     7
100
AcDbLine
 10
-248.7974628966056
 20
-51.79103727669009
 30
0.0
 11
-268.3275628966055
 21
-51.79113727669005
 31
0.0
  0
LINE
  5
81C
330
1F
100
AcDbEntity
  8
0
  6
Continuous
 62
     7
100
AcDbLine
 10
-270.6272628966055
 20
-51.69103727669017
 30
0.0
 11
-268.3272628966054
 21
-51.69103727669017
 31
0.0
  0
LINE
  5
81D
330
1F
100
AcDbEntity
  8
0
  6
Continuous
 62
     7
100
AcDbLine
 10
-253.8274628966056
 20
-53.9902372766901
 30
0.0
 11
-253.8274628966056
 21
-57.19013727669016
 31
0.0
  0
LINE
  5
822
330
1F
100
AcDbEntity
  8
0
  6
DASH_CENTER
 62
    30
100
AcDbLine
 10
-243.8274628966056
 20
-50.35393727669021
 30
0.0
 11
-243.8274628966056
 21
-60.67403727669011
 31
0.0
  0
LINE
  5
823
330
1F
100
AcDbEntity
  8
0
  6
Continuous
 62
     7
100
AcDbLine
 10
-248.2500628966056
 20
-49.51873727668999
 30
0.0
 11
-248.9583628966054
 21
-52.45873727669003
 31
0.0
  0
ARC
  5
824
330
1F
100
AcDbEntity
  8
0
  6
Continuous
 62
     7
100
AcDbCircle
 10
-225.3274628966056
 20
-53.4902372766901
 30
0.0
 40
0.5
100
AcDbArc
 50
90.0
 51
180.0
  0
ARC
  5
825
330
1F
100
AcDbEntity
  8
0
  6
Continuous
 62
     7
100
AcDbCircle
 10
-226.3274629016057
 20
-53.49023728168909
 30
0.0
 40
0.5000000049999979
100
AcDbArc
 50
269.9885414171025
 51
0.0000005728434443
  0
ARC
  5
826
330
1F
100
AcDbEntity
  8
0
  6
Continuous
 62
     7
100
AcDbCircle
 10
-232.4729811305438
 20
-50.98995335605386
 30
0.0
 40
2.999983920691724
100
AcDbArc
 50
270.0003482444374
 51
352.8137401148648
  0
LINE
  5
827
330
1F
100
AcDbEntity
  8
0
  6
Continuous
 62
     7
100
AcDbLine
 10
-223.8274628966056
 20
-56.19043727669009
 30
0.0
 11
-223.8274628966056
 21
-57.19043727669009
 31
0.0
  0
ARC
  5
828
330
1F
100
AcDbEntity
  8
0
  6
Continuous
 62
    30
100
AcDbCircle
 10
-250.8267850718433
 20
-4.942366536494989
 30
0.0
 40
1.50005192013051
100
AcDbArc
 50
39.39508364984896
 51
99.39536968718464
  0
ARC
  5
829
330
1F
100
AcDbEntity
  8
0
  6
Continuous
 62
    30
100
AcDbCircle
 10
-248.508340721368
 20
-3.038308016885128
 30
0.0
 40
1.500051920130544
100
AcDbArc
 50
219.3950836498488
 51
279.3953696871863
  0
ARC
  5
82A
330
1F
100
AcDbEntity
  8
0
  6
Continuous
 62
    30
100
AcDbCircle
 10
-249.9124531061105
 20
-2.51044095762608
 30
0.0
 40
1.500021443143585
100
AcDbArc
 50
219.3944115395655
 51
279.3960417974694
  0
LINE
  5
82B
330
1F
100
AcDbEntity
  8
0
  6
DASH_CENTER
 62
    30
100
AcDbLine
 10
-264.4716628966055
 20
-29.32423727669014
 30
0.0
 11
-277.8458628966054
 21
-29.32423727669014
 31
0.0
  0
ARC
  5
82C
330
1F
100
AcDbEntity
  8
0
  6
Continuous
 62
     7
100
AcDbCircle
 10
-271.9273894574099
 20
-27.2428662614728
 30
0.0
 40
1.299973439518925
100
AcDbArc
 50
94.99881820689669
 51
179.9987225079626
  0
ARC
  5
82D
330
1F
100
AcDbEntity
  8
0
  6
Continuous
 62
     7
100
AcDbCircle
 10
-271.9273396475165
 20
-31.4054626494844
 30
0.0
 40
1.300023249336667
100
AcDbArc
 50
179.9988817476651
 51
264.9991701575255
  0
LINE
  5
82E
330
1F
100
AcDbEntity
  8
0
  6
Continuous
 62
     7
100
AcDbLine
 10
-270.6272628966055
 20
-25.82413727669017
 30
0.0
 11
-272.0403628966054
 21
-25.94793727669002
 31
0.0
  0
LINE
  5
82F
330
1F
100
AcDbEntity
  8
0
  6
Continuous
 62
     7
100
AcDbLine
 10
-273.2271628966056
 20
-31.40543727669001
 30
0.0
 11
-273.2271628966056
 21
-27.24283727669012
 31
0.0
  0
LINE
  5
830
330
1F
100
AcDbEntity
  8
0
  6
Continuous
 62
     7
100
AcDbLine
 10
-270.6272628966055
 20
-32.82413727669018
 30
0.0
 11
-272.0403628966054
 21
-32.70063727669003
 31
0.0
  0
LINE
  5
831
330
1F
100
AcDbEntity
  8
0
  6
Continuous
 62
     7
100
AcDbLine
 10
-280.2271628966055
 20
-5.741137276690099
 30
0.0
 11
-270.6273628966055
 21
-5.741137276690099
 31
0.0
  0
ARC
  5
832
330
1F
100
AcDbEntity
  8
0
  6
Continuous
 62
     7
100
AcDbCircle
 10
-280.0245626553002
 20
-1.69103763012896
 30
0.0
 40
1.99997223855717
100
AcDbArc
 50
187.4032364050415
 51
241.242286237896
  0
ARC
  5
833
330
1F
100
AcDbEntity
  8
0
  6
Continuous
 62
     7
100
AcDbCircle
 10
-281.2271802992711
 20
-3.882707876579877
 30
0.0
 40
0.500017403529885
100
AcDbArc
 50
359.9966311128021
 51
61.24808559019318
  0
ARC
  5
834
330
1F
100
AcDbEntity
  8
0
  6
Continuous
 62
     7
100
AcDbCircle
 10
-280.2271628966055
 20
-5.241137276690099
 30
0.0
 40
0.5
100
AcDbArc
 50
180.0
 51
270.0
  0
ARC
  5
835
330
1F
100
AcDbEntity
  8
0
  6
Continuous
 62
     7
100
AcDbCircle
 10
-237.8275628966056
 20
-21.44063727669004
 30
0.0
 40
2.0
100
AcDbArc
 50
180.0
 51
270.0
  0
LINE
  5
836
330
1F
100
AcDbEntity
  8
0
  6
Continuous
 62
     7
100
AcDbLine
 10
-225.3872680664236
 20
-33.44063727669004
 30
0.0
 11
-237.8275628966056
 21
-33.44063727669004
 31
0.0
  0
LINE
  5
837
330
1F
100
AcDbEntity
  8
0
  6
Continuous
 62
     7
100
AcDbLine
 10
-226.520047470447
 20
-34.94063727669004
 30
0.0
 11
-237.8275628966056
 21
-34.94063727669004
 31
0.0
  0
ARC
  5
838
330
1F
100
AcDbEntity
  8
0
  6
Continuous
 62
     7
100
AcDbCircle
 10
-237.8275628966056
 20
-32.94063727669004
 30
0.0
 40
2.0
100
AcDbArc
 50
180.0
 51
270.0
  0
LINE
  5
839
330
1F
100
AcDbEntity
  8
0
  6
Continuous
 62
     7
100
AcDbLine
 10
-243.3892628966056
 20
-45.69013727669015
 30
0.0
 11
-235.3950628966055
 21
-45.69013727669015
 31
0.0
  0
ARC
  5
83A
330
1F
100
AcDbEntity
  8
0
  6
Continuous
 62
     7
100
AcDbCircle
 10
-237.8275628966056
 20
-31.44063727669004
 30
0.0
 40
2.0
100
AcDbArc
 50
90.0
 51
180.0
  0
ARC
  5
83B
330
1F
100
AcDbEntity
  8
0
  6
Continuous
 62
     7
100
AcDbCircle
 10
-237.8275628966056
 20
-31.44063727669004
 30
0.0
 40
2.0
100
AcDbArc
 50
180.0
 51
270.0
  0
LINE
  5
83C
330
1F
100
AcDbEntity
  8
0
  6
Continuous
 62
     7
100
AcDbLine
 10
-239.8275628966056
 20
-31.44063727669004
 30
0.0
 11
-239.8275628966056
 21
-32.94063727669004
 31
0.0
  0
ARC
  5
83D
330
1F
100
AcDbEntity
  8
0
  6
Continuous
 62
     7
100
AcDbCircle
 10
-218.0088816892902
 20
-40.19045384887728
 30
0.0
 40
10.00001657220484
100
AcDbArc
 50
89.99989232602739
 51
172.8145405651354
  0
ARC
  5
83E
330
1F
100
AcDbEntity
  8
0
  6
Continuous
 62
    30
100
AcDbCircle
 10
-233.1462850718433
 20
-3.038308016885121
 30
0.0
 40
1.50005192013054
100
AcDbArc
 50
260.6046303128136
 51
320.6049163501508
  0
ARC
  5
83F
330
1F
100
AcDbEntity
  8
0
  6
Continuous
 62
    30
100
AcDbCircle
 10
-232.231940721368
 20
-5.470266536495039
 30
0.0
 40
1.500051920130518
100
AcDbArc
 50
80.60463031281202
 51
140.6049163501509
  0
ARC
  5
840
330
1F
100
AcDbEntity
  8
0
  6
Continuous
 62
     7
100
AcDbCircle
 10
-237.8275628966056
 20
-20.24063727668998
 30
0.0
 40
2.0
100
AcDbArc
 50
180.0
 51
270.0
  0
ARC
  5
841
330
1F
100
AcDbEntity
  8
0
  6
Continuous
 62
     7
100
AcDbCircle
 10
-237.8275628966056
 20
-18.44063727669004
 30
0.0
 40
2.0
100
AcDbArc
 50
90.0
 51
180.0
  0
LINE
  5
842
330
1F
100
AcDbEntity
  8
0
  6
Continuous
 62
     7
100
AcDbLine
 10
-239.8275628966056
 20
-18.44063727669004
 30
0.0
 11
-239.8275628966056
 21
-21.44063727669004
 31
0.0
  0
ARC
  5
843
330
1F
100
AcDbEntity
  8
0
  6
Continuous
 62
    30
100
AcDbCircle
 10
-241.5774128966056
 20
-5.113637276690042
 30
0.0
 40
1.500078602107204
100
AcDbArc
 50
239.9995281325403
 51
300.0004718674596
  0
ARC
  5
844
330
1F
100
AcDbEntity
  8
0
  6
Continuous
 62
    30
100
AcDbCircle
 10
-243.0774128966056
 20
-7.712037276690129
 30
0.0
 40
1.500165205069024
100
AcDbArc
 50
60.00143780877514
 51
119.9985621912249
  0
ARC
  5
845
330
1F
100
AcDbEntity
  8
0
  6
Continuous
 62
    30
100
AcDbCircle
 10
-243.0774128966056
 20
-5.113637276690042
 30
0.0
 40
1.500165205069238
100
AcDbArc
 50
240.0014378087788
 51
299.9985621912193
  0
ARC
  5
846
330
1F
100
AcDbEntity
  8
0
  6
Continuous
 62
    30
100
AcDbCircle
 10
-240.0774128966058
 20
-7.712037276690129
 30
0.0
 40
1.500165205069024
100
AcDbArc
 50
60.00143780877514
 51
119.9985621912249
  0
ARC
  5
847
330
1F
100
AcDbEntity
  8
0
  6
Continuous
 62
    30
100
AcDbCircle
 10
-238.5774128966057
 20
-5.113637276690042
 30
0.0
 40
1.500078602107204
100
AcDbArc
 50
239.9995281325403
 51
300.0004718674596
  0
ARC
  5
848
330
1F
100
AcDbEntity
  8
0
  6
Continuous
 62
    30
100
AcDbCircle
 10
-240.0774128966058
 20
-5.113637276690042
 30
0.0
 40
1.500165205069238
100
AcDbArc
 50
240.0014378087788
 51
299.9985621912193
  0
ARC
  5
849
330
1F
100
AcDbEntity
  8
0
  6
Continuous
 62
    30
100
AcDbCircle
 10
-231.7421850718432
 20
-2.510308016885089
 30
0.0
 40
1.500051920130553
100
AcDbArc
 50
260.604630312812
 51
320.6049163501506
  0
ARC
  5
84A
330
1F
100
AcDbEntity
  8
0
  6
Continuous
 62
     7
100
AcDbCircle
 10
-162.2595558357379
 20
-38.19014350346281
 30
0.0
 40
7.499993773991485
100
AcDbArc
 50
187.1845637623879
 51
269.9991821145383
  0
LINE
  5
84B
330
1F
100
AcDbEntity
  8
0
  6
Continuous
 62
     7
100
AcDbLine
 10
-169.7376628966054
 20
-38.83683727669017
 30
0.0
 11
-168.1582628966056
 21
-51.36523727669009
 31
0.0
  0
ARC
  5
850
330
1F
100
AcDbEntity
  8
0
  6
Continuous
 62
     7
100
AcDbCircle
 10
-165.1819446626673
 20
-50.98995335605386
 30
0.0
 40
2.999983920691732
100
AcDbArc
 50
187.1862598851348
 51
269.9996517555625
  0
ARC
  5
851
330
1F
100
AcDbEntity
  8
0
  6
Continuous
 62
     7
100
AcDbCircle
 10
-171.3274628916058
 20
-53.49023728168909
 30
0.0
 40
0.500000005000004
100
AcDbArc
 50
179.9999994271558
 51
270.0114585829071
  0
ARC
  5
852
330
1F
100
AcDbEntity
  8
0
  6
Continuous
 62
     7
100
AcDbCircle
 10
-172.3274628966056
 20
-53.4902372766901
 30
0.0
 40
0.5
100
AcDbArc
 50
0.0
 51
90.0
  0
LINE
  5
853
330
1F
100
AcDbEntity
  8
0
  6
Continuous
 62
     7
100
AcDbLine
 10
-173.8274628966056
 20
-56.19043727669009
 30
0.0
 11
-173.8274628966056
 21
-57.19043727669009
 31
0.0
  0
LINE
  5
854
330
1F
100
AcDbEntity
  8
0
  6
DASH_CENTER
 62
    30
100
AcDbLine
 10
-153.8274628966058
 20
-50.35393727669021
 30
0.0
 11
-153.8274628966058
 21
-60.67403727669011
 31
0.0
  0
ARC
  5
855
330
1F
100
AcDbEntity
  8
0
  6
Continuous
 62
     7
100
AcDbCircle
 10
-216.8275628966056
 20
-21.44063727669004
 30
0.0
 40
2.0
100
AcDbArc
 50
270.0
 51
0.0
  0
ARC
  5
856
330
1F
100
AcDbEntity
  8
0
  6
Continuous
 62
     7
100
AcDbCircle
 10
-216.8275628966056
 20
-31.44063727669004
 30
0.0
 40
1.999999999999999
100
AcDbArc
 50
38.68952756385749
 51
90.0
  0
ARC
  5
857
330
1F
100
AcDbEntity
  8
0
  6
Continuous
 62
     7
100
AcDbCircle
 10
-216.8275628966056
 20
-20.24063727668998
 30
0.0
 40
2.0
100
AcDbArc
 50
270.0
 51
0.0
  0
ARC
  5
858
330
1F
100
AcDbEntity
  8
0
  6
Continuous
 62
     7
100
AcDbCircle
 10
-216.8275628966056
 20
-18.44063727669004
 30
0.0
 40
2.0
100
AcDbArc
 50
0.0
 51
90.0
  0
LINE
  5
859
330
1F
100
AcDbEntity
  8
0
  6
Continuous
 62
     7
100
AcDbLine
 10
-214.8275628966056
 20
-18.44063727669004
 30
0.0
 11
-214.8275628966056
 21
-21.44063727669004
 31
0.0
  0
ARC
  5
85A
330
1F
100
AcDbEntity
  8
0
  6
Continuous
 62
     7
100
AcDbCircle
 10
-162.8275628966056
 20
-21.44063727669004
 30
0.0
 40
2.0
100
AcDbArc
 50
180.0
 51
270.0
  0
ARC
  5
85B
330
1F
100
AcDbEntity
  8
0
  6
Continuous
 62
     7
100
AcDbCircle
 10
-179.6460582867649
 20
-40.19044134193628
 30
0.0
 40
10.00000406524722
100
AcDbArc
 50
7.184241258198268
 51
90.00002641243016
  0
ARC
  5
85C
330
1F
100
AcDbEntity
  8
0
  6
Continuous
 62
     7
100
AcDbCircle
 10
-162.8275628966056
 20
-32.94063727669004
 30
0.0
 40
2.0
100
AcDbArc
 50
180.0
 51
270.0
  0
LINE
  5
85D
330
1F
100
AcDbEntity
  8
0
  6
Continuous
 62
     7
100
AcDbLine
 10
-154.2656628966055
 20
-45.69013727669015
 30
0.0
 11
-162.2598628966056
 21
-45.69013727669015
 31
0.0
  0
ARC
  5
85E
330
1F
100
AcDbEntity
  8
0
  6
Continuous
 62
     7
100
AcDbCircle
 10
-162.8275628966056
 20
-31.44063727669004
 30
0.0
 40
2.0
100
AcDbArc
 50
90.0
 51
180.0
  0
ARC
  5
85F
330
1F
100
AcDbEntity
  8
0
  6
Continuous
 62
     7
100
AcDbCircle
 10
-162.8275628966056
 20
-31.44063727669004
 30
0.0
 40
2.0
100
AcDbArc
 50
180.0
 51
270.0
  0
LINE
  5
860
330
1F
100
AcDbEntity
  8
0
  6
Continuous
 62
     7
100
AcDbLine
 10
-164.8275628966056
 20
-31.44063727669004
 30
0.0
 11
-164.8275628966056
 21
-32.94063727669004
 31
0.0
  0
ARC
  5
861
330
1F
100
AcDbEntity
  8
0
  6
Continuous
 62
     7
100
AcDbCircle
 10
-162.8275628966056
 20
-20.24063727668998
 30
0.0
 40
2.0
100
AcDbArc
 50
180.0
 51
270.0
  0
ARC
  5
862
330
1F
100
AcDbEntity
  8
0
  6
Continuous
 62
     7
100
AcDbCircle
 10
-162.8275628966056
 20
-18.44063727669004
 30
0.0
 40
2.0
100
AcDbArc
 50
90.0
 51
180.0
  0
LINE
  5
863
330
1F
100
AcDbEntity
  8
0
  6
Continuous
 62
     7
100
AcDbLine
 10
-164.8275628966056
 20
-18.44063727669004
 30
0.0
 11
-164.8275628966056
 21
-21.44063727669004
 31
0.0
  0
ARC
  5
864
330
1F
100
AcDbEntity
  8
0
  6
Continuous
 62
     7
100
AcDbCircle
 10
-162.8275628966056
 20
-6.440637276690039
 30
0.0
 40
2.0
100
AcDbArc
 50
180.0
 51
270.0
  0
ARC
  5
865
330
1F
100
AcDbEntity
  8
0
  6
Continuous
 62
     7
100
AcDbCircle
 10
-162.8275628966056
 20
-3.44063727669004
 30
0.0
 40
2.0
100
AcDbArc
 50
90.0
 51
180.0
  0
ARC
  5
866
330
1F
100
AcDbEntity
  8
0
  6
Continuous
 62
     7
100
AcDbCircle
 10
-162.8275628966056
 20
-7.440637276690039
 30
0.0
 40
2.0
100
AcDbArc
 50
180.0
 51
270.0
  0
LINE
  5
867
330
1F
100
AcDbEntity
  8
0
  6
Continuous
 62
     7
100
AcDbLine
 10
-164.8275628966056
 20
-3.44063727669004
 30
0.0
 11
-164.8275628966056
 21
-7.440637276690039
 31
0.0
  0
LINE
  5
870
330
1F
100
AcDbEntity
  8
0
  6
Continuous
 62
     7
100
AcDbLine
 10
-125.8275628966055
 20
-51.79083727669013
 30
0.0
 11
-148.8574628966055
 21
-51.7909372766901
 31
0.0
  0
ARC
  5
871
330
1F
100
AcDbEntity
  8
0
  6
Continuous
 62
     7
100
AcDbCircle
 10
-146.752292034753
 20
-51.99021432612808
 30
0.0
 40
2.000022950774274
100
AcDbArc
 50
193.547934847211
 51
270.0008347368558
  0
LINE
  5
872
330
1F
100
AcDbEntity
  8
0
  6
Continuous
 62
     7
100
AcDbLine
 10
-149.4048628966055
 20
-49.51873727668999
 30
0.0
 11
-148.6965628966055
 21
-52.45873727669003
 31
0.0
  0
LINE
  5
873
330
1F
100
AcDbEntity
  8
0
  6
Continuous
 62
     7
100
AcDbLine
 10
-143.8274628966058
 20
-53.9902372766901
 30
0.0
 11
-143.8274628966058
 21
-57.19013727669016
 31
0.0
  0
LINE
  5
874
330
1F
100
AcDbEntity
  8
0
  6
Continuous
 62
     7
100
AcDbLine
 10
-123.5275628966057
 20
-51.69103727669017
 30
0.0
 11
-125.8275628966055
 21
-51.69103727669017
 31
0.0
  0
LINE
  5
875
330
1F
100
AcDbEntity
  8
0
  6
Continuous
 62
     7
100
AcDbLine
 10
-113.9275628966057
 20
-5.740837276690168
 30
0.0
 11
-123.5275628966057
 21
-5.740837276690168
 31
0.0
  0
LINE
  5
876
330
1F
100
AcDbEntity
  8
0
  6
DASH_CENTER
 62
    30
100
AcDbLine
 10
-111.7393628966054
 20
-29.32423727669014
 30
0.0
 11
-129.3114628966055
 21
-29.32423727669014
 31
0.0
  0
LINE
  5
877
330
1F
100
AcDbEntity
  8
0
  6
Continuous
 62
     7
100
AcDbLine
 10
-117.9775628966055
 20
-27.32403727669021
 30
0.0
 11
-120.3275628966055
 21
-27.32403727669021
 31
0.0
  0
LINE
  5
878
330
1F
100
AcDbEntity
  8
0
  6
Continuous
 62
    30
100
AcDbLine
 10
-117.6274628966057
 20
-27.67413727669008
 30
0.0
 11
-120.3275628966055
 21
-27.67413727669008
 31
0.0
  0
LINE
  5
879
330
1F
100
AcDbEntity
  8
0
  6
Continuous
 62
    30
100
AcDbLine
 10
-120.3275628966055
 20
-30.97413727669004
 30
0.0
 11
-117.6274628966057
 21
-30.97413727669004
 31
0.0
  0
LINE
  5
87A
330
1F
100
AcDbEntity
  8
0
  6
Continuous
 62
     7
100
AcDbLine
 10
-117.9775628966055
 20
-31.32403727669021
 30
0.0
 11
-120.3275628966055
 21
-31.32403727669021
 31
0.0
  0
ARC
  5
87B
330
1F
100
AcDbEntity
  8
0
  6
Continuous
 62
     7
100
AcDbCircle
 10
-141.8275628966056
 20
-21.44063727669004
 30
0.0
 40
2.0
100
AcDbArc
 50
270.0
 51
0.0
  0
ARC
  5
87C
330
1F
100
AcDbEntity
  8
0
  6
Continuous
 62
     7
100
AcDbCircle
 10
-141.8275628966056
 20
-32.94063727669004
 30
0.0
 40
2.0
100
AcDbArc
 50
270.0
 51
0.0
  0
ARC
  5
87D
330
1F
100
AcDbEntity
  8
0
  6
Continuous
 62
     7
100
AcDbCircle
 10
-141.8275628966056
 20
-31.44063727669004
 30
0.0
 40
2.0
100
AcDbArc
 50
270.0
 51
0.0
  0
ARC
  5
87E
330
1F
100
AcDbEntity
  8
0
  6
Continuous
 62
     7
100
AcDbCircle
 10
-141.8275628966056
 20
-31.44063727669004
 30
0.0
 40
2.0
100
AcDbArc
 50
0.0
 51
90.0
  0
LINE
  5
87F
330
1F
100
AcDbEntity
  8
0
  6
Continuous
 62
     7
100
AcDbLine
 10
-139.8275628966057
 20
-32.94063727669004
 30
0.0
 11
-139.8275628966057
 21
-31.44063727669004
 31
0.0
  0
ARC
  5
880
330
1F
100
AcDbEntity
  8
0
  6
Continuous
 62
     7
100
AcDbCircle
 10
-116.9392733153
 20
-25.28248437209791
 30
0.0
 40
6.588277034786298
100
AcDbArc
 50
184.4192477633636
 51
197.8625555803118
  0
ARC
  5
881
330
1F
100
AcDbEntity
  8
0
  6
Continuous
 62
     7
100
AcDbCircle
 10
-116.9392733153
 20
-33.36559018128226
 30
0.0
 40
6.588277034786298
100
AcDbArc
 50
162.1374444196882
 51
175.5807522366362
  0
ARC
  5
882
330
1F
100
AcDbEntity
  8
0
  6
Continuous
 62
     7
100
AcDbCircle
 10
-116.9392628992077
 20
-29.32414243566567
 30
0.0
 40
6.588302977166524
100
AcDbArc
 50
162.1370396760802
 51
197.8601249519284
  0
ARC
  5
883
330
1F
100
AcDbEntity
  8
0
  6
Continuous
 62
     7
100
AcDbCircle
 10
-126.9159310197959
 20
-25.28288331231115
 30
0.0
 40
6.588324615607422
100
AcDbArc
 50
342.1412228528698
 51
355.5842639617697
  0
ARC
  5
884
330
1F
100
AcDbEntity
  8
0
  6
Continuous
 62
     7
100
AcDbCircle
 10
-126.9159310197959
 20
-33.36519124106902
 30
0.0
 40
6.588324615607422
100
AcDbArc
 50
4.41573603823036
 51
17.85877714713014
  0
ARC
  5
885
330
1F
100
AcDbEntity
  8
0
  6
Continuous
 62
     7
100
AcDbCircle
 10
-126.9158628966055
 20
-29.3239872766901
 30
0.0
 40
6.588350567668642
100
AcDbArc
 50
342.1385907380362
 51
17.86140926196361
  0
LINE
  5
886
330
1F
100
AcDbEntity
  8
0
  6
Continuous
 62
     7
100
AcDbLine
 10
-123.5275628966057
 20
-25.82403727669021
 30
0.0
 11
-123.2099628966057
 21
-25.27393727669005
 31
0.0
  0
LINE
  5
887
330
1F
100
AcDbEntity
  8
0
  6
Continuous
 62
     7
100
AcDbLine
 10
-120.6451628966055
 20
-33.37403727669016
 30
0.0
 11
-123.2099628966057
 21
-33.37403727669016
 31
0.0
  0
LINE
  5
888
330
1F
100
AcDbEntity
  8
0
  6
Continuous
 62
     7
100
AcDbLine
 10
-120.3275628966055
 20
-25.82403727669021
 30
0.0
 11
-120.3275628966055
 21
-32.82403727669021
 31
0.0
  0
LINE
  5
889
330
1F
100
AcDbEntity
  8
0
  6
Continuous
 62
     7
100
AcDbLine
 10
-123.2099628966057
 20
-25.27423727669019
 30
0.0
 11
-120.6451628966055
 21
-25.27423727669019
 31
0.0
  0
LINE
  5
88A
330
1F
100
AcDbEntity
  8
0
  6
Continuous
 62
     7
100
AcDbLine
 10
-120.3275628966055
 20
-25.82403727669021
 30
0.0
 11
-120.6451628966055
 21
-25.27393727669005
 31
0.0
  0
LINE
  5
88B
330
1F
100
AcDbEntity
  8
0
  6
Continuous
 62
     7
100
AcDbLine
 10
-123.5275628966057
 20
-32.82403727669021
 30
0.0
 11
-123.2099628966057
 21
-33.37403727669016
 31
0.0
  0
LINE
  5
88C
330
1F
100
AcDbEntity
  8
0
  6
Continuous
 62
     7
100
AcDbLine
 10
-120.3275628966055
 20
-32.82403727669021
 30
0.0
 11
-120.6451628966055
 21
-33.37403727669016
 31
0.0
  0
LINE
  5
88D
330
1F
100
AcDbEntity
  8
0
  6
Continuous
 62
     7
100
AcDbLine
 10
-120.3275628966055
 20
-32.82403727669021
 30
0.0
 11
-120.3275628966055
 21
-25.82403727669021
 31
0.0
  0
LINE
  5
88E
330
1F
100
AcDbEntity
  8
0
  6
Continuous
 62
     7
100
AcDbLine
 10
-123.2099628966057
 20
-31.34473727669001
 30
0.0
 11
-120.6450628966055
 21
-31.34473727669001
 31
0.0
  0
LINE
  5
88F
330
1F
100
AcDbEntity
  8
0
  6
Continuous
 62
     7
100
AcDbLine
 10
-123.2099628966057
 20
-27.30323727669019
 30
0.0
 11
-120.6450628966055
 21
-27.30323727669019
 31
0.0
  0
ARC
  5
890
330
1F
100
AcDbEntity
  8
0
  6
Continuous
 62
     7
100
AcDbCircle
 10
-141.8275628966056
 20
-20.24063727668998
 30
0.0
 40
2.0
100
AcDbArc
 50
270.0
 51
0.0
  0
ARC
  5
891
330
1F
100
AcDbEntity
  8
0
  6
Continuous
 62
     7
100
AcDbCircle
 10
-141.8275628966056
 20
-18.44063727669004
 30
0.0
 40
2.0
100
AcDbArc
 50
0.0
 51
90.0
  0
LINE
  5
892
330
1F
100
AcDbEntity
  8
0
  6
Continuous
 62
     7
100
AcDbLine
 10
-139.8275628966057
 20
-18.44063727669004
 30
0.0
 11
-139.8275628966057
 21
-21.44063727669004
 31
0.0
  0
ARC
  5
893
330
1F
100
AcDbEntity
  8
0
  6
Continuous
 62
     7
100
AcDbCircle
 10
-141.8275628966056
 20
-6.440637276690039
 30
0.0
 40
2.0
100
AcDbArc
 50
270.0
 51
0.0
  0
ARC
  5
894
330
1F
100
AcDbEntity
  8
0
  6
Continuous
 62
     7
100
AcDbCircle
 10
-141.8275628966056
 20
-7.440637276690039
 30
0.0
 40
2.0
100
AcDbArc
 50
270.0
 51
0.0
  0
ARC
  5
895
330
1F
100
AcDbEntity
  8
0
  6
Continuous
 62
     7
100
AcDbCircle
 10
-141.8275628966056
 20
-3.44063727669004
 30
0.0
 40
2.0
100
AcDbArc
 50
0.0
 51
90.0
  0
LINE
  5
896
330
1F
100
AcDbEntity
  8
0
  6
Continuous
 62
     7
100
AcDbLine
 10
-139.8275628966057
 20
-3.44063727669004
 30
0.0
 11
-139.8275628966057
 21
-7.440637276690039
 31
0.0
  0
LINE
  5
897
330
1F
100
AcDbEntity
  8
0
  6
Continuous
 62
     7
100
AcDbLine
 10
-117.6274628966057
 20
-30.97413727669004
 30
0.0
 11
-117.6274628966057
 21
-27.67413727669008
 31
0.0
  0
LINE
  5
898
330
1F
100
AcDbEntity
  8
0
  6
Continuous
 62
     7
100
AcDbLine
 10
-117.9775628966055
 20
-27.32403727669021
 30
0.0
 11
-117.9775628966055
 21
-31.32403727669021
 31
0.0
  0
LINE
  5
899
330
1F
100
AcDbEntity
  8
0
  6
Continuous
 62
     7
100
AcDbLine
 10
-117.9775628966055
 20
-31.32403727669021
 30
0.0
 11
-117.6274628966057
 21
-30.97413727669004
 31
0.0
  0
LINE
  5
89A
330
1F
100
AcDbEntity
  8
0
  6
Continuous
 62
     7
100
AcDbLine
 10
-117.6274628966057
 20
-27.67413727669008
 30
0.0
 11
-117.9775628966055
 21
-27.32403727669021
 31
0.0
  0
ARC
  5
89B
330
1F
100
AcDbEntity
  8
0
  6
Continuous
 62
     7
100
AcDbCircle
 10
-114.1302631379109
 20
-1.691037630128729
 30
0.0
 40
1.999972238557228
100
AcDbArc
 50
298.7577137620927
 51
352.596763594952
  0
ARC
  5
89C
330
1F
100
AcDbEntity
  8
0
  6
Continuous
 62
     7
100
AcDbCircle
 10
-112.92754549394
 20
-3.882707876579838
 30
0.0
 40
0.5000174035299204
100
AcDbArc
 50
118.7519144098215
 51
180.003368887202
  0
ARC
  5
89D
330
1F
100
AcDbEntity
  8
0
  6
Continuous
 62
     7
100
AcDbCircle
 10
-113.9275628966057
 20
-5.240837276690172
 30
0.0
 40
0.5
100
AcDbArc
 50
270.0
 51
0.0
  0
ARC
  5
8A2
330
1F
100
AcDbEntity
  8
0
  6
Continuous
 62
     7
100
AcDbCircle
 10
-160.7273628966056
 20
13.80896272330982
 30
0.0
 40
122.2999960983235
100
AcDbArc
 50
172.5971659224079
 51
180.0
  0
LINE
  5
8A3
330
1F
100
AcDbEntity
  8
0
  6
DASH_CENTER
 62
    30
100
AcDbLine
 10
-108.8275628966055
 20
13.80896272330982
 30
0.0
 11
-283.0273589949292
 21
13.80896272330982
 31
0.0
  0
LINE
  5
8A8
330
1F
100
AcDbEntity
  8
0
  6
DASH_CENTER
 62
    30
100
AcDbLine
 10
-283.0273589949292
 20
13.80896272330982
 30
0.0
 11
-296.4034628966056
 21
13.80896272330982
 31
0.0
  0
LINE
  5
C34
330
1F
100
AcDbEntity
  8
0
  6
Continuous
 62
     7
100
AcDbLine
 10
-141.8275628966056
 20
14.55936272330996
 30
0.0
 11
-162.8275628966056
 21
14.55936272330996
 31
0.0
  0
LINE
  5
C35
330
1F
100
AcDbEntity
  8
0
  6
Continuous
 62
     7
100
AcDbLine
 10
-126.0275628966057
 20
79.40876272331002
 30
0.0
 11
-268.1275628966054
 21
79.40906272330993
 31
0.0
  0
LINE
  5
C36
330
1F
100
AcDbEntity
  8
0
  6
Continuous
 62
     7
100
AcDbLine
 10
-162.8275628966056
 20
6.55936272330996
 30
0.0
 11
-141.8275628966056
 21
6.55936272330996
 31
0.0
  0
LINE
  5
C37
330
1F
100
AcDbEntity
  8
0
  6
DASHED
 62
    30
100
AcDbLine
 10
-167.3275628966055
 20
44.32546272330999
 30
0.0
 11
-230.3275628966055
 21
44.32546272330999
 31
0.0
  0
LINE
  5
C38
330
1F
100
AcDbEntity
  8
0
  6
DASHED
 62
    30
100
AcDbLine
 10
-230.3275628966055
 20
72.72266272330991
 30
0.0
 11
-167.3275628966055
 21
72.72266272330991
 31
0.0
  0
LINE
  5
C39
330
1F
100
AcDbEntity
  8
0
  6
DASHED
 62
    30
100
AcDbLine
 10
-230.3275628966055
 20
44.32546272330999
 30
0.0
 11
-230.3275628966055
 21
72.72266272330991
 31
0.0
  0
LINE
  5
C3A
330
1F
100
AcDbEntity
  8
0
  6
Continuous
 62
     7
100
AcDbLine
 10
-268.3275628966055
 20
13.80876272330988
 30
0.0
 11
-268.3275628966055
 21
79.40906272330993
 31
0.0
  0
LINE
  5
C3B
330
1F
100
AcDbEntity
  8
0
  6
Continuous
 62
     7
100
AcDbLine
 10
-270.6272628966055
 20
79.30896272330983
 30
0.0
 11
-270.6272628966055
 21
13.80896272330982
 31
0.0
  0
ARC
  5
C3C
330
1F
100
AcDbEntity
  8
0
  6
Continuous
 62
     7
100
AcDbCircle
 10
-240.8275628966055
 20
13.80896272330982
 30
0.0
 40
13.49994772508438
100
AcDbArc
 50
87.3540652810812
 51
234.3233884568185
  0
LINE
  5
C3D
330
1F
100
AcDbEntity
  8
0
  6
Continuous
 62
     7
100
AcDbLine
 10
-280.7271628966054
 20
13.80896272330982
 30
0.0
 11
-280.7271628966054
 21
32.85906272330999
 31
0.0
  0
LINE
  5
C3E
330
1F
100
AcDbEntity
  8
0
  6
Continuous
 62
     7
100
AcDbLine
 10
-270.6273628966055
 20
33.35906272330999
 30
0.0
 11
-280.2271628966055
 21
33.35906272330999
 31
0.0
  0
ARC
  5
C3F
330
1F
100
AcDbEntity
  8
0
  6
Continuous
 62
     7
100
AcDbCircle
 10
-280.0245626552999
 20
29.30896307674878
 30
0.0
 40
1.999972238557284
100
AcDbArc
 50
118.7577137621057
 51
172.5967635949565
  0
ARC
  5
C40
330
1F
100
AcDbEntity
  8
0
  6
Continuous
 62
     7
100
AcDbCircle
 10
-281.2271802992711
 20
31.50063332319977
 30
0.0
 40
0.5000174035298945
100
AcDbArc
 50
298.7519144098066
 51
0.0033688871981633
  0
ARC
  5
C41
330
1F
100
AcDbEntity
  8
0
  6
Continuous
 62
     7
100
AcDbCircle
 10
-280.2271628966055
 20
32.85906272330999
 30
0.0
 40
0.5
100
AcDbArc
 50
90.0
 51
180.0
  0
ARC
  5
C42
330
1F
100
AcDbEntity
  8
0
  6
Continuous
 62
     7
100
AcDbCircle
 10
-240.8275628966055
 20
13.80896272330982
 30
0.0
 40
13.50004145919553
100
AcDbArc
 50
305.6778933411802
 51
87.35406528107795
  0
ARC
  5
C43
330
1F
100
AcDbEntity
  8
0
  6
Continuous
 62
     7
100
AcDbCircle
 10
-240.8274628966057
 20
13.80896272330982
 30
0.0
 40
3.750200000000206
100
AcDbArc
 50
0.0
 51
180.0081249032228
  0
ARC
  5
C44
330
1F
100
AcDbEntity
  8
0
  6
Continuous
 62
     7
100
AcDbCircle
 10
-240.8270718652976
 20
13.80880499663072
 30
0.0
 40
13.50000742773899
100
AcDbArc
 50
247.2261118134436
 51
257.1582813240871
  0
ARC
  5
C45
330
1F
100
AcDbEntity
  8
0
  6
Continuous
 62
     7
100
AcDbCircle
 10
-240.8280445661083
 20
13.80880799604521
 30
0.0
 40
13.50003049752301
100
AcDbArc
 50
282.8420909044744
 51
292.7751848865343
  0
ARC
  5
C46
330
1F
100
AcDbEntity
  8
0
  6
Continuous
 62
     7
100
AcDbCircle
 10
-242.3274628966056
 20
15.43396272330983
 30
0.0
 40
1.5
100
AcDbArc
 50
0.0
 51
180.0
  0
ARC
  5
C47
330
1F
100
AcDbEntity
  8
0
  6
Continuous
 62
     7
100
AcDbCircle
 10
-239.3274628966056
 20
15.43396272330983
 30
0.0
 40
1.5
100
AcDbArc
 50
0.0
 51
180.0
  0
LINE
  5
C48
330
1F
100
AcDbEntity
  8
0
  6
DASH_CENTER
 62
    30
100
AcDbLine
 10
-277.8458628966054
 20
56.94216272330982
 30
0.0
 11
-264.4716628966055
 21
56.94216272330982
 31
0.0
  0
LINE
  5
C49
330
1F
100
AcDbEntity
  8
0
  6
Continuous
 62
     7
100
AcDbLine
 10
-273.2271628966056
 20
54.86076272331002
 30
0.0
 11
-273.2271628966056
 21
59.0233627233099
 31
0.0
  0
ARC
  5
C4A
330
1F
100
AcDbEntity
  8
0
  6
Continuous
 62
     7
100
AcDbCircle
 10
-271.9273894574099
 20
54.86079170809269
 30
0.0
 40
1.299973439518939
100
AcDbArc
 50
180.001277492037
 51
265.0011817931031
  0
LINE
  5
C4B
330
1F
100
AcDbEntity
  8
0
  6
Continuous
 62
     7
100
AcDbLine
 10
-272.0403628966054
 20
53.56586272330992
 30
0.0
 11
-270.6272628966055
 21
53.44206272330985
 31
0.0
  0
ARC
  5
C4C
330
1F
100
AcDbEntity
  8
0
  6
Continuous
 62
     7
100
AcDbCircle
 10
-271.9273396475165
 20
59.02338809610432
 30
0.0
 40
1.300023249336687
100
AcDbArc
 50
95.00082984247455
 51
180.0011182523348
  0
LINE
  5
C4D
330
1F
100
AcDbEntity
  8
0
  6
Continuous
 62
     7
100
AcDbLine
 10
-272.0403628966054
 20
60.3185627233099
 30
0.0
 11
-270.6272628966055
 21
60.44206272330985
 31
0.0
  0
LINE
  5
C4E
330
1F
100
AcDbEntity
  8
0
  6
Continuous
 62
     7
100
AcDbLine
 10
-268.3272628966054
 20
79.30896272330983
 30
0.0
 11
-270.6272628966055
 21
79.30896272330983
 31
0.0
  0
LINE
  5
C4F
330
1F
100
AcDbEntity
  8
0
  6
DASHED
 62
    30
100
AcDbLine
 10
-167.3275628966055
 20
72.72266272330991
 30
0.0
 11
-167.3275628966055
 21
44.32546272330999
 31
0.0
  0
LINE
  5
C50
330
1F
100
AcDbEntity
  8
0
  6
Continuous
 62
     7
100
AcDbLine
 10
-164.8275628966056
 20
8.559362723309959
 30
0.0
 11
-164.8275628966056
 21
12.55936272330996
 31
0.0
  0
ARC
  5
C51
330
1F
100
AcDbEntity
  8
0
  6
Continuous
 62
     7
100
AcDbCircle
 10
-162.8275628966056
 20
8.559362723309959
 30
0.0
 40
2.0
100
AcDbArc
 50
180.0
 51
270.0
  0
ARC
  5
C52
330
1F
100
AcDbEntity
  8
0
  6
Continuous
 62
     7
100
AcDbCircle
 10
-162.8275628966056
 20
12.55936272330996
 30
0.0
 40
2.0
100
AcDbArc
 50
90.0
 51
180.0
  0
LINE
  5
C69
330
1F
100
AcDbEntity
  8
0
  6
Continuous
 62
     7
100
AcDbLine
 10
-105.8275628966055
 20
19.80896272330983
 30
0.0
 11
-78.82756289660573
 21
19.80896272330983
 31
0.0
  0
LINE
  5
C6A
330
1F
100
AcDbEntity
  8
0
  6
Continuous
 62
     7
100
AcDbLine
 10
-79.82756289660573
 20
6.808962723309829
 30
0.0
 11
-108.5275628966057
 21
6.808962723309829
 31
0.0
  0
LINE
  5
C6B
330
1F
100
AcDbEntity
  8
0
  6
DASH_CENTER
 62
    30
100
AcDbLine
 10
-63.72326289660577
 20
13.80896272330982
 30
0.0
 11
-108.8275628966055
 21
13.80896272330982
 31
0.0
  0
LINE
  5
C6C
330
1F
100
AcDbEntity
  8
0
  6
Continuous
 62
     7
100
AcDbLine
 10
-123.5275628966057
 20
79.30896272330983
 30
0.0
 11
-123.5275628966057
 21
13.80896272330982
 31
0.0
  0
LINE
  5
C6D
330
1F
100
AcDbEntity
  8
0
  6
Continuous
 62
     7
100
AcDbLine
 10
-125.8275628966055
 20
13.80876272330988
 30
0.0
 11
-125.8275628966055
 21
79.40876272331002
 31
0.0
  0
LINE
  5
C6E
330
1F
100
AcDbEntity
  8
0
  6
Continuous
 62
     7
100
AcDbLine
 10
-123.5275628966057
 20
33.35876272330984
 30
0.0
 11
-113.9275628966057
 21
33.35876272330984
 31
0.0
  0
LINE
  5
C6F
330
1F
100
AcDbEntity
  8
0
  6
Continuous
 62
     7
100
AcDbLine
 10
-139.8275628966057
 20
8.559362723309959
 30
0.0
 11
-139.8275628966057
 21
12.55916272331001
 31
0.0
  0
ARC
  5
C70
330
1F
100
AcDbEntity
  8
0
  6
Continuous
 62
     7
100
AcDbCircle
 10
-141.8275628966056
 20
8.559362723309959
 30
0.0
 40
2.0
100
AcDbArc
 50
270.0
 51
0.0
  0
ARC
  5
C71
330
1F
100
AcDbEntity
  8
0
  6
Continuous
 62
     7
100
AcDbCircle
 10
-141.8275628966056
 20
12.55936272330996
 30
0.0
 40
2.0
100
AcDbArc
 50
0.0
 51
90.0
  0
ARC
  5
C72
330
1F
100
AcDbEntity
  8
0
  6
Continuous
 62
     7
100
AcDbCircle
 10
-233.4275575122038
 20
13.80890614095799
 30
0.0
 40
122.2999980491485
100
AcDbArc
 50
3.468985286571475
 51
7.402860689668059
  0
LINE
  5
C73
330
1F
100
AcDbEntity
  8
0
  6
Continuous
 62
     7
100
AcDbLine
 10
-113.4275628966057
 20
13.80896272330982
 30
0.0
 11
-113.4275628966057
 21
32.85876272330984
 31
0.0
  0
LINE
  5
C74
330
1F
100
AcDbEntity
  8
0
  6
Continuous
 62
     7
100
AcDbLine
 10
-108.8275628966055
 20
13.80896272330982
 30
0.0
 11
-108.8275628966055
 21
6.40876272331002
 31
0.0
  0
LINE
  5
C75
330
1F
100
AcDbEntity
  8
0
  6
Continuous
 62
     7
100
AcDbLine
 10
-111.3516628966055
 20
6.40876272331002
 30
0.0
 11
-108.8275628966055
 21
6.40876272331002
 31
0.0
  0
ARC
  5
C78
330
1F
100
AcDbEntity
  8
0
  6
Continuous
 62
     7
100
AcDbCircle
 10
-108.5275628966057
 20
6.509362723310009
 30
0.0
 40
0.2999999999999545
100
AcDbArc
 50
90.0
 51
180.0
  0
LINE
  5
C79
330
1F
100
AcDbEntity
  8
0
  6
Continuous
 62
     7
100
AcDbLine
 10
-111.3516499571977
 20
21.20906272330989
 30
0.0
 11
-108.8275628966055
 21
21.20906272330989
 31
0.0
  0
ARC
  5
C7A
330
1F
100
AcDbEntity
  8
0
  6
Continuous
 62
     7
100
AcDbCircle
 10
-233.4275628966056
 20
13.80896272330982
 30
0.0
 40
122.3
100
AcDbArc
 50
0.0
 51
3.468958674496588
  0
ARC
  5
C7B
330
1F
100
AcDbEntity
  8
0
  6
Continuous
 62
     7
100
AcDbCircle
 10
-108.5275628966057
 20
21.10926272330994
 30
0.0
 40
0.2999999999998977
100
AcDbArc
 50
180.0
 51
270.0
  0
LINE
  5
C7C
330
1F
100
AcDbEntity
  8
0
  6
Continuous
 62
     7
100
AcDbLine
 10
-108.8275628966055
 20
21.20906272330989
 30
0.0
 11
-108.8275628966055
 21
13.80896272330982
 31
0.0
  0
LINE
  5
C7D
330
1F
100
AcDbEntity
  8
0
  6
Continuous
 62
     7
100
AcDbLine
 10
-108.5275628966057
 20
20.80896272330983
 30
0.0
 11
-105.8275628966055
 21
20.80896272330983
 31
0.0
  0
LINE
  5
C7E
330
1F
100
AcDbEntity
  8
0
  6
Continuous
 62
     7
100
AcDbLine
 10
-105.8275628966055
 20
19.80896272330983
 30
0.0
 11
-105.8275628966055
 21
20.80896272330983
 31
0.0
  0
ARC
  5
C7F
330
1F
100
AcDbEntity
  8
0
  6
Continuous
 62
     7
100
AcDbCircle
 10
-114.130263137911
 20
29.30896307674853
 30
0.0
 40
1.99997223855735
100
AcDbArc
 50
7.403236405049701
 51
61.24228623790529
  0
ARC
  5
C80
330
1F
100
AcDbEntity
  8
0
  6
Continuous
 62
     7
100
AcDbCircle
 10
-112.92754549394
 20
31.50063332319973
 30
0.0
 40
0.5000174035299276
100
AcDbArc
 50
179.9966311127973
 51
241.2480855901765
  0
ARC
  5
C81
330
1F
100
AcDbEntity
  8
0
  6
Continuous
 62
     7
100
AcDbCircle
 10
-113.9275628966057
 20
32.85876272330984
 30
0.0
 40
0.5
100
AcDbArc
 50
0.0
 51
90.0
  0
LINE
  5
C82
330
1F
100
AcDbEntity
  8
0
  6
DASH_CENTER
 62
    30
100
AcDbLine
 10
-129.3114628966055
 20
56.94216272330982
 30
0.0
 11
-111.7393628966054
 21
56.94216272330982
 31
0.0
  0
LINE
  5
C83
330
1F
100
AcDbEntity
  8
0
  6
Continuous
 62
     7
100
AcDbLine
 10
-120.3275628966055
 20
54.94196272330987
 30
0.0
 11
-117.9775628966055
 21
54.94196272330987
 31
0.0
  0
LINE
  5
C84
330
1F
100
AcDbEntity
  8
0
  6
Continuous
 62
    30
100
AcDbLine
 10
-120.3275628966055
 20
55.29206272330998
 30
0.0
 11
-117.6274628966057
 21
55.29206272330998
 31
0.0
  0
LINE
  5
C85
330
1F
100
AcDbEntity
  8
0
  6
Continuous
 62
    30
100
AcDbLine
 10
-117.6274628966057
 20
58.59206272330993
 30
0.0
 11
-120.3275628966055
 21
58.59206272330993
 31
0.0
  0
LINE
  5
C86
330
1F
100
AcDbEntity
  8
0
  6
Continuous
 62
     7
100
AcDbLine
 10
-120.3275628966055
 20
58.94196272330987
 30
0.0
 11
-117.9775628966055
 21
58.94196272330987
 31
0.0
  0
ARC
  5
C87
330
1F
100
AcDbEntity
  8
0
  6
Continuous
 62
     7
100
AcDbCircle
 10
-116.9392628992077
 20
56.94206788228544
 30
0.0
 40
6.588302977166557
100
AcDbArc
 50
162.1398750480696
 51
197.8629603239203
  0
ARC
  5
C88
330
1F
100
AcDbEntity
  8
0
  6
Continuous
 62
     7
100
AcDbCircle
 10
-126.9158628966055
 20
56.94191272330987
 30
0.0
 40
6.588350567668677
100
AcDbArc
 50
342.1385907380356
 51
17.86140926196439
  0
LINE
  5
C89
330
1F
100
AcDbEntity
  8
0
  6
Continuous
 62
     7
100
AcDbLine
 10
-120.3275628966055
 20
60.44196272330987
 30
0.0
 11
-120.3275628966055
 21
53.44196272330987
 31
0.0
  0
LINE
  5
C8A
330
1F
100
AcDbEntity
  8
0
  6
Continuous
 62
     7
100
AcDbLine
 10
-120.3275628966055
 20
53.44196272330987
 30
0.0
 11
-120.3275628966055
 21
60.44196272330987
 31
0.0
  0
ARC
  5
C8B
330
1F
100
AcDbEntity
  8
0
  6
Continuous
 62
     7
100
AcDbCircle
 10
-116.9392733153
 20
52.90040981871751
 30
0.0
 40
6.588277034786307
100
AcDbArc
 50
162.1374444196876
 51
175.5807522366336
  0
ARC
  5
C8C
330
1F
100
AcDbEntity
  8
0
  6
Continuous
 62
     7
100
AcDbCircle
 10
-126.9159310197959
 20
52.90080875893075
 30
0.0
 40
6.588324615607431
100
AcDbArc
 50
4.415736038232999
 51
17.85877714713062
  0
LINE
  5
C8D
330
1F
100
AcDbEntity
  8
0
  6
Continuous
 62
     7
100
AcDbLine
 10
-123.2099628966057
 20
52.89186272330994
 30
0.0
 11
-123.5275628966057
 21
53.44196272330987
 31
0.0
  0
LINE
  5
C8E
330
1F
100
AcDbEntity
  8
0
  6
Continuous
 62
     7
100
AcDbLine
 10
-120.6451628966055
 20
52.89216272330987
 30
0.0
 11
-123.2099628966057
 21
52.89216272330987
 31
0.0
  0
LINE
  5
C8F
330
1F
100
AcDbEntity
  8
0
  6
Continuous
 62
     7
100
AcDbLine
 10
-120.6451628966055
 20
52.89186272330994
 30
0.0
 11
-120.3275628966055
 21
53.44196272330987
 31
0.0
  0
LINE
  5
C90
330
1F
100
AcDbEntity
  8
0
  6
Continuous
 62
     7
100
AcDbLine
 10
-120.6450628966055
 20
54.92116272330986
 30
0.0
 11
-123.2099628966057
 21
54.92116272330986
 31
0.0
  0
ARC
  5
C91
330
1F
100
AcDbEntity
  8
0
  6
Continuous
 62
     7
100
AcDbCircle
 10
-116.9392733153
 20
60.98351562790216
 30
0.0
 40
6.588277034786298
100
AcDbArc
 50
184.4192477633636
 51
197.8625555803118
  0
ARC
  5
C92
330
1F
100
AcDbEntity
  8
0
  6
Continuous
 62
     7
100
AcDbCircle
 10
-126.9159310197959
 20
60.98311668768889
 30
0.0
 40
6.588324615607426
100
AcDbArc
 50
342.1412228528698
 51
355.5842639617697
  0
LINE
  5
C93
330
1F
100
AcDbEntity
  8
0
  6
Continuous
 62
     7
100
AcDbLine
 10
-123.2099628966057
 20
60.99196272330983
 30
0.0
 11
-120.6451628966055
 21
60.99196272330983
 31
0.0
  0
LINE
  5
C94
330
1F
100
AcDbEntity
  8
0
  6
Continuous
 62
     7
100
AcDbLine
 10
-123.2099628966057
 20
60.99196272330983
 30
0.0
 11
-123.5275628966057
 21
60.44196272330987
 31
0.0
  0
LINE
  5
C95
330
1F
100
AcDbEntity
  8
0
  6
Continuous
 62
     7
100
AcDbLine
 10
-120.6451628966055
 20
60.99196272330983
 30
0.0
 11
-120.3275628966055
 21
60.44196272330987
 31
0.0
  0
LINE
  5
C96
330
1F
100
AcDbEntity
  8
0
  6
Continuous
 62
     7
100
AcDbLine
 10
-120.6450628966055
 20
58.9626627233099
 30
0.0
 11
-123.2099628966057
 21
58.9626627233099
 31
0.0
  0
LINE
  5
C97
330
1F
100
AcDbEntity
  8
0
  6
Continuous
 62
     7
100
AcDbLine
 10
-125.8275628966055
 20
79.30896272330983
 30
0.0
 11
-123.5275628966057
 21
79.30896272330983
 31
0.0
  0
LINE
  5
C98
330
1F
100
AcDbEntity
  8
0
  6
Continuous
 62
     7
100
AcDbLine
 10
-117.6274628966057
 20
55.29206272330998
 30
0.0
 11
-117.6274628966057
 21
58.59206272330993
 31
0.0
  0
LINE
  5
C99
330
1F
100
AcDbEntity
  8
0
  6
Continuous
 62
     7
100
AcDbLine
 10
-117.9775628966055
 20
58.94196272330987
 30
0.0
 11
-117.9775628966055
 21
54.94196272330987
 31
0.0
  0
LINE
  5
C9A
330
1F
100
AcDbEntity
  8
0
  6
Continuous
 62
     7
100
AcDbLine
 10
-117.9775628966055
 20
54.94196272330987
 30
0.0
 11
-117.6274628966057
 21
55.29206272330998
 31
0.0
  0
LINE
  5
C9B
330
1F
100
AcDbEntity
  8
0
  6
Continuous
 62
     7
100
AcDbLine
 10
-117.6274628966057
 20
58.59206272330993
 30
0.0
 11
-117.9775628966055
 21
58.94196272330987
 31
0.0
  0
LINE
  5
C9E
330
1F
100
AcDbEntity
  8
0
  6
Continuous
 62
     7
100
AcDbLine
 10
-79.82756289660573
 20
6.808962723309829
 30
0.0
 11
-79.82756289660573
 21
19.80896272330983
 31
0.0
  0
LINE
  5
C9F
330
1F
100
AcDbEntity
  8
0
  6
Continuous
 62
     7
100
AcDbLine
 10
-78.82756289660573
 20
7.808962723309829
 30
0.0
 11
-78.82756289660573
 21
19.80896272330983
 31
0.0
  0
LINE
  5
CA0
330
1F
100
AcDbEntity
  8
0
  6
Continuous
 62
     7
100
AcDbLine
 10
-79.82756289660573
 20
6.808962723309829
 30
0.0
 11
-78.82756289660573
 21
7.808962723309829
 31
0.0
  0
CIRCLE
  5
CBC
330
1F
100
AcDbEntity
  8
0
  6
Continuous
 62
     7
100
AcDbCircle
 10
206.7715371033943
 20
13.80936272330996
 30
0.0
 40
54.0
  0
CIRCLE
  5
CBD
330
1F
100
AcDbEntity
  8
0
  6
Continuous
 62
     7
100
AcDbCircle
 10
206.7715371033943
 20
13.80936272330996
 30
0.0
 40
19.54990000000001
  0
CIRCLE
  5
CBE
330
1F
100
AcDbEntity
  8
0
  6
Continuous
 62
     7
100
AcDbCircle
 10
206.7715371033943
 20
13.80936272330996
 30
0.0
 40
17.25
  0
ARC
  5
CBF
330
1F
100
AcDbEntity
  8
0
  6
Continuous
 62
     7
100
AcDbCircle
 10
206.7718371033943
 20
13.80936272330996
 30
0.0
 40
65.59999999999988
100
AcDbArc
 50
180.0
 51
359.9998253177453
  0
ARC
  5
CC0
330
1F
100
AcDbEntity
  8
0
  6
Continuous
 62
     7
100
AcDbCircle
 10
206.7718528892743
 20
13.80934693735081
 30
0.0
 40
26.99999818693505
100
AcDbArc
 50
193.4933652950028
 51
256.506347575032
  0
ARC
  5
CC1
330
1F
100
AcDbEntity
  8
0
  6
Continuous
 62
     7
100
AcDbCircle
 10
206.7718509655184
 20
13.80934886113556
 30
0.0
 40
35.99995862629034
100
AcDbArc
 50
192.2467406665911
 51
257.7530513198325
  0
ARC
  5
CC2
330
1F
100
AcDbEntity
  8
0
  6
Continuous
 62
     7
100
AcDbCircle
 10
161.6054209790094
 20
0.8093413035495196
 30
0.0
 40
3.000021419803773
100
AcDbArc
 50
89.99969204913107
 51
196.0568429937794
  0
ARC
  5
CC3
330
1F
100
AcDbEntity
  8
0
  6
Continuous
 62
     7
100
AcDbCircle
 10
176.4403422685658
 20
0.8093705566726701
 30
0.0
 40
2.999992166641736
100
AcDbArc
 50
90.00009864776805
 51
203.1996922744276
  0
ARC
  5
CC4
330
1F
100
AcDbEntity
  8
0
  6
Continuous
 62
     7
100
AcDbCircle
 10
237.1030319382229
 20
0.8093705566726399
 30
0.0
 40
2.999992166641793
100
AcDbArc
 50
336.8003077255731
 51
89.99990135223354
  0
ARC
  5
CC5
330
1F
100
AcDbEntity
  8
0
  6
Continuous
 62
     7
100
AcDbCircle
 10
251.937953227779
 20
0.8093413035495196
 30
0.0
 40
3.000021419803763
100
AcDbArc
 50
343.9431570062197
 51
90.00030795086894
  0
ARC
  5
CC6
330
1F
100
AcDbEntity
  8
0
  6
Continuous
 62
     7
100
AcDbCircle
 10
206.7715232412704
 20
13.80934886113561
 30
0.0
 40
35.99995862629034
100
AcDbArc
 50
282.2469486801674
 51
347.7532593334085
  0
ARC
  5
CC7
330
1F
100
AcDbEntity
  8
0
  6
Continuous
 62
     7
100
AcDbCircle
 10
206.7715213175143
 20
13.80934693735087
 30
0.0
 40
26.99999818693511
100
AcDbArc
 50
283.4936524249678
 51
346.5066347049969
  0
ARC
  5
CC8
330
1F
100
AcDbEntity
  8
0
  6
Continuous
 62
     7
100
AcDbCircle
 10
206.7715371033943
 20
13.80936272330996
 30
0.0
 40
40.99999039853557
100
AcDbArc
 50
279.154238391259
 51
350.8457616087403
  0
ARC
  5
CC9
330
1F
100
AcDbEntity
  8
0
  6
Continuous
 62
     7
100
AcDbCircle
 10
206.7718371033943
 20
13.80936272330996
 30
0.0
 40
40.99999039853535
100
AcDbArc
 50
189.1542383912594
 51
260.8457616087408
  0
ARC
  5
CCA
330
1F
100
AcDbEntity
  8
0
  6
Continuous
 62
     7
100
AcDbCircle
 10
141.6591554336983
 20
2.425050258085419
 30
0.0
 40
1.999992252362052
100
AcDbArc
 50
189.9154326880865
 51
281.6505225303453
  0
LINE
  5
CCB
330
1F
100
AcDbEntity
  8
0
  6
Continuous
 62
     7
100
AcDbLine
 10
126.6885371033942
 20
-13.01447896715216
 30
0.0
 11
126.6885371033942
 21
1.808862723309859
 31
0.0
  0
LINE
  5
CCC
330
1F
100
AcDbEntity
  8
0
  6
Continuous
 62
     7
100
AcDbLine
 10
123.6885371033942
 20
-13.01447896715216
 30
0.0
 11
123.6885371033942
 21
1.808862723309859
 31
0.0
  0
LINE
  5
CCD
330
1F
100
AcDbEntity
  8
0
  6
Continuous
 62
     7
100
AcDbLine
 10
120.6885371033942
 20
-13.01447896715216
 30
0.0
 11
120.6885371033942
 21
1.808862723309859
 31
0.0
  0
LINE
  5
CCE
330
1F
100
AcDbEntity
  8
0
  6
Continuous
 62
     7
100
AcDbLine
 10
117.6885371033943
 20
-13.01447896715216
 30
0.0
 11
117.6885371033943
 21
1.808862723309859
 31
0.0
  0
LINE
  5
CCF
330
1F
100
AcDbEntity
  8
0
  6
Continuous
 62
     7
100
AcDbLine
 10
114.6885371033943
 20
-13.01447896715216
 30
0.0
 11
114.6885371033943
 21
1.808862723309859
 31
0.0
  0
LINE
  5
CD0
330
1F
100
AcDbEntity
  8
0
  6
DASH_CENTER
 62
    30
100
AcDbLine
 10
206.7718371033943
 20
-71.59370441362013
 30
0.0
 11
206.7718371033943
 21
87.43256272330995
 31
0.0
  0
ARC
  5
CD8
330
1F
100
AcDbEntity
  8
0
  6
Continuous
 62
     7
100
AcDbCircle
 10
243.281783823871
 20
-51.99059705391824
 30
0.0
 40
2.000040223481443
100
AcDbArc
 50
195.8973420051874
 51
270.0015263152133
  0
ARC
  5
CD9
330
1F
100
AcDbEntity
  8
0
  6
Continuous
 62
     7
100
AcDbCircle
 10
206.7715371033943
 20
13.80936272330996
 30
0.0
 40
50.00001364499823
100
AcDbArc
 50
286.0572626883143
 51
343.9427373116854
  0
LINE
  5
CDA
330
1F
100
AcDbEntity
  8
0
  6
Continuous
 62
     7
100
AcDbLine
 10
236.7718371033943
 20
-57.19063727669003
 30
0.0
 11
281.7716371033943
 21
-57.19063727669003
 31
0.0
  0
LINE
  5
CDB
330
1F
100
AcDbEntity
  8
0
  6
Continuous
 62
     7
100
AcDbLine
 10
239.2967371033942
 20
-53.99063727668999
 30
0.0
 11
281.7716371033943
 21
-53.99063727668999
 31
0.0
  0
LINE
  5
D0A
330
1F
100
AcDbEntity
  8
0
  6
DASH_CENTER
 62
    30
100
AcDbLine
 10
118.4386371033954
 20
-41.11979210184517
 30
0.0
 11
110.5276437014992
 21
-41.11979210184517
 31
0.0
  0
ARC
  5
D26
330
1F
100
AcDbEntity
  8
0
  6
Continuous
 62
     7
100
AcDbCircle
 10
177.9278551977367
 20
-50.62962884114977
 30
0.0
 40
5.000023860903207
100
AcDbArc
 50
65.885941257569
 51
164.1037063012194
  0
ARC
  5
D27
330
1F
100
AcDbEntity
  8
0
  6
Continuous
 62
     7
100
AcDbCircle
 10
206.7718371033943
 20
13.80936272330996
 30
0.0
 40
50.00001364499803
100
AcDbArc
 50
196.0572626883143
 51
253.9427373116855
  0
ARC
  5
D28
330
1F
100
AcDbEntity
  8
0
  6
Continuous
 62
     7
100
AcDbCircle
 10
206.7717067930768
 20
13.80941669929374
 30
0.0
 40
64.24999600591518
100
AcDbArc
 50
239.8978283405528
 51
255.1024096185489
  0
ARC
  5
D29
330
1F
100
AcDbEntity
  8
0
  6
Continuous
 62
     7
100
AcDbCircle
 10
206.772150365528
 20
13.80923296382704
 30
0.0
 40
61.24997582215879
100
AcDbArc
 50
239.5226869080301
 51
255.4766703386779
  0
LINE
  5
D2A
330
1F
100
AcDbEntity
  8
0
  6
Continuous
 62
     7
100
AcDbLine
 10
238.2967371033942
 20
-52.99063727669
 30
0.0
 11
175.2469371033944
 21
-52.99063727669
 31
0.0
  0
LINE
  5
D2B
330
1F
100
AcDbEntity
  8
0
  6
Continuous
 62
     7
100
AcDbLine
 10
236.7718371033943
 20
-56.19063727669003
 30
0.0
 11
176.7718371033943
 21
-56.19063727669003
 31
0.0
  0
LINE
  5
D2C
330
1F
100
AcDbEntity
  8
0
  6
DASH_CENTER
 62
    30
100
AcDbLine
 10
116.2886371033951
 20
-36.54276335341706
 30
0.0
 11
116.2886371033951
 21
-46.98736285777409
 31
0.0
  0
LINE
  5
D2D
330
1F
100
AcDbEntity
  8
0
  6
Continuous
 62
     7
100
AcDbLine
 10
135.3431371033944
 20
-51.96043727669007
 30
0.0
 11
144.7533371033944
 21
-34.98413727669003
 31
0.0
  0
LINE
  5
D2F
330
1F
100
AcDbEntity
  8
0
  6
Continuous
 62
     7
100
AcDbLine
 10
176.7718371033943
 20
-57.19063727669003
 30
0.0
 11
131.7720371033942
 21
-57.19063727669003
 31
0.0
  0
LINE
  5
D30
330
1F
100
AcDbEntity
  8
0
  6
Continuous
 62
     7
100
AcDbLine
 10
174.2469371033944
 20
-53.99063727668999
 30
0.0
 11
131.7720371033942
 21
-53.99063727668999
 31
0.0
  0
ARC
  5
D33
330
1F
100
AcDbEntity
  8
0
  6
Continuous
 62
     7
100
AcDbCircle
 10
133.5940410760196
 20
-50.99063493689924
 30
0.0
 40
2.00000234249332
100
AcDbArc
 50
269.9970214071774
 51
330.9973152755395
  0
LINE
  5
D34
330
1F
100
AcDbEntity
  8
0
  6
Continuous
 62
     7
100
AcDbLine
 10
131.7720371033942
 20
-52.99063727669
 30
0.0
 11
131.7720371033942
 21
-57.19063727669003
 31
0.0
  0
LINE
  5
D35
330
1F
100
AcDbEntity
  8
0
  6
Continuous
 62
     7
100
AcDbLine
 10
131.7720371033942
 20
-52.99063727669
 30
0.0
 11
133.5939371033944
 21
-52.99063727669
 31
0.0
  0
LINE
  5
D3A
330
1F
100
AcDbEntity
  8
0
  6
DASH_CENTER
 62
    30
100
AcDbLine
 10
150.7718371033943
 20
-49.74753727669008
 30
0.0
 11
150.7718371033943
 21
-64.32243727669015
 31
0.0
  0
ARC
  5
D3B
330
1F
100
AcDbEntity
  8
0
  6
Continuous
 62
     7
100
AcDbCircle
 10
170.2619266874139
 20
-51.9906451405251
 30
0.0
 40
1.999992136192014
100
AcDbArc
 50
270.0002983970323
 51
344.1036980077039
  0
ARC
  5
D3C
330
1F
100
AcDbEntity
  8
0
  6
Continuous
 62
     7
100
AcDbCircle
 10
175.2469371083944
 20
-53.490637271689
 30
0.0
 40
0.5000000050000013
100
AcDbArc
 50
90.01145972884643
 51
180.0000005730722
  0
ARC
  5
D3D
330
1F
100
AcDbEntity
  8
0
  6
Continuous
 62
     7
100
AcDbCircle
 10
174.2469370983944
 20
-53.490637281689
 30
0.0
 40
0.500000004999998
100
AcDbArc
 50
269.98854141707
 51
0.0000005728434443
  0
LINE
  5
D3E
330
1F
100
AcDbEntity
  8
0
  6
Continuous
 62
     7
100
AcDbLine
 10
176.7718371033943
 20
-56.19063727669003
 30
0.0
 11
176.7718371033943
 21
-57.19063727669003
 31
0.0
  0
LINE
  5
D3F
330
1F
100
AcDbEntity
  8
0
  6
Continuous
 62
     7
100
AcDbLine
 10
172.1854371033944
 20
-52.53853727669002
 30
0.0
 11
173.1190371033942
 21
-49.26023727669008
 31
0.0
  0
LINE
  5
D40
330
1F
100
AcDbEntity
  8
0
  6
Continuous
 62
     7
100
AcDbLine
 10
117.8885371033951
 20
-19.1628923677772
 30
0.0
 11
117.8885371033951
 21
-30.01999210184408
 31
0.0
  0
LINE
  5
D41
330
1F
100
AcDbEntity
  8
0
  6
Continuous
 62
     7
100
AcDbLine
 10
114.6885371033943
 20
-30.01999210184408
 30
0.0
 11
114.6885371033943
 21
-19.1628923677772
 31
0.0
  0
LINE
  5
D42
330
1F
100
AcDbEntity
  8
0
  6
Continuous
 62
     7
100
AcDbLine
 10
118.3384371033952
 20
-30.01999210184408
 30
0.0
 11
118.3384371033952
 21
-34.81999210184517
 31
0.0
  0
LINE
  5
D43
330
1F
100
AcDbEntity
  8
0
  6
Continuous
 62
     7
100
AcDbLine
 10
114.2386371033954
 20
-30.01999210184408
 30
0.0
 11
114.2386371033954
 21
-34.81999210184517
 31
0.0
  0
ARC
  5
D44
330
1F
100
AcDbEntity
  8
0
  6
Continuous
 62
     7
100
AcDbCircle
 10
116.2886871033943
 20
-41.11979210184517
 30
0.0
 40
3.299966800211774
100
AcDbArc
 50
168.1508663061886
 51
11.84913369381124
  0
LINE
  5
D45
330
1F
100
AcDbEntity
  8
0
  6
Continuous
 62
     7
100
AcDbLine
 10
118.3384371033952
 20
-34.81999210184517
 30
0.0
 11
119.5181371033942
 21
-40.44229210184517
 31
0.0
  0
LINE
  5
D46
330
1F
100
AcDbEntity
  8
0
  6
DASH_CENTER
 62
    30
100
AcDbLine
 10
121.9850528547663
 20
-41.11979210184517
 30
0.0
 11
118.4386371033954
 21
-41.11979210184517
 31
0.0
  0
CIRCLE
  5
D48
330
1F
100
AcDbEntity
  8
0
  6
Continuous
 62
     7
100
AcDbCircle
 10
116.2886371033951
 20
-41.11979210184517
 30
0.0
 40
2.15000000000009
  0
LINE
  5
D49
330
1F
100
AcDbEntity
  8
0
  6
Continuous
 62
     7
100
AcDbLine
 10
114.2386371033954
 20
-34.81999210184517
 30
0.0
 11
118.3384371033952
 21
-34.81999210184517
 31
0.0
  0
LINE
  5
D4A
330
1F
100
AcDbEntity
  8
0
  6
Continuous
 62
     7
100
AcDbLine
 10
114.2386371033954
 20
-34.81999210184517
 30
0.0
 11
113.0589371033942
 21
-40.44229210184517
 31
0.0
  0
LINE
  5
D4B
330
1F
100
AcDbEntity
  8
0
  6
Continuous
 62
     7
100
AcDbLine
 10
117.8885371033951
 20
-30.01999210184408
 30
0.0
 11
114.6885371033943
 21
-30.01999210184408
 31
0.0
  0
LINE
  5
D4C
330
1F
100
AcDbEntity
  8
0
  6
Continuous
 62
     7
100
AcDbLine
 10
114.6885371033943
 20
-30.01999210184408
 30
0.0
 11
114.2386371033954
 21
-30.01999210184408
 31
0.0
  0
LINE
  5
D4D
330
1F
100
AcDbEntity
  8
0
  6
Continuous
 62
     7
100
AcDbLine
 10
118.3384371033952
 20
-30.01999210184408
 30
0.0
 11
117.8885371033951
 21
-30.01999210184408
 31
0.0
  0
ARC
  5
D4E
330
1F
100
AcDbEntity
  8
0
  6
Continuous
 62
    30
100
AcDbCircle
 10
119.9385371033943
 20
-11.71544086147514
 30
0.0
 40
1.500000000000323
100
AcDbArc
 50
240.0000000000074
 51
299.9999999999925
  0
ARC
  5
D4F
330
1F
100
AcDbEntity
  8
0
  6
Continuous
 62
    30
100
AcDbCircle
 10
118.4385371033942
 20
-11.71544086147514
 30
0.0
 40
1.500000000000323
100
AcDbArc
 50
240.0000000000074
 51
299.9999999999925
  0
ARC
  5
D50
330
1F
100
AcDbEntity
  8
0
  6
Continuous
 62
    30
100
AcDbCircle
 10
118.4385371033942
 20
-14.31351707282806
 30
0.0
 40
1.499999999999332
100
AcDbArc
 50
59.99999999998497
 51
120.000000000015
  0
ARC
  5
D51
330
1F
100
AcDbEntity
  8
0
  6
Continuous
 62
    30
100
AcDbCircle
 10
115.4385371033942
 20
-11.71544086147514
 30
0.0
 40
1.500000000000323
100
AcDbArc
 50
240.0000000000074
 51
299.9999999999925
  0
ARC
  5
D52
330
1F
100
AcDbEntity
  8
0
  6
Continuous
 62
    30
100
AcDbCircle
 10
116.9385371033943
 20
-11.71544086147514
 30
0.0
 40
1.500000000000323
100
AcDbArc
 50
240.0000000000074
 51
299.9999999999925
  0
ARC
  5
D53
330
1F
100
AcDbEntity
  8
0
  6
Continuous
 62
    30
100
AcDbCircle
 10
115.4385371033942
 20
-14.31351707282806
 30
0.0
 40
1.499999999999332
100
AcDbArc
 50
59.99999999998497
 51
120.000000000015
  0
ARC
  5
D54
330
1F
100
AcDbEntity
  8
0
  6
Continuous
 62
    30
100
AcDbCircle
 10
117.0885371033953
 20
-20.54853301383217
 30
0.0
 40
1.599999999999893
100
AcDbArc
 50
59.9999999999981
 51
119.9999999999981
  0
ARC
  5
D55
330
1F
100
AcDbEntity
  8
0
  6
Continuous
 62
    30
100
AcDbCircle
 10
117.0885371033953
 20
-17.77725172172107
 30
0.0
 40
1.600000000000821
100
AcDbArc
 50
240.0000000000205
 51
299.9999999999811
  0
ARC
  5
D56
330
1F
100
AcDbEntity
  8
0
  6
Continuous
 62
    30
100
AcDbCircle
 10
115.4885371033943
 20
-20.54853301383217
 30
0.0
 40
1.600000000000448
100
AcDbArc
 50
59.99999999996422
 51
120.0000000000019
  0
ARC
  5
D57
330
1F
100
AcDbEntity
  8
0
  6
Continuous
 62
    30
100
AcDbCircle
 10
124.4385371033942
 20
-11.71544086147514
 30
0.0
 40
1.500000000000323
100
AcDbArc
 50
240.0000000000074
 51
299.9999999999925
  0
ARC
  5
D58
330
1F
100
AcDbEntity
  8
0
  6
Continuous
 62
    30
100
AcDbCircle
 10
125.9385371033941
 20
-11.71544086147514
 30
0.0
 40
1.500000000000323
100
AcDbArc
 50
240.0000000000074
 51
299.9999999999925
  0
ARC
  5
D59
330
1F
100
AcDbEntity
  8
0
  6
Continuous
 62
    30
100
AcDbCircle
 10
124.4385371033942
 20
-14.31351707282806
 30
0.0
 40
1.499999999999332
100
AcDbArc
 50
59.99999999998497
 51
120.000000000015
  0
ARC
  5
D5A
330
1F
100
AcDbEntity
  8
0
  6
Continuous
 62
    30
100
AcDbCircle
 10
121.4385371033942
 20
-11.71544086147514
 30
0.0
 40
1.500000000000323
100
AcDbArc
 50
240.0000000000074
 51
299.9999999999925
  0
ARC
  5
D5B
330
1F
100
AcDbEntity
  8
0
  6
Continuous
 62
    30
100
AcDbCircle
 10
122.9385371033943
 20
-11.71544086147514
 30
0.0
 40
1.500000000000323
100
AcDbArc
 50
240.0000000000074
 51
299.9999999999925
  0
ARC
  5
D5C
330
1F
100
AcDbEntity
  8
0
  6
Continuous
 62
    30
100
AcDbCircle
 10
121.4385371033942
 20
-14.31351707282806
 30
0.0
 40
1.499999999999332
100
AcDbArc
 50
59.99999999998497
 51
120.000000000015
  0
CIRCLE
  5
D5D
330
1F
100
AcDbEntity
  8
0
  6
Continuous
 62
     7
100
AcDbCircle
 10
163.6383371033944
 20
-29.32423727669014
 30
0.0
 40
3.5
  0
ARC
  5
D5E
330
1F
100
AcDbEntity
  8
0
  6
Continuous
 62
     7
100
AcDbCircle
 10
153.4994118023695
 20
-39.83224087700125
 30
0.0
 40
9.999984019204752
100
AcDbArc
 50
45.19762225190589
 51
150.9999007826469
  0
ARC
  5
D5F
330
1F
100
AcDbEntity
  8
0
  6
Continuous
 62
    30
100
AcDbCircle
 10
206.7717274451865
 20
13.80947248364215
 30
0.0
 40
60.99996143380693
100
AcDbArc
 50
219.6859593180378
 51
230.2607060817594
  0
LINE
  5
D60
330
1F
100
AcDbEntity
  8
0
  6
Continuous
 62
    30
100
AcDbLine
 10
167.890037103394
 20
-25.0726372766901
 30
0.0
 11
158.6244371033943
 21
-34.33823727669005
 31
0.0
  0
LINE
  5
D61
330
1F
100
AcDbEntity
  8
0
  6
Continuous
 62
     7
100
AcDbLine
 10
159.7345371033944
 20
-28.2782372766901
 30
0.0
 11
162.5899371033943
 21
-25.41223727669012
 31
0.0
  0
LINE
  5
D62
330
1F
100
AcDbEntity
  8
0
  6
Continuous
 62
     7
100
AcDbLine
 10
160.7806371033944
 20
-32.18193727669017
 30
0.0
 11
159.7345371033944
 21
-28.2782372766901
 31
0.0
  0
LINE
  5
D63
330
1F
100
AcDbEntity
  8
0
  6
Continuous
 62
     7
100
AcDbLine
 10
175.7063371033943
 20
-38.97793727669
 30
0.0
 11
174.5476371033942
 21
-41.77533727669015
 31
0.0
  0
CIRCLE
  5
D64
330
1F
100
AcDbEntity
  8
0
  6
Continuous
 62
     7
100
AcDbCircle
 10
163.6383371033944
 20
-29.32423727669014
 30
0.0
 40
2.0
  0
CIRCLE
  5
D65
330
1F
100
AcDbEntity
  8
0
  6
Continuous
 62
    30
100
AcDbCircle
 10
163.6383371033944
 20
-29.32423727669014
 30
0.0
 40
1.600000000000139
  0
LINE
  5
D66
330
1F
100
AcDbEntity
  8
0
  6
Continuous
 62
     7
100
AcDbLine
 10
162.5899371033943
 20
-25.41223727669012
 30
0.0
 11
166.4959371033942
 21
-26.46653727669013
 31
0.0
  0
LINE
  5
D67
330
1F
100
AcDbEntity
  8
0
  6
Continuous
 62
     7
100
AcDbLine
 10
166.4959371033942
 20
-26.46653727669013
 30
0.0
 11
167.5421371033942
 21
-30.37023727669019
 31
0.0
  0
LINE
  5
D68
330
1F
100
AcDbEntity
  8
0
  6
Continuous
 62
     7
100
AcDbLine
 10
167.5421371033942
 20
-30.37023727669019
 30
0.0
 11
164.6864371033944
 21
-33.23623727669019
 31
0.0
  0
LINE
  5
D69
330
1F
100
AcDbEntity
  8
0
  6
Continuous
 62
     7
100
AcDbLine
 10
164.6864371033944
 20
-33.23623727669019
 30
0.0
 11
160.7806371033944
 21
-32.18193727669017
 31
0.0
  0
ARC
  5
D6A
330
1F
100
AcDbEntity
  8
0
  6
Continuous
 62
     7
100
AcDbCircle
 10
206.771891079378
 20
13.80923241299273
 30
0.0
 40
64.24999600591522
100
AcDbArc
 50
194.8975903814512
 51
210.1021716594472
  0
ARC
  5
D6B
330
1F
100
AcDbEntity
  8
0
  6
Continuous
 62
     7
100
AcDbCircle
 10
206.7717772765859
 20
13.80950715662996
 30
0.0
 40
61.25000118253515
100
AcDbArc
 50
194.5231603732955
 51
210.4772244229938
  0
LINE
  5
D6C
330
1F
100
AcDbEntity
  8
0
  6
Continuous
 62
     7
100
AcDbLine
 10
153.9847371033943
 20
-17.25603727668999
 30
0.0
 11
151.1872371033944
 21
-18.41493727669012
 31
0.0
  0
LINE
  5
D6D
330
1F
100
AcDbEntity
  8
0
  6
Continuous
 62
     7
100
AcDbLine
 10
147.4790371033944
 20
-1.550237276690039
 30
0.0
 11
144.681637103394
 21
-2.70893727668999
 31
0.0
  0
ARC
  5
D6E
330
1F
100
AcDbEntity
  8
0
  6
Continuous
 62
     7
100
AcDbCircle
 10
235.615819009052
 20
-50.62962884114972
 30
0.0
 40
5.000023860903159
100
AcDbArc
 50
15.89629369878027
 51
114.1140587424309
  0
ARC
  5
D6F
330
1F
100
AcDbEntity
  8
0
  6
Continuous
 62
     7
100
AcDbCircle
 10
206.7714922883018
 20
13.80934416028166
 30
0.0
 40
64.24997092880784
100
AcDbArc
 50
284.897757933212
 51
300.1022620618833
  0
LINE
  5
D70
330
1F
100
AcDbEntity
  8
0
  6
Continuous
 62
     7
100
AcDbLine
 10
222.1310371033943
 20
-45.48333727669001
 30
0.0
 11
223.2898371033943
 21
-48.28093727669011
 31
0.0
  0
LINE
  5
D71
330
1F
100
AcDbEntity
  8
0
  6
Continuous
 62
     7
100
AcDbLine
 10
191.4123371033943
 20
-45.48333727669001
 30
0.0
 11
190.2535371033943
 21
-48.28093727669011
 31
0.0
  0
ARC
  5
D72
330
1F
100
AcDbEntity
  8
0
  6
Continuous
 62
     7
100
AcDbCircle
 10
195.6855392349915
 20
-51.86158208649946
 30
0.0
 40
0.9999863086868144
100
AcDbArc
 50
52.20005755707114
 51
80.42141850554866
  0
ARC
  5
D73
330
1F
100
AcDbEntity
  8
0
  6
Continuous
 62
     7
100
AcDbCircle
 10
199.114327885505
 20
-51.99059988501656
 30
0.0
 40
1.000037397637453
100
AcDbArc
 50
232.1955907783453
 51
270.0062574901028
  0
LINE
  5
D74
330
1F
100
AcDbEntity
  8
0
  6
Continuous
 62
     7
100
AcDbLine
 10
198.5013371033942
 20
-52.78073727669016
 30
0.0
 11
196.2984371033942
 21
-51.07153727669015
 31
0.0
  0
ARC
  5
D77
330
1F
100
AcDbEntity
  8
0
  6
Continuous
 62
     7
100
AcDbCircle
 10
217.8581349717971
 20
-51.86158208649946
 30
0.0
 40
0.999986308686822
100
AcDbArc
 50
99.57858149445463
 51
127.7999424429308
  0
ARC
  5
D78
330
1F
100
AcDbEntity
  8
0
  6
Continuous
 62
     7
100
AcDbCircle
 10
214.4293568223854
 20
-51.99063052462432
 30
0.0
 40
1.000006752260091
100
AcDbArc
 50
269.9988701926565
 51
307.8050099118118
  0
LINE
  5
D79
330
1F
100
AcDbEntity
  8
0
  6
Continuous
 62
     7
100
AcDbLine
 10
215.0423371033943
 20
-52.78073727669016
 30
0.0
 11
217.2452371033944
 21
-51.07153727669015
 31
0.0
  0
ARC
  5
D7A
330
1F
100
AcDbEntity
  8
0
  6
Continuous
 62
     7
100
AcDbCircle
 10
238.2967370983942
 20
-53.490637271689
 30
0.0
 40
0.500000005000004
100
AcDbArc
 50
359.9999994269277
 51
89.98854027115354
  0
ARC
  5
D7B
330
1F
100
AcDbEntity
  8
0
  6
Continuous
 62
     7
100
AcDbCircle
 10
239.2967371083942
 20
-53.490637281689
 30
0.0
 40
0.500000005000004
100
AcDbArc
 50
179.9999994271565
 51
270.0114585829298
  0
LINE
  5
D7C
330
1F
100
AcDbEntity
  8
0
  6
Continuous
 62
     7
100
AcDbLine
 10
236.7718371033943
 20
-56.19063727669003
 30
0.0
 11
236.7718371033943
 21
-57.19063727669003
 31
0.0
  0
LINE
  5
D7D
330
1F
100
AcDbEntity
  8
0
  6
Continuous
 62
     7
100
AcDbLine
 10
241.3582371033942
 20
-52.53853727669002
 30
0.0
 11
240.4246371033944
 21
-49.26023727669008
 31
0.0
  0
LINE
  5
D7E
330
1F
100
AcDbEntity
  8
0
  6
Continuous
 62
     7
100
AcDbLine
 10
202.7717371033943
 20
-7.626937276690109
 30
0.0
 11
202.7717371033943
 21
-36.70793727669002
 31
0.0
  0
ARC
  5
D7F
330
1F
100
AcDbEntity
  8
0
  6
Continuous
 62
     7
100
AcDbCircle
 10
193.7717156836339
 20
-31.35715340107497
 30
0.0
 40
3.000021419803745
100
AcDbArc
 50
253.94315700622
 51
0.0003079508682142
  0
ARC
  5
D80
330
1F
100
AcDbEntity
  8
0
  6
Continuous
 62
     7
100
AcDbCircle
 10
199.7717451492655
 20
-36.70793026871424
 30
0.0
 40
2.999991954136941
100
AcDbArc
 50
262.1120409445176
 51
359.9998661571626
  0
ARC
  5
D81
330
1F
100
AcDbEntity
  8
0
  6
Continuous
 62
     7
100
AcDbCircle
 10
199.7717308925913
 20
-29.63032998483793
 30
0.0
 40
3.000006210811641
100
AcDbArc
 50
359.9998607361689
 51
80.84523809260636
  0
ARC
  5
D82
330
1F
100
AcDbEntity
  8
0
  6
Continuous
 62
     7
100
AcDbCircle
 10
193.7717175895393
 20
-28.2265108162868
 30
0.0
 40
3.000019514756333
100
AcDbArc
 50
0.0014044937026871
 51
72.81420231546253
  0
LINE
  5
D83
330
1F
100
AcDbEntity
  8
0
  6
Continuous
 62
     7
100
AcDbLine
 10
196.7717371033943
 20
-28.22653727669012
 30
0.0
 11
196.7717371033943
 21
-31.35713727669008
 31
0.0
  0
ARC
  5
D84
330
1F
100
AcDbEntity
  8
0
  6
Continuous
 62
     7
100
AcDbCircle
 10
193.7716989799228
 20
-16.52216241549933
 30
0.0
 40
3.000038123576841
100
AcDbArc
 50
246.8016388134999
 51
0.0004801097901729
  0
ARC
  5
D85
330
1F
100
AcDbEntity
  8
0
  6
Continuous
 62
     7
100
AcDbCircle
 10
193.7717376292279
 20
-13.22773811298206
 30
0.0
 40
2.999999474166461
100
AcDbArc
 50
0.0000159720036505
 51
64.32071769506059
  0
ARC
  5
D86
330
1F
100
AcDbEntity
  8
0
  6
Continuous
 62
     7
100
AcDbCircle
 10
199.7717324500797
 20
-15.36253137466867
 30
0.0
 40
3.000004653320368
100
AcDbArc
 50
359.9998872798691
 51
76.50653110942215
  0
ARC
  5
D87
330
1F
100
AcDbEntity
  8
0
  6
Continuous
 62
     7
100
AcDbCircle
 10
199.7717479492921
 20
-18.43962853262475
 30
0.0
 40
2.999989154114772
100
AcDbArc
 50
257.75234267351
 51
359.9998330000502
  0
LINE
  5
D88
330
1F
100
AcDbEntity
  8
0
  6
Continuous
 62
     7
100
AcDbLine
 10
196.7717371033943
 20
-13.22773727669005
 30
0.0
 11
196.7717371033943
 21
-16.52213727669005
 31
0.0
  0
ARC
  5
D89
330
1F
100
AcDbEntity
  8
0
  6
Continuous
 62
     7
100
AcDbCircle
 10
199.7717457134659
 20
-7.626649145504082
 30
0.0
 40
2.999991389951875
100
AcDbArc
 50
0.0002266782984533
 51
71.91678129655135
  0
LINE
  5
D8A
330
1F
100
AcDbEntity
  8
0
  6
Continuous
 62
     7
100
AcDbLine
 10
210.7716371033943
 20
-7.626937276690109
 30
0.0
 11
210.7716371033943
 21
-36.70793727669002
 31
0.0
  0
ARC
  5
D8B
330
1F
100
AcDbEntity
  8
0
  6
Continuous
 62
     7
100
AcDbCircle
 10
206.7713073149715
 20
13.80926754092472
 30
0.0
 40
61.24996328417792
100
AcDbArc
 50
284.5231554053746
 51
300.4772293909158
  0
ARC
  5
D8C
330
1F
100
AcDbEntity
  8
0
  6
Continuous
 62
     7
100
AcDbCircle
 10
219.7716446941976
 20
-31.35714299105042
 30
0.0
 40
3.000007590808691
100
AcDbArc
 50
179.9998908640325
 51
286.0552064655288
  0
ARC
  5
D8D
330
1F
100
AcDbEntity
  8
0
  6
Continuous
 62
     7
100
AcDbCircle
 10
213.771629057523
 20
-36.70793026871424
 30
0.0
 40
2.999991954136929
100
AcDbArc
 50
180.0001338428374
 51
277.887959055479
  0
ARC
  5
D8E
330
1F
100
AcDbEntity
  8
0
  6
Continuous
 62
     7
100
AcDbCircle
 10
219.7716566172494
 20
-28.22651081628678
 30
0.0
 40
3.000019514756365
100
AcDbArc
 50
107.1857976845407
 51
179.9985955062981
  0
ARC
  5
D8F
330
1F
100
AcDbEntity
  8
0
  6
Continuous
 62
     7
100
AcDbCircle
 10
213.7716433141972
 20
-29.63032998483793
 30
0.0
 40
3.000006210811626
100
AcDbArc
 50
99.15476190739203
 51
180.0001392638311
  0
LINE
  5
D90
330
1F
100
AcDbEntity
  8
0
  6
Continuous
 62
     7
100
AcDbLine
 10
216.7716371033943
 20
-28.22653727669012
 30
0.0
 11
216.7716371033943
 21
-31.35713727669008
 31
0.0
  0
LINE
  5
D91
330
1F
100
AcDbEntity
  8
0
  6
Continuous
 62
     7
100
AcDbLine
 10
237.8370371033943
 20
-38.97793727669
 30
0.0
 11
238.9957371033943
 21
-41.77533727669015
 31
0.0
  0
ARC
  5
D92
330
1F
100
AcDbEntity
  8
0
  6
Continuous
 62
     7
100
AcDbCircle
 10
219.7716365775605
 20
-13.22773811298206
 30
0.0
 40
2.999999474166468
100
AcDbArc
 50
115.6792823049394
 51
179.9999840279963
  0
ARC
  5
D93
330
1F
100
AcDbEntity
  8
0
  6
Continuous
 62
     7
100
AcDbCircle
 10
219.7716752268659
 20
-16.52216241549931
 30
0.0
 40
3.000038123576781
100
AcDbArc
 50
179.9995198902102
 51
293.1983611864982
  0
ARC
  5
D94
330
1F
100
AcDbEntity
  8
0
  6
Continuous
 62
     7
100
AcDbCircle
 10
213.7716156514747
 20
-18.4396199814743
 30
0.0
 40
2.999978548130118
100
AcDbArc
 50
180.0003303166514
 51
282.2459542283293
  0
ARC
  5
D95
330
1F
100
AcDbEntity
  8
0
  6
Continuous
 62
     7
100
AcDbCircle
 10
213.7716417567089
 20
-15.36253137466867
 30
0.0
 40
3.000004653320366
100
AcDbArc
 50
103.4934688905777
 51
180.0001127201309
  0
LINE
  5
D96
330
1F
100
AcDbEntity
  8
0
  6
Continuous
 62
     7
100
AcDbLine
 10
216.7716371033943
 20
-13.22773727669005
 30
0.0
 11
216.7716371033943
 21
-16.52213727669005
 31
0.0
  0
ARC
  5
D97
330
1F
100
AcDbEntity
  8
0
  6
Continuous
 62
     7
100
AcDbCircle
 10
213.7716284933228
 20
-7.626649145504088
 30
0.0
 40
2.999991389951876
100
AcDbArc
 50
108.0832187034469
 51
179.9997733217013
  0
SPLINE
  5
DA9
330
1F
100
AcDbEntity
  8
0
  6
Continuous
 62
    54
100
AcDbSpline
210
0.0
220
0.0
230
1.0
 70
     8
 71
     3
 72
   141
 73
   137
 74
   135
 42
0.0000000001
 43
0.0000000001
 44
0.00000001
 40
0.0
 40
0.0
 40
0.0
 40
0.0
 40
0.2626125722554105
 40
0.5252229897640573
 40
0.7878464660566874
 40
1.075428894538347
 40
1.363038469517881
 40
1.650586370737292
 40
1.931165997058392
 40
2.211798652446383
 40
2.492417660816421
 40
2.793855024797891
 40
3.095312440914844
 40
3.396867360776584
 40
3.698451587454322
 40
4.131419367173754
 40
4.564261333664361
 40
4.997082101088583
 40
5.504456529644822
 40
6.011845427821726
 40
6.017628938580558
 40
6.023412446105755
 40
6.029184323753093
 40
6.034956207770047
 40
6.392597960614883
 40
6.750241790400226
 40
7.107879068241973
 40
7.458869678833968
 40
7.809872634915743
 40
8.160857351961604
 40
8.662250235285322
 40
9.163667674269163
 40
9.66596373155902
 40
10.16826034608051
 40
10.6705720596912
 40
11.53513511739663
 40
12.39966727442292
 40
13.15108807270366
 40
13.9025468186555
 40
14.34352127109244
 40
14.78447779930959
 40
15.2254655831204
 40
15.66670408180173
 40
15.94520950942006
 40
16.22377830584766
 40
16.50228001026644
 40
16.78067696223624
 40
17.05903809259495
 40
17.33755265406582
 40
17.60555161429059
 40
17.87365499845022
 40
18.14164887677159
 40
18.40945504999454
 40
18.67714768750766
 40
18.95195816673656
 40
19.22705363335515
 40
19.50247915331797
 40
19.77817141596872
 40
20.05397194558572
 40
20.32963988899177
 40
20.62920858574791
 40
20.92853756368646
 40
21.22780795498961
 40
21.52710147147611
 40
21.82640832152131
 40
22.1256352459879
 40
22.45504233936305
 40
22.78431214062595
 40
23.1135265692096
 40
23.44269033167589
 40
23.77173681646036
 40
24.13304127693779
 40
24.49434029182035
 40
24.85579325322697
 40
25.21743423172731
 40
25.57918777449537
 40
25.94088462366817
 40
26.51623964039977
 40
27.09123668120895
 40
27.66612082861339
 40
28.24100476126301
 40
29.194539333971
 40
30.14813028236446
 40
30.86917923654566
 40
31.59022136773097
 40
32.31126706812894
 40
32.81978126287611
 40
33.32830297845316
 40
33.83682121827255
 40
34.34537023208768
 40
34.88768945933642
 40
35.42995946351227
 40
35.97207848225598
 40
36.45475494073458
 40
36.93751076578452
 40
37.42039946420009
 40
37.90335952236851
 40
38.41333129220649
 40
38.92320624963237
 40
39.43298700024103
 40
39.94276972224137
 40
40.4162151037446
 40
40.88973934494172
 40
41.36324863011893
 40
41.83667380712267
 40
42.35248327591794
 40
42.86833599801294
 40
43.38431243746262
 40
43.90038956571915
 40
44.4164609601002
 40
45.30530436082295
 40
46.19393822957711
 40
47.08256538739853
 40
47.76074793111793
 40
48.43893529127592
 40
49.11712161447486
 40
49.61240291207177
 40
50.10770005288032
 40
50.60300444592165
 40
51.09835660715092
 40
51.47019034914693
 40
51.84200607556422
 40
52.21375512448325
 40
52.5854466117429
 40
52.88720975880586
 40
53.18899926557882
 40
53.49091296168182
 40
53.6786265435267
 40
53.86630490942543
 40
54.05389867814423
 40
54.2415000530982
 40
54.41175084459167
 40
54.58197677432687
 40
54.7520640014885
 40
54.92310382909691
 40
55.09419135664025
 40
55.09419135664025
 40
55.09419135664025
 40
55.09419135664025
 10
243.5683371033942
 20
-155.4580785243352
 30
0.0
 10
243.5510983076645
 20
-155.5439020849145
 30
0.0
 10
243.5166208654005
 20
-155.7155485034246
 30
0.0
 10
243.4679219365208
 20
-155.973620839533
 30
0.0
 10
243.4236150728737
 20
-156.2409479573819
 30
0.0
 10
243.3875156443615
 20
-156.5179483115856
 30
0.0
 10
243.3617651764009
 20
-156.8044553807738
 30
0.0
 10
243.3487118853718
 20
-157.089506750533
 30
0.0
 10
243.3491468217923
 20
-157.3725241068685
 30
0.0
 10
243.3616003060624
 20
-157.6529354816414
 30
0.0
 10
243.3855685444218
 20
-157.9395647183104
 30
0.0
 10
243.4208707317818
 20
-158.2320074987499
 30
0.0
 10
243.4664685205247
 20
-158.5300628449202
 30
0.0
 10
243.519590592216
 20
-158.8269037652561
 30
0.0
 10
243.5868510674208
 20
-159.1656729009067
 30
0.0
 10
243.668476781725
 20
-159.5461647080003
 30
0.0
 10
243.7653120725734
 20
-159.9680823429353
 30
0.0
 10
243.8723576962507
 20
-160.4130728452757
 30
0.0
 10
243.9885989358061
 20
-160.881391636134
 30
0.0
 10
244.0708440637245
 20
-161.2114824484615
 30
0.0
 10
244.1121564761181
 20
-161.3794622139114
 30
0.0
 10
244.1135362730104
 20
-161.3850747272473
 30
0.0
 10
244.1149145361376
 20
-161.3906836267515
 30
0.0
 10
244.144269786588
 20
-161.5101929738512
 30
0.0
 10
244.2010631727478
 20
-161.7437413497017
 30
0.0
 10
244.2822415668827
 20
-162.0920556802782
 30
0.0
 10
244.3578597994038
 20
-162.4393610692177
 30
0.0
 10
244.4262904133063
 20
-162.7859030070068
 30
0.0
 10
244.4874398243498
 20
-163.131551917907
 30
0.0
 10
244.5492147443845
 20
-163.527923044835
 30
0.0
 10
244.6072450053378
 20
-163.9755020609595
 30
0.0
 10
244.660136647154
 20
-164.4744383682913
 30
0.0
 10
244.7048312219711
 20
-164.9744643001001
 30
0.0
 10
244.7437404003845
 20
-165.4752632641212
 30
0.0
 10
244.7878214164174
 20
-166.0967605485281
 30
0.0
 10
244.8385732512566
 20
-166.8388289234219
 30
0.0
 10
244.8963737949639
 20
-167.6636470617509
 30
0.0
 10
244.9563524776748
 20
-168.4505086434077
 30
0.0
 10
245.0116682584703
 20
-169.0961087193795
 30
0.0
 10
245.0637833385867
 20
-169.6380808911032
 30
0.0
 10
245.112139878105
 20
-170.0764164535662
 30
0.0
 10
245.1694164351948
 20
-170.5137812962721
 30
0.0
 10
245.2298805145931
 20
-170.8960014796629
 30
0.0
 10
245.2906838915287
 20
-171.2231972226114
 30
0.0
 10
245.348291874871
 20
-171.4957334775584
 30
0.0
 10
245.4136253303786
 20
-171.7664945059798
 30
0.0
 10
245.4876785553475
 20
-172.0349424423387
 30
0.0
 10
245.571447121927
 20
-172.3005373942685
 30
0.0
 10
245.6646893694333
 20
-172.5592910820947
 30
0.0
 10
245.7677656943889
 20
-172.8105999798206
 30
0.0
 10
245.880718141579
 20
-173.0537796920966
 30
0.0
 10
246.0054157581084
 20
-173.2910957569357
 30
0.0
 10
246.1423408819867
 20
-173.5214328122383
 30
0.0
 10
246.2932848411249
 20
-173.7456100753376
 30
0.0
 10
246.4590688807597
 20
-173.9621334062919
 30
0.0
 10
246.6390044510373
 20
-174.1704417324456
 30
0.0
 10
246.8306140455359
 20
-174.3684592872291
 30
0.0
 10
247.032836020236
 20
-174.5559554955331
 30
0.0
 10
247.2446129747088
 20
-174.7327006481209
 30
0.0
 10
247.4713714323345
 20
-174.9033452129627
 30
0.0
 10
247.7130514639193
 20
-175.0666055140795
 30
0.0
 10
247.9694506702812
 20
-175.2214181842493
 30
0.0
 10
248.2329778866635
 20
-175.3635443820511
 30
0.0
 10
248.5027914370541
 20
-175.4932994102296
 30
0.0
 10
248.7780523692552
 20
-175.6109990623502
 30
0.0
 10
249.0674077724289
 20
-175.7205503627315
 30
0.0
 10
249.3706313594556
 20
-175.8209183413018
 30
0.0
 10
249.6874388875109
 20
-175.9110910022849
 30
0.0
 10
250.0075430492443
 20
-175.988374551092
 30
0.0
 10
250.3303035323555
 20
-176.0532653621853
 30
0.0
 10
250.6657770077351
 20
-176.108006354876
 30
0.0
 10
251.0136663224806
 20
-176.151760591903
 30
0.0
 10
251.3736038537285
 20
-176.184417332231
 30
0.0
 10
251.7344764991339
 20
-176.2059581236302
 30
0.0
 10
252.0959392985248
 20
-176.2177146673693
 30
0.0
 10
252.4576495646229
 20
-176.2210169942626
 30
0.0
 10
252.8905817083847
 20
-176.2164400910763
 30
0.0
 10
253.3943987846404
 20
-176.2006182621362
 30
0.0
 10
253.968723510602
 20
-176.1705758211518
 30
0.0
 10
254.5423199495188
 20
-176.131300355788
 30
0.0
 10
255.2412051080821
 20
-176.0754825586126
 30
0.0
 10
256.0653110218606
 20
-176.0024284143784
 30
0.0
 10
256.9381175282448
 20
-175.9268827537062
 30
0.0
 10
257.7345669596017
 20
-175.8685206414378
 30
0.0
 10
258.4543910713674
 20
-175.8260875364757
 30
0.0
 10
259.1040668933371
 20
-175.7989791163176
 30
0.0
 10
259.6832731231651
 20
-175.7847433627444
 30
0.0
 10
260.191795603228
 20
-175.7803064449315
 30
0.0
 10
260.700334224637
 20
-175.784788183342
 30
0.0
 10
261.2199595380285
 20
-175.7993647407893
 30
0.0
 10
261.750399617061
 20
-175.8257281884888
 30
0.0
 10
262.2912102070502
 20
-175.8657862093873
 30
0.0
 10
262.8110144527627
 20
-175.9180538211883
 30
0.0
 10
263.3095279611742
 20
-175.9816994492475
 30
0.0
 10
263.7872005096493
 20
-176.0518197508786
 30
0.0
 10
264.2640551478151
 20
-176.1278289962408
 30
0.0
 10
264.7493998163765
 20
-176.2081140850797
 30
0.0
 10
265.2436677353093
 20
-176.2895766342776
 30
0.0
 10
265.7472495772874
 20
-176.3694825958627
 30
0.0
 10
266.2516542329504
 20
-176.4436520148578
 30
0.0
 10
266.7452061695103
 20
-176.5077976956835
 30
0.0
 10
267.2280021126517
 20
-176.5600993426686
 30
0.0
 10
267.69975655241
 20
-176.6010655847596
 30
0.0
 10
268.1722960793698
 20
-176.6316124932021
 30
0.0
 10
268.6594987657657
 20
-176.6519358861231
 30
0.0
 10
269.1611734205446
 20
-176.6604354327772
 30
0.0
 10
269.6770806838544
 20
-176.6577096522705
 30
0.0
 10
270.1929263257485
 20
-176.6453748393983
 30
0.0
 10
270.7085917565438
 20
-176.6252846635286
 30
0.0
 10
271.348118632098
 20
-176.5930298095972
 30
0.0
 10
272.1112246855923
 20
-176.5463236264724
 30
0.0
 10
272.9977507949955
 20
-176.4841045344647
 30
0.0
 10
273.8139711392338
 20
-176.4233108893569
 30
0.0
 10
274.5602561228703
 20
-176.3679821688389
 30
0.0
 10
275.2368873759769
 20
-176.3219814734295
 30
0.0
 10
275.8531657988269
 20
-176.2874791188092
 30
0.0
 10
276.4089815655006
 20
-176.264931849151
 30
0.0
 10
276.9041343388739
 20
-176.2522473498424
 30
0.0
 10
277.399459297329
 20
-176.2479259016518
 30
0.0
 10
277.8536305026987
 20
-176.2525234736676
 30
0.0
 10
278.2664836420128
 20
-176.2642221029148
 30
0.0
 10
278.6379059405426
 20
-176.2814794967762
 30
0.0
 10
279.0088521014397
 20
-176.3063854411968
 30
0.0
 10
279.3558729881203
 20
-176.3377638014321
 30
0.0
 10
279.6788919465468
 20
-176.3745607992849
 30
0.0
 10
279.9778783406397
 20
-176.4160905484621
 30
0.0
 10
280.2380828376664
 20
-176.459786248241
 30
0.0
 10
280.4597042442519
 20
-176.5029556266012
 30
0.0
 10
280.6428917769793
 20
-176.5438282980731
 30
0.0
 10
280.8245411852751
 20
-176.5909787685295
 30
0.0
 10
280.9985235759244
 20
-176.6439904391132
 30
0.0
 10
281.1643850414137
 20
-176.7031340408889
 30
0.0
 10
281.3217322552205
 20
-176.7681809679006
 30
0.0
 10
281.4755362977027
 20
-176.8418943254835
 30
0.0
 10
281.6248353192906
 20
-176.9248758197248
 30
0.0
 10
281.7226319612239
 20
-176.98354156723
 30
0.0
 10
281.7715371033944
 20
-177.012878524334
 30
0.0
 11
243.5683371033942
 21
-155.4580785243352
 31
0.0
 11
243.5171237173336
 21
-155.7156490132117
 31
0.0
 11
243.4688815597353
 21
-155.9737903041209
 31
0.0
 11
243.4264074880882
 21
-156.2329563586509
 31
0.0
 11
243.3894205557908
 21
-156.5181503628715
 31
0.0
 11
243.36386217138
 21
-156.8046220654935
 31
0.0
 11
243.3509001809434
 21
-157.091877669459
 31
0.0
 11
243.3511500730212
 21
-157.3724571839933
 31
0.0
 11
243.3634232453596
 21
-157.6528213333811
 31
0.0
 11
243.3866371033944
 21
-157.9324785243341
 31
0.0
 11
243.4224461570662
 21
-158.2317813741341
 31
0.0
 11
243.4677159115938
 21
-158.5298203362258
 31
0.0
 11
243.5205224374746
 21
-158.8267156720378
 31
0.0
 11
243.5789418052063
 21
-159.122587642999
 31
0.0
 11
243.6694915009283
 21
-159.5459809009073
 31
0.0
 11
243.7660485180298
 21
-159.967915623851
 31
0.0
 11
243.8670110500664
 21
-160.388796110331
 31
0.0
 11
243.988671123083
 21
-160.8813685796311
 31
0.0
 11
244.1107751987993
 21
-161.3738460804851
 31
0.0
 11
244.1121564000702
 21
-161.3794622428554
 31
0.0
 11
244.1135371033943
 21
-161.385078524334
 31
0.0
 11
244.114914457168
 21
-161.390683653073
 31
0.0
 11
244.11629130242
 21
-161.3962889133061
 31
0.0
 11
244.2005081282548
 21
-161.7438736507688
 31
0.0
 11
244.2813939751601
 21
-162.0922507293148
 31
0.0
 11
244.3571870704973
 21
-162.441764433356
 31
0.0
 11
244.4251477180851
 21
-162.7861127442535
 31
0.0
 11
244.4862582711356
 21
-163.1317550096124
 31
0.0
 11
244.5402695497481
 21
-163.4785590659619
 31
0.0
 11
244.6053077713691
 21
-163.9757158354066
 31
0.0
 11
244.6587371033943
 21
-164.4742785243352
 31
0.0
 11
244.7038625628051
 21
-164.9745434763661
 31
0.0
 11
244.743178097394
 21
-165.4752990832209
 31
0.0
 11
244.7791235271683
 21
-165.9763230185331
 31
0.0
 11
244.8388149560936
 21
-166.8388229976836
 31
0.0
 11
244.8999499468714
 21
-167.7011908793121
 31
0.0
 11
244.9575243129582
 21
-168.450402737382
 31
0.0
 11
245.0221371033942
 21
-169.1990785243343
 31
0.0
 11
245.0648084948916
 21
-169.6379835482003
 31
0.0
 11
245.1136233899151
 21
-170.0762297868913
 31
0.0
 11
245.1713463425737
 21
-170.5134234352156
 31
0.0
 11
245.2407419069763
 21
-170.949170687981
 31
0.0
 11
245.2917992012231
 21
-171.2229560526236
 31
0.0
 11
245.3495858464072
 21
-171.4954652780801
 31
0.0
 11
245.4150902219593
 21
-171.7661539851361
 31
0.0
 11
245.4893007073104
 21
-172.034477794577
 31
0.0
 11
245.5732056818908
 21
-172.2998923271888
 31
0.0
 11
245.6677935251323
 21
-172.5618532037571
 31
0.0
 11
245.7696197736129
 21
-172.8097541069354
 31
0.0
 11
245.8826969560957
 21
-173.0528445744539
 31
0.0
 11
246.007495372164
 21
-173.2900071224407
 31
0.0
 11
246.1444853214024
 21
-173.5201242670249
 31
0.0
 11
246.2941371033944
 21
-173.7420785243341
 31
0.0
 11
246.4611049744001
 21
-173.9603502118334
 31
0.0
 11
246.6408428284429
 21
-174.168609232288
 31
0.0
 11
246.832291465427
 21
-174.366615889929
 31
0.0
 11
247.0343916852562
 21
-174.5541304889879
 31
0.0
 11
247.2460842878345
 21
-174.7309133336958
 31
0.0
 11
247.4663100730663
 21
-174.8967247282841
 31
0.0
 11
247.7144852053492
 21
-175.0645058590331
 31
0.0
 11
247.9706687298146
 21
-175.2193213584851
 31
0.0
 11
248.2340197914725
 21
-175.3614796698134
 31
0.0
 11
248.5036975353327
 21
-175.4912892361914
 31
0.0
 11
248.7788611064051
 21
-175.6090585007923
 31
0.0
 11
249.0586696497003
 21
-175.715095906789
 31
0.0
 11
249.3713570906654
 21
-175.8187086351738
 31
0.0
 11
249.688019226543
 21
-175.9089510519119
 31
0.0
 11
250.0080143873074
 21
-175.9863153662124
 31
0.0
 11
250.3307009029331
 21
-176.0512937872838
 31
0.0
 11
250.6554371033942
 21
-176.104378524334
 31
0.0
 11
251.013889435352
 21
-176.1496867899259
 31
0.0
 11
251.3736898753117
 21
-176.1825595995571
 31
0.0
 11
251.7344870243248
 21
-176.2043233451874
 31
0.0
 11
252.0959294834435
 21
-176.2163044187749
 31
0.0
 11
252.4576658537196
 21
-176.2198292122789
 31
0.0
 11
252.8193447362053
 21
-176.216224117658
 31
0.0
 11
253.3944302094075
 21
-176.1986146347705
 31
0.0
 11
253.9686658249038
 21
-176.1690333075105
 31
0.0
 11
254.5422380769995
 21
-176.1302176580699
 31
0.0
 11
255.1153334599994
 21
-176.084905208641
 31
0.0
 11
256.0653229889903
 21
-176.00275853297
 31
0.0
 11
257.0155371033943
 21
-175.9225785243341
 31
0.0
 11
257.7346833657493
 21
-175.8702311487044
 31
0.0
 11
258.4544964555344
 21
-175.8281494332149
 31
0.0
 11
259.1749297758963
 21
-175.7984386098212
 31
0.0
 11
259.6832939269534
 21
-175.7860864358509
 31
0.0
 11
260.1917975165814
 21
-175.7817928862179
 31
0.0
 11
260.700294724163
 21
-175.7864178324188
 31
0.0
 11
261.2086397290814
 21
-175.8008211459512
 31
0.0
 11
261.7502815247638
 21
-175.8279192902709
 31
0.0
 11
262.2910566095029
 21
-175.8681568990713
 31
0.0
 11
262.8304371033943
 21
-175.9225785243341
 31
0.0
 11
263.3092926384998
 21
-175.9831915597865
 31
0.0
 11
263.7870048343168
 21
-176.0527921674136
 31
0.0
 11
264.2639549385378
 21
-176.1282911285469
 31
0.0
 11
264.7405241988554
 21
-176.2065992245182
 31
0.0
 11
265.2437817138969
 21
-176.2890800075529
 31
0.0
 11
265.7474281311037
 21
-176.3685328780276
 31
0.0
 11
266.2518519023574
 21
-176.4422422577946
 31
0.0
 11
266.7574414795391
 21
-176.507492568706
 31
0.0
 11
267.2281393152409
 21
-176.5584246481135
 31
0.0
 11
267.6998934971984
 21
-176.5993294007186
 31
0.0
 11
268.17242057629
 21
-176.629812226224
 31
0.0
 11
268.6454371033942
 21
-176.6494785243341
 31
0.0
 11
269.1611672426745
 21
-176.6585246009308
 31
0.0
 11
269.6770143089173
 21
-176.6561090053921
 31
0.0
 11
270.1928505982127
 21
-176.644083670965
 31
0.0
 11
270.708548406651
 21
-176.6243005308956
 31
0.0
 11
271.2239800303231
 21
-176.598611518431
 31
0.0
 11
272.1112050184269
 21
-176.5449979818425
 31
0.0
 11
272.997706454029
 21
-176.4834727255989
 31
0.0
 11
273.8839299997911
 21
-176.4181577020272
 31
0.0
 11
274.5603047359137
 21
-176.3686725651158
 31
0.0
 11
275.2369746208912
 21
-176.3233298472999
 31
0.0
 11
275.9141371033943
 21
-176.2860785243342
 31
0.0
 11
276.4090178716421
 21
-176.2661639856285
 31
0.0
 11
276.9041566802621
 21
-176.2536412955044
 31
0.0
 11
277.39944360804
 21
-176.2494818717391
 31
0.0
 11
277.894768733762
 21
-176.2546571321101
 31
0.0
 11
278.2664488860863
 21
-176.2653433834529
 31
0.0
 11
278.6378566609732
 21
-176.2827559958594
 31
0.0
 11
279.0087600814548
 21
-176.3078160825585
 31
0.0
 11
279.3789271705633
 21
-176.3414447567791
 31
0.0
 11
279.6787297715431
 21
-176.375787110926
 31
0.0
 11
279.9776233429814
 21
-176.4174948950661
 31
0.0
 11
280.2753371033943
 21
-176.4676785243341
 31
0.0
 11
280.4595444982218
 21
-176.5037898030424
 31
0.0
 11
280.6426689024684
 21
-176.5448826435255
 31
0.0
 11
280.8241874417798
 21
-176.5922370718788
 31
0.0
 11
281.0035772418022
 21
-176.6471331141981
 31
0.0
 11
281.1638904038496
 21
-176.7044482257854
 31
0.0
 11
281.3211445162884
 21
-176.7696249947383
 31
0.0
 11
281.4744609788263
 21
-176.843270952586
 31
0.0
 11
281.6243401002556
 21
-176.9256776980295
 31
0.0
 11
281.7715371033944
 21
-177.012878524334
 31
0.0
  0
ARC
  5
DAA
330
1F
100
AcDbEntity
  8
0
  6
Continuous
 62
     7
100
AcDbCircle
 10
272.7716371033943
 20
-165.4580785243352
 30
0.0
 40
3.5
100
AcDbArc
 50
270.0
 51
90.0
  0
ARC
  5
DAB
330
1F
100
AcDbEntity
  8
0
  6
Continuous
 62
     7
100
AcDbCircle
 10
271.7716371023944
 20
-165.458378523334
 30
0.0
 40
10.00000000099999
100
AcDbArc
 50
359.99999999427
 51
89.99885407868044
  0
LINE
  5
DAC
330
1F
100
AcDbEntity
  8
0
  6
DASH_CENTER
 62
    30
100
AcDbLine
 10
279.3390371033943
 20
-165.4580785243352
 30
0.0
 11
243.4760371033942
 21
-165.4580785243352
 31
0.0
  0
ARC
  5
DAE
330
1F
100
AcDbEntity
  8
0
  6
Continuous
 62
     7
100
AcDbCircle
 10
252.7716371033942
 20
-165.4580785243352
 30
0.0
 40
3.5
100
AcDbArc
 50
90.0
 51
270.0
  0
LINE
  5
DAF
330
1F
100
AcDbEntity
  8
0
  6
DASH_CENTER
 62
    30
100
AcDbLine
 10
262.7716371033943
 20
-157.8611785243352
 30
0.0
 11
262.7716371033943
 21
-173.4836785243341
 31
0.0
  0
LINE
  5
DB0
330
1F
100
AcDbEntity
  8
0
  6
Continuous
 62
     7
100
AcDbLine
 10
252.7716371033942
 20
-168.9580785243352
 30
0.0
 11
272.7716371033943
 21
-168.9580785243352
 31
0.0
  0
POINT
  5
DB1
330
1F
100
AcDbEntity
  8
0
 62
     2
100
AcDbPoint
 10
249.2716371033944
 20
-163.1130785243341
 30
0.0
  0
LINE
  5
DB2
330
1F
100
AcDbEntity
  8
0
  6
Continuous
 62
     7
100
AcDbLine
 10
243.5684371033942
 20
-155.4580785243352
 30
0.0
 11
271.7718371033943
 21
-155.4580785243352
 31
0.0
  0
LINE
  5
DB3
330
1F
100
AcDbEntity
  8
0
  6
Continuous
 62
     7
100
AcDbLine
 10
252.7716371033942
 20
-161.9580785243352
 30
0.0
 11
272.7716371033943
 21
-161.9580785243352
 31
0.0
  0
LINE
  5
DB9
330
1F
100
AcDbEntity
  8
0
  6
Continuous
 62
     7
100
AcDbLine
 10
281.7716371033943
 20
-165.4583785243342
 30
0.0
 11
281.7716371033943
 21
-177.0129785243341
 31
0.0
  0
POINT
  5
DBA
330
1F
100
AcDbEntity
  8
0
 62
     2
100
AcDbPoint
 10
276.2716371033943
 20
-163.1130785243341
 30
0.0
  0
LINE
  5
DC2
330
1F
100
AcDbEntity
  8
0
  6
Continuous
 62
     7
100
AcDbLine
 10
278.2005371033942
 20
-51.96043727669007
 30
0.0
 11
268.7904371033943
 21
-34.98413727669003
 31
0.0
  0
LINE
  5
DC5
330
1F
100
AcDbEntity
  8
0
  6
DASH_CENTER
 62
    30
100
AcDbLine
 10
262.7718371033943
 20
-49.74753727669008
 30
0.0
 11
262.7718371033943
 21
-64.32243727669015
 31
0.0
  0
ARC
  5
DC8
330
1F
100
AcDbEntity
  8
0
  6
Continuous
 62
     7
100
AcDbCircle
 10
279.9496588902556
 20
-50.99059121347021
 30
0.0
 40
2.0000460711596
100
AcDbArc
 50
209.0034224157441
 51
270.0051053127534
  0
LINE
  5
DC9
330
1F
100
AcDbEntity
  8
0
  6
Continuous
 62
     7
100
AcDbLine
 10
281.7716371033943
 20
-52.99063727669
 30
0.0
 11
279.9498371033943
 21
-52.99063727669
 31
0.0
  0
LINE
  5
DCA
330
1F
100
AcDbEntity
  8
0
  6
Continuous
 62
     7
100
AcDbLine
 10
281.7716371033943
 20
-52.99063727669
 30
0.0
 11
281.7716371033943
 21
-57.19063727669003
 31
0.0
  0
ARC
  5
DD0
330
1F
100
AcDbEntity
  8
0
  6
Continuous
 62
     7
100
AcDbCircle
 10
260.044318670714
 20
-39.8322346537544
 30
0.0
 40
10.00001925246431
100
AcDbArc
 50
28.99994654985615
 51
134.8026316169925
  0
CIRCLE
  5
DD1
330
1F
100
AcDbEntity
  8
0
  6
Continuous
 62
     7
100
AcDbCircle
 10
249.9054371033941
 20
-29.32413727669017
 30
0.0
 40
3.5
  0
CIRCLE
  5
DD2
330
1F
100
AcDbEntity
  8
0
  6
Continuous
 62
     7
100
AcDbCircle
 10
249.9054371033941
 20
-29.32413727669017
 30
0.0
 40
2.0
  0
CIRCLE
  5
DD3
330
1F
100
AcDbEntity
  8
0
  6
Continuous
 62
    30
100
AcDbCircle
 10
249.9054371033941
 20
-29.32413727669017
 30
0.0
 40
1.599999999999909
  0
ARC
  5
DD4
330
1F
100
AcDbEntity
  8
0
  6
Continuous
 62
    30
100
AcDbCircle
 10
206.771727343063
 20
13.80925306510317
 30
0.0
 40
60.99996143380689
100
AcDbArc
 50
309.685959318036
 51
320.2607060817574
  0
LINE
  5
DD5
330
1F
100
AcDbEntity
  8
0
  6
Continuous
 62
    30
100
AcDbLine
 10
245.6538371033943
 20
-25.07243727669015
 30
0.0
 11
254.9195371033943
 21
-34.33813727669007
 31
0.0
  0
LINE
  5
DD6
330
1F
100
AcDbEntity
  8
0
  6
Continuous
 62
     7
100
AcDbLine
 10
247.0477371033943
 20
-26.46653727669013
 30
0.0
 11
250.9514371033943
 21
-25.42033727669013
 31
0.0
  0
LINE
  5
DD7
330
1F
100
AcDbEntity
  8
0
  6
Continuous
 62
     7
100
AcDbLine
 10
252.7632371033944
 20
-32.18183727669019
 30
0.0
 11
248.8594371033943
 21
-33.22803727669019
 31
0.0
  0
LINE
  5
DD8
330
1F
100
AcDbEntity
  8
0
  6
Continuous
 62
     7
100
AcDbLine
 10
248.8594371033943
 20
-33.22803727669019
 30
0.0
 11
245.9934371033944
 21
-30.37253727669007
 31
0.0
  0
LINE
  5
DD9
330
1F
100
AcDbEntity
  8
0
  6
Continuous
 62
     7
100
AcDbLine
 10
245.9934371033944
 20
-30.37253727669007
 30
0.0
 11
247.0477371033943
 21
-26.46653727669013
 31
0.0
  0
LINE
  5
DDA
330
1F
100
AcDbEntity
  8
0
  6
Continuous
 62
     7
100
AcDbLine
 10
250.9514371033943
 20
-25.42033727669013
 30
0.0
 11
253.8174371033942
 21
-28.2760372766902
 31
0.0
  0
LINE
  5
DDB
330
1F
100
AcDbEntity
  8
0
  6
Continuous
 62
     7
100
AcDbLine
 10
253.8174371033942
 20
-28.2760372766902
 30
0.0
 11
252.7632371033944
 21
-32.18183727669019
 31
0.0
  0
ARC
  5
DDC
330
1F
100
AcDbEntity
  8
0
  6
Continuous
 62
     7
100
AcDbCircle
 10
206.7715333880872
 20
13.80935375376933
 30
0.0
 40
61.24992742073171
100
AcDbArc
 50
329.5230100163629
 51
345.4769699885429
  0
ARC
  5
DDD
330
1F
100
AcDbEntity
  8
0
  6
Continuous
 62
     7
100
AcDbCircle
 10
206.7716082527213
 20
13.80953449134845
 30
0.0
 40
64.24995274924658
100
AcDbArc
 50
329.897494599821
 51
345.1021206038895
  0
LINE
  5
DDE
330
1F
100
AcDbEntity
  8
0
  6
Continuous
 62
     7
100
AcDbLine
 10
259.5586371033943
 20
-17.25603727668999
 30
0.0
 11
262.3561371033943
 21
-18.41493727669012
 31
0.0
  0
LINE
  5
DDF
330
1F
100
AcDbEntity
  8
0
  6
Continuous
 62
     7
100
AcDbLine
 10
266.0643371033943
 20
-1.550237276690039
 30
0.0
 11
268.8617371033943
 21
-2.70893727668999
 31
0.0
  0
ARC
  5
DEA
330
1F
100
AcDbEntity
  8
0
  6
Continuous
 62
     7
100
AcDbCircle
 10
206.7718371033943
 20
13.80936272330996
 30
0.0
 40
65.59999999999991
100
AcDbArc
 50
359.9998253177453
 51
90.0
  0
ARC
  5
DEB
330
1F
100
AcDbEntity
  8
0
  6
Continuous
 62
     7
100
AcDbCircle
 10
239.0207198081784
 20
20.80934127139009
 30
0.0
 40
2.99997854812998
100
AcDbArc
 50
270.0003303166531
 51
12.24595422833336
  0
ARC
  5
DEC
330
1F
100
AcDbEntity
  8
0
  6
Continuous
 62
     7
100
AcDbCircle
 10
239.0206283593289
 20
6.80937356920802
 30
0.0
 40
2.999989154114688
100
AcDbArc
 50
347.7523426735082
 51
89.99983300004897
  0
ARC
  5
DED
330
1F
100
AcDbEntity
  8
0
  6
Continuous
 62
     7
100
AcDbCircle
 10
206.7714764809003
 20
13.80942334633552
 30
0.0
 40
49.9999998152764
100
AcDbArc
 50
16.05695647323472
 51
73.94254121787837
  0
ARC
  5
DEE
330
1F
100
AcDbEntity
  8
0
  6
Continuous
 62
     7
100
AcDbCircle
 10
206.7715093794288
 20
13.8093904474769
 30
0.0
 40
35.99994802021878
100
AcDbArc
 50
12.24655889346617
 51
77.75302508013631
  0
ARC
  5
DEF
330
1F
100
AcDbEntity
  8
0
  6
Continuous
 62
     7
100
AcDbCircle
 10
206.77151789332
 20
13.80938193349757
 30
0.0
 40
40.99999039864829
100
AcDbArc
 50
9.154069650863132
 51
80.84559286847444
  0
ARC
  5
DF0
330
1F
100
AcDbEntity
  8
0
  6
Continuous
 62
     7
100
AcDbCircle
 10
206.7710829580735
 20
13.80921686882221
 30
0.0
 40
66.39993552563985
100
AcDbArc
 50
27.46991300344975
 51
62.52988442522731
  0
LINE
  5
DF1
330
1F
100
AcDbEntity
  8
0
  6
DASH_CENTER
 62
    30
100
AcDbLine
 10
281.2538805525644
 20
13.80916272331001
 30
0.0
 11
113.6835909986223
 21
13.80916272331001
 31
0.0
  0
LINE
  5
DF2
330
1F
100
AcDbEntity
  8
0
  6
Continuous
 62
     7
100
AcDbLine
 10
257.2890371033943
 20
17.80936272330996
 30
0.0
 11
228.2077371033943
 21
17.80936272330996
 31
0.0
  0
LINE
  5
DF3
330
1F
100
AcDbEntity
  8
0
  6
Continuous
 62
     7
100
AcDbLine
 10
257.2889371033943
 20
9.809362723309959
 30
0.0
 11
228.2075371033943
 21
9.809362723309959
 31
0.0
  0
LINE
  5
DFA
330
1F
100
AcDbEntity
  8
0
  6
DASH_CENTER
 62
    30
100
AcDbLine
 10
-10.63799231051756
 20
25.18886272330997
 30
0.0
 11
-10.63799231051756
 21
1.636362723309958
 31
0.0
  0
ARC
  5
DFB
330
1F
100
AcDbEntity
  8
0
  6
Continuous
 62
     7
100
AcDbCircle
 10
-10.63799231051756
 20
13.80896272330982
 30
0.0
 40
6.999999999999997
100
AcDbArc
 50
0.0
 51
90.0
  0
ARC
  5
DFC
330
1F
100
AcDbEntity
  8
0
  6
Continuous
 62
     7
100
AcDbCircle
 10
-10.63799231051756
 20
13.80896272330982
 30
0.0
 40
6.999999999999997
100
AcDbArc
 50
90.0
 51
0.0
  0
LINE
  5
DFD
330
1F
100
AcDbEntity
  8
0
  6
Continuous
 62
     7
100
AcDbLine
 10
-14.24349231051769
 20
19.80896272330983
 30
0.0
 11
-7.032392310517707
 21
19.80896272330983
 31
0.0
  0
POINT
  5
DFE
330
1F
100
AcDbEntity
  8
0
 62
     2
100
AcDbPoint
 10
-17.63799231051757
 20
12.63646272330992
 30
0.0
  0
POINT
  5
DFF
330
1F
100
AcDbEntity
  8
0
 62
     2
100
AcDbPoint
 10
-3.637992310517573
 20
12.63646272330992
 30
0.0
  0
ARC
  5
E06
330
1F
100
AcDbEntity
  8
0
  6
Continuous
 62
     7
100
AcDbCircle
 10
206.7718371033943
 20
13.80936272330996
 30
0.0
 40
65.59999999999991
100
AcDbArc
 50
90.0
 51
180.0
  0
ARC
  5
E07
330
1F
100
AcDbEntity
  8
0
  6
Continuous
 62
     7
100
AcDbCircle
 10
206.7718977258884
 20
13.80942334633554
 30
0.0
 40
49.9999998152764
100
AcDbArc
 50
106.0574587821216
 51
163.9430435267652
  0
ARC
  5
E08
330
1F
100
AcDbEntity
  8
0
  6
Continuous
 62
     7
100
AcDbCircle
 10
206.7717067930767
 20
13.80930874732614
 30
0.0
 40
64.24999600591497
100
AcDbArc
 50
104.8975903814509
 51
120.102171659447
  0
ARC
  5
E09
330
1F
100
AcDbEntity
  8
0
  6
Continuous
 62
     7
100
AcDbCircle
 10
206.7716946609245
 20
13.80930372205373
 30
0.0
 40
61.25004427415722
100
AcDbArc
 50
104.5228727180707
 51
120.4768893228295
  0
ARC
  5
E0A
330
1F
100
AcDbEntity
  8
0
  6
Continuous
 62
     7
100
AcDbCircle
 10
206.7718148277227
 20
13.80934044747681
 30
0.0
 40
36.0000074887354
100
AcDbArc
 50
102.2470358064303
 51
167.7533802199663
  0
ARC
  5
E0B
330
1F
100
AcDbEntity
  8
0
  6
Continuous
 62
     7
100
AcDbCircle
 10
206.7718563134688
 20
13.80938193349757
 30
0.0
 40
40.99999039864829
100
AcDbArc
 50
99.15440713152555
 51
170.8459303491368
  0
LINE
  5
E0C
330
1F
100
AcDbEntity
  8
0
  6
Continuous
 62
     7
100
AcDbLine
 10
156.2544371033944
 20
9.809362723309959
 30
0.0
 11
185.3357371033943
 21
9.809362723309959
 31
0.0
  0
LINE
  5
E0D
330
1F
100
AcDbEntity
  8
0
  6
Continuous
 62
     7
100
AcDbLine
 10
179.7348371033943
 20
3.809362723309959
 30
0.0
 11
176.4403371033943
 21
3.809362723309959
 31
0.0
  0
LINE
  5
E0E
330
1F
100
AcDbEntity
  8
0
  6
Continuous
 62
     7
100
AcDbLine
 10
179.7345371033943
 20
23.80936272330996
 30
0.0
 11
176.4401371033943
 21
23.80936272330996
 31
0.0
  0
LINE
  5
E0F
330
1F
100
AcDbEntity
  8
0
  6
Continuous
 62
     7
100
AcDbLine
 10
156.2543371033944
 20
17.80936272330996
 30
0.0
 11
185.3356371033942
 21
17.80936272330996
 31
0.0
  0
ARC
  5
E10
330
1F
100
AcDbEntity
  8
0
  6
Continuous
 62
     7
100
AcDbCircle
 10
206.7715371033943
 20
13.80886272330986
 30
0.0
 40
68.10001821945423
100
AcDbArc
 50
170.0830676042469
 51
189.9169323957529
  0
ARC
  5
E11
330
1F
100
AcDbEntity
  8
0
  6
Continuous
 62
     7
100
AcDbCircle
 10
135.6885371033943
 20
1.808862723309859
 30
0.0
 40
9.000000000000001
100
AcDbArc
 50
90.0
 51
180.0
  0
ARC
  5
E12
330
1F
100
AcDbEntity
  8
0
  6
Continuous
 62
     7
100
AcDbCircle
 10
132.6885371033943
 20
1.808862723309859
 30
0.0
 40
9.000000000000001
100
AcDbArc
 50
90.0
 51
180.0
  0
ARC
  5
E13
330
1F
100
AcDbEntity
  8
0
  6
Continuous
 62
     7
100
AcDbCircle
 10
129.6885371033943
 20
1.808862723309859
 30
0.0
 40
9.000000000000001
100
AcDbArc
 50
90.0
 51
180.0
  0
ARC
  5
E14
330
1F
100
AcDbEntity
  8
0
  6
Continuous
 62
     7
100
AcDbCircle
 10
129.6885371033943
 20
1.808862723309859
 30
0.0
 40
12.0
100
AcDbArc
 50
90.0
 51
180.0
  0
ARC
  5
E15
330
1F
100
AcDbEntity
  8
0
  6
Continuous
 62
     7
100
AcDbCircle
 10
129.6885371033943
 20
1.808862723309859
 30
0.0
 40
15.0
100
AcDbArc
 50
90.0
 51
180.0
  0
POINT
  5
E17
330
1F
100
AcDbEntity
  8
0
 62
     2
100
AcDbPoint
 10
120.4312371033942
 20
13.80886272330985
 30
0.0
  0
LINE
  5
E18
330
1F
100
AcDbEntity
  8
0
  6
Continuous
 62
     7
100
AcDbLine
 10
138.7376371033942
 20
10.80886272330985
 30
0.0
 11
129.6885371033943
 21
10.80886272330985
 31
0.0
  0
LINE
  5
E19
330
1F
100
AcDbEntity
  8
0
  6
Continuous
 62
     7
100
AcDbLine
 10
142.063037103394
 20
0.4663627233098798
 30
0.0
 11
142.523137103394
 21
0.5610627233099894
 31
0.0
  0
LINE
  5
E1A
330
1F
100
AcDbEntity
  8
0
  6
Continuous
 62
     7
100
AcDbLine
 10
138.7376371033942
 20
16.80886272330986
 30
0.0
 11
129.6885371033943
 21
16.80886272330986
 31
0.0
  0
LINE
  5
E1B
330
1F
100
AcDbEntity
  8
0
  6
Continuous
 62
     7
100
AcDbLine
 10
129.6885371033943
 20
13.80886272330986
 30
0.0
 11
138.6715371033941
 21
13.80886272330986
 31
0.0
  0
POINT
  5
E1C
330
1F
100
AcDbEntity
  8
0
 62
     2
100
AcDbPoint
 10
141.1715371033943
 20
14.9816627233099
 30
0.0
  0
ARC
  5
E1D
330
1F
100
AcDbEntity
  8
0
  6
Continuous
 62
     7
100
AcDbCircle
 10
141.6591455127939
 20
25.19266844163075
 30
0.0
 40
2.000000863723867
100
AcDbArc
 50
78.34923814445597
 51
170.081505978319
  0
LINE
  5
E1E
330
1F
100
AcDbEntity
  8
0
  6
Continuous
 62
     7
100
AcDbLine
 10
142.523137103394
 20
27.05646272331001
 30
0.0
 11
142.063037103394
 21
27.15136272330982
 31
0.0
  0
ARC
  5
E1F
330
1F
100
AcDbEntity
  8
0
  6
Continuous
 62
     7
100
AcDbCircle
 10
176.440111964585
 20
26.80940084678145
 30
0.0
 40
3.000038123576837
100
AcDbArc
 50
156.8016388135021
 51
270.0004801097907
  0
ARC
  5
E20
330
1F
100
AcDbEntity
  8
0
  6
Continuous
 62
     7
100
AcDbCircle
 10
161.6052571489038
 20
26.80933609377301
 30
0.0
 40
2.999973370530033
100
AcDbArc
 50
163.9419379396014
 51
269.9996171555715
  0
ARC
  5
E21
330
1F
100
AcDbEntity
  8
0
  6
Continuous
 62
     7
100
AcDbCircle
 10
156.2544381340514
 20
6.809363906644049
 30
0.0
 40
2.999998816666088
100
AcDbArc
 50
90.00001968410671
 51
187.8897366870043
  0
ARC
  5
E22
330
1F
100
AcDbEntity
  8
0
  6
Continuous
 62
     7
100
AcDbCircle
 10
156.25434411137
 20
20.80935467743871
 30
0.0
 40
2.999991954136937
100
AcDbArc
 50
172.1120409445212
 51
269.999866157162
  0
ARC
  5
E23
330
1F
100
AcDbEntity
  8
0
  6
Continuous
 62
     7
100
AcDbCircle
 10
163.3320443952465
 20
6.809356512507159
 30
0.0
 40
3.000006210811652
100
AcDbArc
 50
9.15476190739232
 51
90.000139263832
  0
ARC
  5
E24
330
1F
100
AcDbEntity
  8
0
  6
Continuous
 62
     7
100
AcDbCircle
 10
164.7360987914062
 20
0.8093909773986903
 30
0.0
 40
2.999971746155912
100
AcDbArc
 50
17.18512490280078
 51
89.99926828803291
  0
LINE
  5
E25
330
1F
100
AcDbEntity
  8
0
  6
Continuous
 62
     7
100
AcDbLine
 10
164.7361371033944
 20
3.809362723309959
 30
0.0
 11
161.6054371033943
 21
3.809362723309959
 31
0.0
  0
ARC
  5
E26
330
1F
100
AcDbEntity
  8
0
  6
Continuous
 62
     7
100
AcDbCircle
 10
174.5227458474594
 20
6.809373569207927
 30
0.0
 40
2.999989154114767
100
AcDbArc
 50
90.00016699994938
 51
192.2476573264891
  0
ARC
  5
E27
330
1F
100
AcDbEntity
  8
0
  6
Continuous
 62
     7
100
AcDbCircle
 10
163.3320443952465
 20
20.80936893411276
 30
0.0
 40
3.00000621081166
100
AcDbArc
 50
269.9998607361679
 51
350.8452380926076
  0
ARC
  5
E28
330
1F
100
AcDbEntity
  8
0
  6
Continuous
 62
     7
100
AcDbCircle
 10
174.5226543986101
 20
20.80934127139017
 30
0.0
 40
2.999978548130048
100
AcDbArc
 50
167.7540457716684
 51
269.9996696833483
  0
ARC
  5
E29
330
1F
100
AcDbEntity
  8
0
  6
Continuous
 62
     7
100
AcDbCircle
 10
206.7718910793778
 20
13.8094930336268
 30
0.0
 40
64.24999600591518
100
AcDbArc
 50
149.8978283405525
 51
165.1024096185482
  0
ARC
  5
E2A
330
1F
100
AcDbEntity
  8
0
  6
Continuous
 62
     7
100
AcDbCircle
 10
206.7717772765859
 20
13.80921828998957
 30
0.0
 40
61.25000118253508
100
AcDbArc
 50
149.5227755770059
 51
165.476839626704
  0
LINE
  5
E2B
330
1F
100
AcDbEntity
  8
0
  6
Continuous
 62
     7
100
AcDbLine
 10
147.4791371033944
 20
29.16896272330996
 30
0.0
 11
144.681637103394
 21
30.3276627233099
 31
0.0
  0
LINE
  5
E2C
330
1F
100
AcDbEntity
  8
0
  6
Continuous
 62
     7
100
AcDbLine
 10
153.9846371033943
 20
44.87476272330989
 30
0.0
 11
151.1872371033944
 21
46.03346272330987
 31
0.0
  0
ARC
  5
E2D
330
1F
100
AcDbEntity
  8
0
  6
Continuous
 62
     7
100
AcDbCircle
 10
164.7359635646548
 20
26.80918223711645
 30
0.0
 40
3.000019513923138
100
AcDbArc
 50
269.999494630434
 51
342.8142023115089
  0
LINE
  5
E2E
330
1F
100
AcDbEntity
  8
0
  6
Continuous
 62
     7
100
AcDbLine
 10
164.735937103394
 20
23.80936272330996
 30
0.0
 11
161.6052371033943
 21
23.80936272330996
 31
0.0
  0
CIRCLE
  5
E2F
330
1F
100
AcDbEntity
  8
0
  6
Continuous
 62
     7
100
AcDbCircle
 10
163.6382371033944
 20
56.94296272330984
 30
0.0
 40
3.5
  0
ARC
  5
E30
330
1F
100
AcDbEntity
  8
0
  6
Continuous
 62
    30
100
AcDbCircle
 10
206.7721919790293
 20
13.80971727321538
 30
0.0
 40
60.99999336084682
100
AcDbArc
 50
129.6863556624168
 51
140.2610301441927
  0
LINE
  5
E31
330
1F
100
AcDbEntity
  8
0
  6
Continuous
 62
    30
100
AcDbLine
 10
167.8898371033943
 20
52.69126272330982
 30
0.0
 11
158.6242371033943
 21
61.95686272330999
 31
0.0
  0
LINE
  5
E32
330
1F
100
AcDbEntity
  8
0
  6
Continuous
 62
     7
100
AcDbLine
 10
162.5922371033944
 20
53.0391627233098
 30
0.0
 11
159.7262371033944
 21
55.89486272330987
 31
0.0
  0
LINE
  5
E33
330
1F
100
AcDbEntity
  8
0
  6
Continuous
 62
     7
100
AcDbLine
 10
159.7262371033944
 20
55.89486272330987
 30
0.0
 11
160.7805371033944
 21
59.80056272330989
 31
0.0
  0
CIRCLE
  5
E34
330
1F
100
AcDbEntity
  8
0
  6
Continuous
 62
     7
100
AcDbCircle
 10
163.6382371033944
 20
56.94296272330984
 30
0.0
 40
2.0
  0
CIRCLE
  5
E35
330
1F
100
AcDbEntity
  8
0
  6
Continuous
 62
    30
100
AcDbCircle
 10
163.6382371033944
 20
56.94296272330984
 30
0.0
 40
1.599999999999909
  0
LINE
  5
E36
330
1F
100
AcDbEntity
  8
0
  6
Continuous
 62
     7
100
AcDbLine
 10
164.6842371033943
 20
60.84676272330987
 30
0.0
 11
167.550237103394
 21
57.99126272330999
 31
0.0
  0
LINE
  5
E37
330
1F
100
AcDbEntity
  8
0
  6
Continuous
 62
     7
100
AcDbLine
 10
167.550237103394
 20
57.99126272330999
 30
0.0
 11
166.4959371033942
 21
54.08526272330982
 31
0.0
  0
LINE
  5
E38
330
1F
100
AcDbEntity
  8
0
  6
Continuous
 62
     7
100
AcDbLine
 10
166.4959371033942
 20
54.08526272330982
 30
0.0
 11
162.5922371033944
 21
53.0391627233098
 31
0.0
  0
LINE
  5
E39
330
1F
100
AcDbEntity
  8
0
  6
Continuous
 62
     7
100
AcDbLine
 10
160.7805371033944
 20
59.80056272330989
 30
0.0
 11
164.6842371033943
 21
60.84676272330987
 31
0.0
  0
LINE
  5
E3A
330
1F
100
AcDbEntity
  8
0
  6
Continuous
 62
     7
100
AcDbLine
 10
175.7064371033943
 20
66.59646272330997
 30
0.0
 11
174.5476371033942
 21
69.39406272330984
 31
0.0
  0
ARC
  5
E3B
330
1F
100
AcDbEntity
  8
0
  6
Continuous
 62
     7
100
AcDbCircle
 10
219.7716489674937
 20
44.14067054608614
 30
0.0
 40
3.000011864109541
100
AcDbArc
 50
66.79880036545855
 51
180.0001494034276
  0
ARC
  5
E3C
330
1F
100
AcDbEntity
  8
0
  6
Continuous
 62
     7
100
AcDbCircle
 10
213.7716751192661
 20
46.05839337310995
 30
0.0
 40
3.000038016028265
100
AcDbArc
 50
77.75350015796483
 51
180.0005853606426
  0
ARC
  5
E3D
330
1F
100
AcDbEntity
  8
0
  6
Continuous
 62
     7
100
AcDbCircle
 10
199.7715990875227
 20
46.05839337310999
 30
0.0
 40
3.000038016028288
100
AcDbArc
 50
359.9994146393565
 51
102.2464998420401
  0
ARC
  5
E3E
330
1F
100
AcDbEntity
  8
0
  6
Continuous
 62
     7
100
AcDbCircle
 10
193.771644936757
 20
44.1406575581385
 30
0.0
 40
2.999992166641773
100
AcDbArc
 50
0.0000986477669626
 51
113.1996922744276
  0
LINE
  5
E3F
330
1F
100
AcDbEntity
  8
0
  6
Continuous
 62
     7
100
AcDbLine
 10
210.7716371033943
 20
64.32676272330991
 30
0.0
 11
210.7716371033943
 21
35.24516272330993
 31
0.0
  0
LINE
  5
E40
330
1F
100
AcDbEntity
  8
0
  6
Continuous
 62
     7
100
AcDbLine
 10
202.7716371033942
 20
64.32676272330991
 30
0.0
 11
202.7716371033942
 21
35.24516272330993
 31
0.0
  0
CIRCLE
  5
E41
330
1F
100
AcDbEntity
  8
0
  6
Continuous
 62
     7
100
AcDbCircle
 10
206.7715371033943
 20
13.80936272330996
 30
0.0
 40
7.75
  0
CIRCLE
  5
E42
330
1F
100
AcDbEntity
  8
0
  6
Continuous
 62
     7
100
AcDbCircle
 10
206.7715371033943
 20
13.80916272331001
 30
0.0
 40
7.0
  0
CIRCLE
  5
E43
330
1F
100
AcDbEntity
  8
0
  6
Continuous
 62
     7
100
AcDbCircle
 10
206.7715371033943
 20
13.80916272331001
 30
0.0
 40
7.399999999999892
  0
LINE
  5
E44
330
1F
100
AcDbEntity
  8
0
  6
Continuous
 62
     7
100
AcDbLine
 10
210.3770371033943
 20
19.80916272331001
 30
0.0
 11
203.1659371033943
 21
19.80916272331001
 31
0.0
  0
ARC
  5
E45
330
1F
100
AcDbEntity
  8
0
  6
Continuous
 62
     7
100
AcDbCircle
 10
206.7718675399029
 20
13.80939293176075
 30
0.0
 40
27.00000906792737
100
AcDbArc
 50
103.0624040874493
 51
166.50667171988
  0
ARC
  5
E46
330
1F
100
AcDbEntity
  8
0
  6
Continuous
 62
     7
100
AcDbCircle
 10
179.7347646006164
 20
0.80940831242164
 30
0.0
 40
2.999954411764448
100
AcDbArc
 50
25.67874114391007
 51
89.99861527789937
  0
ARC
  5
E47
330
1F
100
AcDbEntity
  8
0
  6
Continuous
 62
     7
100
AcDbCircle
 10
177.5997430054157
 20
6.809358069995379
 30
0.0
 40
3.000004653320366
100
AcDbArc
 50
13.49346889057706
 51
90.00011272013136
  0
ARC
  5
E48
330
1F
100
AcDbEntity
  8
0
  6
Continuous
 62
     7
100
AcDbCircle
 10
185.3357466302386
 20
6.809355812522849
 30
0.0
 40
3.000006910802231
100
AcDbArc
 50
18.08544284543705
 51
90.00018194890406
  0
ARC
  5
E49
330
1F
100
AcDbEntity
  8
0
  6
Continuous
 62
     7
100
AcDbCircle
 10
177.5997430054157
 20
20.80936737662454
 30
0.0
 40
3.000004653320381
100
AcDbArc
 50
269.9998872798685
 51
346.5065311094228
  0
ARC
  5
E4A
330
1F
100
AcDbEntity
  8
0
  6
Continuous
 62
     7
100
AcDbCircle
 10
185.3356252345803
 20
20.80935411323838
 30
0.0
 40
2.999991389951903
100
AcDbArc
 50
270.000226678297
 51
341.9167812965515
  0
ARC
  5
E4B
330
1F
100
AcDbEntity
  8
0
  6
Continuous
 62
     7
100
AcDbCircle
 10
179.7346079339416
 20
26.80940725764319
 30
0.0
 40
3.000044535169378
100
AcDbArc
 50
269.9986472562761
 51
334.3201766009133
  0
ARC
  5
E4C
330
1F
100
AcDbEntity
  8
0
  6
Continuous
 62
     7
100
AcDbCircle
 10
199.7716301926073
 20
35.2451531964657
 30
0.0
 40
3.000006910802231
100
AcDbArc
 50
288.0854428454365
 51
0.000181948903048
  0
ARC
  5
E4D
330
1F
100
AcDbEntity
  8
0
  6
Continuous
 62
     7
100
AcDbCircle
 10
199.7716324500798
 20
42.9812568212886
 30
0.0
 40
3.000004653320356
100
AcDbArc
 50
283.4934688905761
 51
0.0001127201306419
  0
ARC
  5
E4E
330
1F
100
AcDbEntity
  8
0
  6
Continuous
 62
     7
100
AcDbCircle
 10
193.7716159622534
 20
40.84622909821303
 30
0.0
 40
3.000021141329225
100
AcDbArc
 50
295.6816616606421
 51
0.0006421875222037
  0
LINE
  5
E4F
330
1F
100
AcDbEntity
  8
0
  6
Continuous
 62
     7
100
AcDbLine
 10
196.7716371033944
 20
40.84626272331002
 30
0.0
 11
196.7716371033944
 21
44.14066272331002
 31
0.0
  0
ARC
  5
E50
330
1F
100
AcDbEntity
  8
0
  6
Continuous
 62
     7
100
AcDbCircle
 10
237.1032319382228
 20
26.80935488994726
 30
0.0
 40
2.999992166641743
100
AcDbArc
 50
270.0000986477664
 51
23.19969227442299
  0
ARC
  5
E51
330
1F
100
AcDbEntity
  8
0
  6
Continuous
 62
     7
100
AcDbCircle
 10
206.7714909187877
 20
13.80940856208885
 30
0.0
 40
26.99999740131039
100
AcDbArc
 50
13.49308188037602
 51
76.9375558622622
  0
ARC
  5
E52
330
1F
100
AcDbEntity
  8
0
  6
Continuous
 62
     7
100
AcDbCircle
 10
228.2077489722083
 20
20.80935411323821
 30
0.0
 40
2.999991389951767
100
AcDbArc
 50
198.0832187034456
 51
269.999773321698
  0
ARC
  5
E53
330
1F
100
AcDbEntity
  8
0
  6
Continuous
 62
     7
100
AcDbCircle
 10
228.207593098447
 20
6.809403342205289
 30
0.0
 40
2.999959381427408
100
AcDbArc
 50
89.99915955603745
 51
161.9152156496235
  0
ARC
  5
E54
330
1F
100
AcDbEntity
  8
0
  6
Continuous
 62
     7
100
AcDbCircle
 10
235.943631201373
 20
6.809358069995401
 30
0.0
 40
3.000004653320361
100
AcDbArc
 50
89.99988727986865
 51
166.5065311094231
  0
LINE
  5
E55
330
1F
100
AcDbEntity
  8
0
  6
Continuous
 62
     7
100
AcDbLine
 10
233.8085371033943
 20
3.809362723309959
 30
0.0
 11
237.1030371033944
 21
3.809362723309959
 31
0.0
  0
ARC
  5
E56
330
1F
100
AcDbEntity
  8
0
  6
Continuous
 62
     7
100
AcDbCircle
 10
233.8085379396865
 20
0.8093632491436402
 30
0.0
 40
2.999999474166441
100
AcDbArc
 50
90.00001597200506
 51
154.3207176950611
  0
ARC
  5
E57
330
1F
100
AcDbEntity
  8
0
  6
Continuous
 62
     7
100
AcDbCircle
 10
235.943631201373
 20
20.80936737662451
 30
0.0
 40
3.000004653320361
100
AcDbArc
 50
193.4934688905768
 51
270.0001127201313
  0
ARC
  5
E58
330
1F
100
AcDbEntity
  8
0
  6
Continuous
 62
     7
100
AcDbCircle
 10
213.7716284933226
 20
35.24517459212397
 30
0.0
 40
2.999991389951761
100
AcDbArc
 50
180.0002266783015
 51
251.916781296553
  0
ARC
  5
E59
330
1F
100
AcDbEntity
  8
0
  6
Continuous
 62
     7
100
AcDbCircle
 10
219.7716365775605
 20
40.84626355960204
 30
0.0
 40
2.999999474166461
100
AcDbArc
 50
180.0000159720036
 51
244.3207176950605
  0
ARC
  5
E5A
330
1F
100
AcDbEntity
  8
0
  6
Continuous
 62
     7
100
AcDbCircle
 10
213.7716417567089
 20
42.9812568212886
 30
0.0
 40
3.000004653320368
100
AcDbArc
 50
179.9998872798689
 51
256.5065311094222
  0
LINE
  5
E5B
330
1F
100
AcDbEntity
  8
0
  6
Continuous
 62
     7
100
AcDbLine
 10
216.7716371033943
 20
40.84626272331002
 30
0.0
 11
216.7716371033943
 21
44.14066272331002
 31
0.0
  0
LINE
  5
E5C
330
1F
100
AcDbEntity
  8
0
  6
Continuous
 62
     7
100
AcDbLine
 10
233.8087371033944
 20
23.80936272330996
 30
0.0
 11
237.1032371033943
 21
23.80936272330996
 31
0.0
  0
ARC
  5
E5D
330
1F
100
AcDbEntity
  8
0
  6
Continuous
 62
     7
100
AcDbCircle
 10
233.8087379396863
 20
26.80936219747628
 30
0.0
 40
2.999999474166446
100
AcDbArc
 50
205.6792823049386
 51
269.9999840279949
  0
ARC
  5
E5E
330
1F
100
AcDbEntity
  8
0
  6
Continuous
 62
     7
100
AcDbCircle
 10
193.7716637329313
 20
58.97564267780038
 30
0.0
 40
2.999973370530037
100
AcDbArc
 50
0.0003828444279419
 51
106.0580620603985
  0
LINE
  5
E5F
330
1F
100
AcDbEntity
  8
0
  6
Continuous
 62
     7
100
AcDbLine
 10
196.7716371033944
 20
55.84506272330987
 30
0.0
 11
196.7716371033944
 21
58.97566272330982
 31
0.0
  0
ARC
  5
E60
330
1F
100
AcDbEntity
  8
0
  6
Continuous
 62
     7
100
AcDbCircle
 10
199.7716308925916
 20
57.24885543145767
 30
0.0
 40
3.000006210811633
100
AcDbArc
 50
279.154761907392
 51
0.0001392638310973
  0
ARC
  5
E61
330
1F
100
AcDbEntity
  8
0
  6
Continuous
 62
     7
100
AcDbCircle
 10
193.7716175895394
 20
55.84503626290658
 30
0.0
 40
3.000019514756322
100
AcDbArc
 50
287.185797684534
 51
359.9985955062968
  0
ARC
  5
E62
330
1F
100
AcDbEntity
  8
0
  6
Continuous
 62
     7
100
AcDbCircle
 10
199.7716382867285
 20
64.32676169265289
 30
0.0
 40
2.999998816666055
100
AcDbArc
 50
0.0000196841068792
 51
97.88973668700458
  0
LINE
  5
E63
330
1F
100
AcDbEntity
  8
0
  6
Continuous
 62
     7
100
AcDbLine
 10
191.4123371033943
 20
73.10206272330994
 30
0.0
 11
190.2535371033943
 21
75.89946272330983
 31
0.0
  0
POINT
  5
E64
330
1F
100
AcDbEntity
  8
0
 62
     2
100
AcDbPoint
 10
205.5989371033943
 20
79.40876272331005
 30
0.0
  0
ARC
  5
E65
330
1F
100
AcDbEntity
  8
0
  6
Continuous
 62
     7
100
AcDbCircle
 10
206.7713926700738
 20
13.80942255011838
 30
0.0
 40
61.2500011825351
100
AcDbArc
 50
59.52277557700597
 51
75.47683962670426
  0
ARC
  5
E66
330
1F
100
AcDbEntity
  8
0
  6
Continuous
 62
     7
100
AcDbCircle
 10
206.7715776436284
 20
13.80934593098684
 30
0.0
 40
64.25000886080136
100
AcDbArc
 50
59.89774245286931
 51
75.10223755203575
  0
LINE
  5
E67
330
1F
100
AcDbEntity
  8
0
  6
Continuous
 62
     7
100
AcDbLine
 10
216.7716371033943
 20
55.84506272330987
 30
0.0
 11
216.7716371033943
 21
58.97566272330982
 31
0.0
  0
ARC
  5
E68
330
1F
100
AcDbEntity
  8
0
  6
Continuous
 62
     7
100
AcDbCircle
 10
219.7716418444208
 20
55.84505629487558
 30
0.0
 40
3.000004742485642
100
AcDbArc
 50
180.0017870824406
 51
252.8164094844346
  0
ARC
  5
E69
330
1F
100
AcDbEntity
  8
0
  6
Continuous
 62
     7
100
AcDbCircle
 10
213.7716353600585
 20
57.24886477000871
 30
0.0
 40
2.999998256664968
100
AcDbArc
 50
180.0000390890904
 51
260.8473019798231
  0
ARC
  5
E6A
330
1F
100
AcDbEntity
  8
0
  6
Continuous
 62
     7
100
AcDbCircle
 10
219.7717104738571
 20
58.97564267780037
 30
0.0
 40
2.999973370530029
100
AcDbArc
 50
73.94193793960145
 51
179.9996171555718
  0
ARC
  5
E6B
330
1F
100
AcDbEntity
  8
0
  6
Continuous
 62
     7
100
AcDbCircle
 10
213.7716359200603
 20
64.32676169265285
 30
0.0
 40
2.99999881666605
100
AcDbArc
 50
82.11026331300038
 51
179.9999803158924
  0
LINE
  5
E6C
330
1F
100
AcDbEntity
  8
0
  6
Continuous
 62
     7
100
AcDbLine
 10
237.8369371033943
 20
66.59646272330997
 30
0.0
 11
238.9957371033943
 21
69.39406272330984
 31
0.0
  0
LINE
  5
E6D
330
1F
100
AcDbEntity
  8
0
  6
Continuous
 62
     7
100
AcDbLine
 10
222.1310371033943
 20
73.10206272330994
 30
0.0
 11
223.2898371033943
 21
75.89946272330983
 31
0.0
  0
LINE
  5
E6E
330
1F
100
AcDbEntity
  8
0
  6
Continuous
 62
     7
100
AcDbLine
 10
236.9197371033943
 20
72.07056272330987
 30
0.0
 11
237.2874371033943
 21
72.78126272330997
 31
0.0
  0
ARC
  5
E7F
330
1F
100
AcDbEntity
  8
0
  6
Continuous
 62
     7
100
AcDbCircle
 10
251.9381170570651
 20
26.80933609360771
 30
0.0
 40
2.999973371363211
100
AcDbArc
 50
269.9984729838098
 51
16.05806205910303
  0
ARC
  5
E80
330
1F
100
AcDbEntity
  8
0
  6
Continuous
 62
     7
100
AcDbCircle
 10
257.2890300954185
 20
20.80935467743871
 30
0.0
 40
2.999991954136933
100
AcDbArc
 50
270.0001338428379
 51
7.88795905547865
  0
ARC
  5
E81
330
1F
100
AcDbEntity
  8
0
  6
Continuous
 62
     7
100
AcDbCircle
 10
257.2889360727373
 20
6.809363906644031
 30
0.0
 40
2.999998816666055
100
AcDbArc
 50
352.1102633129959
 51
89.99998031589496
  0
LINE
  5
E82
330
1F
100
AcDbEntity
  8
0
  6
Continuous
 62
     7
100
AcDbLine
 10
248.8072371033943
 20
3.809362723309959
 30
0.0
 11
251.9379371033942
 21
3.809362723309959
 31
0.0
  0
ARC
  5
E83
330
1F
100
AcDbEntity
  8
0
  6
Continuous
 62
     7
100
AcDbCircle
 10
248.8072754153825
 20
0.8093909773986798
 30
0.0
 40
2.999971746155915
100
AcDbArc
 50
90.00073171196708
 51
162.8148750971993
  0
ARC
  5
E84
330
1F
100
AcDbEntity
  8
0
  6
Continuous
 62
     7
100
AcDbCircle
 10
250.2112877667491
 20
6.809405875597429
 30
0.0
 40
2.999956848118216
100
AcDbArc
 50
89.99905772592985
 51
170.8460411028456
  0
ARC
  5
E85
330
1F
100
AcDbEntity
  8
0
  6
Continuous
 62
     7
100
AcDbCircle
 10
250.2112877660428
 20
20.80931957016703
 30
0.0
 40
2.999956847284868
100
AcDbArc
 50
189.1539588831698
 51
269.9990324007694
  0
POINT
  5
E86
330
1F
100
AcDbEntity
  8
0
 62
     2
100
AcDbPoint
 10
272.3714371033943
 20
14.9816627233099
 30
0.0
  0
LINE
  5
E87
330
1F
100
AcDbEntity
  8
0
  6
Continuous
 62
     7
100
AcDbLine
 10
248.8074371033941
 20
23.80936272330996
 30
0.0
 11
251.9380371033942
 21
23.80936272330996
 31
0.0
  0
ARC
  5
E88
330
1F
100
AcDbEntity
  8
0
  6
Continuous
 62
     7
100
AcDbCircle
 10
248.8074106421335
 20
26.8091822371163
 30
0.0
 40
3.000019513923013
100
AcDbArc
 50
197.1857976884892
 51
270.0005053695627
  0
ARC
  5
E89
330
1F
100
AcDbEntity
  8
0
  6
Continuous
 62
     7
100
AcDbCircle
 10
206.771666862877
 20
13.80904946117709
 30
0.0
 40
61.24997582215868
100
AcDbArc
 50
14.52332966132162
 51
30.47731309196958
  0
ARC
  5
E8A
330
1F
100
AcDbEntity
  8
0
  6
Continuous
 62
     7
100
AcDbCircle
 10
206.7714831274106
 20
13.80949303362725
 30
0.0
 40
64.2499960059149
100
AcDbArc
 50
14.89759038145151
 51
30.1021716594472
  0
LINE
  5
E8B
330
1F
100
AcDbEntity
  8
0
  6
Continuous
 62
     7
100
AcDbLine
 10
266.0642371033944
 20
29.16896272330996
 30
0.0
 11
268.8617371033943
 21
30.3276627233099
 31
0.0
  0
LINE
  5
E8C
330
1F
100
AcDbEntity
  8
0
  6
Continuous
 62
     7
100
AcDbLine
 10
259.5586371033943
 20
44.87476272330989
 30
0.0
 11
262.3561371033943
 21
46.03346272330987
 31
0.0
  0
LINE
  5
E8D
330
1F
100
AcDbEntity
  8
0
  6
Continuous
 62
     7
100
AcDbLine
 10
265.7432371033942
 20
44.32546272330999
 30
0.0
 11
265.0327371033943
 21
43.95786272330997
 31
0.0
  0
CIRCLE
  5
E8F
330
1F
100
AcDbEntity
  8
0
  6
Continuous
 62
     7
100
AcDbCircle
 10
249.9054371033941
 20
56.94296272330984
 30
0.0
 40
3.5
  0
CIRCLE
  5
E90
330
1F
100
AcDbEntity
  8
0
  6
Continuous
 62
     7
100
AcDbCircle
 10
249.9054371033941
 20
56.94296272330984
 30
0.0
 40
2.0
  0
CIRCLE
  5
E91
330
1F
100
AcDbEntity
  8
0
  6
Continuous
 62
    30
100
AcDbCircle
 10
249.9054371033941
 20
56.94296272330984
 30
0.0
 40
1.599999999999909
  0
ARC
  5
E92
330
1F
100
AcDbEntity
  8
0
  6
Continuous
 62
    30
100
AcDbCircle
 10
206.7719967150583
 20
13.80920296299996
 30
0.0
 40
61.00003187637693
100
AcDbArc
 50
39.68596544126473
 51
50.26069995853133
  0
LINE
  5
E93
330
1F
100
AcDbEntity
  8
0
  6
Continuous
 62
    30
100
AcDbLine
 10
245.6537371033943
 20
52.69136272330979
 30
0.0
 11
254.9193371033943
 21
61.95696272330996
 31
0.0
  0
LINE
  5
E94
330
1F
100
AcDbEntity
  8
0
  6
Continuous
 62
     7
100
AcDbLine
 10
246.0016371033943
 20
57.98896272330988
 30
0.0
 11
248.8573371033941
 21
60.85496272330988
 31
0.0
  0
LINE
  5
E95
330
1F
100
AcDbEntity
  8
0
  6
Continuous
 62
     7
100
AcDbLine
 10
252.7630371033942
 20
59.80076272330984
 30
0.0
 11
253.8092371033943
 21
55.89696272330979
 31
0.0
  0
LINE
  5
E96
330
1F
100
AcDbEntity
  8
0
  6
Continuous
 62
     7
100
AcDbLine
 10
250.9537371033943
 20
53.03096272330981
 30
0.0
 11
247.0477371033943
 21
54.08526272330982
 31
0.0
  0
LINE
  5
E97
330
1F
100
AcDbEntity
  8
0
  6
Continuous
 62
     7
100
AcDbLine
 10
247.0477371033943
 20
54.08526272330982
 30
0.0
 11
246.0016371033943
 21
57.98896272330988
 31
0.0
  0
LINE
  5
E98
330
1F
100
AcDbEntity
  8
0
  6
Continuous
 62
     7
100
AcDbLine
 10
253.8092371033943
 20
55.89696272330979
 30
0.0
 11
250.9537371033943
 21
53.03096272330981
 31
0.0
  0
LINE
  5
E99
330
1F
100
AcDbEntity
  8
0
  6
Continuous
 62
     7
100
AcDbLine
 10
248.8573371033941
 20
60.85496272330988
 30
0.0
 11
252.7630371033942
 21
59.80076272330984
 31
0.0
  0
MTEXT
  5
EA8
330
1F
100
AcDbEntity
  8
0
100
AcDbMText
 10
-48.76088933529422
 20
-121.0592595830016
 30
0.0
 40
8.0
 41
119.7328367495688
 71
     1
 72
     1
  1
AES-DBF 4P 0.1kW
 73
     1
 44
1.0
  0
MTEXT
  5
EAA
330
1F
100
AcDbEntity
  8
0
100
AcDbMText
 10
-49.38846768511019
 20
-138.2564085421756
 30
0.0
 40
8.0
 41
128.809026516696
 71
     1
 72
     1
  1
AES-DBF 4P 0.15kW
 73
     1
 44
1.0
  0
VIEWPORT
  5
71
330
55
100
AcDbEntity
 67
     1
  8
0
100
AcDbViewport
 10
133.3499908447265
 20
101.5999970436096
 30
0.0
 40
381.3957395593833
 41
218.2856291881582
 68
     1
 69
     1
 12
133.3499908447265
 22
101.5999970436096
 13
0.0
 23
0.0
 14
10.0
 24
10.0
 15
10.0
 25
10.0
 16
0.0
 26
0.0
 36
1.0
 17
0.0
 27
0.0
 37
0.0
 42
50.0
 43
0.0
 44
0.0
 45
218.2856291881582
 50
0.0
 51
0.0
 72
   100
 90
    32800
  1

281
     0
 71
     1
 74
     0
110
0.0
120
0.0
130
0.0
111
1.0
121
0.0
131
0.0
112
0.0
122
1.0
132
0.0
 79
     0
146
0.0
  0
VIEWPORT
  5
73
330
55
100
AcDbEntity
 67
     1
  8
0
100
AcDbViewport
 10
133.3499939441679
 20
101.5999939441679
 30
0.0
 40
213.3599903106689
 41
162.5599903106689
 68
     2
 69
     2
 12
210.0
 22
148.5
 13
0.0
 23
0.0
 14
10.0
 24
10.0
 15
10.0
 25
10.0
 16
0.0
 26
0.0
 36
1.0
 17
0.0
 27
0.0
 37
0.0
 42
50.0
 43
0.0
 44
0.0
 45
324.0677920111345
 50
0.0
 51
0.0
 72
   100
 90
    32864
  1

281
     0
 71
     1
 74
     0
110
0.0
120
0.0
130
0.0
111
1.0
121
0.0
131
0.0
112
0.0
122
1.0
132
0.0
 79
     0
146
0.0
  0
ENDSEC
  0
SECTION
  2
OBJECTS
  0
DICTIONARY
  5
C
330
0
100
AcDbDictionary
281
     1
  3
ACAD_GROUP
350
D
  3
ACAD_LAYOUT
350
1A
  3
ACAD_MLINESTYLE
350
17
  3
ACAD_PLOTSETTINGS
350
19
  3
ACAD_PLOTSTYLENAME
350
E
  3
AcDbVariableDictionary
350
5E
  0
DICTIONARY
  5
D
102
{ACAD_REACTORS
330
C
102
}
330
C
100
AcDbDictionary
281
     1
  0
DICTIONARY
  5
1A
102
{ACAD_REACTORS
330
C
102
}
330
C
100
AcDbDictionary
281
     1
  3
Model
350
22
  3
ﾚｲｱｳﾄ1
350
51
  3
ﾚｲｱｳﾄ2
350
56
  0
DICTIONARY
  5
17
102
{ACAD_REACTORS
330
C
102
}
330
C
100
AcDbDictionary
281
     1
  3
Standard
350
18
  0
DICTIONARY
  5
19
102
{ACAD_REACTORS
330
C
102
}
330
C
100
AcDbDictionary
281
     1
  0
ACDBDICTIONARYWDFLT
  5
E
102
{ACAD_REACTORS
330
C
102
}
330
C
100
AcDbDictionary
281
     1
  3
Normal
350
F
100
AcDbDictionaryWithDefault
340
F
  0
DICTIONARY
  5
5E
102
{ACAD_REACTORS
330
C
102
}
330
C
100
AcDbDictionary
281
     1
  3
DIMASSOC
350
5F
  3
HIDETEXT
350
63
  0
LAYOUT
  5
22
102
{ACAD_REACTORS
330
1A
102
}
330
1A
100
AcDbPlotSettings
  1

  2
none_device
  4
ANSI_A_(8.50_x_11.00_Inches)
  6

 40
6.349999904632567
 41
19.04999923706053
 42
6.350006103515625
 43
19.04998779296875
 44
215.8999938964842
 45
279.3999938964843
 46
0.0
 47
0.0
 48
0.0
 49
0.0
140
0.0
141
0.0
142
1.0
143
78.436453180766
 70
 11952
 72
     0
 73
     1
 74
     0
  7

 75
     0
147
0.0127491741332998
148
0.0
149
0.0
100
AcDbLayout
  1
Model
 70
     1
 71
     0
 10
0.0
 20
0.0
 11
12.0
 21
9.0
 12
0.0
 22
0.0
 32
0.0
 14
0.0
 24
0.0
 34
0.0
 15
0.0
 25
0.0
 35
0.0
146
0.0
 13
0.0
 23
0.0
 33
0.0
 16
1.0
 26
0.0
 36
0.0
 17
0.0
 27
1.0
 37
0.0
 76
     0
330
1F
  0
LAYOUT
  5
51
102
{ACAD_REACTORS
330
1A
102
}
330
1A
100
AcDbPlotSettings
  1

  2
none_device
  4
Letter_(8.50_x_11.00_Inches)
  6

 40
6.349999904632567
 41
6.349999904632567
 42
6.350006103515625
 43
6.350006103515625
 44
215.8999938964842
 45
279.3999938964843
 46
0.0
 47
0.0
 48
0.0
 49
0.0
140
0.0
141
0.0
142
1.0
143
1.0
 70
   688
 72
     1
 73
     1
 74
     5
  7

 75
    16
147
1.0
148
0.0
149
0.0
100
AcDbLayout
  1
ﾚｲｱｳﾄ1
 70
     1
 71
     1
 10
-6.350006103515625
 20
-6.349999904632567
 11
273.0499877929687
 21
209.5499939918517
 12
0.0
 22
0.0
 32
0.0
 14
26.66076962115562
 24
20.31135699206657
 34
-0.0015258207003583
 15
240.039213369355
 25
182.8886381005154
 35
0.0000000349246037
146
0.0
 13
0.0
 23
0.0
 33
0.0
 16
1.0
 26
0.0
 36
0.0
 17
0.0
 27
1.0
 37
0.0
 76
     0
330
50
331
6B
  0
LAYOUT
  5
56
102
{ACAD_REACTORS
330
1A
102
}
330
1A
100
AcDbPlotSettings
  1

  2
none_device
  4
Letter_(8.50_x_11.00_Inches)
  6

 40
6.349999904632567
 41
6.349999904632567
 42
6.350006103515625
 43
6.350006103515625
 44
215.8999938964842
 45
279.3999938964843
 46
0.0
 47
0.0
 48
0.0
 49
0.0
140
0.0
141
0.0
142
1.0
143
1.0
 70
   688
 72
     1
 73
     1
 74
     5
  7

 75
    16
147
1.0
148
0.0
149
0.0
100
AcDbLayout
  1
ﾚｲｱｳﾄ2
 70
     1
 71
     2
 10
-6.350006103515625
 20
-6.349999904632567
 11
273.0499877929687
 21
209.5499939918517
 12
0.0
 22
0.0
 32
0.0
 14
26.66076962115562
 24
20.31135699206657
 34
-0.0015258207003583
 15
240.039213369355
 25
182.8886381005154
 35
0.0000000349246037
146
0.0
 13
0.0
 23
0.0
 33
0.0
 16
1.0
 26
0.0
 36
0.0
 17
0.0
 27
1.0
 37
0.0
 76
     0
330
55
331
71
  0
MLINESTYLE
  5
18
102
{ACAD_REACTORS
330
17
102
}
330
17
100
AcDbMlineStyle
  2
STANDARD
 70
     0
  3

 62
   256
 51
90.0
 52
90.0
 71
     2
 49
0.5
 62
   256
  6
BYLAYER
 49
-0.5
 62
   256
  6
BYLAYER
  0
ACDBPLACEHOLDER
  5
F
102
{ACAD_REACTORS
330
E
102
}
330
E
  0
DICTIONARYVAR
  5
5F
102
{ACAD_REACTORS
330
5E
102
}
330
5E
100
DictionaryVariables
280
     0
  1
2
  0
DICTIONARYVAR
  5
63
102
{ACAD_REACTORS
330
5E
102
}
330
5E
100
DictionaryVariables
280
     0
  1
1
  0
ENDSEC
  0
EOF
