  0
SECTION
  2
HEADER
  9
$ACADVER
  1
AC1015
  9
$ACADMAINTVER
 70
    14
  9
$DWGCODEPAGE
  3
ANSI_932
  9
$INSBASE
 10
0.0
 20
0.0
 30
0.0
  9
$EXTMIN
 10
-311.3668999999998
 20
-178.389741247644
 30
0.0
  9
$EXTMAX
 10
269.9946755563094
 20
95.06899999999999
 30
0.0
  9
$LIMMIN
 10
0.0
 20
0.0
  9
$LIMMAX
 10
420.0
 20
297.0
  9
$ORTHOMODE
 70
     0
  9
$REGENMODE
 70
     1
  9
$FILLMODE
 70
     1
  9
$QTEXTMODE
 70
     0
  9
$MIRRTEXT
 70
     1
  9
$LTSCALE
 40
1.0
  9
$ATTMODE
 70
     1
  9
$TEXTSIZE
 40
2.5
  9
$TRACEWID
 40
1.0
  9
$TEXTSTYLE
  7
Standard
  9
$CLAYER
  8
0
  9
$CELTYPE
  6
ByLayer
  9
$CECOLOR
 62
   256
  9
$CELTSCALE
 40
1.0
  9
$DISPSILH
 70
     0
  9
$DIMSCALE
 40
1.0
  9
$DIMASZ
 40
2.5
  9
$DIMEXO
 40
0.625
  9
$DIMDLI
 40
3.75
  9
$DIMRND
 40
0.0
  9
$DIMDLE
 40
0.0
  9
$DIMEXE
 40
1.25
  9
$DIMTP
 40
0.0
  9
$DIMTM
 40
0.0
  9
$DIMTXT
 40
2.5
  9
$DIMCEN
 40
2.5
  9
$DIMTSZ
 40
0.0
  9
$DIMTOL
 70
     0
  9
$DIMLIM
 70
     0
  9
$DIMTIH
 70
     0
  9
$DIMTOH
 70
     0
  9
$DIMSE1
 70
     0
  9
$DIMSE2
 70
     0
  9
$DIMTAD
 70
     1
  9
$DIMZIN
 70
     8
  9
$DIMBLK
  1

  9
$DIMASO
 70
     1
  9
$DIMSHO
 70
     1
  9
$DIMPOST
  1

  9
$DIMAPOST
  1

  9
$DIMALT
 70
     0
  9
$DIMALTD
 70
     3
  9
$DIMALTF
 40
0.03937007874016
  9
$DIMLFAC
 40
1.0
  9
$DIMTOFL
 70
     1
  9
$DIMTVP
 40
0.0
  9
$DIMTIX
 70
     0
  9
$DIMSOXD
 70
     0
  9
$DIMSAH
 70
     0
  9
$DIMBLK1
  1

  9
$DIMBLK2
  1

  9
$DIMSTYLE
  2
ISO-25
  9
$DIMCLRD
 70
     0
  9
$DIMCLRE
 70
     0
  9
$DIMCLRT
 70
     0
  9
$DIMTFAC
 40
1.0
  9
$DIMGAP
 40
0.625
  9
$DIMJUST
 70
     0
  9
$DIMSD1
 70
     0
  9
$DIMSD2
 70
     0
  9
$DIMTOLJ
 70
     0
  9
$DIMTZIN
 70
     8
  9
$DIMALTZ
 70
     0
  9
$DIMALTTZ
 70
     0
  9
$DIMUPT
 70
     0
  9
$DIMDEC
 70
     2
  9
$DIMTDEC
 70
     2
  9
$DIMALTU
 70
     2
  9
$DIMALTTD
 70
     3
  9
$DIMTXSTY
  7
Standard
  9
$DIMAUNIT
 70
     0
  9
$DIMADEC
 70
     0
  9
$DIMALTRND
 40
0.0
  9
$DIMAZIN
 70
     0
  9
$DIMDSEP
 70
    44
  9
$DIMATFIT
 70
     3
  9
$DIMFRAC
 70
     0
  9
$DIMLDRBLK
  1

  9
$DIMLUNIT
 70
     2
  9
$DIMLWD
 70
    -2
  9
$DIMLWE
 70
    -2
  9
$DIMTMOVE
 70
     0
  9
$LUNITS
 70
     2
  9
$LUPREC
 70
     4
  9
$SKETCHINC
 40
1.0
  9
$FILLETRAD
 40
10.0
  9
$AUNITS
 70
     0
  9
$AUPREC
 70
     0
  9
$MENU
  1
.
  9
$ELEVATION
 40
0.0
  9
$PELEVATION
 40
0.0
  9
$THICKNESS
 40
0.0
  9
$LIMCHECK
 70
     0
  9
$CHAMFERA
 40
10.0
  9
$CHAMFERB
 40
10.0
  9
$CHAMFERC
 40
20.0
  9
$CHAMFERD
 40
0.0
  9
$SKPOLY
 70
     0
  9
$TDCREATE
 40
2456035.888425011
  9
$TDUCREATE
 40
2456035.513425011
  9
$TDUPDATE
 40
2456037.686014895
  9
$TDUUPDATE
 40
2456037.311014895
  9
$TDINDWG
 40
0.0016191088
  9
$TDUSRTIMER
 40
0.0016191088
  9
$USRTIMER
 70
     1
  9
$ANGBASE
 50
0.0
  9
$ANGDIR
 70
     0
  9
$PDMODE
 70
     0
  9
$PDSIZE
 40
0.0
  9
$PLINEWID
 40
0.0
  9
$SPLFRAME
 70
     0
  9
$SPLINETYPE
 70
     6
  9
$SPLINESEGS
 70
     8
  9
$HANDSEED
  5
EBD
  9
$SURFTAB1
 70
     6
  9
$SURFTAB2
 70
     6
  9
$SURFTYPE
 70
     6
  9
$SURFU
 70
     6
  9
$SURFV
 70
     6
  9
$UCSBASE
  2

  9
$UCSNAME
  2

  9
$UCSORG
 10
0.0
 20
0.0
 30
0.0
  9
$UCSXDIR
 10
1.0
 20
0.0
 30
0.0
  9
$UCSYDIR
 10
0.0
 20
1.0
 30
0.0
  9
$UCSORTHOREF
  2

  9
$UCSORTHOVIEW
 70
     0
  9
$UCSORGTOP
 10
0.0
 20
0.0
 30
0.0
  9
$UCSORGBOTTOM
 10
0.0
 20
0.0
 30
0.0
  9
$UCSORGLEFT
 10
0.0
 20
0.0
 30
0.0
  9
$UCSORGRIGHT
 10
0.0
 20
0.0
 30
0.0
  9
$UCSORGFRONT
 10
0.0
 20
0.0
 30
0.0
  9
$UCSORGBACK
 10
0.0
 20
0.0
 30
0.0
  9
$PUCSBASE
  2

  9
$PUCSNAME
  2

  9
$PUCSORG
 10
0.0
 20
0.0
 30
0.0
  9
$PUCSXDIR
 10
1.0
 20
0.0
 30
0.0
  9
$PUCSYDIR
 10
0.0
 20
1.0
 30
0.0
  9
$PUCSORTHOREF
  2

  9
$PUCSORTHOVIEW
 70
     0
  9
$PUCSORGTOP
 10
0.0
 20
0.0
 30
0.0
  9
$PUCSORGBOTTOM
 10
0.0
 20
0.0
 30
0.0
  9
$PUCSORGLEFT
 10
0.0
 20
0.0
 30
0.0
  9
$PUCSORGRIGHT
 10
0.0
 20
0.0
 30
0.0
  9
$PUCSORGFRONT
 10
0.0
 20
0.0
 30
0.0
  9
$PUCSORGBACK
 10
0.0
 20
0.0
 30
0.0
  9
$USERI1
 70
     0
  9
$USERI2
 70
     0
  9
$USERI3
 70
     0
  9
$USERI4
 70
     0
  9
$USERI5
 70
     0
  9
$USERR1
 40
0.0
  9
$USERR2
 40
0.0
  9
$USERR3
 40
0.0
  9
$USERR4
 40
0.0
  9
$USERR5
 40
0.0
  9
$WORLDVIEW
 70
     1
  9
$SHADEDGE
 70
     3
  9
$SHADEDIF
 70
    70
  9
$TILEMODE
 70
     1
  9
$MAXACTVP
 70
    64
  9
$PINSBASE
 10
0.0
 20
0.0
 30
0.0
  9
$PLIMCHECK
 70
     0
  9
$PEXTMIN
 10
26.66076962115562
 20
20.31135699206657
 30
-0.0015258207003583
  9
$PEXTMAX
 10
240.039213369355
 20
182.8886381005154
 30
0.0000000349246037
  9
$PLIMMIN
 10
-6.350006103515625
 20
-6.349999904632567
  9
$PLIMMAX
 10
273.0499877929687
 20
209.5499939918517
  9
$UNITMODE
 70
     0
  9
$VISRETAIN
 70
     1
  9
$PLINEGEN
 70
     0
  9
$PSLTSCALE
 70
     1
  9
$TREEDEPTH
 70
  3020
  9
$CMLSTYLE
  2
Standard
  9
$CMLJUST
 70
     0
  9
$CMLSCALE
 40
20.0
  9
$PROXYGRAPHICS
 70
     1
  9
$MEASUREMENT
 70
     1
  9
$CELWEIGHT
370
    -1
  9
$ENDCAPS
280
     0
  9
$JOINSTYLE
280
     0
  9
$LWDISPLAY
290
     0
  9
$INSUNITS
 70
     4
  9
$HYPERLINKBASE
  1

  9
$STYLESHEET
  1

  9
$XEDIT
290
     1
  9
$CEPSNTYPE
380
     0
  9
$PSTYLEMODE
290
     1
  9
$FINGERPRINTGUID
  2
{FDEAD578-A652-11D2-9A35-0060089B3A3F}
  9
$VERSIONGUID
  2
{A9173B62-F464-4850-A986-19859AFEE99F}
  9
$EXTNAMES
290
     1
  9
$PSVPSCALE
 40
0.0
  9
$OLESTARTUP
290
     0
  0
ENDSEC
  0
SECTION
  2
CLASSES
  0
CLASS
  1
ACDBDICTIONARYWDFLT
  2
AcDbDictionaryWithDefault
  3
AutoCAD 2000
 90
        0
280
     0
281
     0
  0
CLASS
  1
ACDBPLACEHOLDER
  2
AcDbPlaceHolder
  3
AutoCAD 2000
 90
        0
280
     0
281
     0
  0
CLASS
  1
LAYOUT
  2
AcDbLayout
  3
AutoCAD 2000
 90
        0
280
     0
281
     0
  0
CLASS
  1
DICTIONARYVAR
  2
AcDbDictionaryVar
  3
AutoCAD 2000
 90
        0
280
     0
281
     0
  0
ENDSEC
  0
SECTION
  2
TABLES
  0
TABLE
  2
VPORT
  5
8
330
0
100
AcDbSymbolTable
 70
     3
  0
VPORT
  5
EBC
330
8
100
AcDbSymbolTableRecord
100
AcDbViewportTableRecord
  2
*Active
 70
     0
 10
0.0
 20
0.0
 11
1.0
 21
1.0
 12
-7.875484191023929
 22
-41.66818953231933
 13
0.0
 23
0.0
 14
10.0
 24
10.0
 15
10.0
 25
10.0
 16
0.0
 26
0.0
 36
1.0
 17
0.0
 27
0.0
 37
0.0
 40
296.1501579515839
 41
2.056994818652849
 42
50.0
 43
0.0
 44
0.0
 50
0.0
 51
0.0
 71
     0
 72
   100
 73
     1
 74
     3
 75
     0
 76
     0
 77
     0
 78
     0
281
     0
 65
     1
110
0.0
120
0.0
130
0.0
111
1.0
121
0.0
131
0.0
112
0.0
122
1.0
132
0.0
 79
     0
146
0.0
  0
ENDTAB
  0
TABLE
  2
LTYPE
  5
5
330
0
100
AcDbSymbolTable
 70
     3
  0
LTYPE
  5
14
330
5
100
AcDbSymbolTableRecord
100
AcDbLinetypeTableRecord
  2
ByBlock
 70
     0
  3

 72
    65
 73
     0
 40
0.0
  0
LTYPE
  5
15
330
5
100
AcDbSymbolTableRecord
100
AcDbLinetypeTableRecord
  2
ByLayer
 70
     0
  3

 72
    65
 73
     0
 40
0.0
  0
LTYPE
  5
16
330
5
100
AcDbSymbolTableRecord
100
AcDbLinetypeTableRecord
  2
Continuous
 70
     0
  3
Solid line
 72
    65
 73
     0
 40
0.0
  0
LTYPE
  5
8C
330
5
100
AcDbSymbolTableRecord
100
AcDbLinetypeTableRecord
  2
DASHED
 70
     0
  3
Dashed
 72
    65
 73
     2
 40
15.0
 49
7.0
 74
     0
 49
-8.0
 74
     0
  0
LTYPE
  5
8D
330
5
100
AcDbSymbolTableRecord
100
AcDbLinetypeTableRecord
  2
DASH_CENTER
 70
     0
  3
Dash_Center
 72
    65
 73
     4
 40
14.0
 49
11.0
 74
     0
 49
-1.0
 74
     0
 49
1.0
 74
     0
 49
-1.0
 74
     0
  0
ENDTAB
  0
TABLE
  2
LAYER
  5
2
330
0
100
AcDbSymbolTable
 70
     1
  0
LAYER
  5
10
330
2
100
AcDbSymbolTableRecord
100
AcDbLayerTableRecord
  2
0
 70
     0
 62
     7
  6
Continuous
370
    -3
390
F
  0
ENDTAB
  0
TABLE
  2
STYLE
  5
3
330
0
100
AcDbSymbolTable
 70
    28
  0
STYLE
  5
11
330
3
100
AcDbSymbolTableRecord
100
AcDbTextStyleTableRecord
  2
Standard
 70
     0
 40
0.0
 41
1.0
 50
0.0
 71
     0
 42
2.5
  3
txt
  4

  0
STYLE
  5
8E
330
3
100
AcDbSymbolTableRecord
100
AcDbTextStyleTableRecord
  2
CONVERTER_1
 70
     0
 40
0.0
 41
0.7565
 50
0.0
 71
     0
 42
0.2
  3
txt.shx
  4
bigfont.shx
  0
STYLE
  5
8F
330
3
100
AcDbSymbolTableRecord
100
AcDbTextStyleTableRecord
  2
CONVERTER_2
 70
     0
 40
0.0
 41
0.89
 50
0.0
 71
     0
 42
0.2
  3
txt.shx
  4
bigfont.shx
  0
STYLE
  5
90
330
3
100
AcDbSymbolTableRecord
100
AcDbTextStyleTableRecord
  2
CONVERTER_3
 70
     0
 40
0.0
 41
0.73425
 50
0.0
 71
     0
 42
0.2
  3
txt.shx
  4

  0
STYLE
  5
91
330
3
100
AcDbSymbolTableRecord
100
AcDbTextStyleTableRecord
  2
CONVERTER_4
 70
     0
 40
0.0
 41
0.7565
 50
0.0
 71
     0
 42
0.2
  3
txt.shx
  4

  0
STYLE
  5
92
330
3
100
AcDbSymbolTableRecord
100
AcDbTextStyleTableRecord
  2
CONVERTER_5
 70
     0
 40
0.0
 41
0.85
 50
0.0
 71
     0
 42
0.2
  3
monotxt.shx
  4

  0
STYLE
  5
93
330
3
100
AcDbSymbolTableRecord
100
AcDbTextStyleTableRecord
  2
CONVERTER_6
 70
     0
 40
0.0
 41
0.89
 50
0.0
 71
     0
 42
0.2
  3
txt.shx
  4

  0
STYLE
  5
94
330
3
100
AcDbSymbolTableRecord
100
AcDbTextStyleTableRecord
  2
CONVERTER_7
 70
     0
 40
0.0
 41
0.97612903225807
 50
0.0
 71
     0
 42
0.2
  3
txt.shx
  4
bigfont.shx
  0
STYLE
  5
95
330
3
100
AcDbSymbolTableRecord
100
AcDbTextStyleTableRecord
  2
CONVERTER_8
 70
     0
 40
0.0
 41
1.008666666666669
 50
0.0
 71
     0
 42
0.2
  3
txt.shx
  4
bigfont.shx
  0
STYLE
  5
96
330
3
100
AcDbSymbolTableRecord
100
AcDbTextStyleTableRecord
  2
CONVERTER_9
 70
     0
 40
0.0
 41
0.945625
 50
0.0
 71
     0
 42
0.2
  3
txt.shx
  4
bigfont.shx
  0
STYLE
  5
97
330
3
100
AcDbSymbolTableRecord
100
AcDbTextStyleTableRecord
  2
CONVERTER_10
 70
     0
 40
0.0
 41
1.62688172043011
 50
0.0
 71
     0
 42
0.2
  3
txt.shx
  4
bigfont.shx
  0
STYLE
  5
98
330
3
100
AcDbSymbolTableRecord
100
AcDbTextStyleTableRecord
  2
CONVERTER_11
 70
     0
 40
0.0
 41
1.68111111111111
 50
0.0
 71
     0
 42
0.2
  3
txt.shx
  4
bigfont.shx
  0
STYLE
  5
99
330
3
100
AcDbSymbolTableRecord
100
AcDbTextStyleTableRecord
  2
CONVERTER_12
 70
     0
 40
0.0
 41
0.8362966374942399
 50
0.0
 71
     0
 42
0.2
  3
txt.shx
  4
bigfont.shx
  0
STYLE
  5
9A
330
3
100
AcDbSymbolTableRecord
100
AcDbTextStyleTableRecord
  2
CONVERTER_13
 70
     0
 40
0.0
 41
0.85884578997162
 50
0.0
 71
     0
 42
0.2
  3
txt.shx
  4
bigfont.shx
  0
STYLE
  5
9B
330
3
100
AcDbSymbolTableRecord
100
AcDbTextStyleTableRecord
  2
CONVERTER_14
 70
     0
 40
0.0
 41
0.83262578616352
 50
0.0
 71
     0
 42
0.2
  3
txt.shx
  4
bigfont.shx
  0
STYLE
  5
9C
330
3
100
AcDbSymbolTableRecord
100
AcDbTextStyleTableRecord
  2
CONVERTER_15
 70
     0
 40
0.0
 41
0.7719387755102
 50
0.0
 71
     0
 42
0.2
  3
txt.shx
  4
bigfont.shx
  0
STYLE
  5
9D
330
3
100
AcDbSymbolTableRecord
100
AcDbTextStyleTableRecord
  2
CONVERTER_16
 70
     0
 40
0.0
 41
0.94933333333333
 50
0.0
 71
     0
 42
0.2
  3
txt.shx
  4

  0
STYLE
  5
9E
330
3
100
AcDbSymbolTableRecord
100
AcDbTextStyleTableRecord
  2
CONVERTER_17
 70
     0
 40
0.0
 41
1.078787878787879
 50
0.0
 71
     0
 42
0.2
  3
txt.shx
  4

  0
STYLE
  5
9F
330
3
100
AcDbSymbolTableRecord
100
AcDbTextStyleTableRecord
  2
CONVERTER_18
 70
     0
 40
0.0
 41
1.148387096774188
 50
0.0
 71
     0
 42
0.2
  3
txt.shx
  4

  0
STYLE
  5
A0
330
3
100
AcDbSymbolTableRecord
100
AcDbTextStyleTableRecord
  2
CONVERTER_19
 70
     0
 40
0.0
 41
1.1125
 50
0.0
 71
     0
 42
0.2
  3
txt.shx
  4

  0
STYLE
  5
A1
330
3
100
AcDbSymbolTableRecord
100
AcDbTextStyleTableRecord
  2
CONVERTER_20
 70
     0
 40
0.0
 41
1.01714285714286
 50
0.0
 71
     0
 42
0.2
  3
txt.shx
  4

  0
STYLE
  5
A2
330
3
100
AcDbSymbolTableRecord
100
AcDbTextStyleTableRecord
  2
CONVERTER_21
 70
     0
 40
0.0
 41
1.424
 50
0.0
 71
     0
 42
0.2
  3
txt.shx
  4

  0
STYLE
  5
A3
330
3
100
AcDbSymbolTableRecord
100
AcDbTextStyleTableRecord
  2
CONVERTER_22
 70
     0
 40
0.0
 41
0.6230000000000002
 50
0.0
 71
     0
 42
0.2
  3
txt.shx
  4

  0
STYLE
  5
A4
330
3
100
AcDbSymbolTableRecord
100
AcDbTextStyleTableRecord
  2
CONVERTER_23
 70
     0
 40
0.0
 41
0.741666637
 50
0.0
 71
     0
 42
0.2
  3
txt.shx
  4

  0
STYLE
  5
A5
330
3
100
AcDbSymbolTableRecord
100
AcDbTextStyleTableRecord
  2
CONVERTER_24
 70
     0
 40
0.0
 41
0.8455
 50
0.0
 71
     0
 42
0.2
  3
txt.shx
  4

  0
STYLE
  5
A6
330
3
100
AcDbSymbolTableRecord
100
AcDbTextStyleTableRecord
  2
CONVERTER_25
 70
     0
 40
0.0
 41
0.8009999999999999
 50
0.0
 71
     0
 42
0.2
  3
txt.shx
  4

  0
STYLE
  5
A7
330
3
100
AcDbSymbolTableRecord
100
AcDbTextStyleTableRecord
  2
CONVERTER_26
 70
     0
 40
0.0
 41
0.8009999999999999
 50
0.0
 71
     0
 42
0.2
  3
txt.shx
  4
bigfont.shx
  0
STYLE
  5
A8
330
3
100
AcDbSymbolTableRecord
100
AcDbTextStyleTableRecord
  2
CONVERTER_27
 70
     0
 40
0.0
 41
0.84605009384506
 50
0.0
 71
     0
 42
0.2
  3
txt.shx
  4
bigfont.shx
  0
ENDTAB
  0
TABLE
  2
VIEW
  5
6
330
0
100
AcDbSymbolTable
 70
     0
  0
ENDTAB
  0
TABLE
  2
UCS
  5
7
330
0
100
AcDbSymbolTable
 70
     0
  0
ENDTAB
  0
TABLE
  2
APPID
  5
9
330
0
100
AcDbSymbolTable
 70
     1
  0
APPID
  5
12
330
9
100
AcDbSymbolTableRecord
100
AcDbRegAppTableRecord
  2
ACAD
 70
     0
  0
ENDTAB
  0
TABLE
  2
DIMSTYLE
  5
A
330
0
100
AcDbSymbolTable
 70
     2
100
AcDbDimStyleTable
 71
     0
  0
DIMSTYLE
105
27
330
A
100
AcDbSymbolTableRecord
100
AcDbDimStyleTableRecord
  2
ISO-25
 70
     0
 41
2.5
 42
0.625
 43
3.75
 44
1.25
 73
     0
 74
     0
 77
     1
 78
     8
140
2.5
141
2.5
143
0.03937007874016
147
0.625
171
     3
172
     1
271
     2
272
     2
274
     3
278
    44
283
     0
284
     8
340
11
  0
DIMSTYLE
105
A9
330
A
100
AcDbSymbolTableRecord
100
AcDbDimStyleTableRecord
  2
Standard
 70
     0
340
11
  0
ENDTAB
  0
TABLE
  2
BLOCK_RECORD
  5
1
330
0
100
AcDbSymbolTable
 70
     2
  0
BLOCK_RECORD
  5
1F
330
1
100
AcDbSymbolTableRecord
100
AcDbBlockTableRecord
  2
*Model_Space
340
22
  0
BLOCK_RECORD
  5
55
330
1
100
AcDbSymbolTableRecord
100
AcDbBlockTableRecord
  2
*Paper_Space
340
56
  0
BLOCK_RECORD
  5
50
330
1
100
AcDbSymbolTableRecord
100
AcDbBlockTableRecord
  2
*Paper_Space0
340
51
  0
BLOCK_RECORD
  5
86
330
1
100
AcDbSymbolTableRecord
100
AcDbBlockTableRecord
  2
_Open30
340
0
102
{BLKREFS
331
612
331
AB
331
170
331
16E
331
10B
331
16D
331
174
331
153
331
F7
331
111
331
112
331
10D
331
124
331
11B
331
1C2
331
5B2
331
1C1
331
562
331
560
331
5AC
331
5B1
331
564
331
5AB
331
5AF
331
5A1
331
5A6
331
7A0
331
6E9
331
79D
331
6E4
331
64C
331
6CB
331
6CF
331
63D
331
6D9
331
68C
331
6CE
331
650
331
651
331
63E
331
640
331
644
331
667
331
660
331
6E0
331
6DF
331
789
331
7A1
331
708
331
703
331
C65
331
C67
331
C69
331
CA6
331
CAB
331
CB0
331
CB1
331
CB4
331
CB6
331
CB7
331
D17
331
D42
331
D43
331
D45
331
D49
331
D51
331
D55
331
D56
331
D65
331
D6C
331
D91
331
DD0
331
DD3
331
DD4
331
DDE
331
DE4
331
DE5
331
DE9
331
DEE
331
E08
331
E0D
331
E8E
331
EA2
331
EA5
331
EA6
331
7B0
331
7FC
331
810
331
812
331
816
331
817
331
820
331
829
331
858
331
872
331
873
331
875
331
879
331
8C6
331
8C7
102
}
  0
ENDTAB
  0
ENDSEC
  0
SECTION
  2
BLOCKS
  0
BLOCK
  5
20
330
1F
100
AcDbEntity
  8
0
100
AcDbBlockBegin
  2
*Model_Space
 70
     0
 10
0.0
 20
0.0
 30
0.0
  3
*Model_Space
  1

  0
ENDBLK
  5
21
330
1F
100
AcDbEntity
  8
0
100
AcDbBlockEnd
  0
BLOCK
  5
57
330
55
100
AcDbEntity
 67
     1
  8
0
100
AcDbBlockBegin
  2
*Paper_Space
 70
     0
 10
0.0
 20
0.0
 30
0.0
  3
*Paper_Space
  1

  0
ENDBLK
  5
58
330
55
100
AcDbEntity
 67
     1
  8
0
100
AcDbBlockEnd
  0
BLOCK
  5
52
330
50
100
AcDbEntity
  8
0
100
AcDbBlockBegin
  2
*Paper_Space0
 70
     0
 10
0.0
 20
0.0
 30
0.0
  3
*Paper_Space0
  1

  0
VIEWPORT
  5
6B
330
50
100
AcDbEntity
  8
0
100
AcDbViewport
 10
133.3499908447265
 20
101.5999970436096
 30
0.0
 40
381.3957395593833
 41
218.2856291881582
 69
     0
 12
133.3499908447265
 22
101.5999970436096
 13
0.0
 23
0.0
 14
10.0
 24
10.0
 15
10.0
 25
10.0
 16
0.0
 26
0.0
 36
1.0
 17
0.0
 27
0.0
 37
0.0
 42
50.0
 43
0.0
 44
0.0
 45
218.2856291881582
 50
0.0
 51
0.0
 72
   100
 90
    32800
  1

281
     0
 71
     1
 74
     0
110
0.0
120
0.0
130
0.0
111
1.0
121
0.0
131
0.0
112
0.0
122
1.0
132
0.0
 79
     0
146
0.0
  0
VIEWPORT
  5
6D
330
50
100
AcDbEntity
  8
0
100
AcDbViewport
 10
133.3499939441679
 20
101.5999939441679
 30
0.0
 40
213.3599903106689
 41
162.5599903106689
 69
     0
 12
210.0
 22
148.5
 13
0.0
 23
0.0
 14
10.0
 24
10.0
 15
10.0
 25
10.0
 16
0.0
 26
0.0
 36
1.0
 17
0.0
 27
0.0
 37
0.0
 42
50.0
 43
0.0
 44
0.0
 45
324.0677920111345
 50
0.0
 51
0.0
 72
   100
 90
    32864
  1

281
     0
 71
     1
 74
     0
110
0.0
120
0.0
130
0.0
111
1.0
121
0.0
131
0.0
112
0.0
122
1.0
132
0.0
 79
     0
146
0.0
  0
ENDBLK
  5
53
330
50
100
AcDbEntity
  8
0
100
AcDbBlockEnd
  0
BLOCK
  5
8A
330
86
100
AcDbEntity
  8
0
100
AcDbBlockBegin
  2
_Open30
 70
     0
 10
0.0
 20
0.0
 30
0.0
  3
_Open30
  1

  0
LINE
  5
87
330
86
100
AcDbEntity
  8
0
  6
ByBlock
 62
     0
370
    -2
100
AcDbLine
 10
-1.0
 20
0.267949
 30
0.0
 11
0.0
 21
0.0
 31
0.0
  0
LINE
  5
88
330
86
100
AcDbEntity
  8
0
  6
ByBlock
 62
     0
370
    -2
100
AcDbLine
 10
0.0
 20
0.0
 30
0.0
 11
-1.0
 21
-0.267949
 31
0.0
  0
LINE
  5
89
330
86
100
AcDbEntity
  8
0
  6
ByBlock
 62
     0
370
    -2
100
AcDbLine
 10
0.0
 20
0.0
 30
0.0
 11
-1.0
 21
0.0
 31
0.0
  0
ENDBLK
  5
8B
330
86
100
AcDbEntity
  8
0
100
AcDbBlockEnd
  0
ENDSEC
  0
SECTION
  2
ENTITIES
  0
ARC
  5
7B1
330
1F
100
AcDbEntity
  8
0
  6
Continuous
 62
     7
100
AcDbCircle
 10
-16.601429413912
 20
12.43219999999999
 30
0.0
 40
7.000000000000002
100
AcDbArc
 50
90.0
 51
0.0
  0
LINE
  5
7B6
330
1F
100
AcDbEntity
  8
0
  6
DASH_CENTER
 62
    30
100
AcDbLine
 10
-28.72012941391202
 20
12.43219999999999
 30
0.0
 11
-4.186329413912091
 21
12.43219999999999
 31
0.0
  0
LINE
  5
7B7
330
1F
100
AcDbEntity
  8
0
  6
Continuous
 62
     7
100
AcDbLine
 10
-20.20692941391212
 20
18.4322
 30
0.0
 11
-12.9958294139119
 21
18.4322
 31
0.0
  0
ARC
  5
7BB
330
1F
100
AcDbEntity
  8
0
  6
Continuous
 62
     7
100
AcDbCircle
 10
-175.6907999999999
 20
12.43219999999999
 30
0.0
 40
122.2999960983237
100
AcDbArc
 50
180.0
 51
187.402834077592
  0
ARC
  5
7BC
330
1F
100
AcDbEntity
  8
0
  6
Continuous
 62
     7
100
AcDbCircle
 10
-229.3909980491545
 20
12.43223015581643
 30
0.0
 40
122.2999980491582
100
AcDbArc
 50
352.5971517948436
 51
359.9999858724363
  0
LINE
  5
7BD
330
1F
100
AcDbEntity
  8
0
  6
Continuous
 62
     7
100
AcDbLine
 10
-242.7908999999999
 20
14.42736557543655
 30
0.0
 11
-235.5465
 21
-4.839199999999998
 31
0.0
  0
LINE
  5
7BE
330
1F
100
AcDbEntity
  8
0
  6
Continuous
 62
     7
100
AcDbLine
 10
-248.7908999999999
 20
14.42683367312374
 30
0.0
 11
-256.0351
 21
-4.839199999999998
 31
0.0
  0
LINE
  5
7BF
330
1F
100
AcDbEntity
  8
0
  6
Continuous
 62
     7
100
AcDbLine
 10
-242.7908999999999
 20
14.0572
 30
0.0
 11
-242.7908999999999
 21
-7.7896
 31
0.0
  0
LINE
  5
7C0
330
1F
100
AcDbEntity
  8
0
  6
Continuous
 62
     7
100
AcDbLine
 10
-245.7908999999999
 20
14.0572
 30
0.0
 11
-245.7908999999999
 21
-7.7896
 31
0.0
  0
LINE
  5
7C1
330
1F
100
AcDbEntity
  8
0
  6
Continuous
 62
     7
100
AcDbLine
 10
-248.7908999999999
 20
14.0572
 30
0.0
 11
-248.7908999999999
 21
-7.7896
 31
0.0
  0
LINE
  5
7C2
330
1F
100
AcDbEntity
  8
0
  6
Continuous
 62
     7
100
AcDbLine
 10
-119.4909999999999
 20
12.43219999999999
 30
0.0
 11
-119.4909999999999
 21
-53.06779999999999
 31
0.0
  0
LINE
  5
7C3
330
1F
100
AcDbEntity
  8
0
  6
Continuous
 62
     7
100
AcDbLine
 10
-121.791
 20
-53.16759999999999
 30
0.0
 11
-121.791
 21
12.4324
 31
0.0
  0
LINE
  5
7C4
330
1F
100
AcDbEntity
  8
0
  6
Continuous
 62
     7
100
AcDbLine
 10
-283.291
 20
-53.16790000000001
 30
0.0
 11
-283.291
 21
12.4324
 31
0.0
  0
LINE
  5
7C5
330
1F
100
AcDbEntity
  8
0
  6
Continuous
 62
     7
100
AcDbLine
 10
-238.3545999999999
 20
-5.895099999999998
 30
0.0
 11
-242.7906999999999
 21
5.9028
 31
0.0
  0
LINE
  5
7C6
330
1F
100
AcDbEntity
  8
0
  6
Continuous
 62
     7
100
AcDbLine
 10
-295.6906
 20
-6.617899999999997
 30
0.0
 11
-295.6906
 21
12.43219999999999
 31
0.0
  0
LINE
  5
7C7
330
1F
100
AcDbEntity
  8
0
  6
Continuous
 62
     7
100
AcDbLine
 10
-109.391
 20
-6.617599999999998
 30
0.0
 11
-109.391
 21
12.43219999999999
 31
0.0
  0
LINE
  5
7C8
330
1F
100
AcDbEntity
  8
0
  6
Continuous
 62
     7
100
AcDbLine
 10
-285.5907
 20
12.43219999999999
 30
0.0
 11
-285.5907
 21
-53.06779999999999
 31
0.0
  0
LINE
  5
7C9
330
1F
100
AcDbEntity
  8
0
  6
Continuous
 62
     7
100
AcDbLine
 10
-253.2271
 20
-5.895099999999998
 30
0.0
 11
-248.7908999999999
 21
5.9028
 31
0.0
  0
LINE
  5
7CA
330
1F
100
AcDbEntity
  8
0
  6
DASH_CENTER
 62
    30
100
AcDbLine
 10
-194.791
 20
95.06899999999999
 30
0.0
 11
-194.791
 21
-74.86590000000003
 31
0.0
  0
LINE
  5
7CE
330
1F
100
AcDbEntity
  8
0
  6
Continuous
 62
     7
100
AcDbLine
 10
-244.7608999999999
 20
-53.1678
 30
0.0
 11
-283.291
 21
-53.16790000000001
 31
0.0
  0
LINE
  5
7CF
330
1F
100
AcDbEntity
  8
0
  6
DASH_CENTER
 62
    30
100
AcDbLine
 10
-279.4350999999999
 20
-30.701
 30
0.0
 11
-292.8093
 21
-30.701
 31
0.0
  0
LINE
  5
7ED
330
1F
100
AcDbEntity
  8
0
  6
Continuous
 62
     7
100
AcDbLine
 10
-285.5907
 20
-53.06779999999999
 30
0.0
 11
-283.2907
 21
-53.06779999999999
 31
0.0
  0
ARC
  5
7EE
330
1F
100
AcDbEntity
  8
0
  6
Continuous
 62
     7
100
AcDbCircle
 10
-286.8908265608043
 20
-28.61962898478262
 30
0.0
 40
1.299973439518813
100
AcDbArc
 50
94.998818206895
 51
179.998722507964
  0
ARC
  5
7EF
330
1F
100
AcDbEntity
  8
0
  6
Continuous
 62
     7
100
AcDbCircle
 10
-286.890776750911
 20
-32.78222537279445
 30
0.0
 40
1.30002324933661
100
AcDbArc
 50
179.9988817476632
 51
264.9991701575255
  0
LINE
  5
7F0
330
1F
100
AcDbEntity
  8
0
  6
Continuous
 62
     7
100
AcDbLine
 10
-285.5907
 20
-27.2009
 30
0.0
 11
-287.0038
 21
-27.3247
 31
0.0
  0
LINE
  5
7F1
330
1F
100
AcDbEntity
  8
0
  6
Continuous
 62
     7
100
AcDbLine
 10
-288.1906
 20
-32.7822
 30
0.0
 11
-288.1906
 21
-28.61959999999999
 31
0.0
  0
LINE
  5
7F2
330
1F
100
AcDbEntity
  8
0
  6
Continuous
 62
     7
100
AcDbLine
 10
-285.5907
 20
-34.2009
 30
0.0
 11
-287.0038
 21
-34.07739999999999
 31
0.0
  0
LINE
  5
7F3
330
1F
100
AcDbEntity
  8
0
  6
Continuous
 62
     7
100
AcDbLine
 10
-295.1906
 20
-7.117899999999997
 30
0.0
 11
-285.5907999999999
 21
-7.117899999999997
 31
0.0
  0
ARC
  5
7F4
330
1F
100
AcDbEntity
  8
0
  6
Continuous
 62
     7
100
AcDbCircle
 10
-294.9879997586946
 20
-3.067800353438819
 30
0.0
 40
1.999972238557294
100
AcDbArc
 50
187.4032364050435
 51
241.2422862378977
  0
ARC
  5
7F5
330
1F
100
AcDbEntity
  8
0
  6
Continuous
 62
     7
100
AcDbCircle
 10
-296.1906174026656
 20
-5.259470599889858
 30
0.0
 40
0.500017403529885
100
AcDbArc
 50
359.9966311128024
 51
61.24808559019318
  0
ARC
  5
7F6
330
1F
100
AcDbEntity
  8
0
  6
Continuous
 62
     7
100
AcDbCircle
 10
-295.1906
 20
-6.617899999999997
 30
0.0
 40
0.5
100
AcDbArc
 50
180.0
 51
270.0
  0
LINE
  5
7FE
330
1F
100
AcDbEntity
  8
0
  6
Continuous
 62
     7
100
AcDbLine
 10
-158.7909999999999
 20
-2.817399999999998
 30
0.0
 11
-137.7909999999999
 21
-2.817399999999998
 31
0.0
  0
LINE
  5
7FF
330
1F
100
AcDbEntity
  8
0
  6
Continuous
 62
     7
100
AcDbLine
 10
-137.7909999999999
 20
-10.81739999999999
 30
0.0
 11
-158.7909999999999
 21
-10.81739999999999
 31
0.0
  0
LINE
  5
800
330
1F
100
AcDbEntity
  8
0
  6
Continuous
 62
     7
100
AcDbLine
 10
-137.7909999999999
 20
-30.81739999999999
 30
0.0
 11
-158.7909999999999
 21
-30.81739999999999
 31
0.0
  0
LINE
  5
801
330
1F
100
AcDbEntity
  8
0
  6
Continuous
 62
     7
100
AcDbLine
 10
-137.7909999999999
 20
-9.817399999999999
 30
0.0
 11
-158.7909999999999
 21
-9.817399999999999
 31
0.0
  0
LINE
  5
802
330
1F
100
AcDbEntity
  8
0
  6
Continuous
 62
     7
100
AcDbLine
 10
-137.7909999999999
 20
-17.8174
 30
0.0
 11
-158.7909999999999
 21
-17.8174
 31
0.0
  0
LINE
  5
803
330
1F
100
AcDbEntity
  8
0
  6
Continuous
 62
     7
100
AcDbLine
 10
-137.7909999999999
 20
-36.3174
 30
0.0
 11
-158.7909999999999
 21
-36.3174
 31
0.0
  0
LINE
  5
804
330
1F
100
AcDbEntity
  8
0
  6
Continuous
 62
     7
100
AcDbLine
 10
-137.7909999999999
 20
-34.8174
 30
0.0
 11
-158.7909999999999
 21
-34.8174
 31
0.0
  0
LINE
  5
805
330
1F
100
AcDbEntity
  8
0
  6
Continuous
 62
     7
100
AcDbLine
 10
-137.7909999999999
 20
-23.6174
 30
0.0
 11
-158.7909999999999
 21
-23.6174
 31
0.0
  0
LINE
  5
806
330
1F
100
AcDbEntity
  8
0
  6
Continuous
 62
     7
100
AcDbLine
 10
-137.7909999999999
 20
-24.8174
 30
0.0
 11
-158.7909999999999
 21
-24.8174
 31
0.0
  0
LINE
  5
807
330
1F
100
AcDbEntity
  8
0
  6
Continuous
 62
     7
100
AcDbLine
 10
-167.2908999999999
 20
-55.36699999999999
 30
0.0
 11
-139.7908999999999
 21
-55.36699999999999
 31
0.0
  0
LINE
  5
808
330
1F
100
AcDbEntity
  8
0
  6
Continuous
 62
     7
100
AcDbLine
 10
-169.7908999999999
 20
-58.5672
 30
0.0
 11
-139.7908999999999
 21
-58.5669
 31
0.0
  0
LINE
  5
809
330
1F
100
AcDbEntity
  8
0
  6
Continuous
 62
     7
100
AcDbLine
 10
-150.2290999999999
 20
-47.0669
 30
0.0
 11
-158.2233
 21
-47.0669
 31
0.0
  0
ARC
  5
81A
330
1F
100
AcDbEntity
  8
0
  6
Continuous
 62
     7
100
AcDbCircle
 10
-213.9723187926845
 20
-41.5672165721872
 30
0.0
 40
10.00001657220485
100
AcDbArc
 50
89.99989232602739
 51
172.8145405651354
  0
LINE
  5
81B
330
1F
100
AcDbEntity
  8
0
  6
Continuous
 62
     7
100
AcDbLine
 10
-219.7908999999999
 20
-57.5672
 30
0.0
 11
-169.7908999999999
 21
-57.5672
 31
0.0
  0
LINE
  5
81C
330
1F
100
AcDbEntity
  8
0
  6
Continuous
 62
     7
100
AcDbLine
 10
-221.2908999999999
 20
-54.3674
 30
0.0
 11
-168.2908999999999
 21
-54.36699999999999
 31
0.0
  0
ARC
  5
81D
330
1F
100
AcDbEntity
  8
0
  6
Continuous
 62
     7
100
AcDbCircle
 10
-231.3588070604779
 20
-39.56690622634514
 30
0.0
 40
7.499993773658172
100
AcDbArc
 50
270.0000539381231
 51
352.8154362339984
  0
ARC
  5
81E
330
1F
100
AcDbEntity
  8
0
  6
Continuous
 62
     7
100
AcDbCircle
 10
-239.3526568548255
 20
-52.06686601589672
 30
0.0
 40
4.999966016082868
100
AcDbArc
 50
90.00049441064103
 51
166.4523004070614
  0
LINE
  5
81F
330
1F
100
AcDbEntity
  8
0
  6
Continuous
 62
     7
100
AcDbLine
 10
-223.8808
 20
-40.2136
 30
0.0
 11
-225.4601
 21
-52.74199999999999
 31
0.0
  0
LINE
  5
821
330
1F
100
AcDbEntity
  8
0
  6
Continuous
 62
     7
100
AcDbLine
 10
-219.7908999999999
 20
-58.5672
 30
0.0
 11
-249.7908999999999
 21
-58.5669
 31
0.0
  0
LINE
  5
822
330
1F
100
AcDbEntity
  8
0
  6
Continuous
 62
     7
100
AcDbLine
 10
-222.2908999999999
 20
-55.36699999999999
 30
0.0
 11
-249.7908999999999
 21
-55.36699999999999
 31
0.0
  0
LINE
  5
824
330
1F
100
AcDbEntity
  8
0
  6
Continuous
 62
     7
100
AcDbLine
 10
-249.7908999999999
 20
-55.36699999999999
 30
0.0
 11
-249.7908999999999
 21
-58.5669
 31
0.0
  0
LINE
  5
82A
330
1F
100
AcDbEntity
  8
0
  6
Continuous
 62
     7
100
AcDbLine
 10
-239.3527
 20
-47.0669
 30
0.0
 11
-231.3584999999999
 21
-47.0669
 31
0.0
  0
LINE
  5
82B
330
1F
100
AcDbEntity
  8
0
  6
DASH_CENTER
 62
    30
100
AcDbLine
 10
-239.7908999999999
 20
-51.7307
 30
0.0
 11
-239.7908999999999
 21
-62.05080000000001
 31
0.0
  0
ARC
  5
82C
330
1F
100
AcDbEntity
  8
0
  6
Continuous
 62
     7
100
AcDbCircle
 10
-246.8661325743055
 20
-53.36702565835971
 30
0.0
 40
1.999974341905556
100
AcDbArc
 50
270.0009331970842
 51
346.4531620128799
  0
LINE
  5
82D
330
1F
100
AcDbEntity
  8
0
  6
Continuous
 62
     7
100
AcDbLine
 10
-244.2134999999999
 20
-50.8955
 30
0.0
 11
-244.9217999999999
 21
-53.83549999999999
 31
0.0
  0
LINE
  5
82E
330
1F
100
AcDbEntity
  8
0
  6
Continuous
 62
     7
100
AcDbLine
 10
-219.7908999999999
 20
-57.5672
 30
0.0
 11
-219.7908999999999
 21
-58.5672
 31
0.0
  0
ARC
  5
82F
330
1F
100
AcDbEntity
  8
0
  6
Continuous
 62
     7
100
AcDbCircle
 10
-228.4364182339384
 20
-52.36671607936367
 30
0.0
 40
2.999983920691738
100
AcDbArc
 50
270.0003482444374
 51
352.8137401148632
  0
ARC
  5
830
330
1F
100
AcDbEntity
  8
0
  6
Continuous
 62
     7
100
AcDbCircle
 10
-221.2908999999999
 20
-54.86699999999999
 30
0.0
 40
0.5
100
AcDbArc
 50
90.0
 51
180.0
  0
ARC
  5
831
330
1F
100
AcDbEntity
  8
0
  6
Continuous
 62
     7
100
AcDbCircle
 10
-222.290900005
 20
-54.867000004999
 30
0.0
 40
0.5000000049999909
100
AcDbArc
 50
269.9885414170928
 51
0.0000005728442586
  0
ARC
  5
832
330
1F
100
AcDbEntity
  8
0
  6
Continuous
 62
     7
100
AcDbCircle
 10
-245.790508968692
 20
12.43204227332091
 30
0.0
 40
13.50000742773909
100
AcDbArc
 50
247.2261118134436
 51
257.1582813240871
  0
ARC
  5
833
330
1F
100
AcDbEntity
  8
0
  6
Continuous
 62
    30
100
AcDbCircle
 10
-255.7902221752375
 20
-6.319129259804931
 30
0.0
 40
1.500051920130495
100
AcDbArc
 50
39.39508364984929
 51
99.39536968718964
  0
ARC
  5
834
330
1F
100
AcDbEntity
  8
0
  6
Continuous
 62
    30
100
AcDbCircle
 10
-253.4717778247624
 20
-4.415070740195067
 30
0.0
 40
1.500051920130495
100
AcDbArc
 50
219.3950836498491
 51
279.3953696871895
  0
ARC
  5
835
330
1F
100
AcDbEntity
  8
0
  6
Continuous
 62
    30
100
AcDbCircle
 10
-254.875890209505
 20
-3.887203680936011
 30
0.0
 40
1.500021443143593
100
AcDbArc
 50
219.3944115395679
 51
279.3960417974727
  0
ARC
  5
836
330
1F
100
AcDbEntity
  8
0
  6
Continuous
 62
     7
100
AcDbCircle
 10
-242.791
 20
-22.8174
 30
0.0
 40
2.0
100
AcDbArc
 50
180.0
 51
270.0
  0
ARC
  5
837
330
1F
100
AcDbEntity
  8
0
  6
Continuous
 62
     7
100
AcDbCircle
 10
-221.7909999999999
 20
-21.61739999999999
 30
0.0
 40
2.0
100
AcDbArc
 50
270.0
 51
0.0
  0
ARC
  5
838
330
1F
100
AcDbEntity
  8
0
  6
Continuous
 62
     7
100
AcDbCircle
 10
-242.791
 20
-21.61739999999999
 30
0.0
 40
2.0
100
AcDbArc
 50
180.0
 51
270.0
  0
ARC
  5
839
330
1F
100
AcDbEntity
  8
0
  6
Continuous
 62
     7
100
AcDbCircle
 10
-221.7909999999999
 20
-22.8174
 30
0.0
 40
2.0
100
AcDbArc
 50
270.0
 51
0.0
  0
LINE
  5
83A
330
1F
100
AcDbEntity
  8
0
  6
Continuous
 62
     7
100
AcDbLine
 10
-221.7909999999999
 20
-30.81739999999999
 30
0.0
 11
-242.791
 21
-30.81739999999999
 31
0.0
  0
LINE
  5
83B
330
1F
100
AcDbEntity
  8
0
  6
Continuous
 62
     7
100
AcDbLine
 10
-222.4835
 20
-36.3174
 30
0.0
 11
-242.791
 21
-36.3174
 31
0.0
  0
LINE
  5
83C
330
1F
100
AcDbEntity
  8
0
  6
Continuous
 62
     7
100
AcDbLine
 10
-221.7909999999999
 20
-34.8174
 30
0.0
 11
-242.791
 21
-34.8174
 31
0.0
  0
LINE
  5
83D
330
1F
100
AcDbEntity
  8
0
  6
Continuous
 62
     7
100
AcDbLine
 10
-221.7909999999999
 20
-23.6174
 30
0.0
 11
-242.791
 21
-23.6174
 31
0.0
  0
LINE
  5
83E
330
1F
100
AcDbEntity
  8
0
  6
Continuous
 62
     7
100
AcDbLine
 10
-221.7909999999999
 20
-24.8174
 30
0.0
 11
-242.791
 21
-24.8174
 31
0.0
  0
ARC
  5
83F
330
1F
100
AcDbEntity
  8
0
  6
Continuous
 62
     7
100
AcDbCircle
 10
-242.791
 20
-32.8174
 30
0.0
 40
2.0
100
AcDbArc
 50
180.0
 51
270.0
  0
ARC
  5
840
330
1F
100
AcDbEntity
  8
0
  6
Continuous
 62
     7
100
AcDbCircle
 10
-242.791
 20
-34.3174
 30
0.0
 40
2.0
100
AcDbArc
 50
180.0
 51
270.0
  0
ARC
  5
841
330
1F
100
AcDbEntity
  8
0
  6
Continuous
 62
     7
100
AcDbCircle
 10
-242.791
 20
-32.8174
 30
0.0
 40
2.0
100
AcDbArc
 50
90.0
 51
180.0
  0
LINE
  5
842
330
1F
100
AcDbEntity
  8
0
  6
Continuous
 62
     7
100
AcDbLine
 10
-244.7909999999999
 20
-32.8174
 30
0.0
 11
-244.7909999999999
 21
-34.3174
 31
0.0
  0
ARC
  5
843
330
1F
100
AcDbEntity
  8
0
  6
Continuous
 62
     7
100
AcDbCircle
 10
-221.7908188163979
 20
-32.81737707042663
 30
0.0
 40
2.000022937780149
100
AcDbArc
 50
269.9948095316674
 51
284.4305648852003
  0
ARC
  5
844
330
1F
100
AcDbEntity
  8
0
  6
Continuous
 62
     7
100
AcDbCircle
 10
-221.7910062697956
 20
-32.81739089993893
 30
0.0
 40
1.999990899948762
100
AcDbArc
 50
339.1326140818123
 51
89.99982038276391
  0
LINE
  5
845
330
1F
100
AcDbEntity
  8
0
  6
Continuous
 62
     7
100
AcDbLine
 10
-219.7909999999999
 20
-33.4343
 30
0.0
 11
-219.7909999999999
 21
-32.8174
 31
0.0
  0
LINE
  5
846
330
1F
100
AcDbEntity
  8
0
  6
Continuous
 62
     7
100
AcDbLine
 10
-221.7909999999999
 20
-17.8174
 30
0.0
 11
-242.791
 21
-17.8174
 31
0.0
  0
ARC
  5
847
330
1F
100
AcDbEntity
  8
0
  6
Continuous
 62
     7
100
AcDbCircle
 10
-242.791
 20
-19.8174
 30
0.0
 40
2.0
100
AcDbArc
 50
90.0
 51
180.0
  0
LINE
  5
848
330
1F
100
AcDbEntity
  8
0
  6
Continuous
 62
     7
100
AcDbLine
 10
-244.7909999999999
 20
-19.8174
 30
0.0
 11
-244.7909999999999
 21
-22.8174
 31
0.0
  0
ARC
  5
849
330
1F
100
AcDbEntity
  8
0
  6
Continuous
 62
     7
100
AcDbCircle
 10
-245.7914816695028
 20
12.4320452727353
 30
0.0
 40
13.5000304975231
100
AcDbArc
 50
282.8420909044761
 51
292.7751848865359
  0
ARC
  5
84A
330
1F
100
AcDbEntity
  8
0
  6
Continuous
 62
    30
100
AcDbCircle
 10
-246.5408499999999
 20
-6.490400000000001
 30
0.0
 40
1.500078602107244
100
AcDbArc
 50
239.9995281325403
 51
300.0004718674576
  0
ARC
  5
84B
330
1F
100
AcDbEntity
  8
0
  6
Continuous
 62
    30
100
AcDbCircle
 10
-248.0408499999999
 20
-9.0888
 30
0.0
 40
1.500165205069088
100
AcDbArc
 50
60.00143780877697
 51
119.9985621912247
  0
ARC
  5
84C
330
1F
100
AcDbEntity
  8
0
  6
Continuous
 62
    30
100
AcDbCircle
 10
-248.0408499999999
 20
-6.490400000000001
 30
0.0
 40
1.5001652050691
100
AcDbArc
 50
240.001437808775
 51
299.998562191223
  0
ARC
  5
84D
330
1F
100
AcDbEntity
  8
0
  6
Continuous
 62
    30
100
AcDbCircle
 10
-245.0408499999999
 20
-9.0888
 30
0.0
 40
1.500165205069088
100
AcDbArc
 50
60.00143780877697
 51
119.9985621912247
  0
ARC
  5
84E
330
1F
100
AcDbEntity
  8
0
  6
Continuous
 62
    30
100
AcDbCircle
 10
-243.5408499999999
 20
-6.490400000000001
 30
0.0
 40
1.500078602107244
100
AcDbArc
 50
239.9995281325403
 51
300.0004718674576
  0
ARC
  5
84F
330
1F
100
AcDbEntity
  8
0
  6
Continuous
 62
    30
100
AcDbCircle
 10
-245.0408499999999
 20
-6.490400000000001
 30
0.0
 40
1.5001652050691
100
AcDbArc
 50
240.001437808775
 51
299.998562191223
  0
ARC
  5
850
330
1F
100
AcDbEntity
  8
0
  6
Continuous
 62
    30
100
AcDbCircle
 10
-238.1097221752376
 20
-4.415070740195067
 30
0.0
 40
1.500051920130484
100
AcDbArc
 50
260.6046303128103
 51
320.6049163501507
  0
ARC
  5
851
330
1F
100
AcDbEntity
  8
0
  6
Continuous
 62
    30
100
AcDbCircle
 10
-236.7056221752374
 20
-3.88707074019506
 30
0.0
 40
1.500051920130498
100
AcDbArc
 50
260.6046303128087
 51
320.6049163501487
  0
ARC
  5
852
330
1F
100
AcDbEntity
  8
0
  6
Continuous
 62
    30
100
AcDbCircle
 10
-237.1953778247624
 20
-6.847029259804941
 30
0.0
 40
1.500051920130498
100
AcDbArc
 50
80.60463031280873
 51
140.6049163501486
  0
ARC
  5
853
330
1F
100
AcDbEntity
  8
0
  6
Continuous
 62
     7
100
AcDbCircle
 10
-221.7909999999999
 20
-19.8174
 30
0.0
 40
2.0
100
AcDbArc
 50
0.0
 51
90.0
  0
LINE
  5
854
330
1F
100
AcDbEntity
  8
0
  6
Continuous
 62
     7
100
AcDbLine
 10
-219.7909999999999
 20
-19.8174
 30
0.0
 11
-219.7909999999999
 21
-22.8174
 31
0.0
  0
ARC
  5
855
330
1F
100
AcDbEntity
  8
0
  6
Continuous
 62
     7
100
AcDbCircle
 10
-158.2229929391321
 20
-39.56690622677263
 30
0.0
 40
7.499993773991476
100
AcDbArc
 50
187.1845637623891
 51
269.9991821145366
  0
LINE
  5
856
330
1F
100
AcDbEntity
  8
0
  6
Continuous
 62
     7
100
AcDbLine
 10
-165.7010999999999
 20
-40.2136
 30
0.0
 11
-164.1217
 21
-52.74199999999999
 31
0.0
  0
ARC
  5
85B
330
1F
100
AcDbEntity
  8
0
  6
Continuous
 62
     7
100
AcDbCircle
 10
-167.2908999949999
 20
-54.867000004999
 30
0.0
 40
0.500000005000004
100
AcDbArc
 50
179.9999994271558
 51
270.0114585829071
  0
LINE
  5
85C
330
1F
100
AcDbEntity
  8
0
  6
Continuous
 62
     7
100
AcDbLine
 10
-169.7908999999999
 20
-57.5672
 30
0.0
 11
-169.7908999999999
 21
-58.5672
 31
0.0
  0
ARC
  5
85D
330
1F
100
AcDbEntity
  8
0
  6
Continuous
 62
     7
100
AcDbCircle
 10
-168.2908999999999
 20
-54.86699999999999
 30
0.0
 40
0.5
100
AcDbArc
 50
0.0
 51
90.0
  0
ARC
  5
85E
330
1F
100
AcDbEntity
  8
0
  6
Continuous
 62
     7
100
AcDbCircle
 10
-161.1453817660616
 20
-52.36671607936367
 30
0.0
 40
2.999983920691745
100
AcDbArc
 50
187.1862598851365
 51
269.9996517555625
  0
LINE
  5
85F
330
1F
100
AcDbEntity
  8
0
  6
Continuous
 62
     7
100
AcDbLine
 10
-175.6095
 20
-31.56719999999999
 30
0.0
 11
-213.9723
 21
-31.56719999999999
 31
0.0
  0
ARC
  5
860
330
1F
100
AcDbEntity
  8
0
  6
Continuous
 62
     7
100
AcDbCircle
 10
-158.7909999999999
 20
-22.8174
 30
0.0
 40
2.0
100
AcDbArc
 50
180.0
 51
270.0
  0
ARC
  5
861
330
1F
100
AcDbEntity
  8
0
  6
Continuous
 62
     7
100
AcDbCircle
 10
-158.7909999999999
 20
-21.61739999999999
 30
0.0
 40
2.0
100
AcDbArc
 50
180.0
 51
270.0
  0
ARC
  5
862
330
1F
100
AcDbEntity
  8
0
  6
Continuous
 62
     7
100
AcDbCircle
 10
-175.6094953901591
 20
-41.56720406524622
 30
0.0
 40
10.0000040652473
100
AcDbArc
 50
7.184241258197967
 51
90.00002641243177
  0
ARC
  5
863
330
1F
100
AcDbEntity
  8
0
  6
Continuous
 62
     7
100
AcDbCircle
 10
-158.7909999999999
 20
-32.8174
 30
0.0
 40
2.0
100
AcDbArc
 50
180.0
 51
270.0
  0
ARC
  5
864
330
1F
100
AcDbEntity
  8
0
  6
Continuous
 62
     7
100
AcDbCircle
 10
-158.7909999999999
 20
-34.3174
 30
0.0
 40
2.0
100
AcDbArc
 50
180.0
 51
270.0
  0
ARC
  5
865
330
1F
100
AcDbEntity
  8
0
  6
Continuous
 62
     7
100
AcDbCircle
 10
-158.7909999999999
 20
-32.8174
 30
0.0
 40
2.0
100
AcDbArc
 50
90.0
 51
180.0
  0
LINE
  5
866
330
1F
100
AcDbEntity
  8
0
  6
Continuous
 62
     7
100
AcDbLine
 10
-160.7909999999999
 20
-32.8174
 30
0.0
 11
-160.7909999999999
 21
-34.3174
 31
0.0
  0
ARC
  5
867
330
1F
100
AcDbEntity
  8
0
  6
Continuous
 62
     7
100
AcDbCircle
 10
-158.7909999999999
 20
-19.8174
 30
0.0
 40
2.0
100
AcDbArc
 50
90.0
 51
180.0
  0
LINE
  5
868
330
1F
100
AcDbEntity
  8
0
  6
Continuous
 62
     7
100
AcDbLine
 10
-160.7909999999999
 20
-19.8174
 30
0.0
 11
-160.7909999999999
 21
-22.8174
 31
0.0
  0
ARC
  5
869
330
1F
100
AcDbEntity
  8
0
  6
Continuous
 62
     7
100
AcDbCircle
 10
-158.7909999999999
 20
-7.817399999999999
 30
0.0
 40
2.0
100
AcDbArc
 50
180.0
 51
270.0
  0
ARC
  5
86A
330
1F
100
AcDbEntity
  8
0
  6
Continuous
 62
     7
100
AcDbCircle
 10
-158.7909999999999
 20
-4.817399999999999
 30
0.0
 40
2.0
100
AcDbArc
 50
90.0
 51
180.0
  0
ARC
  5
86B
330
1F
100
AcDbEntity
  8
0
  6
Continuous
 62
     7
100
AcDbCircle
 10
-158.7909999999999
 20
-8.817399999999997
 30
0.0
 40
2.0
100
AcDbArc
 50
180.0
 51
270.0
  0
LINE
  5
86C
330
1F
100
AcDbEntity
  8
0
  6
Continuous
 62
     7
100
AcDbLine
 10
-160.7909999999999
 20
-4.817399999999999
 30
0.0
 11
-160.7909999999999
 21
-8.817399999999997
 31
0.0
  0
ARC
  5
877
330
1F
100
AcDbEntity
  8
0
  6
Continuous
 62
     7
100
AcDbCircle
 10
-150.2291431451744
 20
-52.06686601589672
 30
0.0
 40
4.999966016082843
100
AcDbArc
 50
13.54769959293856
 51
89.99950558935898
  0
LINE
  5
87B
330
1F
100
AcDbEntity
  8
0
  6
Continuous
 62
     7
100
AcDbLine
 10
-121.791
 20
-53.16759999999999
 30
0.0
 11
-144.8209
 21
-53.16769999999999
 31
0.0
  0
LINE
  5
87C
330
1F
100
AcDbEntity
  8
0
  6
DASH_CENTER
 62
    30
100
AcDbLine
 10
-149.7908999999999
 20
-51.7307
 30
0.0
 11
-149.7908999999999
 21
-62.05080000000001
 31
0.0
  0
LINE
  5
87D
330
1F
100
AcDbEntity
  8
0
  6
Continuous
 62
     7
100
AcDbLine
 10
-139.7908999999999
 20
-55.36699999999999
 30
0.0
 11
-139.7908999999999
 21
-58.5669
 31
0.0
  0
ARC
  5
87E
330
1F
100
AcDbEntity
  8
0
  6
Continuous
 62
     7
100
AcDbCircle
 10
-142.7157291381476
 20
-53.36697704943786
 30
0.0
 40
2.00002295077437
100
AcDbArc
 50
193.5479348472157
 51
270.0008347368606
  0
LINE
  5
87F
330
1F
100
AcDbEntity
  8
0
  6
Continuous
 62
     7
100
AcDbLine
 10
-145.3682999999998
 20
-50.8955
 30
0.0
 11
-144.6599999999999
 21
-53.83549999999999
 31
0.0
  0
LINE
  5
880
330
1F
100
AcDbEntity
  8
0
  6
Continuous
 62
     7
100
AcDbLine
 10
-119.4909999999999
 20
-53.06779999999999
 30
0.0
 11
-121.791
 21
-53.06779999999999
 31
0.0
  0
LINE
  5
881
330
1F
100
AcDbEntity
  8
0
  6
Continuous
 62
     7
100
AcDbLine
 10
-109.891
 20
-7.117599999999998
 30
0.0
 11
-119.4909999999999
 21
-7.117599999999998
 31
0.0
  0
LINE
  5
882
330
1F
100
AcDbEntity
  8
0
  6
DASH_CENTER
 62
    30
100
AcDbLine
 10
-107.7028
 20
-30.701
 30
0.0
 11
-125.2749
 21
-30.701
 31
0.0
  0
LINE
  5
883
330
1F
100
AcDbEntity
  8
0
  6
Continuous
 62
     7
100
AcDbLine
 10
-116.6085999999999
 20
-34.7508
 30
0.0
 11
-119.1734
 21
-34.7508
 31
0.0
  0
LINE
  5
884
330
1F
100
AcDbEntity
  8
0
  6
Continuous
 62
     7
100
AcDbLine
 10
-119.1734
 20
-26.65099999999998
 30
0.0
 11
-116.6085999999999
 21
-26.65099999999998
 31
0.0
  0
LINE
  5
885
330
1F
100
AcDbEntity
  8
0
  6
Continuous
 62
     7
100
AcDbLine
 10
-119.1734
 20
-32.72149999999999
 30
0.0
 11
-116.6085
 21
-32.72149999999999
 31
0.0
  0
LINE
  5
886
330
1F
100
AcDbEntity
  8
0
  6
Continuous
 62
     7
100
AcDbLine
 10
-119.1734
 20
-28.68
 30
0.0
 11
-116.6085
 21
-28.68
 31
0.0
  0
ARC
  5
887
330
1F
100
AcDbEntity
  8
0
  6
Continuous
 62
     7
100
AcDbCircle
 10
-137.7909999999999
 20
-21.61739999999999
 30
0.0
 40
2.0
100
AcDbArc
 50
270.0
 51
0.0
  0
ARC
  5
888
330
1F
100
AcDbEntity
  8
0
  6
Continuous
 62
     7
100
AcDbCircle
 10
-137.7909999999999
 20
-22.8174
 30
0.0
 40
2.0
100
AcDbArc
 50
270.0
 51
0.0
  0
ARC
  5
889
330
1F
100
AcDbEntity
  8
0
  6
Continuous
 62
     7
100
AcDbCircle
 10
-137.7909999999999
 20
-32.8174
 30
0.0
 40
2.0
100
AcDbArc
 50
270.0
 51
0.0
  0
ARC
  5
88A
330
1F
100
AcDbEntity
  8
0
  6
Continuous
 62
     7
100
AcDbCircle
 10
-137.7909999999999
 20
-34.3174
 30
0.0
 40
2.0
100
AcDbArc
 50
270.0
 51
0.0
  0
ARC
  5
88B
330
1F
100
AcDbEntity
  8
0
  6
Continuous
 62
     7
100
AcDbCircle
 10
-137.7909999999999
 20
-32.8174
 30
0.0
 40
2.0
100
AcDbArc
 50
0.0
 51
90.0
  0
LINE
  5
88C
330
1F
100
AcDbEntity
  8
0
  6
Continuous
 62
     7
100
AcDbLine
 10
-135.7909999999999
 20
-34.3174
 30
0.0
 11
-135.7909999999999
 21
-32.8174
 31
0.0
  0
ARC
  5
88D
330
1F
100
AcDbEntity
  8
0
  6
Continuous
 62
     7
100
AcDbCircle
 10
-112.9027104186943
 20
-26.6592470954077
 30
0.0
 40
6.588277034786307
100
AcDbArc
 50
184.4192477633646
 51
197.862555580312
  0
ARC
  5
88E
330
1F
100
AcDbEntity
  8
0
  6
Continuous
 62
     7
100
AcDbCircle
 10
-112.9027104186943
 20
-34.7423529045923
 30
0.0
 40
6.588277034786307
100
AcDbArc
 50
162.1374444196877
 51
175.5807522366351
  0
ARC
  5
88F
330
1F
100
AcDbEntity
  8
0
  6
Continuous
 62
     7
100
AcDbCircle
 10
-112.9027000026018
 20
-30.70090515897557
 30
0.0
 40
6.588302977166552
100
AcDbArc
 50
162.1370396760796
 51
197.86012495193
  0
LINE
  5
890
330
1F
100
AcDbEntity
  8
0
  6
Continuous
 62
     7
100
AcDbLine
 10
-119.4909999999999
 20
-27.2008
 30
0.0
 11
-119.1734
 21
-26.6507
 31
0.0
  0
LINE
  5
891
330
1F
100
AcDbEntity
  8
0
  6
Continuous
 62
     7
100
AcDbLine
 10
-119.4909999999999
 20
-34.2008
 30
0.0
 11
-119.1734
 21
-34.7508
 31
0.0
  0
ARC
  5
892
330
1F
100
AcDbEntity
  8
0
  6
Continuous
 62
     7
100
AcDbCircle
 10
-137.7909999999999
 20
-19.8174
 30
0.0
 40
2.0
100
AcDbArc
 50
0.0
 51
90.0
  0
LINE
  5
893
330
1F
100
AcDbEntity
  8
0
  6
Continuous
 62
     7
100
AcDbLine
 10
-135.7909999999999
 20
-19.8174
 30
0.0
 11
-135.7909999999999
 21
-22.8174
 31
0.0
  0
ARC
  5
894
330
1F
100
AcDbEntity
  8
0
  6
Continuous
 62
     7
100
AcDbCircle
 10
-137.7909999999999
 20
-7.817399999999999
 30
0.0
 40
2.0
100
AcDbArc
 50
270.0
 51
0.0
  0
ARC
  5
895
330
1F
100
AcDbEntity
  8
0
  6
Continuous
 62
     7
100
AcDbCircle
 10
-137.7909999999999
 20
-8.817399999999997
 30
0.0
 40
2.0
100
AcDbArc
 50
270.0
 51
0.0
  0
ARC
  5
896
330
1F
100
AcDbEntity
  8
0
  6
Continuous
 62
     7
100
AcDbCircle
 10
-137.7909999999999
 20
-4.817399999999999
 30
0.0
 40
2.0
100
AcDbArc
 50
0.0
 51
90.0
  0
LINE
  5
897
330
1F
100
AcDbEntity
  8
0
  6
Continuous
 62
     7
100
AcDbLine
 10
-135.7909999999999
 20
-4.817399999999999
 30
0.0
 11
-135.7909999999999
 21
-8.817399999999997
 31
0.0
  0
ARC
  5
898
330
1F
100
AcDbEntity
  8
0
  6
Continuous
 62
     7
100
AcDbCircle
 10
-122.8793681231902
 20
-26.65964603562088
 30
0.0
 40
6.58832461560741
100
AcDbArc
 50
342.1412228528692
 51
355.584263961768
  0
ARC
  5
899
330
1F
100
AcDbEntity
  8
0
  6
Continuous
 62
     7
100
AcDbCircle
 10
-122.8793681231902
 20
-34.74195396437909
 30
0.0
 40
6.58832461560741
100
AcDbArc
 50
4.415736038231985
 51
17.85877714713071
  0
ARC
  5
89A
330
1F
100
AcDbEntity
  8
0
  6
Continuous
 62
     7
100
AcDbCircle
 10
-122.8793
 20
-30.70075
 30
0.0
 40
6.588350567668657
100
AcDbArc
 50
342.1385907380356
 51
17.86140926196429
  0
LINE
  5
89B
330
1F
100
AcDbEntity
  8
0
  6
Continuous
 62
     7
100
AcDbLine
 10
-116.2909999999999
 20
-27.2008
 30
0.0
 11
-116.2909999999999
 21
-34.2008
 31
0.0
  0
LINE
  5
89C
330
1F
100
AcDbEntity
  8
0
  6
Continuous
 62
     7
100
AcDbLine
 10
-116.2909999999999
 20
-27.2008
 30
0.0
 11
-116.6085999999999
 21
-26.6507
 31
0.0
  0
LINE
  5
89D
330
1F
100
AcDbEntity
  8
0
  6
Continuous
 62
     7
100
AcDbLine
 10
-116.2909999999999
 20
-34.2008
 30
0.0
 11
-116.6085999999999
 21
-34.7508
 31
0.0
  0
LINE
  5
89E
330
1F
100
AcDbEntity
  8
0
  6
Continuous
 62
     7
100
AcDbLine
 10
-113.941
 20
-28.7008
 30
0.0
 11
-116.2909999999999
 21
-28.7008
 31
0.0
  0
LINE
  5
89F
330
1F
100
AcDbEntity
  8
0
  6
Continuous
 62
     7
100
AcDbLine
 10
-116.2909999999999
 20
-34.2008
 30
0.0
 11
-116.2909999999999
 21
-27.2008
 31
0.0
  0
LINE
  5
8A0
330
1F
100
AcDbEntity
  8
0
  6
Continuous
 62
    30
100
AcDbLine
 10
-113.5909
 20
-29.05089999999999
 30
0.0
 11
-116.2909999999999
 21
-29.05089999999999
 31
0.0
  0
LINE
  5
8A1
330
1F
100
AcDbEntity
  8
0
  6
Continuous
 62
    30
100
AcDbLine
 10
-116.2909999999999
 20
-32.3509
 30
0.0
 11
-113.5909
 21
-32.3509
 31
0.0
  0
LINE
  5
8A2
330
1F
100
AcDbEntity
  8
0
  6
Continuous
 62
     7
100
AcDbLine
 10
-113.941
 20
-32.7008
 30
0.0
 11
-116.2909999999999
 21
-32.7008
 31
0.0
  0
LINE
  5
8A3
330
1F
100
AcDbEntity
  8
0
  6
Continuous
 62
     7
100
AcDbLine
 10
-113.5909
 20
-32.3509
 30
0.0
 11
-113.5909
 21
-29.05089999999999
 31
0.0
  0
LINE
  5
8A4
330
1F
100
AcDbEntity
  8
0
  6
Continuous
 62
     7
100
AcDbLine
 10
-113.941
 20
-28.7008
 30
0.0
 11
-113.941
 21
-32.7008
 31
0.0
  0
LINE
  5
8A5
330
1F
100
AcDbEntity
  8
0
  6
Continuous
 62
     7
100
AcDbLine
 10
-113.941
 20
-32.7008
 30
0.0
 11
-113.5909
 21
-32.3509
 31
0.0
  0
LINE
  5
8A6
330
1F
100
AcDbEntity
  8
0
  6
Continuous
 62
     7
100
AcDbLine
 10
-113.5909
 20
-29.05089999999999
 30
0.0
 11
-113.941
 21
-28.7008
 31
0.0
  0
ARC
  5
8A7
330
1F
100
AcDbEntity
  8
0
  6
Continuous
 62
     7
100
AcDbCircle
 10
-110.0937002413054
 20
-3.067800353438788
 30
0.0
 40
1.999972238557284
100
AcDbArc
 50
298.7577137621002
 51
352.5967635949553
  0
ARC
  5
8A8
330
1F
100
AcDbEntity
  8
0
  6
Continuous
 62
     7
100
AcDbCircle
 10
-108.8909825973344
 20
-5.259470599889858
 30
0.0
 40
0.5000174035298981
100
AcDbArc
 50
118.7519144098085
 51
180.0033688871974
  0
ARC
  5
8A9
330
1F
100
AcDbEntity
  8
0
  6
Continuous
 62
     7
100
AcDbCircle
 10
-109.891
 20
-6.617599999999998
 30
0.0
 40
0.5
100
AcDbArc
 50
270.0
 51
0.0
  0
LINE
  5
8AE
330
1F
100
AcDbEntity
  8
0
  6
DASH_CENTER
 62
    30
100
AcDbLine
 10
-292.8093
 20
55.56540000000001
 30
0.0
 11
-279.4350999999999
 21
55.56540000000001
 31
0.0
  0
LINE
  5
8AF
330
1F
100
AcDbEntity
  8
0
  6
DASH_CENTER
 62
    30
100
AcDbLine
 10
-104.7909999999999
 20
12.43219999999999
 30
0.0
 11
-297.9907960983236
 21
12.4322
 31
0.0
  0
LINE
  5
8B0
330
1F
100
AcDbEntity
  8
0
  6
Continuous
 62
     7
100
AcDbLine
 10
-121.9909999999998
 20
78.032
 30
0.0
 11
-283.091
 21
78.03230000000002
 31
0.0
  0
LINE
  5
8B5
330
1F
100
AcDbEntity
  8
0
  6
Continuous
 62
     7
100
AcDbLine
 10
-283.291
 20
12.43200000000002
 30
0.0
 11
-283.291
 21
78.03230000000005
 31
0.0
  0
LINE
  5
8B6
330
1F
100
AcDbEntity
  8
0
  6
Continuous
 62
     7
100
AcDbLine
 10
-285.5907
 20
77.93220000000002
 30
0.0
 11
-285.5907
 21
12.43219999999999
 31
0.0
  0
ARC
  5
8B7
330
1F
100
AcDbEntity
  8
0
  6
Continuous
 62
     7
100
AcDbCircle
 10
-175.6907999999999
 20
12.43219999999999
 30
0.0
 40
122.2999960983238
100
AcDbArc
 50
172.5971659224079
 51
180.0
  0
LINE
  5
8B8
330
1F
100
AcDbEntity
  8
0
  6
Continuous
 62
     7
100
AcDbLine
 10
-295.6906
 20
12.43219999999999
 30
0.0
 11
-295.6906
 21
31.48230000000003
 31
0.0
  0
LINE
  5
8B9
330
1F
100
AcDbEntity
  8
0
  6
DASH_CENTER
 62
    30
100
AcDbLine
 10
-297.9907960983236
 20
12.4322
 30
0.0
 11
-311.3668999999998
 21
12.43219999999999
 31
0.0
  0
LINE
  5
8BA
330
1F
100
AcDbEntity
  8
0
  6
Continuous
 62
     7
100
AcDbLine
 10
-285.5907999999999
 20
31.98230000000003
 30
0.0
 11
-295.1906
 21
31.98230000000003
 31
0.0
  0
ARC
  5
8BB
330
1F
100
AcDbEntity
  8
0
  6
Continuous
 62
     7
100
AcDbCircle
 10
-294.9879997586946
 20
27.93220035343884
 30
0.0
 40
1.999972238557271
100
AcDbArc
 50
118.757713762102
 51
172.596763594957
  0
ARC
  5
8BC
330
1F
100
AcDbEntity
  8
0
  6
Continuous
 62
     7
100
AcDbCircle
 10
-296.1906174026656
 20
30.12387059988987
 30
0.0
 40
0.5000174035298974
100
AcDbArc
 50
298.7519144098066
 51
0.0033688872001989
  0
ARC
  5
8BD
330
1F
100
AcDbEntity
  8
0
  6
Continuous
 62
     7
100
AcDbCircle
 10
-295.1906
 20
31.48230000000003
 30
0.0
 40
0.5
100
AcDbArc
 50
90.0
 51
180.0
  0
ARC
  5
8BE
330
1F
100
AcDbEntity
  8
0
  6
Continuous
 62
     7
100
AcDbCircle
 10
-286.890776750911
 20
57.64662537279447
 30
0.0
 40
1.300023249336594
100
AcDbArc
 50
95.00082984247455
 51
180.0011182523369
  0
ARC
  5
8BF
330
1F
100
AcDbEntity
  8
0
  6
Continuous
 62
     7
100
AcDbCircle
 10
-286.8908265608043
 20
53.48402898478269
 30
0.0
 40
1.299973439518823
100
AcDbArc
 50
180.0012774920361
 51
265.001181793105
  0
LINE
  5
8C0
330
1F
100
AcDbEntity
  8
0
  6
Continuous
 62
     7
100
AcDbLine
 10
-287.0038
 20
52.18910000000004
 30
0.0
 11
-285.5907
 21
52.06530000000004
 31
0.0
  0
LINE
  5
8C1
330
1F
100
AcDbEntity
  8
0
  6
Continuous
 62
     7
100
AcDbLine
 10
-288.1906
 20
53.48400000000004
 30
0.0
 11
-288.1906
 21
57.64660000000002
 31
0.0
  0
LINE
  5
8C2
330
1F
100
AcDbEntity
  8
0
  6
Continuous
 62
     7
100
AcDbLine
 10
-287.0038
 20
58.94180000000003
 30
0.0
 11
-285.5907
 21
59.06530000000003
 31
0.0
  0
LINE
  5
8C3
330
1F
100
AcDbEntity
  8
0
  6
Continuous
 62
     7
100
AcDbLine
 10
-283.2907
 20
77.93220000000002
 30
0.0
 11
-285.5907
 21
77.93220000000002
 31
0.0
  0
LINE
  5
C52
330
1F
100
AcDbEntity
  8
0
  6
Continuous
 62
     7
100
AcDbLine
 10
-137.7909999999999
 20
13.1826
 30
0.0
 11
-158.7909999999999
 21
13.1826
 31
0.0
  0
LINE
  5
C53
330
1F
100
AcDbEntity
  8
0
  6
Continuous
 62
     7
100
AcDbLine
 10
-158.7909999999999
 20
5.182599999999998
 30
0.0
 11
-137.7909999999999
 21
5.182599999999998
 31
0.0
  0
LINE
  5
C54
330
1F
100
AcDbEntity
  8
0
  6
DASHED
 62
    30
100
AcDbLine
 10
-163.291
 20
42.9487
 30
0.0
 11
-226.291
 21
42.9487
 31
0.0
  0
LINE
  5
C55
330
1F
100
AcDbEntity
  8
0
  6
DASHED
 62
    30
100
AcDbLine
 10
-226.291
 20
71.3459
 30
0.0
 11
-163.291
 21
71.3459
 31
0.0
  0
LINE
  5
C56
330
1F
100
AcDbEntity
  8
0
  6
DASHED
 62
    30
100
AcDbLine
 10
-226.291
 20
42.9487
 30
0.0
 11
-226.291
 21
71.3459
 31
0.0
  0
ARC
  5
C57
330
1F
100
AcDbEntity
  8
0
  6
Continuous
 62
     7
100
AcDbCircle
 10
-245.791
 20
12.43219999999999
 30
0.0
 40
13.49994772508398
100
AcDbArc
 50
87.35406528107958
 51
234.3233884568203
  0
ARC
  5
C58
330
1F
100
AcDbEntity
  8
0
  6
Continuous
 62
     7
100
AcDbCircle
 10
-245.791
 20
12.43219999999999
 30
0.0
 40
13.5000414591956
100
AcDbArc
 50
305.6778933411801
 51
87.35406528107958
  0
ARC
  5
C59
330
1F
100
AcDbEntity
  8
0
  6
Continuous
 62
     7
100
AcDbCircle
 10
-245.7908999999999
 20
12.43219999999999
 30
0.0
 40
3.750200000000006
100
AcDbArc
 50
0.0
 51
180.0081249032263
  0
ARC
  5
C5A
330
1F
100
AcDbEntity
  8
0
  6
Continuous
 62
     7
100
AcDbCircle
 10
-247.2908999999999
 20
14.0572
 30
0.0
 40
1.5
100
AcDbArc
 50
0.0
 51
180.0
  0
ARC
  5
C5B
330
1F
100
AcDbEntity
  8
0
  6
Continuous
 62
     7
100
AcDbCircle
 10
-244.2908999999999
 20
14.0572
 30
0.0
 40
1.5
100
AcDbArc
 50
0.0
 51
180.0
  0
LINE
  5
C5C
330
1F
100
AcDbEntity
  8
0
  6
DASHED
 62
    30
100
AcDbLine
 10
-163.291
 20
71.3459
 30
0.0
 11
-163.291
 21
42.9487
 31
0.0
  0
ARC
  5
C5D
330
1F
100
AcDbEntity
  8
0
  6
Continuous
 62
     7
100
AcDbCircle
 10
-158.7909999999999
 20
11.1826
 30
0.0
 40
2.0
100
AcDbArc
 50
90.0
 51
180.0
  0
ARC
  5
C5E
330
1F
100
AcDbEntity
  8
0
  6
Continuous
 62
     7
100
AcDbCircle
 10
-158.7909999999999
 20
7.182599999999998
 30
0.0
 40
2.0
100
AcDbArc
 50
180.0
 51
270.0
  0
LINE
  5
C5F
330
1F
100
AcDbEntity
  8
0
  6
Continuous
 62
     7
100
AcDbLine
 10
-160.7909999999999
 20
7.182599999999998
 30
0.0
 11
-160.7909999999999
 21
11.1826
 31
0.0
  0
LINE
  5
C72
330
1F
100
AcDbEntity
  8
0
  6
Continuous
 62
     7
100
AcDbLine
 10
-101.791
 20
18.4322
 30
0.0
 11
-74.79099999999998
 21
18.4322
 31
0.0
  0
LINE
  5
C73
330
1F
100
AcDbEntity
  8
0
  6
Continuous
 62
     7
100
AcDbLine
 10
-75.791
 20
5.432199999999999
 30
0.0
 11
-104.4909999999999
 21
5.432199999999999
 31
0.0
  0
LINE
  5
C74
330
1F
100
AcDbEntity
  8
0
  6
DASH_CENTER
 62
    30
100
AcDbLine
 10
-59.6867
 20
12.43219999999999
 30
0.0
 11
-104.7909999999999
 21
12.43219999999999
 31
0.0
  0
LINE
  5
C75
330
1F
100
AcDbEntity
  8
0
  6
Continuous
 62
     7
100
AcDbLine
 10
-119.4909999999999
 20
77.93220000000002
 30
0.0
 11
-119.4909999999999
 21
12.43219999999999
 31
0.0
  0
LINE
  5
C76
330
1F
100
AcDbEntity
  8
0
  6
Continuous
 62
     7
100
AcDbLine
 10
-121.791
 20
12.43200000000002
 30
0.0
 11
-121.791
 21
78.03200000000003
 31
0.0
  0
LINE
  5
C77
330
1F
100
AcDbEntity
  8
0
  6
Continuous
 62
     7
100
AcDbLine
 10
-119.4909999999999
 20
31.98200000000001
 30
0.0
 11
-109.891
 21
31.98200000000001
 31
0.0
  0
ARC
  5
C78
330
1F
100
AcDbEntity
  8
0
  6
Continuous
 62
     7
100
AcDbCircle
 10
-137.7909999999999
 20
11.1826
 30
0.0
 40
2.0
100
AcDbArc
 50
0.0
 51
90.0
  0
ARC
  5
C79
330
1F
100
AcDbEntity
  8
0
  6
Continuous
 62
     7
100
AcDbCircle
 10
-137.7909999999999
 20
7.182599999999998
 30
0.0
 40
2.0
100
AcDbArc
 50
270.0
 51
359.9999999999998
  0
LINE
  5
C7A
330
1F
100
AcDbEntity
  8
0
  6
Continuous
 62
     7
100
AcDbLine
 10
-135.7909999999999
 20
7.182599999999998
 30
0.0
 11
-135.7909999999999
 21
11.18239999999999
 31
0.0
  0
ARC
  5
C7B
330
1F
100
AcDbEntity
  8
0
  6
Continuous
 62
     7
100
AcDbCircle
 10
-229.3909946155975
 20
12.43214341764227
 30
0.0
 40
122.2999980491485
100
AcDbArc
 50
3.468985286574218
 51
7.402860689670686
  0
LINE
  5
C7C
330
1F
100
AcDbEntity
  8
0
  6
Continuous
 62
     7
100
AcDbLine
 10
-109.391
 20
12.43219999999999
 30
0.0
 11
-109.391
 21
31.482
 31
0.0
  0
LINE
  5
C7E
330
1F
100
AcDbEntity
  8
0
  6
Continuous
 62
     7
100
AcDbLine
 10
-104.4909999999999
 20
19.4322
 30
0.0
 11
-101.791
 21
19.4322
 31
0.0
  0
LINE
  5
C7F
330
1F
100
AcDbEntity
  8
0
  6
Continuous
 62
     7
100
AcDbLine
 10
-104.7909999999999
 20
12.43219999999999
 30
0.0
 11
-104.7909999999999
 21
5.032
 31
0.0
  0
ARC
  5
C81
330
1F
100
AcDbEntity
  8
0
  6
Continuous
 62
     7
100
AcDbCircle
 10
-104.4909999999999
 20
5.1326
 30
0.0
 40
0.3000000000000052
100
AcDbArc
 50
90.0
 51
180.0
  0
LINE
  5
C82
330
1F
100
AcDbEntity
  8
0
  6
Continuous
 62
     7
100
AcDbLine
 10
-107.3150999999999
 20
5.032
 30
0.0
 11
-104.7909999999999
 21
5.032
 31
0.0
  0
ARC
  5
C83
330
1F
100
AcDbEntity
  8
0
  6
Continuous
 62
     7
100
AcDbCircle
 10
-229.3909999999999
 20
12.43219999999999
 30
0.0
 40
122.3
100
AcDbArc
 50
0.0
 51
3.468958674496588
  0
ARC
  5
C84
330
1F
100
AcDbEntity
  8
0
  6
Continuous
 62
     7
100
AcDbCircle
 10
-104.4909999999999
 20
19.7325
 30
0.0
 40
0.2999999999999972
100
AcDbArc
 50
180.0
 51
270.0
  0
LINE
  5
C85
330
1F
100
AcDbEntity
  8
0
  6
Continuous
 62
     7
100
AcDbLine
 10
-104.7909999999999
 20
19.8323
 30
0.0
 11
-104.7909999999999
 21
12.43219999999999
 31
0.0
  0
LINE
  5
C86
330
1F
100
AcDbEntity
  8
0
  6
Continuous
 62
     7
100
AcDbLine
 10
-107.3150870605916
 20
19.8323
 30
0.0
 11
-104.7909999999999
 21
19.8323
 31
0.0
  0
LINE
  5
C87
330
1F
100
AcDbEntity
  8
0
  6
Continuous
 62
     7
100
AcDbLine
 10
-101.791
 20
18.4322
 30
0.0
 11
-101.791
 21
19.4322
 31
0.0
  0
ARC
  5
C88
330
1F
100
AcDbEntity
  8
0
  6
Continuous
 62
     7
100
AcDbCircle
 10
-110.0937002413054
 20
27.9322003534388
 30
0.0
 40
1.999972238557284
100
AcDbArc
 50
7.403236405044351
 51
61.24228623789965
  0
ARC
  5
C89
330
1F
100
AcDbEntity
  8
0
  6
Continuous
 62
     7
100
AcDbCircle
 10
-108.8909825973344
 20
30.12387059988988
 30
0.0
 40
0.5000174035298992
100
AcDbArc
 50
179.9966311128021
 51
241.2480855901912
  0
ARC
  5
C8A
330
1F
100
AcDbEntity
  8
0
  6
Continuous
 62
     7
100
AcDbCircle
 10
-109.891
 20
31.482
 30
0.0
 40
0.5
100
AcDbArc
 50
0.0
 51
90.0
  0
LINE
  5
C8B
330
1F
100
AcDbEntity
  8
0
  6
DASH_CENTER
 62
    30
100
AcDbLine
 10
-125.2749
 20
55.56540000000001
 30
0.0
 11
-107.7028
 21
55.56540000000001
 31
0.0
  0
LINE
  5
C8C
330
1F
100
AcDbEntity
  8
0
  6
Continuous
 62
     7
100
AcDbLine
 10
-119.1734
 20
59.61520000000001
 30
0.0
 11
-116.6085999999999
 21
59.61520000000001
 31
0.0
  0
LINE
  5
C8D
330
1F
100
AcDbEntity
  8
0
  6
Continuous
 62
     7
100
AcDbLine
 10
-116.6085999999999
 20
51.5154
 30
0.0
 11
-119.1734
 21
51.5154
 31
0.0
  0
LINE
  5
C8E
330
1F
100
AcDbEntity
  8
0
  6
Continuous
 62
     7
100
AcDbLine
 10
-116.6085
 20
57.58590000000001
 30
0.0
 11
-119.1734
 21
57.58590000000001
 31
0.0
  0
LINE
  5
C8F
330
1F
100
AcDbEntity
  8
0
  6
Continuous
 62
     7
100
AcDbLine
 10
-116.6085
 20
53.54440000000002
 30
0.0
 11
-119.1734
 21
53.54440000000002
 31
0.0
  0
ARC
  5
C90
330
1F
100
AcDbEntity
  8
0
  6
Continuous
 62
     7
100
AcDbCircle
 10
-112.9027104186943
 20
59.60675290459231
 30
0.0
 40
6.588277034786307
100
AcDbArc
 50
184.4192477633646
 51
197.862555580312
  0
ARC
  5
C91
330
1F
100
AcDbEntity
  8
0
  6
Continuous
 62
     7
100
AcDbCircle
 10
-112.9027104186943
 20
51.52364709540773
 30
0.0
 40
6.588277034786307
100
AcDbArc
 50
162.1374444196877
 51
175.5807522366351
  0
ARC
  5
C92
330
1F
100
AcDbEntity
  8
0
  6
Continuous
 62
     7
100
AcDbCircle
 10
-112.9027000026018
 20
55.56530515897558
 30
0.0
 40
6.588302977166552
100
AcDbArc
 50
162.1398750480698
 51
197.8629603239203
  0
LINE
  5
C93
330
1F
100
AcDbEntity
  8
0
  6
Continuous
 62
     7
100
AcDbLine
 10
-119.1734
 20
51.51510000000001
 30
0.0
 11
-119.4909999999999
 21
52.06520000000002
 31
0.0
  0
LINE
  5
C94
330
1F
100
AcDbEntity
  8
0
  6
Continuous
 62
     7
100
AcDbLine
 10
-119.1734
 20
59.61520000000001
 30
0.0
 11
-119.4909999999999
 21
59.06520000000002
 31
0.0
  0
LINE
  5
C95
330
1F
100
AcDbEntity
  8
0
  6
Continuous
 62
     7
100
AcDbLine
 10
-121.791
 20
77.93220000000002
 30
0.0
 11
-119.4909999999999
 21
77.93220000000002
 31
0.0
  0
ARC
  5
C96
330
1F
100
AcDbEntity
  8
0
  6
Continuous
 62
     7
100
AcDbCircle
 10
-122.8793681231902
 20
59.60635396437911
 30
0.0
 40
6.588324615607409
100
AcDbArc
 50
342.1412228528692
 51
355.5842639617681
  0
LINE
  5
C97
330
1F
100
AcDbEntity
  8
0
  6
Continuous
 62
     7
100
AcDbLine
 10
-116.2909999999999
 20
59.06520000000002
 30
0.0
 11
-116.2909999999999
 21
52.06520000000002
 31
0.0
  0
LINE
  5
C98
330
1F
100
AcDbEntity
  8
0
  6
Continuous
 62
     7
100
AcDbLine
 10
-116.2909999999999
 20
52.06520000000002
 30
0.0
 11
-116.2909999999999
 21
59.06520000000002
 31
0.0
  0
ARC
  5
C99
330
1F
100
AcDbEntity
  8
0
  6
Continuous
 62
     7
100
AcDbCircle
 10
-122.8793681231902
 20
51.52404603562089
 30
0.0
 40
6.58832461560741
100
AcDbArc
 50
4.415736038232085
 51
17.85877714713071
  0
ARC
  5
C9A
330
1F
100
AcDbEntity
  8
0
  6
Continuous
 62
     7
100
AcDbCircle
 10
-122.8793
 20
55.56515
 30
0.0
 40
6.588350567668657
100
AcDbArc
 50
342.1385907380356
 51
17.86140926196429
  0
LINE
  5
C9B
330
1F
100
AcDbEntity
  8
0
  6
Continuous
 62
     7
100
AcDbLine
 10
-116.6085999999999
 20
51.51510000000001
 30
0.0
 11
-116.2909999999999
 21
52.06520000000002
 31
0.0
  0
LINE
  5
C9C
330
1F
100
AcDbEntity
  8
0
  6
Continuous
 62
     7
100
AcDbLine
 10
-116.2909999999999
 20
53.56520000000002
 30
0.0
 11
-113.941
 21
53.56520000000002
 31
0.0
  0
LINE
  5
C9D
330
1F
100
AcDbEntity
  8
0
  6
Continuous
 62
    30
100
AcDbLine
 10
-116.2909999999999
 20
53.91530000000002
 30
0.0
 11
-113.5909
 21
53.91530000000002
 31
0.0
  0
LINE
  5
C9E
330
1F
100
AcDbEntity
  8
0
  6
Continuous
 62
    30
100
AcDbLine
 10
-113.5909
 20
57.21530000000001
 30
0.0
 11
-116.2909999999999
 21
57.21530000000001
 31
0.0
  0
LINE
  5
C9F
330
1F
100
AcDbEntity
  8
0
  6
Continuous
 62
     7
100
AcDbLine
 10
-116.2909999999999
 20
57.56520000000001
 30
0.0
 11
-113.941
 21
57.56520000000001
 31
0.0
  0
LINE
  5
CA0
330
1F
100
AcDbEntity
  8
0
  6
Continuous
 62
     7
100
AcDbLine
 10
-113.5909
 20
53.91530000000002
 30
0.0
 11
-113.5909
 21
57.21530000000001
 31
0.0
  0
LINE
  5
CA1
330
1F
100
AcDbEntity
  8
0
  6
Continuous
 62
     7
100
AcDbLine
 10
-113.941
 20
57.56520000000001
 30
0.0
 11
-113.941
 21
53.56520000000002
 31
0.0
  0
LINE
  5
CA2
330
1F
100
AcDbEntity
  8
0
  6
Continuous
 62
     7
100
AcDbLine
 10
-113.5909
 20
57.21530000000001
 30
0.0
 11
-113.941
 21
57.56520000000001
 31
0.0
  0
LINE
  5
CA3
330
1F
100
AcDbEntity
  8
0
  6
Continuous
 62
     7
100
AcDbLine
 10
-113.941
 20
53.56520000000002
 30
0.0
 11
-113.5909
 21
53.91530000000002
 31
0.0
  0
LINE
  5
CA4
330
1F
100
AcDbEntity
  8
0
  6
Continuous
 62
     7
100
AcDbLine
 10
-116.6085999999999
 20
59.61520000000001
 30
0.0
 11
-116.2909999999999
 21
59.06520000000002
 31
0.0
  0
LINE
  5
CA7
330
1F
100
AcDbEntity
  8
0
  6
Continuous
 62
     7
100
AcDbLine
 10
-75.791
 20
5.432199999999999
 30
0.0
 11
-75.791
 21
18.4322
 31
0.0
  0
LINE
  5
CA8
330
1F
100
AcDbEntity
  8
0
  6
Continuous
 62
     7
100
AcDbLine
 10
-74.79099999999998
 20
6.432199999999999
 30
0.0
 11
-74.79099999999998
 21
18.4322
 31
0.0
  0
LINE
  5
CA9
330
1F
100
AcDbEntity
  8
0
  6
Continuous
 62
     7
100
AcDbLine
 10
-75.791
 20
5.432199999999999
 30
0.0
 11
-74.79099999999998
 21
6.432199999999999
 31
0.0
  0
POINT
  5
CAA
330
1F
100
AcDbEntity
  8
0
 62
     2
100
AcDbPoint
 10
-23.601429413912
 20
11.25970000000009
 30
0.0
  0
CIRCLE
  5
CC6
330
1F
100
AcDbEntity
  8
0
  6
Continuous
 62
     7
100
AcDbCircle
 10
190.8080999999999
 20
12.4326
 30
0.0
 40
54.0
  0
CIRCLE
  5
CC7
330
1F
100
AcDbEntity
  8
0
  6
Continuous
 62
     7
100
AcDbCircle
 10
190.8080999999999
 20
12.4326
 30
0.0
 40
19.54990000000001
  0
CIRCLE
  5
CC8
330
1F
100
AcDbEntity
  8
0
  6
Continuous
 62
     7
100
AcDbCircle
 10
190.8080999999999
 20
12.4326
 30
0.0
 40
17.25
  0
ARC
  5
CC9
330
1F
100
AcDbEntity
  8
0
  6
Continuous
 62
     7
100
AcDbCircle
 10
190.8084
 20
12.4326
 30
0.0
 40
65.60000000000001
100
AcDbArc
 50
180.0
 51
359.9998253177453
  0
ARC
  5
CCA
330
1F
100
AcDbEntity
  8
0
  6
Continuous
 62
     7
100
AcDbCircle
 10
190.80841578588
 20
12.43258421404085
 30
0.0
 40
26.99999818693516
100
AcDbArc
 50
193.4933652950028
 51
256.506347575032
  0
ARC
  5
CCB
330
1F
100
AcDbEntity
  8
0
  6
Continuous
 62
     7
100
AcDbCircle
 10
190.8084138621239
 20
12.43258613782574
 30
0.0
 40
35.99995862629032
100
AcDbArc
 50
192.2467406665913
 51
257.7530513198325
  0
ARC
  5
CCC
330
1F
100
AcDbEntity
  8
0
  6
Continuous
 62
     7
100
AcDbCircle
 10
145.641983875615
 20
-0.567421419760411
 30
0.0
 40
3.000021419803743
100
AcDbArc
 50
89.99969204913107
 51
196.0568429937813
  0
ARC
  5
CCD
330
1F
100
AcDbEntity
  8
0
  6
Continuous
 62
     7
100
AcDbCircle
 10
160.4769051651715
 20
-0.5673921666373101
 30
0.0
 40
2.999992166641755
100
AcDbArc
 50
90.00009864776805
 51
203.199692274426
  0
ARC
  5
CCE
330
1F
100
AcDbEntity
  8
0
  6
Continuous
 62
     7
100
AcDbCircle
 10
221.1395948348285
 20
-0.5673921666373209
 30
0.0
 40
2.999992166641765
100
AcDbArc
 50
336.8003077255738
 51
89.99990135223354
  0
ARC
  5
CCF
330
1F
100
AcDbEntity
  8
0
  6
Continuous
 62
     7
100
AcDbCircle
 10
235.9745161243849
 20
-0.5674214197603896
 30
0.0
 40
3.00002141980373
100
AcDbArc
 50
343.943157006218
 51
90.00030795086731
  0
ARC
  5
CD0
330
1F
100
AcDbEntity
  8
0
  6
Continuous
 62
     7
100
AcDbCircle
 10
190.8080861378761
 20
12.43258613782574
 30
0.0
 40
35.99995862629032
100
AcDbArc
 50
282.2469486801674
 51
347.7532593334085
  0
ARC
  5
CD1
330
1F
100
AcDbEntity
  8
0
  6
Continuous
 62
     7
100
AcDbCircle
 10
190.8080842141199
 20
12.43258421404089
 30
0.0
 40
26.99999818693517
100
AcDbArc
 50
283.4936524249678
 51
346.5066347049969
  0
ARC
  5
CD2
330
1F
100
AcDbEntity
  8
0
  6
Continuous
 62
     7
100
AcDbCircle
 10
190.8080999999999
 20
12.4326
 30
0.0
 40
40.99999039853547
100
AcDbArc
 50
279.154238391259
 51
350.8457616087403
  0
ARC
  5
CD3
330
1F
100
AcDbEntity
  8
0
  6
Continuous
 62
     7
100
AcDbCircle
 10
190.8084
 20
12.4326
 30
0.0
 40
40.99999039853547
100
AcDbArc
 50
189.1542383912594
 51
260.8457616087408
  0
ARC
  5
CD4
330
1F
100
AcDbEntity
  8
0
  6
Continuous
 62
     7
100
AcDbCircle
 10
125.6957183303039
 20
1.04828753477558
 30
0.0
 40
1.999992252362151
100
AcDbArc
 50
189.9154326880862
 51
281.6505225303486
  0
LINE
  5
CD5
330
1F
100
AcDbEntity
  8
0
  6
Continuous
 62
     7
100
AcDbLine
 10
110.7250999999999
 20
-14.3912416904618
 30
0.0
 11
110.7250999999999
 21
0.4321000000000003
 31
0.0
  0
LINE
  5
CD6
330
1F
100
AcDbEntity
  8
0
  6
Continuous
 62
     7
100
AcDbLine
 10
107.7250999999999
 20
-14.3912416904618
 30
0.0
 11
107.7250999999999
 21
0.4321000000000003
 31
0.0
  0
LINE
  5
CD7
330
1F
100
AcDbEntity
  8
0
  6
Continuous
 62
     7
100
AcDbLine
 10
104.7250999999999
 20
-14.3912416904618
 30
0.0
 11
104.7250999999999
 21
0.4321000000000003
 31
0.0
  0
LINE
  5
CD8
330
1F
100
AcDbEntity
  8
0
  6
Continuous
 62
     7
100
AcDbLine
 10
101.7250999999999
 20
-14.3912416904618
 30
0.0
 11
101.7250999999999
 21
0.4321000000000003
 31
0.0
  0
LINE
  5
CD9
330
1F
100
AcDbEntity
  8
0
  6
Continuous
 62
     7
100
AcDbLine
 10
98.7251
 20
-14.3912416904618
 30
0.0
 11
98.7251
 21
0.4321000000000003
 31
0.0
  0
LINE
  5
CDA
330
1F
100
AcDbEntity
  8
0
  6
DASH_CENTER
 62
    30
100
AcDbLine
 10
190.8084
 20
-72.97046713692949
 30
0.0
 11
190.8084
 21
86.05580000000001
 31
0.0
  0
SPLINE
  5
CE0
330
1F
100
AcDbEntity
  8
0
  6
Continuous
 62
    54
100
AcDbSpline
210
0.0
220
0.0
230
1.0
 70
     8
 71
     3
 72
   141
 73
   137
 74
   135
 42
0.0000000001
 43
0.0000000001
 44
0.00000001
 40
0.0
 40
0.0
 40
0.0
 40
0.0
 40
0.2626125722553996
 40
0.5252229897642784
 40
0.7878464660570109
 40
1.075428894538648
 40
1.36303846951798
 40
1.650586370737427
 40
1.931165997058441
 40
2.211798652446597
 40
2.492417660816524
 40
2.793855024797994
 40
3.095312440915032
 40
3.396867360776596
 40
3.698451587454506
 40
4.131419367173744
 40
4.564261333664592
 40
4.997082101088739
 40
5.504456529644922
 40
6.011845427822013
 40
6.0176289385805
 40
6.023412446105966
 40
6.029184323753359
 40
6.034956207770285
 40
6.392597960615129
 40
6.750241790400416
 40
7.107879068242168
 40
7.458869678834225
 40
7.809872634915982
 40
8.160857351961954
 40
8.662250235285572
 40
9.163667674269175
 40
9.665963731559108
 40
10.16826034608051
 40
10.67057205969143
 40
11.53513511739677
 40
12.39966727442304
 40
13.15108807270378
 40
13.90254681865552
 40
14.34352127109277
 40
14.78447779930983
 40
15.2254655831205
 40
15.66670408180207
 40
15.94520950942021
 40
16.2237783058478
 40
16.50228001026653
 40
16.78067696223644
 40
17.05903809259535
 40
17.33755265406592
 40
17.60555161429086
 40
17.87365499845045
 40
18.14164887677208
 40
18.40945504999474
 40
18.67714768750787
 40
18.95195816673672
 40
19.22705363335533
 40
19.50247915331823
 40
19.77817141596894
 40
20.05397194558596
 40
20.32963988899201
 40
20.62920858574812
 40
20.92853756368679
 40
21.22780795498981
 40
21.52710147147636
 40
21.82640832152142
 40
22.12563524598804
 40
22.4550423393632
 40
22.78431214062634
 40
23.11352656921001
 40
23.44269033167627
 40
23.77173681646066
 40
24.13304127693817
 40
24.49434029182063
 40
24.85579325322724
 40
25.21743423172739
 40
25.57918777449557
 40
25.94088462366821
 40
26.51623964039988
 40
27.09123668120906
 40
27.66612082861341
 40
28.24100476126309
 40
29.19453933397117
 40
30.14813028236452
 40
30.86917923654562
 40
31.59022136773103
 40
32.31126706812904
 40
32.81978126287618
 40
33.32830297845314
 40
33.8368212182727
 40
34.34537023208772
 40
34.88768945933648
 40
35.42995946351259
 40
35.97207848225617
 40
36.45475494073451
 40
36.93751076578456
 40
37.42039946420003
 40
37.90335952236859
 40
38.41333129220653
 40
38.92320624963243
 40
39.43298700024116
 40
39.94276972224158
 40
40.41621510374475
 40
40.88973934494188
 40
41.36324863011906
 40
41.83667380712273
 40
42.35248327591813
 40
42.86833599801298
 40
43.38431243746266
 40
43.90038956571934
 40
44.41646096010034
 40
45.3053043608229
 40
46.193938229577
 40
47.08256538739878
 40
47.76074793111829
 40
48.43893529127581
 40
49.11712161447493
 40
49.612402912072
 40
50.10770005288044
 40
50.60300444592177
 40
51.0983566071511
 40
51.47019034914716
 40
51.84200607556435
 40
52.21375512448332
 40
52.58544661174304
 40
52.88720975880597
 40
53.18899926557917
 40
53.49091296168189
 40
53.67862654352683
 40
53.86630490942543
 40
54.05389867814415
 40
54.24150005309826
 40
54.41175084459156
 40
54.58197677432688
 40
54.75206400148842
 40
54.9231038290968
 40
55.09419135664031
 40
55.09419135664031
 40
55.09419135664031
 40
55.09419135664031
 10
227.6048999999999
 20
-156.8348412476449
 30
0.0
 10
227.5876612042704
 20
-156.9206648082242
 30
0.0
 10
227.5531837620064
 20
-157.0923112267344
 30
0.0
 10
227.5044848331266
 20
-157.3503835628429
 30
0.0
 10
227.4601779694793
 20
-157.6177106806919
 30
0.0
 10
227.4240785409674
 20
-157.8947110348955
 30
0.0
 10
227.3983280730067
 20
-158.1812181040837
 30
0.0
 10
227.3852747819775
 20
-158.4662694738428
 30
0.0
 10
227.385709718398
 20
-158.7492868301783
 30
0.0
 10
227.3981632026679
 20
-159.0296982049511
 30
0.0
 10
227.4221314410275
 20
-159.3163274416202
 30
0.0
 10
227.4574336283874
 20
-159.6087702220597
 30
0.0
 10
227.5030314171303
 20
-159.90682556823
 30
0.0
 10
227.5561534888218
 20
-160.2036664885659
 30
0.0
 10
227.6234139640264
 20
-160.5424356242165
 30
0.0
 10
227.7050396783306
 20
-160.9229274313101
 30
0.0
 10
227.8018749691791
 20
-161.3448450662452
 30
0.0
 10
227.908920592856
 20
-161.7898355685855
 30
0.0
 10
228.0251618324122
 20
-162.2581543594445
 30
0.0
 10
228.1074069603291
 20
-162.5882451717698
 30
0.0
 10
228.1487193727237
 20
-162.7562249372213
 30
0.0
 10
228.150099169616
 20
-162.7618374505571
 30
0.0
 10
228.1514774327428
 20
-162.7674463500615
 30
0.0
 10
228.1808326832054
 20
-162.8869556971589
 30
0.0
 10
228.2376260693509
 20
-163.120504073012
 30
0.0
 10
228.3188044634909
 20
-163.4688184035876
 30
0.0
 10
228.3944226960087
 20
-163.8161237925277
 30
0.0
 10
228.4628533099116
 20
-164.1626657303168
 30
0.0
 10
228.524002720955
 20
-164.508314641217
 30
0.0
 10
228.5857776409906
 20
-164.9046857681449
 30
0.0
 10
228.6438079019434
 20
-165.3522647842694
 30
0.0
 10
228.6966995437597
 20
-165.8512010916011
 30
0.0
 10
228.7413941185766
 20
-166.3512270234098
 30
0.0
 10
228.78030329699
 20
-166.8520259874311
 30
0.0
 10
228.824384313023
 20
-167.4735232718379
 30
0.0
 10
228.8751361478624
 20
-168.2155916467317
 30
0.0
 10
228.9329366915694
 20
-169.0404097850606
 30
0.0
 10
228.9929153742804
 20
-169.8272713667175
 30
0.0
 10
229.0482311550761
 20
-170.4728714426894
 30
0.0
 10
229.1003462351925
 20
-171.0148436144131
 30
0.0
 10
229.1487027747106
 20
-171.4531791768762
 30
0.0
 10
229.2059793318004
 20
-171.8905440195819
 30
0.0
 10
229.2664434111987
 20
-172.2727642029727
 30
0.0
 10
229.3272467881345
 20
-172.5999599459212
 30
0.0
 10
229.3848547714767
 20
-172.8724962008682
 30
0.0
 10
229.4501882269842
 20
-173.1432572292896
 30
0.0
 10
229.5242414519531
 20
-173.4117051656487
 30
0.0
 10
229.6080100185329
 20
-173.6773001175784
 30
0.0
 10
229.7012522660388
 20
-173.9360538054047
 30
0.0
 10
229.8043285909946
 20
-174.1873627031304
 30
0.0
 10
229.9172810381843
 20
-174.4305424154068
 30
0.0
 10
230.041978654714
 20
-174.6678584802457
 30
0.0
 10
230.1789037785924
 20
-174.8981955355483
 30
0.0
 10
230.3298477377304
 20
-175.1223727986474
 30
0.0
 10
230.4956317773653
 20
-175.338896129602
 30
0.0
 10
230.675567347643
 20
-175.5472044557553
 30
0.0
 10
230.8671769421416
 20
-175.7452220105391
 30
0.0
 10
231.0693989168418
 20
-175.9327182188428
 30
0.0
 10
231.2811758713147
 20
-176.1094633714305
 30
0.0
 10
231.5079343289401
 20
-176.2801079362727
 30
0.0
 10
231.7496143605251
 20
-176.4433682373893
 30
0.0
 10
232.0060135668869
 20
-176.5981809075592
 30
0.0
 10
232.2695407832693
 20
-176.7403071053609
 30
0.0
 10
232.5393543336597
 20
-176.8700621335396
 30
0.0
 10
232.814615265861
 20
-176.9877617856598
 30
0.0
 10
233.1039706690344
 20
-177.0973130860415
 30
0.0
 10
233.4071942560613
 20
-177.1976810646114
 30
0.0
 10
233.7240017841168
 20
-177.2878537255948
 30
0.0
 10
234.0441059458501
 20
-177.3651372744019
 30
0.0
 10
234.3668664289615
 20
-177.4300280854947
 30
0.0
 10
234.7023399043409
 20
-177.4847690781862
 30
0.0
 10
235.0502292190865
 20
-177.5285233152125
 30
0.0
 10
235.4101667503343
 20
-177.561180055541
 30
0.0
 10
235.7710393957396
 20
-177.5827208469397
 30
0.0
 10
236.1325021951306
 20
-177.5944773906791
 30
0.0
 10
236.4942124612284
 20
-177.5977797175722
 30
0.0
 10
236.9271446049904
 20
-177.5932028143865
 30
0.0
 10
237.4309616812459
 20
-177.5773809854459
 30
0.0
 10
238.0052864072076
 20
-177.5473385444617
 30
0.0
 10
238.5788828461244
 20
-177.5080630790977
 30
0.0
 10
239.2777680046877
 20
-177.4522452819224
 30
0.0
 10
240.1018739184663
 20
-177.3791911376882
 30
0.0
 10
240.9746804248505
 20
-177.3036454770164
 30
0.0
 10
241.7711298562072
 20
-177.2452833647475
 30
0.0
 10
242.490953967973
 20
-177.202850259786
 30
0.0
 10
243.1406297899426
 20
-177.1757418396273
 30
0.0
 10
243.7198360197707
 20
-177.1615060860545
 30
0.0
 10
244.2283584998337
 20
-177.1570691682414
 30
0.0
 10
244.7368971212424
 20
-177.1615509066517
 30
0.0
 10
245.2565224346342
 20
-177.1761274640992
 30
0.0
 10
245.7869625136666
 20
-177.2024909117987
 30
0.0
 10
246.327773103656
 20
-177.2425489326973
 30
0.0
 10
246.8475773493683
 20
-177.2948165444984
 30
0.0
 10
247.3460908577798
 20
-177.3584621725573
 30
0.0
 10
247.823763406255
 20
-177.4285824741883
 30
0.0
 10
248.3006180444205
 20
-177.5045917195508
 30
0.0
 10
248.7859627129822
 20
-177.5848768083893
 30
0.0
 10
249.280230631915
 20
-177.6663393575873
 30
0.0
 10
249.783812473893
 20
-177.7462453191724
 30
0.0
 10
250.2882171295561
 20
-177.8204147381677
 30
0.0
 10
250.7817690661159
 20
-177.8845604189935
 30
0.0
 10
251.2645650092574
 20
-177.9368620659787
 30
0.0
 10
251.7363194490157
 20
-177.9778283080692
 30
0.0
 10
252.2088589759754
 20
-178.0083752165119
 30
0.0
 10
252.6960616623714
 20
-178.028698609433
 30
0.0
 10
253.1977363171502
 20
-178.0371981560869
 30
0.0
 10
253.7136435804602
 20
-178.0344723755804
 30
0.0
 10
254.2294892223541
 20
-178.022137562708
 30
0.0
 10
254.7451546531495
 20
-178.0020473868384
 30
0.0
 10
255.3846815287037
 20
-177.9697925329072
 30
0.0
 10
256.1477875821978
 20
-177.9230863497821
 30
0.0
 10
257.0343136916012
 20
-177.8608672577748
 30
0.0
 10
257.8505340358395
 20
-177.8000736126665
 30
0.0
 10
258.596819019476
 20
-177.7447448921486
 30
0.0
 10
259.2734502725826
 20
-177.6987441967395
 30
0.0
 10
259.8897286954325
 20
-177.664241842119
 30
0.0
 10
260.4455444621064
 20
-177.6416945724607
 30
0.0
 10
260.9406972354797
 20
-177.6290100731524
 30
0.0
 10
261.4360221939347
 20
-177.6246886249616
 30
0.0
 10
261.8901933993045
 20
-177.6292861969776
 30
0.0
 10
262.3030465386185
 20
-177.6409848262246
 30
0.0
 10
262.6744688371483
 20
-177.6582422200863
 30
0.0
 10
263.0454149980454
 20
-177.6831481645068
 30
0.0
 10
263.392435884726
 20
-177.7145265247421
 30
0.0
 10
263.7154548431526
 20
-177.7513235225948
 30
0.0
 10
264.0144412372454
 20
-177.792853271772
 30
0.0
 10
264.2746457342722
 20
-177.8365489715508
 30
0.0
 10
264.4962671408575
 20
-177.8797183499114
 30
0.0
 10
264.6794546735851
 20
-177.9205910213829
 30
0.0
 10
264.8611040818805
 20
-177.9677414918396
 30
0.0
 10
265.0350864725301
 20
-178.0207531624229
 30
0.0
 10
265.2009479380191
 20
-178.0798967641992
 30
0.0
 10
265.3582951518262
 20
-178.1449436912099
 30
0.0
 10
265.5120991943083
 20
-178.2186570487936
 30
0.0
 10
265.6613982158962
 20
-178.3016385430343
 30
0.0
 10
265.7591948578295
 20
-178.3603042905398
 30
0.0
 10
265.8081
 20
-178.389641247644
 30
0.0
 11
227.6048999999999
 21
-156.8348412476449
 31
0.0
 11
227.5536866139395
 21
-157.0924117365214
 31
0.0
 11
227.505444456341
 21
-157.3505530274308
 31
0.0
 11
227.4629703846938
 21
-157.6097190819609
 31
0.0
 11
227.4259834523966
 21
-157.8949130861816
 31
0.0
 11
227.4004250679859
 21
-158.1813847888033
 31
0.0
 11
227.3874630775491
 21
-158.4686403927688
 31
0.0
 11
227.3877129696269
 21
-158.749219907303
 31
0.0
 11
227.3999861419651
 21
-159.0295840566911
 31
0.0
 11
227.4232
 21
-159.3092412476439
 31
0.0
 11
227.4590090536718
 21
-159.608544097444
 31
0.0
 11
227.5042788081994
 21
-159.9065830595357
 31
0.0
 11
227.5570853340803
 21
-160.2034783953475
 31
0.0
 11
227.6155047018119
 21
-160.499350366309
 31
0.0
 11
227.7060543975339
 21
-160.9227436242169
 31
0.0
 11
227.8026114146356
 21
-161.3446783471609
 31
0.0
 11
227.9035739466719
 21
-161.7655588336409
 31
0.0
 11
228.0252340196886
 21
-162.2581313029409
 31
0.0
 11
228.1473380954049
 21
-162.7506088037951
 31
0.0
 11
228.1487192966757
 21
-162.756224966165
 31
0.0
 11
228.1500999999999
 21
-162.761841247644
 31
0.0
 11
228.1514773537734
 21
-162.7674463763831
 31
0.0
 11
228.1528541990259
 21
-162.773051636616
 31
0.0
 11
228.2370710248623
 21
-163.1206363740783
 31
0.0
 11
228.3179568717669
 21
-163.4690134526244
 31
0.0
 11
228.3937499671028
 21
-163.818527156666
 31
0.0
 11
228.4617106146903
 21
-164.1628754675636
 31
0.0
 11
228.5228211677408
 21
-164.5085177329224
 31
0.0
 11
228.5768324463539
 21
-164.855321789272
 31
0.0
 11
228.6418706679748
 21
-165.3524785587165
 31
0.0
 11
228.6952999999999
 21
-165.8510412476449
 31
0.0
 11
228.7404254594106
 21
-166.3513061996758
 31
0.0
 11
228.7797409939996
 21
-166.8520618065306
 31
0.0
 11
228.8156864237739
 21
-167.3530857418431
 31
0.0
 11
228.8753778526993
 21
-168.2155857209933
 31
0.0
 11
228.936512843477
 21
-169.0779536026218
 31
0.0
 11
228.9940872095638
 21
-169.8271654606918
 31
0.0
 11
229.0586999999999
 21
-170.575841247644
 31
0.0
 11
229.1013713914973
 21
-171.0147462715103
 31
0.0
 11
229.1501862865207
 21
-171.4529925102013
 31
0.0
 11
229.2079092391793
 21
-171.8901861585253
 31
0.0
 11
229.277304803582
 21
-172.3259334112911
 31
0.0
 11
229.3283620978288
 21
-172.5997187759334
 31
0.0
 11
229.3861487430129
 21
-172.8722280013899
 31
0.0
 11
229.4516531185649
 21
-173.1429167084458
 31
0.0
 11
229.525863603916
 21
-173.4112405178869
 31
0.0
 11
229.6097685784967
 21
-173.6766550504989
 31
0.0
 11
229.7043564217378
 21
-173.9386159270669
 31
0.0
 11
229.8061826702185
 21
-174.1865168302454
 31
0.0
 11
229.9192598527011
 21
-174.4296072977639
 31
0.0
 11
230.0440582687698
 21
-174.6667698457509
 31
0.0
 11
230.181048218008
 21
-174.8968869903348
 31
0.0
 11
230.3307
 21
-175.118841247644
 31
0.0
 11
230.4976678710056
 21
-175.3371129351433
 31
0.0
 11
230.6774057250486
 21
-175.5453719555978
 31
0.0
 11
230.8688543620327
 21
-175.7433786132389
 31
0.0
 11
231.070954581862
 21
-175.9308932122976
 31
0.0
 11
231.2826471844404
 21
-176.1076760570055
 31
0.0
 11
231.502872969672
 21
-176.273487451594
 31
0.0
 11
231.7510481019549
 21
-176.4412685823429
 31
0.0
 11
232.0072316264204
 21
-176.596084081795
 31
0.0
 11
232.2705826880782
 21
-176.7382423931233
 31
0.0
 11
232.5402604319384
 21
-176.8680519595013
 31
0.0
 11
232.8154240030108
 21
-176.9858212241019
 31
0.0
 11
233.0952325463059
 21
-177.0918586300989
 31
0.0
 11
233.407919987271
 21
-177.1954713584834
 31
0.0
 11
233.7245821231489
 21
-177.2857137752218
 31
0.0
 11
234.0445772839134
 21
-177.3630780895223
 31
0.0
 11
234.367263799539
 21
-177.4280565105934
 31
0.0
 11
234.692
 21
-177.481141247644
 31
0.0
 11
235.0504523319579
 21
-177.5264495132355
 31
0.0
 11
235.4102527719175
 21
-177.559322322867
 31
0.0
 11
235.7710499209306
 21
-177.5810860684971
 31
0.0
 11
236.132492380049
 21
-177.5930671420845
 31
0.0
 11
236.4942287503253
 21
-177.5965919355886
 31
0.0
 11
236.8559076328109
 21
-177.592986840968
 31
0.0
 11
237.4309931060131
 21
-177.5753773580803
 31
0.0
 11
238.0052287215095
 21
-177.5457960308203
 31
0.0
 11
238.578800973605
 21
-177.5069803813796
 31
0.0
 11
239.151896356605
 21
-177.4616679319509
 31
0.0
 11
240.101885885596
 21
-177.3795212562798
 31
0.0
 11
241.0520999999999
 21
-177.2993412476442
 31
0.0
 11
241.7712462623548
 21
-177.2469938720143
 31
0.0
 11
242.49105935214
 21
-177.2049121565249
 31
0.0
 11
243.2114926725019
 21
-177.1752013331309
 31
0.0
 11
243.719856823559
 21
-177.162849159161
 31
0.0
 11
244.2283604131869
 21
-177.1585556095278
 31
0.0
 11
244.7368576207688
 21
-177.1631805557286
 31
0.0
 11
245.245202625687
 21
-177.177583869261
 31
0.0
 11
245.7868444213694
 21
-177.2046820135808
 31
0.0
 11
246.3276195061088
 21
-177.2449196223814
 31
0.0
 11
246.867
 21
-177.2993412476442
 31
0.0
 11
247.3458555351053
 21
-177.3599542830963
 31
0.0
 11
247.8235677309224
 21
-177.4295548907234
 31
0.0
 11
248.3005178351433
 21
-177.5050538518568
 31
0.0
 11
248.777087095461
 21
-177.5833619478279
 31
0.0
 11
249.2803446105025
 21
-177.6658427308625
 31
0.0
 11
249.7839910277094
 21
-177.7452956013374
 31
0.0
 11
250.2884147989631
 21
-177.8190049811045
 31
0.0
 11
250.7940043761449
 21
-177.8842552920161
 31
0.0
 11
251.2647022118466
 21
-177.9351873714236
 31
0.0
 11
251.7364563938041
 21
-177.9760921240283
 31
0.0
 11
252.2089834728957
 21
-178.0065749495339
 31
0.0
 11
252.6819999999998
 21
-178.026241247644
 31
0.0
 11
253.1977301392803
 21
-178.0352873242406
 31
0.0
 11
253.7135772055229
 21
-178.032871728702
 31
0.0
 11
254.2294134948183
 21
-178.0208463942748
 31
0.0
 11
254.7451113032568
 21
-178.0010632542055
 31
0.0
 11
255.2605429269288
 21
-177.9753742417409
 31
0.0
 11
256.1477679150324
 21
-177.9217607051523
 31
0.0
 11
257.0342693506344
 21
-177.8602354489088
 31
0.0
 11
257.9204928963969
 21
-177.7949204253369
 31
0.0
 11
258.5968676325196
 21
-177.7454352884255
 31
0.0
 11
259.2735375174966
 21
-177.7000925706098
 31
0.0
 11
259.9506999999999
 21
-177.662841247644
 31
0.0
 11
260.4455807682479
 21
-177.6429267089382
 31
0.0
 11
260.9407195768678
 21
-177.6304040188143
 31
0.0
 11
261.4360065046457
 21
-177.626244595049
 31
0.0
 11
261.9313316303678
 21
-177.63141985542
 31
0.0
 11
262.3030117826921
 21
-177.6421061067628
 31
0.0
 11
262.6744195575789
 21
-177.6595187191694
 31
0.0
 11
263.0453229780604
 21
-177.6845788058686
 31
0.0
 11
263.415490067169
 21
-177.7182074800891
 31
0.0
 11
263.7152926681487
 21
-177.7525498342359
 31
0.0
 11
264.0141862395874
 21
-177.794257618376
 31
0.0
 11
264.3118999999999
 21
-177.844441247644
 31
0.0
 11
264.4961073948275
 21
-177.8805525263524
 31
0.0
 11
264.6792317990739
 21
-177.9216453668354
 31
0.0
 11
264.8607503383852
 21
-177.9689997951888
 31
0.0
 11
265.0401401384078
 21
-178.023895837508
 31
0.0
 11
265.200453300455
 21
-178.0812109490955
 31
0.0
 11
265.3577074128941
 21
-178.1463877180479
 31
0.0
 11
265.5110238754318
 21
-178.2200336758959
 31
0.0
 11
265.6609029968612
 21
-178.3024404213391
 31
0.0
 11
265.8081
 21
-178.389641247644
 31
0.0
  0
ARC
  5
CE1
330
1F
100
AcDbEntity
  8
0
  6
Continuous
 62
     7
100
AcDbCircle
 10
244.0808815673197
 20
-41.20899737706422
 30
0.0
 40
10.00001925246414
100
AcDbArc
 50
28.99994654985588
 51
134.8026316169927
  0
ARC
  5
CE2
330
1F
100
AcDbEntity
  8
0
  6
Continuous
 62
     7
100
AcDbCircle
 10
190.8080999999999
 20
12.4326
 30
0.0
 40
50.00001364499814
100
AcDbArc
 50
286.0572626883143
 51
343.9427373116854
  0
LINE
  5
CE3
330
1F
100
AcDbEntity
  8
0
  6
DASH_CENTER
 62
    30
100
AcDbLine
 10
263.3755999999999
 20
-166.8348412476449
 30
0.0
 11
227.5125999999998
 21
-166.8348412476449
 31
0.0
  0
LINE
  5
CE4
330
1F
100
AcDbEntity
  8
0
  6
Continuous
 62
     7
100
AcDbLine
 10
227.6049999999998
 20
-156.8348412476449
 30
0.0
 11
255.8083999999999
 21
-156.8348412476449
 31
0.0
  0
LINE
  5
CE5
330
1F
100
AcDbEntity
  8
0
  6
Continuous
 62
     7
100
AcDbLine
 10
236.8082
 20
-163.3348412476449
 30
0.0
 11
256.8081999999999
 21
-163.3348412476449
 31
0.0
  0
LINE
  5
CE6
330
1F
100
AcDbEntity
  8
0
  6
Continuous
 62
     7
100
AcDbLine
 10
236.8082
 20
-170.3348412476449
 30
0.0
 11
256.8081999999999
 21
-170.3348412476449
 31
0.0
  0
LINE
  5
CE7
330
1F
100
AcDbEntity
  8
0
  6
Continuous
 62
     7
100
AcDbLine
 10
220.8083999999999
 20
-58.56739999999999
 30
0.0
 11
265.8081999999999
 21
-58.56739999999999
 31
0.0
  0
LINE
  5
CE8
330
1F
100
AcDbEntity
  8
0
  6
Continuous
 62
     7
100
AcDbLine
 10
223.3333
 20
-55.3674
 30
0.0
 11
265.8081999999999
 21
-55.3674
 31
0.0
  0
LINE
  5
D1B
330
1F
100
AcDbEntity
  8
0
  6
DASH_CENTER
 62
    30
100
AcDbLine
 10
100.325200000001
 20
-37.91952607672678
 30
0.0
 11
100.325200000001
 21
-48.36412558108381
 31
0.0
  0
LINE
  5
D1E
330
1F
100
AcDbEntity
  8
0
  6
Continuous
 62
     7
100
AcDbLine
 10
101.9251000000009
 20
-20.5396550910867
 30
0.0
 11
101.9251000000009
 21
-31.3967548251538
 31
0.0
  0
LINE
  5
D1F
330
1F
100
AcDbEntity
  8
0
  6
Continuous
 62
     7
100
AcDbLine
 10
98.7251
 20
-31.3967548251538
 30
0.0
 11
98.7251
 21
-20.5396550910867
 31
0.0
  0
LINE
  5
D20
330
1F
100
AcDbEntity
  8
0
  6
DASH_CENTER
 62
    30
100
AcDbLine
 10
102.4752000000009
 20
-42.4965548251549
 30
0.0
 11
94.56420659810499
 21
-42.4965548251549
 31
0.0
  0
LINE
  5
D21
330
1F
100
AcDbEntity
  8
0
  6
Continuous
 62
     7
100
AcDbLine
 10
102.3750000000009
 20
-31.3967548251538
 30
0.0
 11
102.3750000000009
 21
-36.19675482515489
 31
0.0
  0
LINE
  5
D22
330
1F
100
AcDbEntity
  8
0
  6
Continuous
 62
     7
100
AcDbLine
 10
98.27520000000109
 20
-31.3967548251538
 30
0.0
 11
98.27520000000109
 21
-36.19675482515489
 31
0.0
  0
ARC
  5
D23
330
1F
100
AcDbEntity
  8
0
  6
Continuous
 62
     7
100
AcDbCircle
 10
100.3252499999999
 20
-42.4965548251549
 30
0.0
 40
3.299966800211787
100
AcDbArc
 50
168.1508663061888
 51
11.84913369381114
  0
LINE
  5
D24
330
1F
100
AcDbEntity
  8
0
  6
Continuous
 62
     7
100
AcDbLine
 10
102.3750000000009
 20
-36.19675482515489
 30
0.0
 11
103.5546999999999
 21
-41.81905482515489
 31
0.0
  0
LINE
  5
D25
330
1F
100
AcDbEntity
  8
0
  6
DASH_CENTER
 62
    30
100
AcDbLine
 10
106.0216157513719
 20
-42.4965548251549
 30
0.0
 11
102.4752000000009
 21
-42.4965548251549
 31
0.0
  0
CIRCLE
  5
D26
330
1F
100
AcDbEntity
  8
0
  6
Continuous
 62
     7
100
AcDbCircle
 10
100.325200000001
 20
-42.4965548251549
 30
0.0
 40
2.149999999999891
  0
LINE
  5
D27
330
1F
100
AcDbEntity
  8
0
  6
Continuous
 62
     7
100
AcDbLine
 10
98.27520000000109
 20
-36.19675482515489
 30
0.0
 11
102.3750000000009
 21
-36.19675482515489
 31
0.0
  0
LINE
  5
D28
330
1F
100
AcDbEntity
  8
0
  6
Continuous
 62
     7
100
AcDbLine
 10
98.27520000000109
 20
-36.19675482515489
 30
0.0
 11
97.0955
 21
-41.81905482515489
 31
0.0
  0
LINE
  5
D29
330
1F
100
AcDbEntity
  8
0
  6
Continuous
 62
     7
100
AcDbLine
 10
101.9251000000009
 20
-31.3967548251538
 30
0.0
 11
98.7251
 21
-31.3967548251538
 31
0.0
  0
LINE
  5
D2A
330
1F
100
AcDbEntity
  8
0
  6
Continuous
 62
     7
100
AcDbLine
 10
98.7251
 20
-31.3967548251538
 30
0.0
 11
98.27520000000109
 21
-31.3967548251538
 31
0.0
  0
LINE
  5
D2B
330
1F
100
AcDbEntity
  8
0
  6
Continuous
 62
     7
100
AcDbLine
 10
102.3750000000009
 20
-31.3967548251538
 30
0.0
 11
101.9251000000009
 21
-31.3967548251538
 31
0.0
  0
ARC
  5
D2C
330
1F
100
AcDbEntity
  8
0
  6
Continuous
 62
    30
100
AcDbCircle
 10
102.4750999999999
 20
-13.09220358478514
 30
0.0
 40
1.5
100
AcDbArc
 50
239.9999999999999
 51
299.9999999999999
  0
ARC
  5
D2D
330
1F
100
AcDbEntity
  8
0
  6
Continuous
 62
    30
100
AcDbCircle
 10
102.4750999999999
 20
-15.69027979613846
 30
0.0
 40
1.5
100
AcDbArc
 50
60.00000000000002
 51
119.9999999999999
  0
ARC
  5
D2E
330
1F
100
AcDbEntity
  8
0
  6
Continuous
 62
    30
100
AcDbCircle
 10
99.47510000000001
 20
-13.09220358478514
 30
0.0
 40
1.5
100
AcDbArc
 50
239.9999999999999
 51
299.9999999999999
  0
ARC
  5
D2F
330
1F
100
AcDbEntity
  8
0
  6
Continuous
 62
    30
100
AcDbCircle
 10
100.9751
 20
-13.09220358478514
 30
0.0
 40
1.5
100
AcDbArc
 50
239.9999999999999
 51
299.9999999999999
  0
ARC
  5
D30
330
1F
100
AcDbEntity
  8
0
  6
Continuous
 62
    30
100
AcDbCircle
 10
99.47510000000001
 20
-15.69027979613846
 30
0.0
 40
1.5
100
AcDbArc
 50
60.00000000000002
 51
119.9999999999999
  0
ARC
  5
D31
330
1F
100
AcDbEntity
  8
0
  6
Continuous
 62
    30
100
AcDbCircle
 10
101.1251000000009
 20
-21.9252957371419
 30
0.0
 40
1.60000000000009
100
AcDbArc
 50
60.00000000000189
 51
119.9999999999981
  0
ARC
  5
D32
330
1F
100
AcDbEntity
  8
0
  6
Continuous
 62
    30
100
AcDbCircle
 10
101.1251000000009
 20
-19.15401444503079
 30
0.0
 40
1.600000000000679
100
AcDbArc
 50
240.000000000015
 51
299.9999999999849
  0
ARC
  5
D33
330
1F
100
AcDbEntity
  8
0
  6
Continuous
 62
    30
100
AcDbCircle
 10
99.5251
 20
-21.9252957371419
 30
0.0
 40
1.600000000000588
100
AcDbArc
 50
59.99999999997174
 51
119.9999999999981
  0
ARC
  5
D34
330
1F
100
AcDbEntity
  8
0
  6
Continuous
 62
    30
100
AcDbCircle
 10
108.4751
 20
-13.09220358478514
 30
0.0
 40
1.5
100
AcDbArc
 50
239.9999999999999
 51
299.9999999999999
  0
ARC
  5
D35
330
1F
100
AcDbEntity
  8
0
  6
Continuous
 62
    30
100
AcDbCircle
 10
109.9750999999999
 20
-13.09220358478514
 30
0.0
 40
1.5
100
AcDbArc
 50
239.9999999999999
 51
299.9999999999999
  0
ARC
  5
D36
330
1F
100
AcDbEntity
  8
0
  6
Continuous
 62
    30
100
AcDbCircle
 10
108.4751
 20
-15.69027979613846
 30
0.0
 40
1.5
100
AcDbArc
 50
60.00000000000002
 51
119.9999999999999
  0
ARC
  5
D37
330
1F
100
AcDbEntity
  8
0
  6
Continuous
 62
    30
100
AcDbCircle
 10
105.4750999999999
 20
-13.09220358478514
 30
0.0
 40
1.5
100
AcDbArc
 50
239.9999999999999
 51
299.9999999999999
  0
ARC
  5
D38
330
1F
100
AcDbEntity
  8
0
  6
Continuous
 62
    30
100
AcDbCircle
 10
106.9750999999999
 20
-13.09220358478514
 30
0.0
 40
1.5
100
AcDbArc
 50
239.9999999999999
 51
299.9999999999999
  0
ARC
  5
D39
330
1F
100
AcDbEntity
  8
0
  6
Continuous
 62
    30
100
AcDbCircle
 10
105.4750999999999
 20
-15.69027979613846
 30
0.0
 40
1.5
100
AcDbArc
 50
60.00000000000002
 51
119.9999999999999
  0
ARC
  5
D3A
330
1F
100
AcDbEntity
  8
0
  6
Continuous
 62
    30
100
AcDbCircle
 10
103.9751
 20
-13.09220358478514
 30
0.0
 40
1.5
100
AcDbArc
 50
239.9999999999999
 51
299.9999999999999
  0
ARC
  5
D4E
330
1F
100
AcDbEntity
  8
0
  6
Continuous
 62
     7
100
AcDbCircle
 10
236.8082
 20
-166.8348412476449
 30
0.0
 40
3.5
100
AcDbArc
 50
90.0
 51
270.0
  0
POINT
  5
D4F
330
1F
100
AcDbEntity
  8
0
 62
     2
100
AcDbPoint
 10
233.3082
 20
-164.4898412476441
 30
0.0
  0
ARC
  5
D58
330
1F
100
AcDbEntity
  8
0
  6
Continuous
 62
     7
100
AcDbCircle
 10
177.8082618765285
 20
-17.89892513880932
 30
0.0
 40
3.000038123576877
100
AcDbArc
 50
246.8016388134999
 51
0.0004801097907836
  0
ARC
  5
D59
330
1F
100
AcDbEntity
  8
0
  6
Continuous
 62
     7
100
AcDbCircle
 10
190.8084
 20
12.4326
 30
0.0
 40
50.00001364499815
100
AcDbArc
 50
196.0572626883143
 51
253.9427373116855
  0
LINE
  5
D5A
330
1F
100
AcDbEntity
  8
0
  6
Continuous
 62
     7
100
AcDbLine
 10
222.3333
 20
-54.3674
 30
0.0
 11
159.2835
 21
-54.3674
 31
0.0
  0
LINE
  5
D5B
330
1F
100
AcDbEntity
  8
0
  6
Continuous
 62
     7
100
AcDbLine
 10
220.8083999999999
 20
-57.56739999999999
 30
0.0
 11
160.8084
 21
-57.56739999999999
 31
0.0
  0
ARC
  5
D5C
330
1F
100
AcDbEntity
  8
0
  6
Continuous
 62
     7
100
AcDbCircle
 10
161.9644180943423
 20
-52.00639156445959
 30
0.0
 40
5.000023860903222
100
AcDbArc
 50
65.885941257569
 51
164.1037063012209
  0
ARC
  5
D5D
330
1F
100
AcDbEntity
  8
0
  6
Continuous
 62
     7
100
AcDbCircle
 10
190.8082696896829
 20
12.43265397598366
 30
0.0
 40
64.24999600591509
100
AcDbArc
 50
239.8978283405528
 51
255.1024096185489
  0
ARC
  5
D5E
330
1F
100
AcDbEntity
  8
0
  6
Continuous
 62
     7
100
AcDbCircle
 10
190.8087132621329
 20
12.43247024051735
 30
0.0
 40
61.24997582215872
100
AcDbArc
 50
239.5226869080302
 51
255.4766703386779
  0
LINE
  5
D5F
330
1F
100
AcDbEntity
  8
0
  6
Continuous
 62
     7
100
AcDbLine
 10
119.3796999999999
 20
-53.33719999999999
 30
0.0
 11
128.7898999999999
 21
-36.3609
 31
0.0
  0
LINE
  5
D61
330
1F
100
AcDbEntity
  8
0
  6
Continuous
 62
     7
100
AcDbLine
 10
160.8084
 20
-58.56739999999999
 30
0.0
 11
115.8085999999999
 21
-58.56739999999999
 31
0.0
  0
LINE
  5
D62
330
1F
100
AcDbEntity
  8
0
  6
Continuous
 62
     7
100
AcDbLine
 10
158.2835
 20
-55.3674
 30
0.0
 11
115.8085999999999
 21
-55.3674
 31
0.0
  0
LINE
  5
D67
330
1F
100
AcDbEntity
  8
0
  6
Continuous
 62
     7
100
AcDbLine
 10
115.8085999999999
 20
-54.3674
 30
0.0
 11
115.8085999999999
 21
-58.56739999999999
 31
0.0
  0
ARC
  5
D68
330
1F
100
AcDbEntity
  8
0
  6
Continuous
 62
     7
100
AcDbCircle
 10
117.6306039726254
 20
-52.36739766020925
 30
0.0
 40
2.000002342493313
100
AcDbArc
 50
269.9970214071774
 51
330.9973152755428
  0
LINE
  5
D69
330
1F
100
AcDbEntity
  8
0
  6
Continuous
 62
     7
100
AcDbLine
 10
115.8085999999999
 20
-54.3674
 30
0.0
 11
117.6304999999999
 21
-54.3674
 31
0.0
  0
LINE
  5
D6A
330
1F
100
AcDbEntity
  8
0
  6
DASH_CENTER
 62
    30
100
AcDbLine
 10
134.8084
 20
-51.12430000000001
 30
0.0
 11
134.8084
 21
-65.69919999999999
 31
0.0
  0
ARC
  5
D6D
330
1F
100
AcDbEntity
  8
0
  6
Continuous
 62
     7
100
AcDbCircle
 10
154.2984895840195
 20
-53.36740786383519
 30
0.0
 40
1.999992136191956
100
AcDbArc
 50
270.0002983970354
 51
344.1036980077068
  0
ARC
  5
D6E
330
1F
100
AcDbEntity
  8
0
  6
Continuous
 62
     7
100
AcDbCircle
 10
159.283500005
 20
-54.86739999499899
 30
0.0
 40
0.5000000049999942
100
AcDbArc
 50
90.01145972882367
 51
180.0000005730728
  0
ARC
  5
D6F
330
1F
100
AcDbEntity
  8
0
  6
Continuous
 62
     7
100
AcDbCircle
 10
158.283499995
 20
-54.86740000499899
 30
0.0
 40
0.5000000050000051
100
AcDbArc
 50
269.9885414170928
 51
0.0000005728426301
  0
LINE
  5
D70
330
1F
100
AcDbEntity
  8
0
  6
Continuous
 62
     7
100
AcDbLine
 10
156.222
 20
-53.9153
 30
0.0
 11
157.1555999999999
 21
-50.637
 31
0.0
  0
LINE
  5
D71
330
1F
100
AcDbEntity
  8
0
  6
Continuous
 62
     7
100
AcDbLine
 10
160.8084
 20
-57.56739999999999
 30
0.0
 11
160.8084
 21
-58.56739999999999
 31
0.0
  0
LINE
  5
D72
330
1F
100
AcDbEntity
  8
0
  6
Continuous
 62
     7
100
AcDbLine
 10
175.4489
 20
-46.8601
 30
0.0
 11
174.2900999999999
 21
-49.6577
 31
0.0
  0
ARC
  5
D73
330
1F
100
AcDbEntity
  8
0
  6
Continuous
 62
     7
100
AcDbCircle
 10
137.5359746989754
 20
-41.20900360031106
 30
0.0
 40
9.999984019204587
100
AcDbArc
 50
45.19762225190583
 51
150.9999007826474
  0
ARC
  5
D74
330
1F
100
AcDbEntity
  8
0
  6
Continuous
 62
    30
100
AcDbCircle
 10
190.8082903417924
 20
12.43270976033201
 30
0.0
 40
60.99996143380689
100
AcDbArc
 50
219.6859593180376
 51
230.2607060817594
  0
LINE
  5
D75
330
1F
100
AcDbEntity
  8
0
  6
Continuous
 62
    30
100
AcDbLine
 10
151.9266
 20
-26.4494
 30
0.0
 11
142.6609999999999
 21
-35.715
 31
0.0
  0
LINE
  5
D76
330
1F
100
AcDbEntity
  8
0
  6
Continuous
 62
     7
100
AcDbLine
 10
143.7711
 20
-29.655
 30
0.0
 11
146.6264999999999
 21
-26.789
 31
0.0
  0
LINE
  5
D77
330
1F
100
AcDbEntity
  8
0
  6
Continuous
 62
     7
100
AcDbLine
 10
144.8172
 20
-33.5587
 30
0.0
 11
143.7711
 21
-29.655
 31
0.0
  0
LINE
  5
D78
330
1F
100
AcDbEntity
  8
0
  6
Continuous
 62
     7
100
AcDbLine
 10
126.0996
 20
-0.9103999999999992
 30
0.0
 11
126.5597
 21
-0.8156999999999996
 31
0.0
  0
ARC
  5
D79
330
1F
100
AcDbEntity
  8
0
  6
Continuous
 62
     7
100
AcDbCircle
 10
190.8084539759834
 20
12.43246968968293
 30
0.0
 40
64.24999600591511
100
AcDbArc
 50
194.8975903814516
 51
210.1021716594472
  0
ARC
  5
D7A
330
1F
100
AcDbEntity
  8
0
  6
Continuous
 62
     7
100
AcDbCircle
 10
190.8083401731914
 20
12.43274443332051
 30
0.0
 40
61.2500011825352
100
AcDbArc
 50
194.523160373296
 51
210.4772244229939
  0
LINE
  5
D7B
330
1F
100
AcDbEntity
  8
0
  6
Continuous
 62
     7
100
AcDbLine
 10
138.0212999999999
 20
-18.63279999999998
 30
0.0
 11
135.2238
 21
-19.79169999999998
 31
0.0
  0
LINE
  5
D7C
330
1F
100
AcDbEntity
  8
0
  6
Continuous
 62
     7
100
AcDbLine
 10
131.5155999999998
 20
-2.926999999999998
 30
0.0
 11
128.7182
 21
-4.085699999999999
 31
0.0
  0
LINE
  5
D7D
330
1F
100
AcDbEntity
  8
0
  6
Continuous
 62
     7
100
AcDbLine
 10
159.7428999999999
 20
-40.3547
 30
0.0
 11
158.5842
 21
-43.15209999999999
 31
0.0
  0
CIRCLE
  5
D7E
330
1F
100
AcDbEntity
  8
0
  6
Continuous
 62
     7
100
AcDbCircle
 10
147.6749
 20
-30.701
 30
0.0
 40
3.5
  0
CIRCLE
  5
D7F
330
1F
100
AcDbEntity
  8
0
  6
Continuous
 62
     7
100
AcDbCircle
 10
147.6749
 20
-30.701
 30
0.0
 40
2.0
  0
CIRCLE
  5
D80
330
1F
100
AcDbEntity
  8
0
  6
Continuous
 62
    30
100
AcDbCircle
 10
147.6749
 20
-30.701
 30
0.0
 40
1.6
  0
LINE
  5
D81
330
1F
100
AcDbEntity
  8
0
  6
Continuous
 62
     7
100
AcDbLine
 10
146.6264999999999
 20
-26.789
 30
0.0
 11
150.5325
 21
-27.8433
 31
0.0
  0
LINE
  5
D82
330
1F
100
AcDbEntity
  8
0
  6
Continuous
 62
     7
100
AcDbLine
 10
150.5325
 20
-27.8433
 30
0.0
 11
151.5786999999999
 21
-31.747
 31
0.0
  0
LINE
  5
D83
330
1F
100
AcDbEntity
  8
0
  6
Continuous
 62
     7
100
AcDbLine
 10
151.5786999999999
 20
-31.747
 30
0.0
 11
148.7229999999998
 21
-34.613
 31
0.0
  0
LINE
  5
D84
330
1F
100
AcDbEntity
  8
0
  6
Continuous
 62
     7
100
AcDbLine
 10
148.7229999999998
 20
-34.613
 30
0.0
 11
144.8172
 21
-33.5587
 31
0.0
  0
ARC
  5
D85
330
1F
100
AcDbEntity
  8
0
  6
Continuous
 62
     7
100
AcDbCircle
 10
219.6523819056575
 20
-52.00639156445959
 30
0.0
 40
5.000023860903202
100
AcDbArc
 50
15.89629369877884
 51
114.1140587424309
  0
ARC
  5
D86
330
1F
100
AcDbEntity
  8
0
  6
Continuous
 62
     7
100
AcDbCircle
 10
190.8078702115779
 20
12.43250481761503
 30
0.0
 40
61.24996328417786
100
AcDbArc
 50
284.5231554053746
 51
300.4772293909157
  0
ARC
  5
D87
330
1F
100
AcDbEntity
  8
0
  6
Continuous
 62
     7
100
AcDbCircle
 10
190.8080551849074
 20
12.43258143697167
 30
0.0
 40
64.24997092880779
100
AcDbArc
 50
284.897757933212
 51
300.1022620618833
  0
ARC
  5
D88
330
1F
100
AcDbEntity
  8
0
  6
Continuous
 62
     7
100
AcDbCircle
 10
179.7221021315976
 20
-53.23834480980956
 30
0.0
 40
0.9999863086868876
100
AcDbArc
 50
52.20005755709195
 51
80.42141850556353
  0
ARC
  5
D89
330
1F
100
AcDbEntity
  8
0
  6
Continuous
 62
     7
100
AcDbCircle
 10
183.150890782111
 20
-53.36736260832668
 30
0.0
 40
1.000037397637359
100
AcDbArc
 50
232.1955907783267
 51
270.0062574900865
  0
LINE
  5
D8A
330
1F
100
AcDbEntity
  8
0
  6
Continuous
 62
     7
100
AcDbLine
 10
182.5379
 20
-54.1575
 30
0.0
 11
180.335
 21
-52.4483
 31
0.0
  0
ARC
  5
D8B
330
1F
100
AcDbEntity
  8
0
  6
Continuous
 62
     7
100
AcDbCircle
 10
201.8946978684024
 20
-53.23834480980956
 30
0.0
 40
0.999986308686882
100
AcDbArc
 50
99.57858149443644
 51
127.7999424429061
  0
ARC
  5
D8C
330
1F
100
AcDbEntity
  8
0
  6
Continuous
 62
     7
100
AcDbCircle
 10
198.4659197189909
 20
-53.36739324793446
 30
0.0
 40
1.000006752259984
100
AcDbArc
 50
269.9988701926728
 51
307.8050099118286
  0
LINE
  5
D8D
330
1F
100
AcDbEntity
  8
0
  6
Continuous
 62
     7
100
AcDbLine
 10
199.0789
 20
-54.1575
 30
0.0
 11
201.2818
 21
-52.4483
 31
0.0
  0
LINE
  5
D8E
330
1F
100
AcDbEntity
  8
0
  6
Continuous
 62
     7
100
AcDbLine
 10
206.1675999999999
 20
-46.8601
 30
0.0
 11
207.3263999999999
 21
-49.6577
 31
0.0
  0
ARC
  5
D92
330
1F
100
AcDbEntity
  8
0
  6
Continuous
 62
     7
100
AcDbCircle
 10
227.3183467204768
 20
-53.3673597772283
 30
0.0
 40
2.000040223481381
100
AcDbArc
 50
195.8973420051848
 51
270.0015263152116
  0
LINE
  5
D93
330
1F
100
AcDbEntity
  8
0
  6
Continuous
 62
     7
100
AcDbLine
 10
220.8083999999999
 20
-57.56739999999999
 30
0.0
 11
220.8083999999999
 21
-58.56739999999999
 31
0.0
  0
ARC
  5
D94
330
1F
100
AcDbEntity
  8
0
  6
Continuous
 62
     7
100
AcDbCircle
 10
222.333299995
 20
-54.86739999499899
 30
0.0
 40
0.500000005000004
100
AcDbArc
 50
359.9999994269268
 51
89.98854027117634
  0
ARC
  5
D95
330
1F
100
AcDbEntity
  8
0
  6
Continuous
 62
     7
100
AcDbCircle
 10
223.333300005
 20
-54.86740000499899
 30
0.0
 40
0.500000005000004
100
AcDbArc
 50
179.9999994271573
 51
270.0114585829071
  0
LINE
  5
D96
330
1F
100
AcDbEntity
  8
0
  6
Continuous
 62
     7
100
AcDbLine
 10
225.3948
 20
-53.9153
 30
0.0
 11
224.4612
 21
-50.637
 31
0.0
  0
ARC
  5
D97
330
1F
100
AcDbEntity
  8
0
  6
Continuous
 62
     7
100
AcDbCircle
 10
183.808310845898
 20
-19.81639125593464
 30
0.0
 40
2.999989154114707
100
AcDbArc
 50
257.75234267351
 51
359.9998330000493
  0
ARC
  5
D98
330
1F
100
AcDbEntity
  8
0
  6
Continuous
 62
     7
100
AcDbCircle
 10
197.8081785480801
 20
-19.81638270478421
 30
0.0
 40
2.999978548130088
100
AcDbArc
 50
180.0003303166521
 51
282.2459542283326
  0
LINE
  5
D99
330
1F
100
AcDbEntity
  8
0
  6
Continuous
 62
     7
100
AcDbLine
 10
186.8083
 20
-9.003700000000002
 30
0.0
 11
186.8083
 21
-38.08469999999999
 31
0.0
  0
LINE
  5
D9A
330
1F
100
AcDbEntity
  8
0
  6
Continuous
 62
     7
100
AcDbLine
 10
194.8082
 20
-9.003700000000002
 30
0.0
 11
194.8082
 21
-38.08469999999999
 31
0.0
  0
ARC
  5
D9B
330
1F
100
AcDbEntity
  8
0
  6
Continuous
 62
     7
100
AcDbCircle
 10
177.8082785802394
 20
-32.73391612438489
 30
0.0
 40
3.000021419803728
100
AcDbArc
 50
253.9431570062184
 51
0.0003079508684177
  0
ARC
  5
D9C
330
1F
100
AcDbEntity
  8
0
  6
Continuous
 62
     7
100
AcDbCircle
 10
183.8083080458713
 20
-38.08469299202418
 30
0.0
 40
2.999991954136903
100
AcDbArc
 50
262.1120409445193
 51
359.9998661571618
  0
ARC
  5
D9D
330
1F
100
AcDbEntity
  8
0
  6
Continuous
 62
     7
100
AcDbCircle
 10
183.8082937891973
 20
-31.00709270814778
 30
0.0
 40
3.000006210811613
100
AcDbArc
 50
359.9998607361693
 51
80.84523809260964
  0
ARC
  5
D9E
330
1F
100
AcDbEntity
  8
0
  6
Continuous
 62
     7
100
AcDbCircle
 10
177.8082804861448
 20
-29.60327353959666
 30
0.0
 40
3.000019514756361
100
AcDbArc
 50
0.0014044937024835
 51
72.81420231546082
  0
LINE
  5
D9F
330
1F
100
AcDbEntity
  8
0
  6
Continuous
 62
     7
100
AcDbLine
 10
180.8083
 20
-29.6033
 30
0.0
 11
180.8083
 21
-32.7339
 31
0.0
  0
ARC
  5
DA0
330
1F
100
AcDbEntity
  8
0
  6
Continuous
 62
     7
100
AcDbCircle
 10
203.8082075908032
 20
-32.73390571436031
 30
0.0
 40
3.000007590808691
100
AcDbArc
 50
179.9998908640328
 51
286.0552064655288
  0
ARC
  5
DA1
330
1F
100
AcDbEntity
  8
0
  6
Continuous
 62
     7
100
AcDbCircle
 10
197.8081919541286
 20
-38.08469299202418
 30
0.0
 40
2.999991954136902
100
AcDbArc
 50
180.0001338428378
 51
277.8879590554805
  0
ARC
  5
DA2
330
1F
100
AcDbEntity
  8
0
  6
Continuous
 62
     7
100
AcDbCircle
 10
203.8082195138551
 20
-29.60327353959664
 30
0.0
 40
3.000019514756372
100
AcDbArc
 50
107.185797684539
 51
179.9985955062977
  0
ARC
  5
DA3
330
1F
100
AcDbEntity
  8
0
  6
Continuous
 62
     7
100
AcDbCircle
 10
197.8082062108028
 20
-31.00709270814778
 30
0.0
 40
3.000006210811617
100
AcDbArc
 50
99.15476190739036
 51
180.0001392638304
  0
LINE
  5
DA4
330
1F
100
AcDbEntity
  8
0
  6
Continuous
 62
     7
100
AcDbLine
 10
200.8081999999999
 20
-29.6033
 30
0.0
 11
200.8081999999999
 21
-32.7339
 31
0.0
  0
ARC
  5
DA5
330
1F
100
AcDbEntity
  8
0
  6
Continuous
 62
     7
100
AcDbCircle
 10
183.8082953466854
 20
-16.73929409797866
 30
0.0
 40
3.000004653320311
100
AcDbArc
 50
359.9998872798703
 51
76.50653110942553
  0
ARC
  5
DA6
330
1F
100
AcDbEntity
  8
0
  6
Continuous
 62
     7
100
AcDbCircle
 10
177.8083005258337
 20
-14.60450083629202
 30
0.0
 40
2.999999474166461
100
AcDbArc
 50
0.0000159720041594
 51
64.32071769506059
  0
LINE
  5
DA7
330
1F
100
AcDbEntity
  8
0
  6
Continuous
 62
     7
100
AcDbLine
 10
180.8083
 20
-14.60449999999999
 30
0.0
 11
180.8083
 21
-17.8989
 31
0.0
  0
ARC
  5
DA8
330
1F
100
AcDbEntity
  8
0
  6
Continuous
 62
     7
100
AcDbCircle
 10
183.8083086100716
 20
-9.003411868813993
 30
0.0
 40
2.999991389951818
100
AcDbArc
 50
0.0002266783003871
 51
71.91678129655305
  0
ARC
  5
DA9
330
1F
100
AcDbEntity
  8
0
  6
Continuous
 62
     7
100
AcDbCircle
 10
203.8082381234715
 20
-17.89892513880932
 30
0.0
 40
3.000038123576866
100
AcDbArc
 50
179.9995198902092
 51
293.1983611864998
  0
ARC
  5
DAA
330
1F
100
AcDbEntity
  8
0
  6
Continuous
 62
     7
100
AcDbCircle
 10
203.8081994741661
 20
-14.60450083629202
 30
0.0
 40
2.99999947416646
100
AcDbArc
 50
115.6792823049394
 51
179.9999840279959
  0
ARC
  5
DAB
330
1F
100
AcDbEntity
  8
0
  6
Continuous
 62
     7
100
AcDbCircle
 10
197.8082046533145
 20
-16.73929409797866
 30
0.0
 40
3.000004653320305
100
AcDbArc
 50
103.4934688905744
 51
180.0001127201295
  0
LINE
  5
DAC
330
1F
100
AcDbEntity
  8
0
  6
Continuous
 62
     7
100
AcDbLine
 10
200.8081999999999
 20
-14.60449999999999
 30
0.0
 11
200.8081999999999
 21
-17.8989
 31
0.0
  0
ARC
  5
DAD
330
1F
100
AcDbEntity
  8
0
  6
Continuous
 62
     7
100
AcDbCircle
 10
197.8081913899283
 20
-9.003411868813993
 30
0.0
 40
2.999991389951812
100
AcDbArc
 50
108.0832187034469
 51
179.9997733216995
  0
LINE
  5
DAE
330
1F
100
AcDbEntity
  8
0
  6
Continuous
 62
     7
100
AcDbLine
 10
221.8736
 20
-40.3547
 30
0.0
 11
223.0322999999999
 21
-43.15209999999999
 31
0.0
  0
LINE
  5
DAF
330
1F
100
AcDbEntity
  8
0
  6
Continuous
 62
    30
100
AcDbLine
 10
229.6904
 20
-26.4492
 30
0.0
 11
238.9561
 21
-35.7149
 31
0.0
  0
CIRCLE
  5
DB0
330
1F
100
AcDbEntity
  8
0
  6
Continuous
 62
     7
100
AcDbCircle
 10
233.942
 20
-30.7009
 30
0.0
 40
3.5
  0
CIRCLE
  5
DB1
330
1F
100
AcDbEntity
  8
0
  6
Continuous
 62
     7
100
AcDbCircle
 10
233.942
 20
-30.7009
 30
0.0
 40
2.0
  0
CIRCLE
  5
DB2
330
1F
100
AcDbEntity
  8
0
  6
Continuous
 62
    30
100
AcDbCircle
 10
233.942
 20
-30.7009
 30
0.0
 40
1.599999999999994
  0
ARC
  5
DB3
330
1F
100
AcDbEntity
  8
0
  6
Continuous
 62
    30
100
AcDbCircle
 10
190.808290239668
 20
12.43249034179249
 30
0.0
 40
60.99996143380689
100
AcDbArc
 50
309.6859593180378
 51
320.2607060817594
  0
LINE
  5
DB4
330
1F
100
AcDbEntity
  8
0
  6
Continuous
 62
     7
100
AcDbLine
 10
231.0843
 20
-27.8433
 30
0.0
 11
234.988
 21
-26.7971
 31
0.0
  0
LINE
  5
DB5
330
1F
100
AcDbEntity
  8
0
  6
Continuous
 62
     7
100
AcDbLine
 10
236.7998
 20
-33.55859999999999
 30
0.0
 11
232.8959999999999
 21
-34.6048
 31
0.0
  0
LINE
  5
DB6
330
1F
100
AcDbEntity
  8
0
  6
Continuous
 62
     7
100
AcDbLine
 10
232.8959999999999
 20
-34.6048
 30
0.0
 11
230.03
 21
-31.7493
 31
0.0
  0
LINE
  5
DB7
330
1F
100
AcDbEntity
  8
0
  6
Continuous
 62
     7
100
AcDbLine
 10
230.03
 20
-31.7493
 30
0.0
 11
231.0843
 21
-27.8433
 31
0.0
  0
LINE
  5
DB8
330
1F
100
AcDbEntity
  8
0
  6
Continuous
 62
     7
100
AcDbLine
 10
234.988
 20
-26.7971
 30
0.0
 11
237.854
 21
-29.65279999999999
 31
0.0
  0
LINE
  5
DB9
330
1F
100
AcDbEntity
  8
0
  6
Continuous
 62
     7
100
AcDbLine
 10
237.854
 20
-29.65279999999999
 30
0.0
 11
236.7998
 21
-33.55859999999999
 31
0.0
  0
ARC
  5
DCB
330
1F
100
AcDbEntity
  8
0
  6
Continuous
 62
     7
100
AcDbCircle
 10
255.808199999
 20
-166.835141246644
 30
0.0
 40
10.00000000100002
100
AcDbArc
 50
359.99999999427
 51
89.99885407868044
  0
LINE
  5
DCC
330
1F
100
AcDbEntity
  8
0
  6
DASH_CENTER
 62
    30
100
AcDbLine
 10
246.8081999999998
 20
-159.2379412476448
 30
0.0
 11
246.8081999999998
 21
-174.860441247644
 31
0.0
  0
ARC
  5
DCD
330
1F
100
AcDbEntity
  8
0
  6
Continuous
 62
     7
100
AcDbCircle
 10
256.8081999999999
 20
-166.8348412476449
 30
0.0
 40
3.5
100
AcDbArc
 50
270.0
 51
90.0
  0
LINE
  5
DCE
330
1F
100
AcDbEntity
  8
0
  6
Continuous
 62
     7
100
AcDbLine
 10
265.8081999999999
 20
-166.835141247644
 30
0.0
 11
265.8081999999999
 21
-178.389741247644
 31
0.0
  0
POINT
  5
DCF
330
1F
100
AcDbEntity
  8
0
 62
     2
100
AcDbPoint
 10
260.3082
 20
-164.4898412476441
 30
0.0
  0
LINE
  5
DD9
330
1F
100
AcDbEntity
  8
0
  6
Continuous
 62
     7
100
AcDbLine
 10
262.2371
 20
-53.33719999999999
 30
0.0
 11
252.827
 21
-36.3609
 31
0.0
  0
LINE
  5
DDF
330
1F
100
AcDbEntity
  8
0
  6
DASH_CENTER
 62
    30
100
AcDbLine
 10
246.8084
 20
-51.12430000000001
 30
0.0
 11
246.8084
 21
-65.69919999999999
 31
0.0
  0
LINE
  5
DE0
330
1F
100
AcDbEntity
  8
0
  6
Continuous
 62
     7
100
AcDbLine
 10
265.8081999999999
 20
-54.3674
 30
0.0
 11
265.8081999999999
 21
-58.56739999999999
 31
0.0
  0
ARC
  5
DE1
330
1F
100
AcDbEntity
  8
0
  6
Continuous
 62
     7
100
AcDbCircle
 10
263.9862217868615
 20
-52.36735393678022
 30
0.0
 40
2.000046071159593
100
AcDbArc
 50
209.0034224157403
 51
270.0051053127485
  0
LINE
  5
DE2
330
1F
100
AcDbEntity
  8
0
  6
Continuous
 62
     7
100
AcDbLine
 10
265.8081999999999
 20
-54.3674
 30
0.0
 11
263.9864
 21
-54.3674
 31
0.0
  0
ARC
  5
DEA
330
1F
100
AcDbEntity
  8
0
  6
Continuous
 62
     7
100
AcDbCircle
 10
190.808096284693
 20
12.43259103045992
 30
0.0
 40
61.24992742073177
100
AcDbArc
 50
329.5230100163611
 51
345.4769699885424
  0
ARC
  5
DEB
330
1F
100
AcDbEntity
  8
0
  6
Continuous
 62
     7
100
AcDbCircle
 10
190.8081711493272
 20
12.43277176803919
 30
0.0
 40
64.2499527492467
100
AcDbArc
 50
329.8974945998208
 51
345.1021206038887
  0
LINE
  5
DEC
330
1F
100
AcDbEntity
  8
0
  6
Continuous
 62
     7
100
AcDbLine
 10
243.5951999999999
 20
-18.63279999999998
 30
0.0
 11
246.3926999999999
 21
-19.79169999999998
 31
0.0
  0
LINE
  5
DED
330
1F
100
AcDbEntity
  8
0
  6
Continuous
 62
     7
100
AcDbLine
 10
250.1008999999999
 20
-2.926999999999998
 30
0.0
 11
252.8983
 21
-4.085699999999999
 31
0.0
  0
ARC
  5
DF7
330
1F
100
AcDbEntity
  8
0
  6
Continuous
 62
     7
100
AcDbCircle
 10
190.8084
 20
12.4326
 30
0.0
 40
65.60000000000005
100
AcDbArc
 50
359.9998253177453
 51
90.0
  0
ARC
  5
DF8
330
1F
100
AcDbEntity
  8
0
  6
Continuous
 62
     7
100
AcDbCircle
 10
241.3255929920242
 20
19.43259195412871
 30
0.0
 40
2.999991954136891
100
AcDbArc
 50
270.0001338428379
 51
7.887959055481672
  0
ARC
  5
DF9
330
1F
100
AcDbEntity
  8
0
  6
Continuous
 62
     7
100
AcDbCircle
 10
241.3254989693429
 20
5.43260118333415
 30
0.0
 40
2.999998816666026
100
AcDbArc
 50
352.1102633129958
 51
89.9999803158917
  0
ARC
  5
DFA
330
1F
100
AcDbEntity
  8
0
  6
Continuous
 62
     7
100
AcDbCircle
 10
190.8080393775057
 20
12.43266062302558
 30
0.0
 40
49.99999981527651
100
AcDbArc
 50
16.05695647323472
 51
73.94254121787837
  0
ARC
  5
DFB
330
1F
100
AcDbEntity
  8
0
  6
Continuous
 62
     7
100
AcDbCircle
 10
190.8076458546791
 20
12.43245414551235
 30
0.0
 40
66.39993552563989
100
AcDbArc
 50
27.46991300344975
 51
62.52988442522728
  0
LINE
  5
DFC
330
1F
100
AcDbEntity
  8
0
  6
DASH_CENTER
 62
    30
100
AcDbLine
 10
265.29044344917
 20
12.4324
 30
0.0
 11
97.7201538952282
 21
12.4324
 31
0.0
  0
ARC
  5
DFD
330
1F
100
AcDbEntity
  8
0
  6
Continuous
 62
     7
100
AcDbCircle
 10
119.7251
 20
0.4321000000000003
 30
0.0
 40
9.0
100
AcDbArc
 50
90.0
 51
180.0
  0
ARC
  5
DFE
330
1F
100
AcDbEntity
  8
0
  6
Continuous
 62
     7
100
AcDbCircle
 10
116.7251
 20
0.4321000000000003
 30
0.0
 40
9.0
100
AcDbArc
 50
90.0
 51
180.0
  0
ARC
  5
DFF
330
1F
100
AcDbEntity
  8
0
  6
Continuous
 62
     7
100
AcDbCircle
 10
113.7251
 20
0.4321000000000003
 30
0.0
 40
9.0
100
AcDbArc
 50
90.0
 51
180.0
  0
ARC
  5
E00
330
1F
100
AcDbEntity
  8
0
  6
Continuous
 62
     7
100
AcDbCircle
 10
113.7251
 20
0.4321000000000003
 30
0.0
 40
12.0
100
AcDbArc
 50
90.0
 51
180.0
  0
ARC
  5
E01
330
1F
100
AcDbEntity
  8
0
  6
Continuous
 62
     7
100
AcDbCircle
 10
113.7251
 20
0.4321000000000003
 30
0.0
 40
15.0
100
AcDbArc
 50
90.0
 51
180.0
  0
LINE
  5
E09
330
1F
100
AcDbEntity
  8
0
  6
DASH_CENTER
 62
    30
100
AcDbLine
 10
-16.601429413912
 20
23.8120999999999
 30
0.0
 11
-16.601429413912
 21
0.2595999999998995
 31
0.0
  0
POINT
  5
E0A
330
1F
100
AcDbEntity
  8
0
 62
     2
100
AcDbPoint
 10
-9.601429413911999
 20
11.25970000000009
 30
0.0
  0
ARC
  5
E0B
330
1F
100
AcDbEntity
  8
0
  6
Continuous
 62
     7
100
AcDbCircle
 10
-16.601429413912
 20
12.43219999999999
 30
0.0
 40
7.0
100
AcDbArc
 50
0.0
 51
90.0
  0
POINT
  5
E11
330
1F
100
AcDbEntity
  8
0
 62
     2
100
AcDbPoint
 10
104.4677999999999
 20
12.43209999999999
 30
0.0
  0
ARC
  5
E13
330
1F
100
AcDbEntity
  8
0
  6
Continuous
 62
     7
100
AcDbCircle
 10
190.8084
 20
12.4326
 30
0.0
 40
65.60000000000002
100
AcDbArc
 50
90.0
 51
180.0
  0
ARC
  5
E14
330
1F
100
AcDbEntity
  8
0
  6
Continuous
 62
     7
100
AcDbCircle
 10
190.8084606224941
 20
12.43266062302557
 30
0.0
 40
49.99999981527652
100
AcDbArc
 50
106.0574587821216
 51
163.9430435267652
  0
ARC
  5
E15
330
1F
100
AcDbEntity
  8
0
  6
Continuous
 62
     7
100
AcDbCircle
 10
177.8082078333627
 20
42.76389483482847
 30
0.0
 40
2.999992166641773
100
AcDbArc
 50
0.0000986477671662
 51
113.199692274426
  0
ARC
  5
E16
330
1F
100
AcDbEntity
  8
0
  6
Continuous
 62
     7
100
AcDbCircle
 10
190.8084304365084
 20
12.43263020845066
 30
0.0
 40
27.00000906792739
100
AcDbArc
 50
103.0624040874493
 51
166.5066717198798
  0
ARC
  5
E17
330
1F
100
AcDbEntity
  8
0
  6
Continuous
 62
     7
100
AcDbCircle
 10
190.8083777243287
 20
12.43257772416697
 30
0.0
 40
36.00000748873545
100
AcDbArc
 50
102.2470358064303
 51
167.7533802199665
  0
ARC
  5
E18
330
1F
100
AcDbEntity
  8
0
  6
Continuous
 62
     7
100
AcDbCircle
 10
190.8084192100744
 20
12.43261921018764
 30
0.0
 40
40.99999039864839
100
AcDbArc
 50
99.15440713152555
 51
170.8459303491368
  0
ARC
  5
E19
330
1F
100
AcDbEntity
  8
0
  6
Continuous
 62
     7
100
AcDbCircle
 10
145.6418200455094
 20
25.432573370463
 30
0.0
 40
2.99997337052997
100
AcDbArc
 50
163.9419379395999
 51
269.9996171555715
  0
LINE
  5
E1A
330
1F
100
AcDbEntity
  8
0
  6
Continuous
 62
     7
100
AcDbLine
 10
140.291
 20
8.4326
 30
0.0
 11
169.3723
 21
8.4326
 31
0.0
  0
LINE
  5
E1B
330
1F
100
AcDbEntity
  8
0
  6
Continuous
 62
     7
100
AcDbLine
 10
140.2909
 20
16.4326
 30
0.0
 11
169.3721999999999
 21
16.4326
 31
0.0
  0
ARC
  5
E1C
330
1F
100
AcDbEntity
  8
0
  6
Continuous
 62
     7
100
AcDbCircle
 10
190.8080999999999
 20
12.4321
 30
0.0
 40
68.10001821945424
100
AcDbArc
 50
170.0830676042469
 51
189.9169323957529
  0
LINE
  5
E1D
330
1F
100
AcDbEntity
  8
0
  6
Continuous
 62
     7
100
AcDbLine
 10
122.7741999999999
 20
9.4321
 30
0.0
 11
113.7251
 21
9.4321
 31
0.0
  0
LINE
  5
E1E
330
1F
100
AcDbEntity
  8
0
  6
Continuous
 62
     7
100
AcDbLine
 10
122.7741999999999
 20
15.4321
 30
0.0
 11
113.7251
 21
15.4321
 31
0.0
  0
LINE
  5
E1F
330
1F
100
AcDbEntity
  8
0
  6
Continuous
 62
     7
100
AcDbLine
 10
113.7251
 20
12.4321
 30
0.0
 11
122.7081
 21
12.4321
 31
0.0
  0
POINT
  5
E20
330
1F
100
AcDbEntity
  8
0
 62
     2
100
AcDbPoint
 10
125.2080999999999
 20
13.60489999999998
 30
0.0
  0
ARC
  5
E21
330
1F
100
AcDbEntity
  8
0
  6
Continuous
 62
     7
100
AcDbCircle
 10
140.2910010306571
 20
5.432601183334158
 30
0.0
 40
2.999998816666013
100
AcDbArc
 50
90.00001968410831
 51
187.8897366870043
  0
ARC
  5
E22
330
1F
100
AcDbEntity
  8
0
  6
Continuous
 62
     7
100
AcDbCircle
 10
140.2909070079758
 20
19.43259195412871
 30
0.0
 40
2.999991954136903
100
AcDbArc
 50
172.1120409445183
 51
269.999866157162
  0
ARC
  5
E23
330
1F
100
AcDbEntity
  8
0
  6
Continuous
 62
     7
100
AcDbCircle
 10
125.6957084093995
 20
23.81590571832087
 30
0.0
 40
2.000000863723959
100
AcDbArc
 50
78.3492381444543
 51
170.0815059783188
  0
LINE
  5
E24
330
1F
100
AcDbEntity
  8
0
  6
Continuous
 62
     7
100
AcDbLine
 10
126.5597
 20
25.6797
 30
0.0
 11
126.0996
 21
25.7746
 31
0.0
  0
ARC
  5
E25
330
1F
100
AcDbEntity
  8
0
  6
Continuous
 62
     7
100
AcDbCircle
 10
190.8084539759834
 20
12.43273031031706
 30
0.0
 40
64.24999600591512
100
AcDbArc
 50
149.8978283405527
 51
165.1024096185482
  0
ARC
  5
E26
330
1F
100
AcDbEntity
  8
0
  6
Continuous
 62
     7
100
AcDbCircle
 10
190.8083401731914
 20
12.43245556667949
 30
0.0
 40
61.2500011825352
100
AcDbArc
 50
149.5227755770059
 51
165.4768396267038
  0
LINE
  5
E27
330
1F
100
AcDbEntity
  8
0
  6
Continuous
 62
     7
100
AcDbLine
 10
131.5157
 20
27.7922
 30
0.0
 11
128.7182
 21
28.9509
 31
0.0
  0
LINE
  5
E28
330
1F
100
AcDbEntity
  8
0
  6
Continuous
 62
     7
100
AcDbLine
 10
138.0212
 20
43.498
 30
0.0
 11
135.2238
 21
44.6567
 31
0.0
  0
ARC
  5
E29
330
1F
100
AcDbEntity
  8
0
  6
Continuous
 62
     7
100
AcDbCircle
 10
163.771170830547
 20
25.43264453433323
 30
0.0
 40
3.000044535169388
100
AcDbArc
 50
269.9986472562761
 51
334.3201766009126
  0
ARC
  5
E2A
330
1F
100
AcDbEntity
  8
0
  6
Continuous
 62
     7
100
AcDbCircle
 10
160.4766748611905
 20
25.43263812347155
 30
0.0
 40
3.000038123576861
100
AcDbArc
 50
156.8016388134991
 51
270.0004801097907
  0
ARC
  5
E2B
330
1F
100
AcDbEntity
  8
0
  6
Continuous
 62
     7
100
AcDbCircle
 10
148.7725264612604
 20
25.43241951380633
 30
0.0
 40
3.000019513923038
100
AcDbArc
 50
269.9994946304373
 51
342.8142023115114
  0
ARC
  5
E2C
330
1F
100
AcDbEntity
  8
0
  6
Continuous
 62
     7
100
AcDbCircle
 10
147.3686072918521
 20
5.432593789197249
 30
0.0
 40
3.000006210811613
100
AcDbArc
 50
9.154761907390755
 51
90.00013926383038
  0
ARC
  5
E2D
330
1F
100
AcDbEntity
  8
0
  6
Continuous
 62
     7
100
AcDbCircle
 10
148.7726616880118
 20
-0.5673717459113004
 30
0.0
 40
2.99997174615596
100
AcDbArc
 50
17.18512490280321
 51
89.99926828803291
  0
LINE
  5
E2E
330
1F
100
AcDbEntity
  8
0
  6
Continuous
 62
     7
100
AcDbLine
 10
148.7726999999999
 20
2.432599999999999
 30
0.0
 11
145.642
 21
2.432599999999999
 31
0.0
  0
ARC
  5
E2F
330
1F
100
AcDbEntity
  8
0
  6
Continuous
 62
     7
100
AcDbCircle
 10
158.5593087440653
 20
5.43261084589803
 30
0.0
 40
2.999989154114708
100
AcDbArc
 50
90.00016699995104
 51
192.2476573264887
  0
ARC
  5
E30
330
1F
100
AcDbEntity
  8
0
  6
Continuous
 62
     7
100
AcDbCircle
 10
147.3686072918521
 20
19.43260621080273
 30
0.0
 40
3.000006210811613
100
AcDbArc
 50
269.9998607361695
 51
350.8452380926092
  0
LINE
  5
E31
330
1F
100
AcDbEntity
  8
0
  6
Continuous
 62
     7
100
AcDbLine
 10
148.7725
 20
22.4326
 30
0.0
 11
145.6418
 21
22.4326
 31
0.0
  0
ARC
  5
E32
330
1F
100
AcDbEntity
  8
0
  6
Continuous
 62
     7
100
AcDbCircle
 10
158.5592172952158
 20
19.43257854808024
 30
0.0
 40
2.999978548130093
100
AcDbArc
 50
167.7540457716671
 51
269.9996696833483
  0
ARC
  5
E33
330
1F
100
AcDbEntity
  8
0
  6
Continuous
 62
     7
100
AcDbCircle
 10
163.771327497222
 20
-0.5673544108883207
 30
0.0
 40
2.999954411764446
100
AcDbArc
 50
25.67874114391226
 51
89.99861527789937
  0
ARC
  5
E34
330
1F
100
AcDbEntity
  8
0
  6
Continuous
 62
     7
100
AcDbCircle
 10
161.6363059020214
 20
5.432595346685499
 30
0.0
 40
3.000004653320308
100
AcDbArc
 50
13.49346889057517
 51
90.00011272012972
  0
LINE
  5
E35
330
1F
100
AcDbEntity
  8
0
  6
Continuous
 62
     7
100
AcDbLine
 10
163.7714
 20
2.432599999999999
 30
0.0
 11
160.4769
 21
2.432599999999999
 31
0.0
  0
ARC
  5
E36
330
1F
100
AcDbEntity
  8
0
  6
Continuous
 62
     7
100
AcDbCircle
 10
169.3723095268443
 20
5.432593089212838
 30
0.0
 40
3.000006910802286
100
AcDbArc
 50
18.08544284543921
 51
90.00018194890406
  0
ARC
  5
E37
330
1F
100
AcDbEntity
  8
0
  6
Continuous
 62
     7
100
AcDbCircle
 10
161.6363059020214
 20
19.4326046533145
 30
0.0
 40
3.000004653320305
100
AcDbArc
 50
269.9998872798701
 51
346.5065311094248
  0
LINE
  5
E38
330
1F
100
AcDbEntity
  8
0
  6
Continuous
 62
     7
100
AcDbLine
 10
163.7710999999999
 20
22.4326
 30
0.0
 11
160.4767
 21
22.4326
 31
0.0
  0
ARC
  5
E39
330
1F
100
AcDbEntity
  8
0
  6
Continuous
 62
     7
100
AcDbCircle
 10
169.372188131186
 20
19.43259138992833
 30
0.0
 40
2.999991389951802
100
AcDbArc
 50
270.0002266783001
 51
341.9167812965533
  0
ARC
  5
E3A
330
1F
100
AcDbEntity
  8
0
  6
Continuous
 62
    30
100
AcDbCircle
 10
190.8087548756354
 20
12.43295454990594
 30
0.0
 40
60.99999336084684
100
AcDbArc
 50
129.6863556624169
 51
140.2610301441947
  0
LINE
  5
E3B
330
1F
100
AcDbEntity
  8
0
  6
Continuous
 62
    30
100
AcDbLine
 10
151.9263999999999
 20
51.3145
 30
0.0
 11
142.6607999999999
 21
60.5801
 31
0.0
  0
LINE
  5
E3C
330
1F
100
AcDbEntity
  8
0
  6
Continuous
 62
     7
100
AcDbLine
 10
146.6288
 20
51.66240000000001
 30
0.0
 11
143.7627999999999
 21
54.5181
 31
0.0
  0
LINE
  5
E3D
330
1F
100
AcDbEntity
  8
0
  6
Continuous
 62
     7
100
AcDbLine
 10
143.7627999999999
 20
54.5181
 30
0.0
 11
144.8171
 21
58.4238
 31
0.0
  0
ARC
  5
E3E
330
1F
100
AcDbEntity
  8
0
  6
Continuous
 62
     7
100
AcDbCircle
 10
190.8082696896829
 20
12.43254602401635
 30
0.0
 40
64.24999600591512
100
AcDbArc
 50
104.8975903814509
 51
120.102171659447
  0
ARC
  5
E3F
330
1F
100
AcDbEntity
  8
0
  6
Continuous
 62
     7
100
AcDbCircle
 10
190.8082575575303
 20
12.43254099874377
 30
0.0
 40
61.2500442741573
100
AcDbArc
 50
104.5228727180707
 51
120.4768893228295
  0
CIRCLE
  5
E40
330
1F
100
AcDbEntity
  8
0
  6
Continuous
 62
     7
100
AcDbCircle
 10
147.6748
 20
55.56619999999998
 30
0.0
 40
3.5
  0
LINE
  5
E41
330
1F
100
AcDbEntity
  8
0
  6
Continuous
 62
     7
100
AcDbLine
 10
148.7208
 20
59.47
 30
0.0
 11
151.5868
 21
56.61450000000001
 31
0.0
  0
CIRCLE
  5
E42
330
1F
100
AcDbEntity
  8
0
  6
Continuous
 62
     7
100
AcDbCircle
 10
147.6748
 20
55.56619999999998
 30
0.0
 40
2.0
  0
CIRCLE
  5
E43
330
1F
100
AcDbEntity
  8
0
  6
Continuous
 62
    30
100
AcDbCircle
 10
147.6748
 20
55.56619999999998
 30
0.0
 40
1.599999999999994
  0
LINE
  5
E44
330
1F
100
AcDbEntity
  8
0
  6
Continuous
 62
     7
100
AcDbLine
 10
151.5868
 20
56.61450000000001
 30
0.0
 11
150.5325
 21
52.7085
 31
0.0
  0
LINE
  5
E45
330
1F
100
AcDbEntity
  8
0
  6
Continuous
 62
     7
100
AcDbLine
 10
150.5325
 20
52.7085
 30
0.0
 11
146.6288
 21
51.66240000000001
 31
0.0
  0
LINE
  5
E46
330
1F
100
AcDbEntity
  8
0
  6
Continuous
 62
     7
100
AcDbLine
 10
144.8171
 20
58.4238
 30
0.0
 11
148.7208
 21
59.47
 31
0.0
  0
LINE
  5
E47
330
1F
100
AcDbEntity
  8
0
  6
Continuous
 62
     7
100
AcDbLine
 10
159.7429999999999
 20
65.2197
 30
0.0
 11
158.5842
 21
68.0173
 31
0.0
  0
LINE
  5
E48
330
1F
100
AcDbEntity
  8
0
  6
Continuous
 62
     7
100
AcDbLine
 10
175.4489
 20
71.7253
 30
0.0
 11
174.2900999999999
 21
74.5227
 31
0.0
  0
ARC
  5
E49
330
1F
100
AcDbEntity
  8
0
  6
Continuous
 62
     7
100
AcDbCircle
 10
203.8082118640993
 20
42.76390782277615
 30
0.0
 40
3.000011864109538
100
AcDbArc
 50
66.7988003654586
 51
180.0001494034281
  0
ARC
  5
E4A
330
1F
100
AcDbEntity
  8
0
  6
Continuous
 62
     7
100
AcDbCircle
 10
197.8082380158718
 20
44.68163064980004
 30
0.0
 40
3.000038016028371
100
AcDbArc
 50
77.75350015796314
 51
180.0005853606441
  0
ARC
  5
E4B
330
1F
100
AcDbEntity
  8
0
  6
Continuous
 62
     7
100
AcDbCircle
 10
183.8081619841281
 20
44.68163064980004
 30
0.0
 40
3.000038016028346
100
AcDbArc
 50
359.9994146393556
 51
102.2464998420367
  0
ARC
  5
E4C
330
1F
100
AcDbEntity
  8
0
  6
Continuous
 62
     7
100
AcDbCircle
 10
190.8080722760343
 20
12.43262772416697
 30
0.0
 40
35.99994802021891
100
AcDbArc
 50
12.24655889346627
 51
77.75302508013631
  0
ARC
  5
E4D
330
1F
100
AcDbEntity
  8
0
  6
Continuous
 62
     7
100
AcDbCircle
 10
190.8080807899255
 20
12.43261921018764
 30
0.0
 40
40.99999039864839
100
AcDbArc
 50
9.154069650863132
 51
80.84559286847444
  0
LINE
  5
E4E
330
1F
100
AcDbEntity
  8
0
  6
Continuous
 62
     7
100
AcDbLine
 10
194.8082
 20
62.95
 30
0.0
 11
194.8082
 21
33.8684
 31
0.0
  0
LINE
  5
E4F
330
1F
100
AcDbEntity
  8
0
  6
Continuous
 62
     7
100
AcDbLine
 10
186.8082
 20
62.95
 30
0.0
 11
186.8082
 21
33.8684
 31
0.0
  0
ARC
  5
E50
330
1F
100
AcDbEntity
  8
0
  6
Continuous
 62
     7
100
AcDbCircle
 10
212.244311868814
 20
19.43259138992834
 30
0.0
 40
2.999991389951791
100
AcDbArc
 50
198.0832187034478
 51
269.9997733216996
  0
ARC
  5
E51
330
1F
100
AcDbEntity
  8
0
  6
Continuous
 62
     7
100
AcDbCircle
 10
212.2441559950527
 20
5.432640618895288
 30
0.0
 40
2.999959381427455
100
AcDbArc
 50
89.99915955603581
 51
161.9152156496214
  0
ARC
  5
E52
330
1F
100
AcDbEntity
  8
0
  6
Continuous
 62
     7
100
AcDbCircle
 10
190.8080538153934
 20
12.43264583877884
 30
0.0
 40
26.99999740131035
100
AcDbArc
 50
13.4930818803762
 51
76.9375558622622
  0
CIRCLE
  5
E53
330
1F
100
AcDbEntity
  8
0
  6
Continuous
 62
     7
100
AcDbCircle
 10
190.8080999999999
 20
12.4326
 30
0.0
 40
7.75
  0
CIRCLE
  5
E54
330
1F
100
AcDbEntity
  8
0
  6
Continuous
 62
     7
100
AcDbCircle
 10
190.8080999999999
 20
12.4324
 30
0.0
 40
7.0
  0
CIRCLE
  5
E55
330
1F
100
AcDbEntity
  8
0
  6
Continuous
 62
     7
100
AcDbCircle
 10
190.8080999999999
 20
12.4324
 30
0.0
 40
7.400000000000004
  0
LINE
  5
E56
330
1F
100
AcDbEntity
  8
0
  6
Continuous
 62
     7
100
AcDbLine
 10
194.4136
 20
18.4324
 30
0.0
 11
187.2024999999999
 21
18.4324
 31
0.0
  0
ARC
  5
E57
330
1F
100
AcDbEntity
  8
0
  6
Continuous
 62
     7
100
AcDbCircle
 10
183.8081930892128
 20
33.86839047315569
 30
0.0
 40
3.000006910802278
100
AcDbArc
 50
288.0854428454383
 51
0.0001819489046764
  0
ARC
  5
E58
330
1F
100
AcDbEntity
  8
0
  6
Continuous
 62
     7
100
AcDbCircle
 10
183.8081953466854
 20
41.60449409797867
 30
0.0
 40
3.000004653320313
100
AcDbArc
 50
283.4934688905745
 51
0.0001127201295223
  0
ARC
  5
E59
330
1F
100
AcDbEntity
  8
0
  6
Continuous
 62
     7
100
AcDbCircle
 10
177.808178858859
 20
39.469466374903
 30
0.0
 40
3.000021141329241
100
AcDbArc
 50
295.681661660644
 51
0.0006421875223055
  0
LINE
  5
E5A
330
1F
100
AcDbEntity
  8
0
  6
Continuous
 62
     7
100
AcDbLine
 10
180.8081999999999
 20
39.46949999999999
 30
0.0
 11
180.8081999999999
 21
42.76390000000001
 31
0.0
  0
ARC
  5
E5B
330
1F
100
AcDbEntity
  8
0
  6
Continuous
 62
     7
100
AcDbCircle
 10
197.8081913899283
 20
33.86841186881397
 30
0.0
 40
2.999991389951818
100
AcDbArc
 50
180.0002266783003
 51
251.916781296553
  0
ARC
  5
E5C
330
1F
100
AcDbEntity
  8
0
  6
Continuous
 62
     7
100
AcDbCircle
 10
203.8081994741661
 20
39.46950083629203
 30
0.0
 40
2.999999474166461
100
AcDbArc
 50
180.000015972004
 51
244.3207176950605
  0
ARC
  5
E5D
330
1F
100
AcDbEntity
  8
0
  6
Continuous
 62
     7
100
AcDbCircle
 10
197.8082046533145
 20
41.60449409797867
 30
0.0
 40
3.000004653320311
100
AcDbArc
 50
179.9998872798704
 51
256.5065311094254
  0
LINE
  5
E5E
330
1F
100
AcDbEntity
  8
0
  6
Continuous
 62
     7
100
AcDbLine
 10
200.8081999999999
 20
39.46949999999999
 30
0.0
 11
200.8081999999999
 21
42.76390000000001
 31
0.0
  0
ARC
  5
E5F
330
1F
100
AcDbEntity
  8
0
  6
Continuous
 62
     7
100
AcDbCircle
 10
235.9746799536709
 20
25.43257337029787
 30
0.0
 40
2.99997337136331
100
AcDbArc
 50
269.998472983813
 51
16.05806205910023
  0
ARC
  5
E60
330
1F
100
AcDbEntity
  8
0
  6
Continuous
 62
     7
100
AcDbCircle
 10
232.8439735387394
 20
25.43241951380633
 30
0.0
 40
3.000019513923046
100
AcDbArc
 50
197.185797688488
 51
270.0005053695627
  0
ARC
  5
E61
330
1F
100
AcDbEntity
  8
0
  6
Continuous
 62
     7
100
AcDbCircle
 10
221.1397948348284
 20
25.43259216663732
 30
0.0
 40
2.999992166641765
100
AcDbArc
 50
270.0000986477664
 51
23.19969227442606
  0
ARC
  5
E62
330
1F
100
AcDbEntity
  8
0
  6
Continuous
 62
     7
100
AcDbCircle
 10
217.845300836292
 20
25.43259947416635
 30
0.0
 40
2.999999474166452
100
AcDbArc
 50
205.6792823049395
 51
269.9999840279965
  0
ARC
  5
E63
330
1F
100
AcDbEntity
  8
0
  6
Continuous
 62
     7
100
AcDbCircle
 10
223.0572827047842
 20
19.43257854808021
 30
0.0
 40
2.99997854813008
100
AcDbArc
 50
270.0003303166515
 51
12.24595422833296
  0
ARC
  5
E64
330
1F
100
AcDbEntity
  8
0
  6
Continuous
 62
     7
100
AcDbCircle
 10
223.0571912559346
 20
5.432610845898018
 30
0.0
 40
2.999989154114715
100
AcDbArc
 50
347.7523426735113
 51
89.99983300004897
  0
LINE
  5
E65
330
1F
100
AcDbEntity
  8
0
  6
Continuous
 62
     7
100
AcDbLine
 10
241.3256
 20
16.4326
 30
0.0
 11
212.2443
 21
16.4326
 31
0.0
  0
LINE
  5
E66
330
1F
100
AcDbEntity
  8
0
  6
Continuous
 62
     7
100
AcDbLine
 10
241.3254999999999
 20
8.4326
 30
0.0
 11
212.2441
 21
8.4326
 31
0.0
  0
ARC
  5
E67
330
1F
100
AcDbEntity
  8
0
  6
Continuous
 62
     7
100
AcDbCircle
 10
219.9801940979787
 20
5.432595346685491
 30
0.0
 40
3.000004653320318
100
AcDbArc
 50
89.99988727987028
 51
166.5065311094244
  0
LINE
  5
E68
330
1F
100
AcDbEntity
  8
0
  6
Continuous
 62
     7
100
AcDbLine
 10
217.8450999999999
 20
2.432599999999999
 30
0.0
 11
221.1396
 21
2.432599999999999
 31
0.0
  0
ARC
  5
E69
330
1F
100
AcDbEntity
  8
0
  6
Continuous
 62
     7
100
AcDbCircle
 10
217.845100836292
 20
-0.5673994741663507
 30
0.0
 40
2.999999474166462
100
AcDbArc
 50
90.00001597200345
 51
154.3207176950603
  0
ARC
  5
E6A
330
1F
100
AcDbEntity
  8
0
  6
Continuous
 62
     7
100
AcDbCircle
 10
219.9801940979787
 20
19.43260465331451
 30
0.0
 40
3.000004653320313
100
AcDbArc
 50
193.4934688905752
 51
270.0001127201297
  0
LINE
  5
E6B
330
1F
100
AcDbEntity
  8
0
  6
Continuous
 62
     7
100
AcDbLine
 10
217.8453
 20
22.4326
 30
0.0
 11
221.1397999999999
 21
22.4326
 31
0.0
  0
LINE
  5
E6C
330
1F
100
AcDbEntity
  8
0
  6
Continuous
 62
     7
100
AcDbLine
 10
232.8437999999999
 20
2.432599999999999
 30
0.0
 11
235.9745
 21
2.432599999999999
 31
0.0
  0
ARC
  5
E6D
330
1F
100
AcDbEntity
  8
0
  6
Continuous
 62
     7
100
AcDbCircle
 10
232.843838311988
 20
-0.5673717459112897
 30
0.0
 40
2.999971746155928
100
AcDbArc
 50
90.00073171196708
 51
162.8148750971968
  0
ARC
  5
E6E
330
1F
100
AcDbEntity
  8
0
  6
Continuous
 62
     7
100
AcDbCircle
 10
234.2478506633546
 20
5.432643152287519
 30
0.0
 40
2.999956848118173
100
AcDbArc
 50
89.9990577259315
 51
170.8460411028468
  0
LINE
  5
E6F
330
1F
100
AcDbEntity
  8
0
  6
Continuous
 62
     7
100
AcDbLine
 10
232.844
 20
22.4326
 30
0.0
 11
235.9746
 21
22.4326
 31
0.0
  0
ARC
  5
E70
330
1F
100
AcDbEntity
  8
0
  6
Continuous
 62
     7
100
AcDbCircle
 10
234.2478506626485
 20
19.43255684685704
 30
0.0
 40
2.999956847284833
100
AcDbArc
 50
189.1539588831686
 51
269.9990324007678
  0
ARC
  5
E71
330
1F
100
AcDbEntity
  8
0
  6
Continuous
 62
     7
100
AcDbCircle
 10
190.8079555666795
 20
12.43265982680842
 30
0.0
 40
61.25000118253518
100
AcDbArc
 50
59.52277557700597
 51
75.47683962670426
  0
ARC
  5
E72
330
1F
100
AcDbEntity
  8
0
  6
Continuous
 62
     7
100
AcDbCircle
 10
190.8081405402341
 20
12.43258320767693
 30
0.0
 40
64.25000886080153
100
AcDbArc
 50
59.89774245286931
 51
75.10223755203575
  0
ARC
  5
E73
330
1F
100
AcDbEntity
  8
0
  6
Continuous
 62
     7
100
AcDbCircle
 10
177.808226629537
 20
57.59887995449052
 30
0.0
 40
2.999973370529981
100
AcDbArc
 50
0.0003828444286543
 51
106.0580620604002
  0
ARC
  5
E74
330
1F
100
AcDbEntity
  8
0
  6
Continuous
 62
     7
100
AcDbCircle
 10
183.8081937891973
 20
55.87209270814778
 30
0.0
 40
3.000006210811609
100
AcDbArc
 50
279.154761907392
 51
0.0001392638306902
  0
ARC
  5
E75
330
1F
100
AcDbEntity
  8
0
  6
Continuous
 62
     7
100
AcDbCircle
 10
177.8081804861448
 20
54.46827353959665
 30
0.0
 40
3.000019514756362
100
AcDbArc
 50
287.1857976845392
 51
359.9985955062976
  0
LINE
  5
E76
330
1F
100
AcDbEntity
  8
0
  6
Continuous
 62
     7
100
AcDbLine
 10
180.8081999999999
 20
54.4683
 30
0.0
 11
180.8081999999999
 21
57.5989
 31
0.0
  0
ARC
  5
E77
330
1F
100
AcDbEntity
  8
0
  6
Continuous
 62
     7
100
AcDbCircle
 10
183.8082011833342
 20
62.94999896934292
 30
0.0
 40
2.999998816665998
100
AcDbArc
 50
0.000019684107897
 51
97.88973668700458
  0
ARC
  5
E78
330
1F
100
AcDbEntity
  8
0
  6
Continuous
 62
     7
100
AcDbCircle
 10
203.8082733704629
 20
57.59887995449052
 30
0.0
 40
2.999973370529975
100
AcDbArc
 50
73.94193793960145
 51
179.9996171555715
  0
ARC
  5
E79
330
1F
100
AcDbEntity
  8
0
  6
Continuous
 62
     7
100
AcDbCircle
 10
203.8082047410262
 20
54.46829357156572
 30
0.0
 40
3.000004742485616
100
AcDbArc
 50
180.0017870824413
 51
252.8164094844398
  0
ARC
  5
E7A
330
1F
100
AcDbEntity
  8
0
  6
Continuous
 62
     7
100
AcDbCircle
 10
197.8081982566642
 20
55.87210204669885
 30
0.0
 40
2.99999825666494
100
AcDbArc
 50
180.0000390890911
 51
260.8473019798263
  0
LINE
  5
E7B
330
1F
100
AcDbEntity
  8
0
  6
Continuous
 62
     7
100
AcDbLine
 10
200.8081999999999
 20
54.4683
 30
0.0
 11
200.8081999999999
 21
57.5989
 31
0.0
  0
ARC
  5
E7C
330
1F
100
AcDbEntity
  8
0
  6
Continuous
 62
     7
100
AcDbCircle
 10
197.8081988166658
 20
62.94999896934292
 30
0.0
 40
2.999998816666031
100
AcDbArc
 50
82.11026331299542
 51
179.999980315892
  0
POINT
  5
E7D
330
1F
100
AcDbEntity
  8
0
 62
     2
100
AcDbPoint
 10
189.6354999999999
 20
78.03199999999998
 30
0.0
  0
LINE
  5
E7E
330
1F
100
AcDbEntity
  8
0
  6
Continuous
 62
     7
100
AcDbLine
 10
206.1675999999999
 20
71.7253
 30
0.0
 11
207.3263999999999
 21
74.5227
 31
0.0
  0
LINE
  5
E7F
330
1F
100
AcDbEntity
  8
0
  6
Continuous
 62
     7
100
AcDbLine
 10
221.8735
 20
65.2197
 30
0.0
 11
223.0322999999999
 21
68.0173
 31
0.0
  0
CIRCLE
  5
E80
330
1F
100
AcDbEntity
  8
0
  6
Continuous
 62
     7
100
AcDbCircle
 10
233.942
 20
55.56619999999998
 30
0.0
 40
3.5
  0
ARC
  5
E81
330
1F
100
AcDbEntity
  8
0
  6
Continuous
 62
    30
100
AcDbCircle
 10
190.8085596116643
 20
12.43244023968967
 30
0.0
 40
61.00003187637689
100
AcDbArc
 50
39.68596544126496
 51
50.2606999585314
  0
LINE
  5
E82
330
1F
100
AcDbEntity
  8
0
  6
Continuous
 62
    30
100
AcDbLine
 10
229.6902999999999
 20
51.3146
 30
0.0
 11
238.9559
 21
60.58019999999999
 31
0.0
  0
LINE
  5
E83
330
1F
100
AcDbEntity
  8
0
  6
Continuous
 62
     7
100
AcDbLine
 10
230.0381999999999
 20
56.6122
 30
0.0
 11
232.8939
 21
59.4782
 31
0.0
  0
LINE
  5
E84
330
1F
100
AcDbEntity
  8
0
  6
Continuous
 62
     7
100
AcDbLine
 10
236.7996
 20
58.42400000000001
 30
0.0
 11
237.8458
 21
54.5202
 31
0.0
  0
CIRCLE
  5
E85
330
1F
100
AcDbEntity
  8
0
  6
Continuous
 62
     7
100
AcDbCircle
 10
233.942
 20
55.56619999999998
 30
0.0
 40
2.0
  0
CIRCLE
  5
E86
330
1F
100
AcDbEntity
  8
0
  6
Continuous
 62
    30
100
AcDbCircle
 10
233.942
 20
55.56619999999998
 30
0.0
 40
1.599999999999987
  0
LINE
  5
E87
330
1F
100
AcDbEntity
  8
0
  6
Continuous
 62
     7
100
AcDbLine
 10
234.9902999999999
 20
51.65420000000001
 30
0.0
 11
231.0843
 21
52.7085
 31
0.0
  0
LINE
  5
E88
330
1F
100
AcDbEntity
  8
0
  6
Continuous
 62
     7
100
AcDbLine
 10
231.0843
 20
52.7085
 30
0.0
 11
230.0381999999999
 21
56.6122
 31
0.0
  0
LINE
  5
E89
330
1F
100
AcDbEntity
  8
0
  6
Continuous
 62
     7
100
AcDbLine
 10
237.8458
 20
54.5202
 30
0.0
 11
234.9902999999999
 21
51.65420000000001
 31
0.0
  0
LINE
  5
E8A
330
1F
100
AcDbEntity
  8
0
  6
Continuous
 62
     7
100
AcDbLine
 10
232.8939
 20
59.4782
 30
0.0
 11
236.7996
 21
58.42400000000001
 31
0.0
  0
LINE
  5
E8C
330
1F
100
AcDbEntity
  8
0
  6
Continuous
 62
     7
100
AcDbLine
 10
220.9563
 20
70.69379999999998
 30
0.0
 11
221.324
 21
71.4045
 31
0.0
  0
POINT
  5
E9C
330
1F
100
AcDbEntity
  8
0
 62
     2
100
AcDbPoint
 10
256.408
 20
13.60489999999998
 30
0.0
  0
ARC
  5
E9D
330
1F
100
AcDbEntity
  8
0
  6
Continuous
 62
     7
100
AcDbCircle
 10
190.8082297594824
 20
12.43228673786707
 30
0.0
 40
61.24997582215872
100
AcDbArc
 50
14.52332966132172
 51
30.47731309196967
  0
ARC
  5
E9E
330
1F
100
AcDbEntity
  8
0
  6
Continuous
 62
     7
100
AcDbCircle
 10
190.8080460240164
 20
12.43273031031706
 30
0.0
 40
64.24999600591511
100
AcDbArc
 50
14.89759038145161
 51
30.10217165944728
  0
LINE
  5
E9F
330
1F
100
AcDbEntity
  8
0
  6
Continuous
 62
     7
100
AcDbLine
 10
250.1008
 20
27.7922
 30
0.0
 11
252.8983
 21
28.9509
 31
0.0
  0
LINE
  5
EA0
330
1F
100
AcDbEntity
  8
0
  6
Continuous
 62
     7
100
AcDbLine
 10
243.5951999999999
 20
43.498
 30
0.0
 11
246.3926999999999
 21
44.6567
 31
0.0
  0
LINE
  5
EA1
330
1F
100
AcDbEntity
  8
0
  6
Continuous
 62
     7
100
AcDbLine
 10
249.7797999999999
 20
42.9487
 30
0.0
 11
249.0692999999999
 21
42.58110000000001
 31
0.0
  0
MTEXT
  5
EAF
330
1F
100
AcDbEntity
  8
0
100
AcDbMText
 10
-64.52296225822442
 20
-147.5640996023029
 30
0.0
 40
8.0
 41
134.8555236931179
 71
     1
 72
     1
  1
AES-DBF 4P 0.25kW
 73
     1
 44
1.0
  0
VIEWPORT
  5
71
330
55
100
AcDbEntity
 67
     1
  8
0
100
AcDbViewport
 10
133.3499908447265
 20
101.5999970436096
 30
0.0
 40
381.3957395593833
 41
218.2856291881582
 68
     1
 69
     1
 12
133.3499908447265
 22
101.5999970436096
 13
0.0
 23
0.0
 14
10.0
 24
10.0
 15
10.0
 25
10.0
 16
0.0
 26
0.0
 36
1.0
 17
0.0
 27
0.0
 37
0.0
 42
50.0
 43
0.0
 44
0.0
 45
218.2856291881582
 50
0.0
 51
0.0
 72
   100
 90
    32800
  1

281
     0
 71
     1
 74
     0
110
0.0
120
0.0
130
0.0
111
1.0
121
0.0
131
0.0
112
0.0
122
1.0
132
0.0
 79
     0
146
0.0
  0
VIEWPORT
  5
73
330
55
100
AcDbEntity
 67
     1
  8
0
100
AcDbViewport
 10
133.3499939441679
 20
101.5999939441679
 30
0.0
 40
213.3599903106689
 41
162.5599903106689
 68
     2
 69
     2
 12
210.0
 22
148.5
 13
0.0
 23
0.0
 14
10.0
 24
10.0
 15
10.0
 25
10.0
 16
0.0
 26
0.0
 36
1.0
 17
0.0
 27
0.0
 37
0.0
 42
50.0
 43
0.0
 44
0.0
 45
324.0677920111345
 50
0.0
 51
0.0
 72
   100
 90
    32864
  1

281
     0
 71
     1
 74
     0
110
0.0
120
0.0
130
0.0
111
1.0
121
0.0
131
0.0
112
0.0
122
1.0
132
0.0
 79
     0
146
0.0
  0
ENDSEC
  0
SECTION
  2
OBJECTS
  0
DICTIONARY
  5
C
330
0
100
AcDbDictionary
281
     1
  3
ACAD_GROUP
350
D
  3
ACAD_LAYOUT
350
1A
  3
ACAD_MLINESTYLE
350
17
  3
ACAD_PLOTSETTINGS
350
19
  3
ACAD_PLOTSTYLENAME
350
E
  3
AcDbVariableDictionary
350
5E
  0
DICTIONARY
  5
D
102
{ACAD_REACTORS
330
C
102
}
330
C
100
AcDbDictionary
281
     1
  0
DICTIONARY
  5
1A
102
{ACAD_REACTORS
330
C
102
}
330
C
100
AcDbDictionary
281
     1
  3
Model
350
22
  3
ﾚｲｱｳﾄ1
350
51
  3
ﾚｲｱｳﾄ2
350
56
  0
DICTIONARY
  5
17
102
{ACAD_REACTORS
330
C
102
}
330
C
100
AcDbDictionary
281
     1
  3
Standard
350
18
  0
DICTIONARY
  5
19
102
{ACAD_REACTORS
330
C
102
}
330
C
100
AcDbDictionary
281
     1
  0
ACDBDICTIONARYWDFLT
  5
E
102
{ACAD_REACTORS
330
C
102
}
330
C
100
AcDbDictionary
281
     1
  3
Normal
350
F
100
AcDbDictionaryWithDefault
340
F
  0
DICTIONARY
  5
5E
102
{ACAD_REACTORS
330
C
102
}
330
C
100
AcDbDictionary
281
     1
  3
DIMASSOC
350
5F
  3
HIDETEXT
350
63
  0
LAYOUT
  5
22
102
{ACAD_REACTORS
330
1A
102
}
330
1A
100
AcDbPlotSettings
  1

  2
none_device
  4
ANSI_A_(8.50_x_11.00_Inches)
  6

 40
6.349999904632567
 41
19.04999923706053
 42
6.350006103515625
 43
19.04998779296875
 44
215.8999938964842
 45
279.3999938964843
 46
0.0
 47
0.0
 48
0.0
 49
0.0
140
0.0
141
0.0
142
1.0
143
78.436453180766
 70
 11952
 72
     0
 73
     1
 74
     0
  7

 75
     0
147
0.0127491741332998
148
0.0
149
0.0
100
AcDbLayout
  1
Model
 70
     1
 71
     0
 10
0.0
 20
0.0
 11
12.0
 21
9.0
 12
0.0
 22
0.0
 32
0.0
 14
0.0
 24
0.0
 34
0.0
 15
0.0
 25
0.0
 35
0.0
146
0.0
 13
0.0
 23
0.0
 33
0.0
 16
1.0
 26
0.0
 36
0.0
 17
0.0
 27
1.0
 37
0.0
 76
     0
330
1F
  0
LAYOUT
  5
51
102
{ACAD_REACTORS
330
1A
102
}
330
1A
100
AcDbPlotSettings
  1

  2
none_device
  4
Letter_(8.50_x_11.00_Inches)
  6

 40
6.349999904632567
 41
6.349999904632567
 42
6.350006103515625
 43
6.350006103515625
 44
215.8999938964842
 45
279.3999938964843
 46
0.0
 47
0.0
 48
0.0
 49
0.0
140
0.0
141
0.0
142
1.0
143
1.0
 70
   688
 72
     1
 73
     1
 74
     5
  7

 75
    16
147
1.0
148
0.0
149
0.0
100
AcDbLayout
  1
ﾚｲｱｳﾄ1
 70
     1
 71
     1
 10
-6.350006103515625
 20
-6.349999904632567
 11
273.0499877929687
 21
209.5499939918517
 12
0.0
 22
0.0
 32
0.0
 14
26.66076962115562
 24
20.31135699206657
 34
-0.0015258207003583
 15
240.039213369355
 25
182.8886381005154
 35
0.0000000349246037
146
0.0
 13
0.0
 23
0.0
 33
0.0
 16
1.0
 26
0.0
 36
0.0
 17
0.0
 27
1.0
 37
0.0
 76
     0
330
50
331
6B
  0
LAYOUT
  5
56
102
{ACAD_REACTORS
330
1A
102
}
330
1A
100
AcDbPlotSettings
  1

  2
none_device
  4
Letter_(8.50_x_11.00_Inches)
  6

 40
6.349999904632567
 41
6.349999904632567
 42
6.350006103515625
 43
6.350006103515625
 44
215.8999938964842
 45
279.3999938964843
 46
0.0
 47
0.0
 48
0.0
 49
0.0
140
0.0
141
0.0
142
1.0
143
1.0
 70
   688
 72
     1
 73
     1
 74
     5
  7

 75
    16
147
1.0
148
0.0
149
0.0
100
AcDbLayout
  1
ﾚｲｱｳﾄ2
 70
     1
 71
     2
 10
-6.350006103515625
 20
-6.349999904632567
 11
273.0499877929687
 21
209.5499939918517
 12
0.0
 22
0.0
 32
0.0
 14
26.66076962115562
 24
20.31135699206657
 34
-0.0015258207003583
 15
240.039213369355
 25
182.8886381005154
 35
0.0000000349246037
146
0.0
 13
0.0
 23
0.0
 33
0.0
 16
1.0
 26
0.0
 36
0.0
 17
0.0
 27
1.0
 37
0.0
 76
     0
330
55
331
71
  0
MLINESTYLE
  5
18
102
{ACAD_REACTORS
330
17
102
}
330
17
100
AcDbMlineStyle
  2
STANDARD
 70
     0
  3

 62
   256
 51
90.0
 52
90.0
 71
     2
 49
0.5
 62
   256
  6
BYLAYER
 49
-0.5
 62
   256
  6
BYLAYER
  0
ACDBPLACEHOLDER
  5
F
102
{ACAD_REACTORS
330
E
102
}
330
E
  0
DICTIONARYVAR
  5
5F
102
{ACAD_REACTORS
330
5E
102
}
330
5E
100
DictionaryVariables
280
     0
  1
2
  0
DICTIONARYVAR
  5
63
102
{ACAD_REACTORS
330
5E
102
}
330
5E
100
DictionaryVariables
280
     0
  1
1
  0
ENDSEC
  0
EOF
