  0
SECTION
  2
HEADER
  9
$ACADVER
  1
AC1015
  9
$ACADMAINTVER
 70
    14
  9
$DWGCODEPAGE
  3
ANSI_932
  9
$INSBASE
 10
0.0
 20
0.0
 30
0.0
  9
$EXTMIN
 10
-314.3741611534731
 20
-159.3311134387388
 30
0.0
  9
$EXTMAX
 10
277.9874144028358
 20
114.127627808905
 30
0.0
  9
$LIMMIN
 10
0.0
 20
0.0
  9
$LIMMAX
 10
420.0
 20
297.0
  9
$ORTHOMODE
 70
     0
  9
$REGENMODE
 70
     1
  9
$FILLMODE
 70
     1
  9
$QTEXTMODE
 70
     0
  9
$MIRRTEXT
 70
     1
  9
$LTSCALE
 40
1.0
  9
$ATTMODE
 70
     1
  9
$TEXTSIZE
 40
2.5
  9
$TRACEWID
 40
1.0
  9
$TEXTSTYLE
  7
Standard
  9
$CLAYER
  8
0
  9
$CELTYPE
  6
ByLayer
  9
$CECOLOR
 62
   256
  9
$CELTSCALE
 40
1.0
  9
$DISPSILH
 70
     0
  9
$DIMSCALE
 40
1.0
  9
$DIMASZ
 40
2.5
  9
$DIMEXO
 40
0.625
  9
$DIMDLI
 40
3.75
  9
$DIMRND
 40
0.0
  9
$DIMDLE
 40
0.0
  9
$DIMEXE
 40
1.25
  9
$DIMTP
 40
0.0
  9
$DIMTM
 40
0.0
  9
$DIMTXT
 40
2.5
  9
$DIMCEN
 40
2.5
  9
$DIMTSZ
 40
0.0
  9
$DIMTOL
 70
     0
  9
$DIMLIM
 70
     0
  9
$DIMTIH
 70
     0
  9
$DIMTOH
 70
     0
  9
$DIMSE1
 70
     0
  9
$DIMSE2
 70
     0
  9
$DIMTAD
 70
     1
  9
$DIMZIN
 70
     8
  9
$DIMBLK
  1

  9
$DIMASO
 70
     1
  9
$DIMSHO
 70
     1
  9
$DIMPOST
  1

  9
$DIMAPOST
  1

  9
$DIMALT
 70
     0
  9
$DIMALTD
 70
     3
  9
$DIMALTF
 40
0.03937007874016
  9
$DIMLFAC
 40
1.0
  9
$DIMTOFL
 70
     1
  9
$DIMTVP
 40
0.0
  9
$DIMTIX
 70
     0
  9
$DIMSOXD
 70
     0
  9
$DIMSAH
 70
     0
  9
$DIMBLK1
  1

  9
$DIMBLK2
  1

  9
$DIMSTYLE
  2
ISO-25
  9
$DIMCLRD
 70
     0
  9
$DIMCLRE
 70
     0
  9
$DIMCLRT
 70
     0
  9
$DIMTFAC
 40
1.0
  9
$DIMGAP
 40
0.625
  9
$DIMJUST
 70
     0
  9
$DIMSD1
 70
     0
  9
$DIMSD2
 70
     0
  9
$DIMTOLJ
 70
     0
  9
$DIMTZIN
 70
     8
  9
$DIMALTZ
 70
     0
  9
$DIMALTTZ
 70
     0
  9
$DIMUPT
 70
     0
  9
$DIMDEC
 70
     2
  9
$DIMTDEC
 70
     2
  9
$DIMALTU
 70
     2
  9
$DIMALTTD
 70
     3
  9
$DIMTXSTY
  7
Standard
  9
$DIMAUNIT
 70
     0
  9
$DIMADEC
 70
     0
  9
$DIMALTRND
 40
0.0
  9
$DIMAZIN
 70
     0
  9
$DIMDSEP
 70
    44
  9
$DIMATFIT
 70
     3
  9
$DIMFRAC
 70
     0
  9
$DIMLDRBLK
  1

  9
$DIMLUNIT
 70
     2
  9
$DIMLWD
 70
    -2
  9
$DIMLWE
 70
    -2
  9
$DIMTMOVE
 70
     0
  9
$LUNITS
 70
     2
  9
$LUPREC
 70
     4
  9
$SKETCHINC
 40
1.0
  9
$FILLETRAD
 40
10.0
  9
$AUNITS
 70
     0
  9
$AUPREC
 70
     0
  9
$MENU
  1
.
  9
$ELEVATION
 40
0.0
  9
$PELEVATION
 40
0.0
  9
$THICKNESS
 40
0.0
  9
$LIMCHECK
 70
     0
  9
$CHAMFERA
 40
10.0
  9
$CHAMFERB
 40
10.0
  9
$CHAMFERC
 40
20.0
  9
$CHAMFERD
 40
0.0
  9
$SKPOLY
 70
     0
  9
$TDCREATE
 40
2456035.886208044
  9
$TDUCREATE
 40
2456035.511208044
  9
$TDUPDATE
 40
2456037.685619028
  9
$TDUUPDATE
 40
2456037.310619028
  9
$TDINDWG
 40
0.0015525463
  9
$TDUSRTIMER
 40
0.0015525463
  9
$USRTIMER
 70
     1
  9
$ANGBASE
 50
0.0
  9
$ANGDIR
 70
     0
  9
$PDMODE
 70
     0
  9
$PDSIZE
 40
0.0
  9
$PLINEWID
 40
0.0
  9
$SPLFRAME
 70
     0
  9
$SPLINETYPE
 70
     6
  9
$SPLINESEGS
 70
     8
  9
$HANDSEED
  5
EB6
  9
$SURFTAB1
 70
     6
  9
$SURFTAB2
 70
     6
  9
$SURFTYPE
 70
     6
  9
$SURFU
 70
     6
  9
$SURFV
 70
     6
  9
$UCSBASE
  2

  9
$UCSNAME
  2

  9
$UCSORG
 10
0.0
 20
0.0
 30
0.0
  9
$UCSXDIR
 10
1.0
 20
0.0
 30
0.0
  9
$UCSYDIR
 10
0.0
 20
1.0
 30
0.0
  9
$UCSORTHOREF
  2

  9
$UCSORTHOVIEW
 70
     0
  9
$UCSORGTOP
 10
0.0
 20
0.0
 30
0.0
  9
$UCSORGBOTTOM
 10
0.0
 20
0.0
 30
0.0
  9
$UCSORGLEFT
 10
0.0
 20
0.0
 30
0.0
  9
$UCSORGRIGHT
 10
0.0
 20
0.0
 30
0.0
  9
$UCSORGFRONT
 10
0.0
 20
0.0
 30
0.0
  9
$UCSORGBACK
 10
0.0
 20
0.0
 30
0.0
  9
$PUCSBASE
  2

  9
$PUCSNAME
  2

  9
$PUCSORG
 10
0.0
 20
0.0
 30
0.0
  9
$PUCSXDIR
 10
1.0
 20
0.0
 30
0.0
  9
$PUCSYDIR
 10
0.0
 20
1.0
 30
0.0
  9
$PUCSORTHOREF
  2

  9
$PUCSORTHOVIEW
 70
     0
  9
$PUCSORGTOP
 10
0.0
 20
0.0
 30
0.0
  9
$PUCSORGBOTTOM
 10
0.0
 20
0.0
 30
0.0
  9
$PUCSORGLEFT
 10
0.0
 20
0.0
 30
0.0
  9
$PUCSORGRIGHT
 10
0.0
 20
0.0
 30
0.0
  9
$PUCSORGFRONT
 10
0.0
 20
0.0
 30
0.0
  9
$PUCSORGBACK
 10
0.0
 20
0.0
 30
0.0
  9
$USERI1
 70
     0
  9
$USERI2
 70
     0
  9
$USERI3
 70
     0
  9
$USERI4
 70
     0
  9
$USERI5
 70
     0
  9
$USERR1
 40
0.0
  9
$USERR2
 40
0.0
  9
$USERR3
 40
0.0
  9
$USERR4
 40
0.0
  9
$USERR5
 40
0.0
  9
$WORLDVIEW
 70
     1
  9
$SHADEDGE
 70
     3
  9
$SHADEDIF
 70
    70
  9
$TILEMODE
 70
     1
  9
$MAXACTVP
 70
    64
  9
$PINSBASE
 10
0.0
 20
0.0
 30
0.0
  9
$PLIMCHECK
 70
     0
  9
$PEXTMIN
 10
26.66076962115562
 20
20.31135699206657
 30
-0.0015258207003583
  9
$PEXTMAX
 10
240.039213369355
 20
182.8886381005154
 30
0.0000000349246037
  9
$PLIMMIN
 10
-6.350006103515625
 20
-6.349999904632567
  9
$PLIMMAX
 10
273.0499877929687
 20
209.5499939918517
  9
$UNITMODE
 70
     0
  9
$VISRETAIN
 70
     1
  9
$PLINEGEN
 70
     0
  9
$PSLTSCALE
 70
     1
  9
$TREEDEPTH
 70
  3020
  9
$CMLSTYLE
  2
Standard
  9
$CMLJUST
 70
     0
  9
$CMLSCALE
 40
20.0
  9
$PROXYGRAPHICS
 70
     1
  9
$MEASUREMENT
 70
     1
  9
$CELWEIGHT
370
    -1
  9
$ENDCAPS
280
     0
  9
$JOINSTYLE
280
     0
  9
$LWDISPLAY
290
     0
  9
$INSUNITS
 70
     4
  9
$HYPERLINKBASE
  1

  9
$STYLESHEET
  1

  9
$XEDIT
290
     1
  9
$CEPSNTYPE
380
     0
  9
$PSTYLEMODE
290
     1
  9
$FINGERPRINTGUID
  2
{FDEAD578-A652-11D2-9A35-0060089B3A3F}
  9
$VERSIONGUID
  2
{05AECD62-9F86-4CD5-A039-71D58636AF35}
  9
$EXTNAMES
290
     1
  9
$PSVPSCALE
 40
0.0
  9
$OLESTARTUP
290
     0
  0
ENDSEC
  0
SECTION
  2
CLASSES
  0
CLASS
  1
ACDBDICTIONARYWDFLT
  2
AcDbDictionaryWithDefault
  3
AutoCAD 2000
 90
        0
280
     0
281
     0
  0
CLASS
  1
ACDBPLACEHOLDER
  2
AcDbPlaceHolder
  3
AutoCAD 2000
 90
        0
280
     0
281
     0
  0
CLASS
  1
LAYOUT
  2
AcDbLayout
  3
AutoCAD 2000
 90
        0
280
     0
281
     0
  0
CLASS
  1
DICTIONARYVAR
  2
AcDbDictionaryVar
  3
AutoCAD 2000
 90
        0
280
     0
281
     0
  0
ENDSEC
  0
SECTION
  2
TABLES
  0
TABLE
  2
VPORT
  5
8
330
0
100
AcDbSymbolTable
 70
     3
  0
VPORT
  5
EB5
330
8
100
AcDbSymbolTableRecord
100
AcDbViewportTableRecord
  2
*Active
 70
     0
 10
0.0
 20
0.0
 11
1.0
 21
1.0
 12
-5.150039589337325
 22
-22.60038708092221
 13
0.0
 23
0.0
 14
10.0
 24
10.0
 15
10.0
 25
10.0
 16
0.0
 26
0.0
 36
1.0
 17
0.0
 27
0.0
 37
0.0
 40
301.7486756027533
 41
2.056994818652849
 42
50.0
 43
0.0
 44
0.0
 50
0.0
 51
0.0
 71
     0
 72
   100
 73
     1
 74
     3
 75
     0
 76
     0
 77
     0
 78
     0
281
     0
 65
     1
110
0.0
120
0.0
130
0.0
111
1.0
121
0.0
131
0.0
112
0.0
122
1.0
132
0.0
 79
     0
146
0.0
  0
ENDTAB
  0
TABLE
  2
LTYPE
  5
5
330
0
100
AcDbSymbolTable
 70
     3
  0
LTYPE
  5
14
330
5
100
AcDbSymbolTableRecord
100
AcDbLinetypeTableRecord
  2
ByBlock
 70
     0
  3

 72
    65
 73
     0
 40
0.0
  0
LTYPE
  5
15
330
5
100
AcDbSymbolTableRecord
100
AcDbLinetypeTableRecord
  2
ByLayer
 70
     0
  3

 72
    65
 73
     0
 40
0.0
  0
LTYPE
  5
16
330
5
100
AcDbSymbolTableRecord
100
AcDbLinetypeTableRecord
  2
Continuous
 70
     0
  3
Solid line
 72
    65
 73
     0
 40
0.0
  0
LTYPE
  5
8C
330
5
100
AcDbSymbolTableRecord
100
AcDbLinetypeTableRecord
  2
DASHED
 70
     0
  3
Dashed
 72
    65
 73
     2
 40
15.0
 49
7.0
 74
     0
 49
-8.0
 74
     0
  0
LTYPE
  5
8D
330
5
100
AcDbSymbolTableRecord
100
AcDbLinetypeTableRecord
  2
DASH_CENTER
 70
     0
  3
Dash_Center
 72
    65
 73
     4
 40
14.0
 49
11.0
 74
     0
 49
-1.0
 74
     0
 49
1.0
 74
     0
 49
-1.0
 74
     0
  0
ENDTAB
  0
TABLE
  2
LAYER
  5
2
330
0
100
AcDbSymbolTable
 70
     1
  0
LAYER
  5
10
330
2
100
AcDbSymbolTableRecord
100
AcDbLayerTableRecord
  2
0
 70
     0
 62
     7
  6
Continuous
370
    -3
390
F
  0
ENDTAB
  0
TABLE
  2
STYLE
  5
3
330
0
100
AcDbSymbolTable
 70
    27
  0
STYLE
  5
11
330
3
100
AcDbSymbolTableRecord
100
AcDbTextStyleTableRecord
  2
Standard
 70
     0
 40
0.0
 41
1.0
 50
0.0
 71
     0
 42
2.5
  3
txt
  4

  0
STYLE
  5
8E
330
3
100
AcDbSymbolTableRecord
100
AcDbTextStyleTableRecord
  2
CONVERTER_1
 70
     0
 40
0.0
 41
0.8455
 50
0.0
 71
     0
 42
0.2
  3
txt.shx
  4

  0
STYLE
  5
8F
330
3
100
AcDbSymbolTableRecord
100
AcDbTextStyleTableRecord
  2
CONVERTER_2
 70
     0
 40
0.0
 41
0.8009999999999999
 50
0.0
 71
     0
 42
0.2
  3
txt.shx
  4
bigfont.shx
  0
STYLE
  5
90
330
3
100
AcDbSymbolTableRecord
100
AcDbTextStyleTableRecord
  2
CONVERTER_3
 70
     0
 40
0.0
 41
0.8009999999999999
 50
0.0
 71
     0
 42
0.2
  3
txt.shx
  4

  0
STYLE
  5
91
330
3
100
AcDbSymbolTableRecord
100
AcDbTextStyleTableRecord
  2
CONVERTER_4
 70
     0
 40
0.0
 41
0.89
 50
0.0
 71
     0
 42
0.2
  3
txt.shx
  4

  0
STYLE
  5
92
330
3
100
AcDbSymbolTableRecord
100
AcDbTextStyleTableRecord
  2
CONVERTER_5
 70
     0
 40
0.0
 41
0.741666637
 50
0.0
 71
     0
 42
0.2
  3
txt.shx
  4

  0
STYLE
  5
93
330
3
100
AcDbSymbolTableRecord
100
AcDbTextStyleTableRecord
  2
CONVERTER_6
 70
     0
 40
0.0
 41
0.89
 50
0.0
 71
     0
 42
0.2
  3
txt.shx
  4
bigfont.shx
  0
STYLE
  5
94
330
3
100
AcDbSymbolTableRecord
100
AcDbTextStyleTableRecord
  2
CONVERTER_7
 70
     0
 40
0.0
 41
0.6230000000000002
 50
0.0
 71
     0
 42
0.2
  3
txt.shx
  4

  0
STYLE
  5
95
330
3
100
AcDbSymbolTableRecord
100
AcDbTextStyleTableRecord
  2
CONVERTER_8
 70
     0
 40
0.0
 41
0.9761290322580599
 50
0.0
 71
     0
 42
0.2
  3
txt.shx
  4
bigfont.shx
  0
STYLE
  5
96
330
3
100
AcDbSymbolTableRecord
100
AcDbTextStyleTableRecord
  2
CONVERTER_9
 70
     0
 40
0.0
 41
1.008666666666669
 50
0.0
 71
     0
 42
0.2
  3
txt.shx
  4
bigfont.shx
  0
STYLE
  5
97
330
3
100
AcDbSymbolTableRecord
100
AcDbTextStyleTableRecord
  2
CONVERTER_10
 70
     0
 40
0.0
 41
0.94933333333333
 50
0.0
 71
     0
 42
0.2
  3
txt.shx
  4

  0
STYLE
  5
98
330
3
100
AcDbSymbolTableRecord
100
AcDbTextStyleTableRecord
  2
CONVERTER_11
 70
     0
 40
0.0
 41
1.01714285714286
 50
0.0
 71
     0
 42
0.2
  3
txt.shx
  4

  0
STYLE
  5
99
330
3
100
AcDbSymbolTableRecord
100
AcDbTextStyleTableRecord
  2
CONVERTER_12
 70
     0
 40
0.0
 41
1.1125
 50
0.0
 71
     0
 42
0.2
  3
txt.shx
  4

  0
STYLE
  5
9A
330
3
100
AcDbSymbolTableRecord
100
AcDbTextStyleTableRecord
  2
CONVERTER_13
 70
     0
 40
0.0
 41
1.148387096774188
 50
0.0
 71
     0
 42
0.2
  3
txt.shx
  4

  0
STYLE
  5
9B
330
3
100
AcDbSymbolTableRecord
100
AcDbTextStyleTableRecord
  2
CONVERTER_14
 70
     0
 40
0.0
 41
1.078787878787879
 50
0.0
 71
     0
 42
0.2
  3
txt.shx
  4

  0
STYLE
  5
9C
330
3
100
AcDbSymbolTableRecord
100
AcDbTextStyleTableRecord
  2
CONVERTER_15
 70
     0
 40
0.0
 41
1.424
 50
0.0
 71
     0
 42
0.2
  3
txt.shx
  4

  0
STYLE
  5
9D
330
3
100
AcDbSymbolTableRecord
100
AcDbTextStyleTableRecord
  2
CONVERTER_16
 70
     0
 40
0.0
 41
0.7719387755102
 50
0.0
 71
     0
 42
0.2
  3
txt.shx
  4
bigfont.shx
  0
STYLE
  5
9E
330
3
100
AcDbSymbolTableRecord
100
AcDbTextStyleTableRecord
  2
CONVERTER_17
 70
     0
 40
0.0
 41
0.83262578616352
 50
0.0
 71
     0
 42
0.2
  3
txt.shx
  4
bigfont.shx
  0
STYLE
  5
9F
330
3
100
AcDbSymbolTableRecord
100
AcDbTextStyleTableRecord
  2
CONVERTER_18
 70
     0
 40
0.0
 41
0.85884578997162
 50
0.0
 71
     0
 42
0.2
  3
txt.shx
  4
bigfont.shx
  0
STYLE
  5
A0
330
3
100
AcDbSymbolTableRecord
100
AcDbTextStyleTableRecord
  2
CONVERTER_19
 70
     0
 40
0.0
 41
0.8362966374942399
 50
0.0
 71
     0
 42
0.2
  3
txt.shx
  4
bigfont.shx
  0
STYLE
  5
A1
330
3
100
AcDbSymbolTableRecord
100
AcDbTextStyleTableRecord
  2
CONVERTER_20
 70
     0
 40
0.0
 41
1.68111111111111
 50
0.0
 71
     0
 42
0.2
  3
txt.shx
  4
bigfont.shx
  0
STYLE
  5
A2
330
3
100
AcDbSymbolTableRecord
100
AcDbTextStyleTableRecord
  2
CONVERTER_21
 70
     0
 40
0.0
 41
1.62688172043011
 50
0.0
 71
     0
 42
0.2
  3
txt.shx
  4
bigfont.shx
  0
STYLE
  5
A3
330
3
100
AcDbSymbolTableRecord
100
AcDbTextStyleTableRecord
  2
CONVERTER_22
 70
     0
 40
0.0
 41
0.945625
 50
0.0
 71
     0
 42
0.2
  3
txt.shx
  4
bigfont.shx
  0
STYLE
  5
A4
330
3
100
AcDbSymbolTableRecord
100
AcDbTextStyleTableRecord
  2
CONVERTER_23
 70
     0
 40
0.0
 41
0.7565
 50
0.0
 71
     0
 42
0.2
  3
txt.shx
  4

  0
STYLE
  5
A5
330
3
100
AcDbSymbolTableRecord
100
AcDbTextStyleTableRecord
  2
CONVERTER_24
 70
     0
 40
0.0
 41
0.73425
 50
0.0
 71
     0
 42
0.2
  3
txt.shx
  4

  0
STYLE
  5
A6
330
3
100
AcDbSymbolTableRecord
100
AcDbTextStyleTableRecord
  2
CONVERTER_25
 70
     0
 40
0.0
 41
0.7565
 50
0.0
 71
     0
 42
0.2
  3
txt.shx
  4
bigfont.shx
  0
STYLE
  5
A7
330
3
100
AcDbSymbolTableRecord
100
AcDbTextStyleTableRecord
  2
CONVERTER_26
 70
     0
 40
0.0
 41
0.85
 50
0.0
 71
     0
 42
0.2
  3
monotxt.shx
  4

  0
ENDTAB
  0
TABLE
  2
VIEW
  5
6
330
0
100
AcDbSymbolTable
 70
     0
  0
ENDTAB
  0
TABLE
  2
UCS
  5
7
330
0
100
AcDbSymbolTable
 70
     0
  0
ENDTAB
  0
TABLE
  2
APPID
  5
9
330
0
100
AcDbSymbolTable
 70
     1
  0
APPID
  5
12
330
9
100
AcDbSymbolTableRecord
100
AcDbRegAppTableRecord
  2
ACAD
 70
     0
  0
ENDTAB
  0
TABLE
  2
DIMSTYLE
  5
A
330
0
100
AcDbSymbolTable
 70
     2
100
AcDbDimStyleTable
 71
     0
  0
DIMSTYLE
105
27
330
A
100
AcDbSymbolTableRecord
100
AcDbDimStyleTableRecord
  2
ISO-25
 70
     0
 41
2.5
 42
0.625
 43
3.75
 44
1.25
 73
     0
 74
     0
 77
     1
 78
     8
140
2.5
141
2.5
143
0.03937007874016
147
0.625
171
     3
172
     1
271
     2
272
     2
274
     3
278
    44
283
     0
284
     8
340
11
  0
DIMSTYLE
105
A8
330
A
100
AcDbSymbolTableRecord
100
AcDbDimStyleTableRecord
  2
Standard
 70
     0
340
11
  0
ENDTAB
  0
TABLE
  2
BLOCK_RECORD
  5
1
330
0
100
AcDbSymbolTable
 70
     2
  0
BLOCK_RECORD
  5
1F
330
1
100
AcDbSymbolTableRecord
100
AcDbBlockTableRecord
  2
*Model_Space
340
22
  0
BLOCK_RECORD
  5
55
330
1
100
AcDbSymbolTableRecord
100
AcDbBlockTableRecord
  2
*Paper_Space
340
56
  0
BLOCK_RECORD
  5
50
330
1
100
AcDbSymbolTableRecord
100
AcDbBlockTableRecord
  2
*Paper_Space0
340
51
  0
BLOCK_RECORD
  5
86
330
1
100
AcDbSymbolTableRecord
100
AcDbBlockTableRecord
  2
_Open30
340
0
102
{BLKREFS
331
6DE
331
59F
331
14E
331
131
331
F5
331
F7
331
12E
331
FF
331
104
331
100
331
137
331
135
331
132
331
12F
331
192
331
551
331
193
331
5B0
331
5A2
331
54B
331
552
331
5A5
331
5A7
331
5AA
331
5AD
331
5AF
331
79A
331
6BA
331
79D
331
6BB
331
6A8
331
662
331
6AB
331
665
331
6A0
331
628
331
5D1
331
69E
331
631
331
62E
331
663
331
63D
331
644
331
63F
331
6B5
331
6B6
331
77B
331
79C
331
6E3
331
6E5
331
7F7
331
7F9
331
801
331
802
331
806
331
830
331
831
331
833
331
834
331
837
331
839
331
850
331
894
331
895
331
D46
331
D64
331
D65
331
D67
331
DA0
331
DA2
331
DAA
331
DAD
331
DB7
331
DB8
331
DBC
331
DBD
331
DE0
331
DE5
331
DE7
331
E7D
331
E9C
331
E9E
331
E9F
331
C4D
331
C53
331
C54
331
CA1
331
CA4
331
CA7
331
CA9
331
CAC
331
CAF
331
CB1
331
CB2
331
CD3
331
D2A
331
D30
331
D33
331
D3F
331
D41
102
}
  0
ENDTAB
  0
ENDSEC
  0
SECTION
  2
BLOCKS
  0
BLOCK
  5
20
330
1F
100
AcDbEntity
  8
0
100
AcDbBlockBegin
  2
*Model_Space
 70
     0
 10
0.0
 20
0.0
 30
0.0
  3
*Model_Space
  1

  0
ENDBLK
  5
21
330
1F
100
AcDbEntity
  8
0
100
AcDbBlockEnd
  0
BLOCK
  5
57
330
55
100
AcDbEntity
 67
     1
  8
0
100
AcDbBlockBegin
  2
*Paper_Space
 70
     0
 10
0.0
 20
0.0
 30
0.0
  3
*Paper_Space
  1

  0
ENDBLK
  5
58
330
55
100
AcDbEntity
 67
     1
  8
0
100
AcDbBlockEnd
  0
BLOCK
  5
52
330
50
100
AcDbEntity
  8
0
100
AcDbBlockBegin
  2
*Paper_Space0
 70
     0
 10
0.0
 20
0.0
 30
0.0
  3
*Paper_Space0
  1

  0
VIEWPORT
  5
6B
330
50
100
AcDbEntity
  8
0
100
AcDbViewport
 10
133.3499908447265
 20
101.5999970436096
 30
0.0
 40
381.3957395593833
 41
218.2856291881582
 69
     0
 12
133.3499908447265
 22
101.5999970436096
 13
0.0
 23
0.0
 14
10.0
 24
10.0
 15
10.0
 25
10.0
 16
0.0
 26
0.0
 36
1.0
 17
0.0
 27
0.0
 37
0.0
 42
50.0
 43
0.0
 44
0.0
 45
218.2856291881582
 50
0.0
 51
0.0
 72
   100
 90
    32800
  1

281
     0
 71
     1
 74
     0
110
0.0
120
0.0
130
0.0
111
1.0
121
0.0
131
0.0
112
0.0
122
1.0
132
0.0
 79
     0
146
0.0
  0
VIEWPORT
  5
6D
330
50
100
AcDbEntity
  8
0
100
AcDbViewport
 10
133.3499939441679
 20
101.5999939441679
 30
0.0
 40
213.3599903106689
 41
162.5599903106689
 69
     0
 12
210.0
 22
148.5
 13
0.0
 23
0.0
 14
10.0
 24
10.0
 15
10.0
 25
10.0
 16
0.0
 26
0.0
 36
1.0
 17
0.0
 27
0.0
 37
0.0
 42
50.0
 43
0.0
 44
0.0
 45
324.0677920111345
 50
0.0
 51
0.0
 72
   100
 90
    32864
  1

281
     0
 71
     1
 74
     0
110
0.0
120
0.0
130
0.0
111
1.0
121
0.0
131
0.0
112
0.0
122
1.0
132
0.0
 79
     0
146
0.0
  0
ENDBLK
  5
53
330
50
100
AcDbEntity
  8
0
100
AcDbBlockEnd
  0
BLOCK
  5
8A
330
86
100
AcDbEntity
  8
0
100
AcDbBlockBegin
  2
_Open30
 70
     0
 10
0.0
 20
0.0
 30
0.0
  3
_Open30
  1

  0
LINE
  5
87
330
86
100
AcDbEntity
  8
0
  6
ByBlock
 62
     0
370
    -2
100
AcDbLine
 10
-1.0
 20
0.267949
 30
0.0
 11
0.0
 21
0.0
 31
0.0
  0
LINE
  5
88
330
86
100
AcDbEntity
  8
0
  6
ByBlock
 62
     0
370
    -2
100
AcDbLine
 10
0.0
 20
0.0
 30
0.0
 11
-1.0
 21
-0.267949
 31
0.0
  0
LINE
  5
89
330
86
100
AcDbEntity
  8
0
  6
ByBlock
 62
     0
370
    -2
100
AcDbLine
 10
0.0
 20
0.0
 30
0.0
 11
-1.0
 21
0.0
 31
0.0
  0
ENDBLK
  5
8B
330
86
100
AcDbEntity
  8
0
100
AcDbBlockEnd
  0
ENDSEC
  0
SECTION
  2
ENTITIES
  0
ARC
  5
7AD
330
1F
100
AcDbEntity
  8
0
  6
Continuous
 62
     7
100
AcDbCircle
 10
-18.60869056738516
 20
31.49082780890518
 30
0.0
 40
7.0
100
AcDbArc
 50
90.0
 51
0.0
  0
LINE
  5
7AE
330
1F
100
AcDbEntity
  8
0
  6
Continuous
 62
     7
100
AcDbLine
 10
-22.21419056738529
 20
37.49082780890518
 30
0.0
 11
-15.00309056738529
 21
37.49082780890518
 31
0.0
  0
LINE
  5
7AF
330
1F
100
AcDbEntity
  8
0
  6
DASH_CENTER
 62
    30
100
AcDbLine
 10
-30.72739056738537
 20
31.49082780890518
 30
0.0
 11
-6.193590567385228
 21
31.49082780890518
 31
0.0
  0
ARC
  5
7B6
330
1F
100
AcDbEntity
  8
0
  6
Continuous
 62
     7
100
AcDbCircle
 10
-245.7982611534733
 20
-0.7587721910946926
 30
0.0
 40
2.0
100
AcDbArc
 50
90.0
 51
180.0
  0
ARC
  5
7B7
330
1F
100
AcDbEntity
  8
0
  6
Continuous
 62
     7
100
AcDbCircle
 10
-224.7982611534733
 20
-0.7587721910946926
 30
0.0
 40
2.0
100
AcDbArc
 50
0.0
 51
90.0
  0
ARC
  5
7B8
330
1F
100
AcDbEntity
  8
0
  6
Continuous
 62
     7
100
AcDbCircle
 10
-170.7982611534733
 20
-0.7587721910946926
 30
0.0
 40
2.0
100
AcDbArc
 50
90.0
 51
180.0
  0
ARC
  5
7B9
330
1F
100
AcDbEntity
  8
0
  6
Continuous
 62
     7
100
AcDbCircle
 10
-149.7982611534733
 20
-0.7587721910946926
 30
0.0
 40
2.0
100
AcDbArc
 50
0.0
 51
90.0
  0
LINE
  5
7BA
330
1F
100
AcDbEntity
  8
0
  6
DASH_CENTER
 62
    30
100
AcDbLine
 10
-206.7982611534733
 20
114.127627808905
 30
0.0
 11
-206.7982611534733
 21
-55.8072721910948
 31
0.0
  0
LINE
  5
7BB
330
1F
100
AcDbEntity
  8
0
  6
Continuous
 62
     7
100
AcDbLine
 10
-288.5979611534731
 20
31.49082780890518
 30
0.0
 11
-288.5979611534731
 21
-34.00917219109482
 31
0.0
  0
LINE
  5
7BC
330
1F
100
AcDbEntity
  8
0
  6
Continuous
 62
     7
100
AcDbLine
 10
-286.298261153473
 20
-34.10927219109469
 30
0.0
 11
-286.298261153473
 21
31.49102780890535
 31
0.0
  0
LINE
  5
7BD
330
1F
100
AcDbEntity
  8
0
  6
Continuous
 62
     7
100
AcDbLine
 10
-133.7982611534733
 20
-34.10897219109477
 30
0.0
 11
-133.7982611534733
 21
31.49102780890535
 31
0.0
  0
LINE
  5
7BE
330
1F
100
AcDbEntity
  8
0
  6
Continuous
 62
     7
100
AcDbLine
 10
-131.4982611534732
 20
31.49082780890518
 30
0.0
 11
-131.4982611534732
 21
-34.00917219109482
 31
0.0
  0
LINE
  5
7C2
330
1F
100
AcDbEntity
  8
0
  6
DASH_CENTER
 62
    30
100
AcDbLine
 10
-282.4423611534731
 20
-11.6423721910948
 30
0.0
 11
-295.8165611534732
 21
-11.6423721910948
 31
0.0
  0
LINE
  5
7C3
330
1F
100
AcDbEntity
  8
0
  6
Continuous
 62
     7
100
AcDbLine
 10
-256.7681611534733
 20
-34.10917219109473
 30
0.0
 11
-286.298261153473
 21
-34.10927219109469
 31
0.0
  0
LINE
  5
7DF
330
1F
100
AcDbEntity
  8
0
  6
Continuous
 62
     7
100
AcDbLine
 10
-288.5979611534731
 20
-34.00917219109482
 30
0.0
 11
-286.2979611534731
 21
-34.00917219109482
 31
0.0
  0
LINE
  5
7E0
330
1F
100
AcDbEntity
  8
0
  6
Continuous
 62
     7
100
AcDbLine
 10
-291.1978611534731
 20
-13.72357219109466
 30
0.0
 11
-291.1978611534731
 21
-9.560972191094768
 31
0.0
  0
ARC
  5
7E1
330
1F
100
AcDbEntity
  8
0
  6
Continuous
 62
     7
100
AcDbCircle
 10
-289.8980379043841
 20
-13.72359756388907
 30
0.0
 40
1.300023249336724
100
AcDbArc
 50
179.998881747665
 51
264.9991701575237
  0
LINE
  5
7E2
330
1F
100
AcDbEntity
  8
0
  6
Continuous
 62
     7
100
AcDbLine
 10
-288.5979611534731
 20
-15.14227219109483
 30
0.0
 11
-290.0110611534731
 21
-15.01877219109467
 31
0.0
  0
ARC
  5
7E3
330
1F
100
AcDbEntity
  8
0
  6
Continuous
 62
     7
100
AcDbCircle
 10
-289.8980877142775
 20
-9.561001175877448
 30
0.0
 40
1.299973439518927
100
AcDbArc
 50
94.99881820689664
 51
179.9987225079626
  0
LINE
  5
7E4
330
1F
100
AcDbEntity
  8
0
  6
Continuous
 62
     7
100
AcDbLine
 10
-288.5979611534731
 20
-8.142272191094832
 30
0.0
 11
-290.0110611534731
 21
-8.266072191094679
 31
0.0
  0
LINE
  5
7ED
330
1F
100
AcDbEntity
  8
0
  6
Continuous
 62
     7
100
AcDbLine
 10
-133.7982611534733
 20
-34.10897219109477
 30
0.0
 11
-156.8281611534733
 21
-34.10907219109475
 31
0.0
  0
LINE
  5
7EE
330
1F
100
AcDbEntity
  8
0
  6
Continuous
 62
     7
100
AcDbLine
 10
-149.7982611534733
 20
-5.758772191094692
 30
0.0
 11
-170.7982611534733
 21
-5.758772191094692
 31
0.0
  0
LINE
  5
7EF
330
1F
100
AcDbEntity
  8
0
  6
Continuous
 62
     7
100
AcDbLine
 10
-149.7982611534733
 20
-4.558772191094639
 30
0.0
 11
-170.7982611534733
 21
-4.558772191094639
 31
0.0
  0
LINE
  5
7F0
330
1F
100
AcDbEntity
  8
0
  6
Continuous
 62
     7
100
AcDbLine
 10
-149.7982611534733
 20
-15.75877219109468
 30
0.0
 11
-170.7982611534733
 21
-15.75877219109468
 31
0.0
  0
LINE
  5
7F1
330
1F
100
AcDbEntity
  8
0
  6
Continuous
 62
     7
100
AcDbLine
 10
-149.7982611534733
 20
-17.25877219109468
 30
0.0
 11
-170.7982611534733
 21
-17.25877219109468
 31
0.0
  0
LINE
  5
7F2
330
1F
100
AcDbEntity
  8
0
  6
Continuous
 62
     7
100
AcDbLine
 10
-149.7982611534733
 20
-11.75877219109468
 30
0.0
 11
-170.7982611534733
 21
-11.75877219109468
 31
0.0
  0
LINE
  5
7FB
330
1F
100
AcDbEntity
  8
0
  6
Continuous
 62
     7
100
AcDbLine
 10
-187.616761153473
 20
-12.50857219109474
 30
0.0
 11
-225.9795611534733
 21
-12.50857219109474
 31
0.0
  0
LINE
  5
7FC
330
1F
100
AcDbEntity
  8
0
  6
Continuous
 62
     7
100
AcDbLine
 10
-233.2981611534733
 20
-35.30877219109465
 30
0.0
 11
-180.2981611534733
 21
-35.30837219109475
 31
0.0
  0
LINE
  5
7FD
330
1F
100
AcDbEntity
  8
0
  6
Continuous
 62
     7
100
AcDbLine
 10
-231.7981611534733
 20
-38.50857219109474
 30
0.0
 11
-181.7981611534733
 21
-38.50857219109474
 31
0.0
  0
LINE
  5
809
330
1F
100
AcDbEntity
  8
0
  6
Continuous
 62
     7
100
AcDbLine
 10
-234.2981611534733
 20
-36.30837219109475
 30
0.0
 11
-261.7981611534734
 21
-36.30837219109475
 31
0.0
  0
LINE
  5
80A
330
1F
100
AcDbEntity
  8
0
  6
Continuous
 62
     7
100
AcDbLine
 10
-231.7981611534733
 20
-39.50857219109474
 30
0.0
 11
-261.7981611534734
 21
-39.50827219109481
 31
0.0
  0
LINE
  5
80B
330
1F
100
AcDbEntity
  8
0
  6
Continuous
 62
     7
100
AcDbLine
 10
-251.3599611534733
 20
-28.00827219109482
 30
0.0
 11
-243.3657611534732
 21
-28.00827219109482
 31
0.0
  0
ARC
  5
80C
330
1F
100
AcDbEntity
  8
0
  6
Continuous
 62
     7
100
AcDbCircle
 10
-258.8733937277788
 20
-34.30839784945435
 30
0.0
 40
1.999974341905657
100
AcDbArc
 50
270.0009331970809
 51
346.4531620128796
  0
LINE
  5
80D
330
1F
100
AcDbEntity
  8
0
  6
DASH_CENTER
 62
    30
100
AcDbLine
 10
-251.7981611534733
 20
-32.67207219109485
 30
0.0
 11
-251.7981611534733
 21
-42.99217219109475
 31
0.0
  0
LINE
  5
80E
330
1F
100
AcDbEntity
  8
0
  6
Continuous
 62
     7
100
AcDbLine
 10
-261.7981611534734
 20
-36.30837219109475
 30
0.0
 11
-261.7981611534734
 21
-39.50827219109481
 31
0.0
  0
ARC
  5
80F
330
1F
100
AcDbEntity
  8
0
  6
Continuous
 62
     7
100
AcDbCircle
 10
-251.3599180082986
 20
-33.00823820699148
 30
0.0
 40
4.999966016082799
100
AcDbArc
 50
90.00049441064103
 51
166.4523004070618
  0
LINE
  5
810
330
1F
100
AcDbEntity
  8
0
  6
Continuous
 62
     7
100
AcDbLine
 10
-256.2207611534732
 20
-31.83687219109464
 30
0.0
 11
-256.929061153473
 21
-34.77687219109469
 31
0.0
  0
ARC
  5
811
330
1F
100
AcDbEntity
  8
0
  6
Continuous
 62
     7
100
AcDbCircle
 10
-243.3660682139514
 20
-20.50827841743998
 30
0.0
 40
7.499993773658168
100
AcDbArc
 50
270.0000539381231
 51
352.8154362339996
  0
LINE
  5
812
330
1F
100
AcDbEntity
  8
0
  6
Continuous
 62
     7
100
AcDbLine
 10
-235.8880611534733
 20
-21.15497219109482
 30
0.0
 11
-237.467361153473
 21
-33.68337219109474
 31
0.0
  0
ARC
  5
813
330
1F
100
AcDbEntity
  8
0
  6
Continuous
 62
     7
100
AcDbCircle
 10
-240.4436793874114
 20
-33.30808827045851
 30
0.0
 40
2.999983920691716
100
AcDbArc
 50
270.0003482444374
 51
352.8137401148651
  0
ARC
  5
814
330
1F
100
AcDbEntity
  8
0
  6
Continuous
 62
     7
100
AcDbCircle
 10
-234.2981611584733
 20
-35.80837219609374
 30
0.0
 40
0.5000000049999979
100
AcDbArc
 50
269.9885414171025
 51
0.0000005728434443
  0
ARC
  5
815
330
1F
100
AcDbEntity
  8
0
  6
Continuous
 62
     7
100
AcDbCircle
 10
-233.2981611534733
 20
-35.80837219109474
 30
0.0
 40
0.5
100
AcDbArc
 50
90.0
 51
180.0
  0
LINE
  5
816
330
1F
100
AcDbEntity
  8
0
  6
Continuous
 62
     7
100
AcDbLine
 10
-231.7981611534733
 20
-38.50857219109474
 30
0.0
 11
-231.7981611534733
 21
-39.50857219109474
 31
0.0
  0
ARC
  5
817
330
1F
100
AcDbEntity
  8
0
  6
Continuous
 62
     7
100
AcDbCircle
 10
-225.9795799461576
 20
-22.5085887632819
 30
0.0
 40
10.00001657220483
100
AcDbArc
 50
89.99989232602739
 51
172.8145405651354
  0
LINE
  5
818
330
1F
100
AcDbEntity
  8
0
  6
Continuous
 62
     7
100
AcDbLine
 10
-224.7982611534733
 20
-5.758772191094692
 30
0.0
 11
-245.7982611534733
 21
-5.758772191094692
 31
0.0
  0
LINE
  5
819
330
1F
100
AcDbEntity
  8
0
  6
Continuous
 62
     7
100
AcDbLine
 10
-224.7982611534733
 20
-4.558772191094639
 30
0.0
 11
-245.7982611534733
 21
-4.558772191094639
 31
0.0
  0
LINE
  5
81A
330
1F
100
AcDbEntity
  8
0
  6
Continuous
 62
     7
100
AcDbLine
 10
-224.7982611534733
 20
-11.75877219109468
 30
0.0
 11
-245.7982611534733
 21
-11.75877219109468
 31
0.0
  0
ARC
  5
81B
330
1F
100
AcDbEntity
  8
0
  6
Continuous
 62
     7
100
AcDbCircle
 10
-245.7982611534733
 20
-13.75877219109469
 30
0.0
 40
2.0
100
AcDbArc
 50
90.0
 51
180.0
  0
LINE
  5
81C
330
1F
100
AcDbEntity
  8
0
  6
Continuous
 62
     7
100
AcDbLine
 10
-234.4907457273146
 20
-17.25877219109468
 30
0.0
 11
-245.7982611534733
 21
-17.25877219109468
 31
0.0
  0
LINE
  5
81D
330
1F
100
AcDbEntity
  8
0
  6
Continuous
 62
     7
100
AcDbLine
 10
-233.3579663232913
 20
-15.75877219109468
 30
0.0
 11
-245.7982611534733
 21
-15.75877219109468
 31
0.0
  0
ARC
  5
81E
330
1F
100
AcDbEntity
  8
0
  6
Continuous
 62
     7
100
AcDbCircle
 10
-245.7982611534733
 20
-15.25877219109468
 30
0.0
 40
2.0
100
AcDbArc
 50
180.0
 51
270.0
  0
ARC
  5
81F
330
1F
100
AcDbEntity
  8
0
  6
Continuous
 62
     7
100
AcDbCircle
 10
-245.7982611534733
 20
-13.75877219109469
 30
0.0
 40
2.0
100
AcDbArc
 50
180.0
 51
270.0
  0
LINE
  5
820
330
1F
100
AcDbEntity
  8
0
  6
Continuous
 62
     7
100
AcDbLine
 10
-247.7982611534733
 20
-13.75877219109469
 30
0.0
 11
-247.7982611534733
 21
-15.25877219109468
 31
0.0
  0
ARC
  5
821
330
1F
100
AcDbEntity
  8
0
  6
Continuous
 62
     7
100
AcDbCircle
 10
-245.7982611534733
 20
-2.558772191094639
 30
0.0
 40
2.0
100
AcDbArc
 50
180.0
 51
270.0
  0
ARC
  5
822
330
1F
100
AcDbEntity
  8
0
  6
Continuous
 62
     7
100
AcDbCircle
 10
-245.7982611534733
 20
-3.758772191094691
 30
0.0
 40
2.0
100
AcDbArc
 50
180.0
 51
270.0
  0
LINE
  5
823
330
1F
100
AcDbEntity
  8
0
  6
Continuous
 62
     7
100
AcDbLine
 10
-247.7982611534733
 20
-0.7587721910946926
 30
0.0
 11
-247.7982611534733
 21
-3.758772191094691
 31
0.0
  0
ARC
  5
824
330
1F
100
AcDbEntity
  8
0
  6
Continuous
 62
     7
100
AcDbCircle
 10
-224.7982611534733
 20
-13.75877219109469
 30
0.0
 40
1.999999999999976
100
AcDbArc
 50
38.68952756385946
 51
90.0
  0
ARC
  5
825
330
1F
100
AcDbEntity
  8
0
  6
Continuous
 62
     7
100
AcDbCircle
 10
-224.7982611534733
 20
-3.758772191094691
 30
0.0
 40
2.0
100
AcDbArc
 50
270.0
 51
0.0
  0
ARC
  5
826
330
1F
100
AcDbEntity
  8
0
  6
Continuous
 62
     7
100
AcDbCircle
 10
-224.7982611534733
 20
-2.558772191094639
 30
0.0
 40
2.0
100
AcDbArc
 50
270.0
 51
0.0
  0
LINE
  5
827
330
1F
100
AcDbEntity
  8
0
  6
Continuous
 62
     7
100
AcDbLine
 10
-222.7982611534733
 20
-0.7587721910946926
 30
0.0
 11
-222.7982611534733
 21
-3.758772191094691
 31
0.0
  0
ARC
  5
83A
330
1F
100
AcDbEntity
  8
0
  6
Continuous
 62
     7
100
AcDbCircle
 10
-187.6167565436325
 20
-22.50857625634092
 30
0.0
 40
10.00000406524722
100
AcDbArc
 50
7.184241258198372
 51
90.00002641243016
  0
ARC
  5
83B
330
1F
100
AcDbEntity
  8
0
  6
Continuous
 62
     7
100
AcDbCircle
 10
-170.2302540926055
 20
-20.50827841786746
 30
0.0
 40
7.499993773991513
100
AcDbArc
 50
187.1845637623877
 51
269.9991821145383
  0
LINE
  5
83C
330
1F
100
AcDbEntity
  8
0
  6
Continuous
 62
     7
100
AcDbLine
 10
-177.708361153473
 20
-21.15497219109482
 30
0.0
 11
-176.1289611534733
 21
-33.68337219109474
 31
0.0
  0
LINE
  5
83D
330
1F
100
AcDbEntity
  8
0
  6
Continuous
 62
     7
100
AcDbLine
 10
-162.2363611534732
 20
-28.00827219109482
 30
0.0
 11
-170.2305611534733
 21
-28.00827219109482
 31
0.0
  0
LINE
  5
83E
330
1F
100
AcDbEntity
  8
0
  6
Continuous
 62
     7
100
AcDbLine
 10
-181.7981611534733
 20
-39.50857219109474
 30
0.0
 11
-151.7981611534734
 21
-39.50827219109481
 31
0.0
  0
LINE
  5
83F
330
1F
100
AcDbEntity
  8
0
  6
Continuous
 62
     7
100
AcDbLine
 10
-179.2981611534733
 20
-36.30837219109475
 30
0.0
 11
-151.7981611534734
 21
-36.30837219109475
 31
0.0
  0
ARC
  5
840
330
1F
100
AcDbEntity
  8
0
  6
Continuous
 62
     7
100
AcDbCircle
 10
-173.1526429195349
 20
-33.30808827045851
 30
0.0
 40
2.999983920691732
100
AcDbArc
 50
187.1862598851348
 51
269.9996517555625
  0
ARC
  5
841
330
1F
100
AcDbEntity
  8
0
  6
Continuous
 62
     7
100
AcDbCircle
 10
-180.2981611534733
 20
-35.80837219109474
 30
0.0
 40
0.5
100
AcDbArc
 50
0.0
 51
90.0
  0
ARC
  5
842
330
1F
100
AcDbEntity
  8
0
  6
Continuous
 62
     7
100
AcDbCircle
 10
-179.2981611484733
 20
-35.80837219609374
 30
0.0
 40
0.500000005000004
100
AcDbArc
 50
179.9999994271565
 51
270.0114585829037
  0
LINE
  5
843
330
1F
100
AcDbEntity
  8
0
  6
Continuous
 62
     7
100
AcDbLine
 10
-181.7981611534733
 20
-38.50857219109474
 30
0.0
 11
-181.7981611534733
 21
-39.50857219109474
 31
0.0
  0
ARC
  5
844
330
1F
100
AcDbEntity
  8
0
  6
Continuous
 62
     7
100
AcDbCircle
 10
-154.7229902916208
 20
-34.30834924053273
 30
0.0
 40
2.000022950774274
100
AcDbArc
 50
193.547934847211
 51
270.0008347368558
  0
LINE
  5
845
330
1F
100
AcDbEntity
  8
0
  6
DASH_CENTER
 62
    30
100
AcDbLine
 10
-161.7981611534734
 20
-32.67207219109485
 30
0.0
 11
-161.7981611534734
 21
-42.99217219109475
 31
0.0
  0
LINE
  5
846
330
1F
100
AcDbEntity
  8
0
  6
Continuous
 62
     7
100
AcDbLine
 10
-151.7981611534734
 20
-36.30837219109475
 30
0.0
 11
-151.7981611534734
 21
-39.50827219109481
 31
0.0
  0
ARC
  5
847
330
1F
100
AcDbEntity
  8
0
  6
Continuous
 62
     7
100
AcDbCircle
 10
-162.2364042986475
 20
-33.00823820699148
 30
0.0
 40
4.999966016082829
100
AcDbArc
 50
13.54769959293806
 51
89.99950558935898
  0
LINE
  5
848
330
1F
100
AcDbEntity
  8
0
  6
Continuous
 62
     7
100
AcDbLine
 10
-157.3755611534733
 20
-31.83687219109464
 30
0.0
 11
-156.6672611534733
 21
-34.77687219109469
 31
0.0
  0
ARC
  5
849
330
1F
100
AcDbEntity
  8
0
  6
Continuous
 62
     7
100
AcDbCircle
 10
-170.7982611534733
 20
-13.75877219109469
 30
0.0
 40
2.0
100
AcDbArc
 50
90.0
 51
180.0
  0
ARC
  5
84A
330
1F
100
AcDbEntity
  8
0
  6
Continuous
 62
     7
100
AcDbCircle
 10
-170.7982611534733
 20
-15.25877219109468
 30
0.0
 40
2.0
100
AcDbArc
 50
180.0
 51
270.0
  0
ARC
  5
84B
330
1F
100
AcDbEntity
  8
0
  6
Continuous
 62
     7
100
AcDbCircle
 10
-170.7982611534733
 20
-13.75877219109469
 30
0.0
 40
2.0
100
AcDbArc
 50
180.0
 51
270.0
  0
LINE
  5
84C
330
1F
100
AcDbEntity
  8
0
  6
Continuous
 62
     7
100
AcDbLine
 10
-172.7982611534733
 20
-13.75877219109469
 30
0.0
 11
-172.7982611534733
 21
-15.25877219109468
 31
0.0
  0
ARC
  5
84D
330
1F
100
AcDbEntity
  8
0
  6
Continuous
 62
     7
100
AcDbCircle
 10
-170.7982611534733
 20
-2.558772191094639
 30
0.0
 40
2.0
100
AcDbArc
 50
180.0
 51
270.0
  0
ARC
  5
84E
330
1F
100
AcDbEntity
  8
0
  6
Continuous
 62
     7
100
AcDbCircle
 10
-170.7982611534733
 20
-3.758772191094691
 30
0.0
 40
2.0
100
AcDbArc
 50
180.0
 51
270.0
  0
LINE
  5
84F
330
1F
100
AcDbEntity
  8
0
  6
Continuous
 62
     7
100
AcDbLine
 10
-172.7982611534733
 20
-0.7587721910946926
 30
0.0
 11
-172.7982611534733
 21
-3.758772191094691
 31
0.0
  0
LINE
  5
853
330
1F
100
AcDbEntity
  8
0
  6
Continuous
 62
     7
100
AcDbLine
 10
-131.4982611534732
 20
-34.00917219109482
 30
0.0
 11
-133.7982611534733
 21
-34.00917219109482
 31
0.0
  0
LINE
  5
854
330
1F
100
AcDbEntity
  8
0
  6
DASH_CENTER
 62
    30
100
AcDbLine
 10
-119.7100611534732
 20
-11.6423721910948
 30
0.0
 11
-137.2821611534732
 21
-11.6423721910948
 31
0.0
  0
ARC
  5
855
330
1F
100
AcDbEntity
  8
0
  6
Continuous
 62
     7
100
AcDbCircle
 10
-149.7982611534733
 20
-13.75877219109469
 30
0.0
 40
2.0
100
AcDbArc
 50
0.0
 51
90.0
  0
ARC
  5
856
330
1F
100
AcDbEntity
  8
0
  6
Continuous
 62
     7
100
AcDbCircle
 10
-149.7982611534733
 20
-15.25877219109468
 30
0.0
 40
1.999999999999998
100
AcDbArc
 50
270.0
 51
0.0
  0
ARC
  5
857
330
1F
100
AcDbEntity
  8
0
  6
Continuous
 62
     7
100
AcDbCircle
 10
-149.7982611534733
 20
-13.75877219109469
 30
0.0
 40
2.0
100
AcDbArc
 50
270.0
 51
0.0
  0
LINE
  5
858
330
1F
100
AcDbEntity
  8
0
  6
Continuous
 62
     7
100
AcDbLine
 10
-147.7982611534733
 20
-15.25877219109468
 30
0.0
 11
-147.7982611534733
 21
-13.75877219109469
 31
0.0
  0
ARC
  5
859
330
1F
100
AcDbEntity
  8
0
  6
Continuous
 62
     7
100
AcDbCircle
 10
-149.7982611534733
 20
-3.758772191094691
 30
0.0
 40
2.0
100
AcDbArc
 50
270.0
 51
0.0
  0
ARC
  5
85A
330
1F
100
AcDbEntity
  8
0
  6
Continuous
 62
     7
100
AcDbCircle
 10
-149.7982611534733
 20
-2.558772191094639
 30
0.0
 40
2.0
100
AcDbArc
 50
270.0
 51
0.0
  0
LINE
  5
85B
330
1F
100
AcDbEntity
  8
0
  6
Continuous
 62
     7
100
AcDbLine
 10
-147.7982611534733
 20
-0.7587721910946926
 30
0.0
 11
-147.7982611534733
 21
-3.758772191094691
 31
0.0
  0
ARC
  5
85C
330
1F
100
AcDbEntity
  8
0
  6
Continuous
 62
     7
100
AcDbCircle
 10
-134.8865611534731
 20
-11.64212219109475
 30
0.0
 40
6.588350567668642
100
AcDbArc
 50
342.1385907380362
 51
17.8614092619637
  0
ARC
  5
85D
330
1F
100
AcDbEntity
  8
0
  6
Continuous
 62
     7
100
AcDbCircle
 10
-124.9099611560753
 20
-11.64227735007033
 30
0.0
 40
6.588302977166511
100
AcDbArc
 50
162.1370396760802
 51
197.8601249519284
  0
LINE
  5
85E
330
1F
100
AcDbEntity
  8
0
  6
Continuous
 62
     7
100
AcDbLine
 10
-125.9482611534731
 20
-9.642172191094855
 30
0.0
 11
-125.9482611534731
 21
-13.64217219109485
 31
0.0
  0
LINE
  5
85F
330
1F
100
AcDbEntity
  8
0
  6
Continuous
 62
     7
100
AcDbLine
 10
-125.5981611534733
 20
-13.29227219109468
 30
0.0
 11
-125.5981611534733
 21
-9.992272191094739
 31
0.0
  0
LINE
  5
860
330
1F
100
AcDbEntity
  8
0
  6
Continuous
 62
     7
100
AcDbLine
 10
-128.2982611534733
 20
-15.14217219109484
 30
0.0
 11
-128.2982611534733
 21
-8.142172191094857
 31
0.0
  0
LINE
  5
861
330
1F
100
AcDbEntity
  8
0
  6
Continuous
 62
     7
100
AcDbLine
 10
-128.2982611534733
 20
-8.142172191094857
 30
0.0
 11
-128.2982611534733
 21
-15.14217219109484
 31
0.0
  0
LINE
  5
862
330
1F
100
AcDbEntity
  8
0
  6
Continuous
 62
     7
100
AcDbLine
 10
-125.9482611534731
 20
-13.64217219109485
 30
0.0
 11
-128.2982611534733
 21
-13.64217219109485
 31
0.0
  0
LINE
  5
863
330
1F
100
AcDbEntity
  8
0
  6
Continuous
 62
    30
100
AcDbLine
 10
-128.2982611534733
 20
-13.29227219109468
 30
0.0
 11
-125.5981611534733
 21
-13.29227219109468
 31
0.0
  0
ARC
  5
864
330
1F
100
AcDbEntity
  8
0
  6
Continuous
 62
     7
100
AcDbCircle
 10
-134.8866292766633
 20
-15.68332615547367
 30
0.0
 40
6.588324615607422
100
AcDbArc
 50
4.41573603823036
 51
17.85877714712994
  0
ARC
  5
865
330
1F
100
AcDbEntity
  8
0
  6
Continuous
 62
     7
100
AcDbCircle
 10
-124.9099715721676
 20
-15.68372509568692
 30
0.0
 40
6.588277034786285
100
AcDbArc
 50
162.137444419688
 51
175.5807522366362
  0
LINE
  5
866
330
1F
100
AcDbEntity
  8
0
  6
Continuous
 62
     7
100
AcDbLine
 10
-131.1806611534732
 20
-13.66287219109466
 30
0.0
 11
-128.6157611534732
 21
-13.66287219109466
 31
0.0
  0
LINE
  5
867
330
1F
100
AcDbEntity
  8
0
  6
Continuous
 62
     7
100
AcDbLine
 10
-128.2982611534733
 20
-15.14217219109484
 30
0.0
 11
-128.615861153473
 21
-15.69217219109481
 31
0.0
  0
LINE
  5
868
330
1F
100
AcDbEntity
  8
0
  6
Continuous
 62
     7
100
AcDbLine
 10
-131.4982611534732
 20
-15.14217219109484
 30
0.0
 11
-131.1806611534732
 21
-15.69217219109481
 31
0.0
  0
LINE
  5
869
330
1F
100
AcDbEntity
  8
0
  6
Continuous
 62
     7
100
AcDbLine
 10
-128.615861153473
 20
-15.69217219109481
 30
0.0
 11
-131.1806611534732
 21
-15.69217219109481
 31
0.0
  0
LINE
  5
86A
330
1F
100
AcDbEntity
  8
0
  6
Continuous
 62
     7
100
AcDbLine
 10
-125.9482611534731
 20
-13.64217219109485
 30
0.0
 11
-125.5981611534733
 21
-13.29227219109468
 31
0.0
  0
LINE
  5
86B
330
1F
100
AcDbEntity
  8
0
  6
Continuous
 62
    30
100
AcDbLine
 10
-125.5981611534733
 20
-9.992272191094739
 30
0.0
 11
-128.2982611534733
 21
-9.992272191094739
 31
0.0
  0
LINE
  5
86C
330
1F
100
AcDbEntity
  8
0
  6
Continuous
 62
     7
100
AcDbLine
 10
-125.9482611534731
 20
-9.642172191094855
 30
0.0
 11
-128.2982611534733
 21
-9.642172191094855
 31
0.0
  0
ARC
  5
86D
330
1F
100
AcDbEntity
  8
0
  6
Continuous
 62
     7
100
AcDbCircle
 10
-134.8866292766633
 20
-7.601018226715807
 30
0.0
 40
6.588324615607422
100
AcDbArc
 50
342.1412228528698
 51
355.5842639617697
  0
ARC
  5
86E
330
1F
100
AcDbEntity
  8
0
  6
Continuous
 62
     7
100
AcDbCircle
 10
-124.9099715721676
 20
-7.600619286502556
 30
0.0
 40
6.588277034786285
100
AcDbArc
 50
184.4192477633636
 51
197.8625555803118
  0
LINE
  5
86F
330
1F
100
AcDbEntity
  8
0
  6
Continuous
 62
     7
100
AcDbLine
 10
-131.1806611534732
 20
-9.621372191094847
 30
0.0
 11
-128.6157611534732
 21
-9.621372191094847
 31
0.0
  0
LINE
  5
870
330
1F
100
AcDbEntity
  8
0
  6
Continuous
 62
     7
100
AcDbLine
 10
-128.2982611534733
 20
-8.142172191094857
 30
0.0
 11
-128.615861153473
 21
-7.592072191094699
 31
0.0
  0
LINE
  5
871
330
1F
100
AcDbEntity
  8
0
  6
Continuous
 62
     7
100
AcDbLine
 10
-131.1806611534732
 20
-7.592372191094852
 30
0.0
 11
-128.615861153473
 21
-7.592372191094852
 31
0.0
  0
LINE
  5
872
330
1F
100
AcDbEntity
  8
0
  6
Continuous
 62
     7
100
AcDbLine
 10
-131.4982611534732
 20
-8.142172191094857
 30
0.0
 11
-131.1806611534732
 21
-7.592072191094699
 31
0.0
  0
LINE
  5
873
330
1F
100
AcDbEntity
  8
0
  6
Continuous
 62
     7
100
AcDbLine
 10
-125.5981611534733
 20
-9.992272191094739
 30
0.0
 11
-125.9482611534731
 21
-9.642172191094855
 31
0.0
  0
LINE
  5
876
330
1F
100
AcDbEntity
  8
0
  6
Continuous
 62
     7
100
AcDbLine
 10
-133.9982611534732
 20
97.09062780890535
 30
0.0
 11
-286.0982611534732
 21
97.09092780890529
 31
0.0
  0
LINE
  5
877
330
1F
100
AcDbEntity
  8
0
  6
DASH_CENTER
 62
    30
100
AcDbLine
 10
-116.7982611534733
 20
31.49082780890518
 30
0.0
 11
-300.9980572517968
 21
31.49082780890518
 31
0.0
  0
LINE
  5
878
330
1F
100
AcDbEntity
  8
0
  6
DASH_CENTER
 62
    30
100
AcDbLine
 10
-295.8165611534732
 20
74.62402780890517
 30
0.0
 11
-282.4423611534731
 21
74.62402780890517
 31
0.0
  0
LINE
  5
87B
330
1F
100
AcDbEntity
  8
0
  6
Continuous
 62
     7
100
AcDbLine
 10
-288.5979611534731
 20
96.9908278089052
 30
0.0
 11
-288.5979611534731
 21
31.49082780890518
 31
0.0
  0
LINE
  5
87C
330
1F
100
AcDbEntity
  8
0
  6
Continuous
 62
     7
100
AcDbLine
 10
-286.298261153473
 20
31.49062780890523
 30
0.0
 11
-286.298261153473
 21
97.09092780890529
 31
0.0
  0
ARC
  5
87F
330
1F
100
AcDbEntity
  8
0
  6
Continuous
 62
     7
100
AcDbCircle
 10
-178.6980611534733
 20
31.49082780890518
 30
0.0
 40
122.2999960983235
100
AcDbArc
 50
172.5971659224079
 51
180.0
  0
LINE
  5
880
330
1F
100
AcDbEntity
  8
0
  6
Continuous
 62
     7
100
AcDbLine
 10
-298.6978611534731
 20
31.49082780890518
 30
0.0
 11
-298.6978611534731
 21
50.54092780890535
 31
0.0
  0
ARC
  5
881
330
1F
100
AcDbEntity
  8
0
  6
Continuous
 62
     7
100
AcDbCircle
 10
-178.6980611534733
 20
31.49082780890518
 30
0.0
 40
122.2999960983235
100
AcDbArc
 50
180.0
 51
187.402834077592
  0
LINE
  5
882
330
1F
100
AcDbEntity
  8
0
  6
Continuous
 62
     7
100
AcDbLine
 10
-298.6978611534731
 20
12.44072780890525
 30
0.0
 11
-298.6978611534731
 21
31.49082780890518
 31
0.0
  0
ARC
  5
883
330
1F
100
AcDbEntity
  8
0
  6
Continuous
 62
     7
100
AcDbCircle
 10
-299.1978785561386
 20
13.79915720901546
 30
0.0
 40
0.500017403529885
100
AcDbArc
 50
359.9966311128022
 51
61.24808559019322
  0
ARC
  5
884
330
1F
100
AcDbEntity
  8
0
  6
Continuous
 62
     7
100
AcDbCircle
 10
-297.9952609121679
 20
15.99082745546638
 30
0.0
 40
1.999972238557113
100
AcDbArc
 50
187.403236405042
 51
241.2422862378977
  0
LINE
  5
885
330
1F
100
AcDbEntity
  8
0
  6
Continuous
 62
     7
100
AcDbLine
 10
-298.1978611534731
 20
11.94072780890525
 30
0.0
 11
-288.5980611534731
 21
11.94072780890525
 31
0.0
  0
ARC
  5
886
330
1F
100
AcDbEntity
  8
0
  6
Continuous
 62
     7
100
AcDbCircle
 10
-298.1978611534731
 20
12.44072780890525
 30
0.0
 40
0.5
100
AcDbArc
 50
180.0
 51
270.0
  0
LINE
  5
887
330
1F
100
AcDbEntity
  8
0
  6
DASH_CENTER
 62
    30
100
AcDbLine
 10
-300.9980572517968
 20
31.49082780890518
 30
0.0
 11
-314.3741611534731
 21
31.49082780890518
 31
0.0
  0
ARC
  5
888
330
1F
100
AcDbEntity
  8
0
  6
Continuous
 62
     7
100
AcDbCircle
 10
-299.1978785561386
 20
49.18249840879512
 30
0.0
 40
0.5000174035298912
100
AcDbArc
 50
298.7519144098066
 51
0.003368887197858
  0
ARC
  5
889
330
1F
100
AcDbEntity
  8
0
  6
Continuous
 62
     7
100
AcDbCircle
 10
-297.9952609121676
 20
46.99082816234413
 30
0.0
 40
1.999972238557255
100
AcDbArc
 50
118.7577137621039
 51
172.5967635949568
  0
LINE
  5
88A
330
1F
100
AcDbEntity
  8
0
  6
Continuous
 62
     7
100
AcDbLine
 10
-288.5980611534731
 20
51.04092780890534
 30
0.0
 11
-298.1978611534731
 21
51.04092780890534
 31
0.0
  0
ARC
  5
88B
330
1F
100
AcDbEntity
  8
0
  6
Continuous
 62
     7
100
AcDbCircle
 10
-298.1978611534731
 20
50.54092780890535
 30
0.0
 40
0.5
100
AcDbArc
 50
90.0
 51
180.0
  0
ARC
  5
88C
330
1F
100
AcDbEntity
  8
0
  6
Continuous
 62
     7
100
AcDbCircle
 10
-289.8980379043841
 20
76.70525318169966
 30
0.0
 40
1.300023249336694
100
AcDbArc
 50
95.00082984247455
 51
180.0011182523345
  0
ARC
  5
88D
330
1F
100
AcDbEntity
  8
0
  6
Continuous
 62
     7
100
AcDbCircle
 10
-289.8980877142775
 20
72.54265679368805
 30
0.0
 40
1.299973439518939
100
AcDbArc
 50
180.001277492037
 51
265.0011817931031
  0
LINE
  5
88E
330
1F
100
AcDbEntity
  8
0
  6
Continuous
 62
     7
100
AcDbLine
 10
-291.1978611534731
 20
72.54262780890538
 30
0.0
 11
-291.1978611534731
 21
76.70522780890525
 31
0.0
  0
LINE
  5
88F
330
1F
100
AcDbEntity
  8
0
  6
Continuous
 62
     7
100
AcDbLine
 10
-290.0110611534731
 20
78.00042780890527
 30
0.0
 11
-288.5979611534731
 21
78.12392780890519
 31
0.0
  0
LINE
  5
890
330
1F
100
AcDbEntity
  8
0
  6
Continuous
 62
     7
100
AcDbLine
 10
-290.0110611534731
 20
71.24772780890527
 30
0.0
 11
-288.5979611534731
 21
71.1239278089052
 31
0.0
  0
LINE
  5
893
330
1F
100
AcDbEntity
  8
0
  6
Continuous
 62
     7
100
AcDbLine
 10
-286.2979611534731
 20
96.9908278089052
 30
0.0
 11
-288.5979611534731
 21
96.9908278089052
 31
0.0
  0
LINE
  5
C1F
330
1F
100
AcDbEntity
  8
0
  6
Continuous
 62
     7
100
AcDbLine
 10
-149.7982611534733
 20
1.241227808905311
 30
0.0
 11
-170.7982611534733
 21
1.241227808905311
 31
0.0
  0
LINE
  5
C20
330
1F
100
AcDbEntity
  8
0
  6
Continuous
 62
     7
100
AcDbLine
 10
-149.7982611534733
 20
9.241227808905312
 30
0.0
 11
-170.7982611534733
 21
9.241227808905312
 31
0.0
  0
LINE
  5
C21
330
1F
100
AcDbEntity
  8
0
  6
Continuous
 62
     7
100
AcDbLine
 10
-149.7982611534733
 20
8.241227808905307
 30
0.0
 11
-170.7982611534733
 21
8.241227808905307
 31
0.0
  0
LINE
  5
C22
330
1F
100
AcDbEntity
  8
0
  6
Continuous
 62
     7
100
AcDbLine
 10
-170.7982611534733
 20
24.24122780890531
 30
0.0
 11
-149.7982611534733
 21
24.24122780890531
 31
0.0
  0
LINE
  5
C23
330
1F
100
AcDbEntity
  8
0
  6
Continuous
 62
     7
100
AcDbLine
 10
-170.7982611534733
 20
16.24122780890531
 30
0.0
 11
-149.7982611534733
 21
16.24122780890531
 31
0.0
  0
LINE
  5
C24
330
1F
100
AcDbEntity
  8
0
  6
Continuous
 62
     7
100
AcDbLine
 10
-149.7982611534733
 20
32.2412278089053
 30
0.0
 11
-170.7982611534733
 21
32.2412278089053
 31
0.0
  0
LINE
  5
C25
330
1F
100
AcDbEntity
  8
0
  6
DASHED
 62
    30
100
AcDbLine
 10
-238.2982611534733
 20
90.40452780890523
 30
0.0
 11
-175.2982611534733
 21
90.40452780890523
 31
0.0
  0
LINE
  5
C26
330
1F
100
AcDbEntity
  8
0
  6
DASHED
 62
    30
100
AcDbLine
 10
-175.2982611534733
 20
62.00732780890536
 30
0.0
 11
-238.2982611534733
 21
62.00732780890536
 31
0.0
  0
ARC
  5
C27
330
1F
100
AcDbEntity
  8
0
  6
Continuous
 62
     7
100
AcDbCircle
 10
-248.7982611534733
 20
31.49082780890518
 30
0.0
 40
13.49994772508438
100
AcDbArc
 50
87.35406528108123
 51
234.3233884568185
  0
ARC
  5
C28
330
1F
100
AcDbEntity
  8
0
  6
Continuous
 62
     7
100
AcDbCircle
 10
-248.7982611534733
 20
31.49082780890518
 30
0.0
 40
13.50004145919551
100
AcDbArc
 50
305.6778933411802
 51
87.35406528107795
  0
ARC
  5
C29
330
1F
100
AcDbEntity
  8
0
  6
Continuous
 62
    30
100
AcDbCircle
 10
-249.5481111534733
 20
12.56822780890531
 30
0.0
 40
1.500078602107194
100
AcDbArc
 50
239.9995281325403
 51
300.0004718674596
  0
ARC
  5
C2A
330
1F
100
AcDbEntity
  8
0
  6
Continuous
 62
     7
100
AcDbCircle
 10
-248.7981611534733
 20
31.49082780890518
 30
0.0
 40
3.750200000000177
100
AcDbArc
 50
0.0
 51
180.0081249032229
  0
ARC
  5
C2B
330
1F
100
AcDbEntity
  8
0
  6
Continuous
 62
     7
100
AcDbCircle
 10
-250.2981611534733
 20
33.11582780890518
 30
0.0
 40
1.5
100
AcDbArc
 50
0.0
 51
180.0
  0
LINE
  5
C2C
330
1F
100
AcDbEntity
  8
0
  6
Continuous
 62
     7
100
AcDbLine
 10
-256.2343611534732
 20
13.16352780890526
 30
0.0
 11
-251.7981611534733
 21
24.96142780890528
 31
0.0
  0
LINE
  5
C2D
330
1F
100
AcDbEntity
  8
0
  6
Continuous
 62
     7
100
AcDbLine
 10
-251.7981611534733
 20
33.11582780890518
 30
0.0
 11
-251.7981611534733
 21
11.26902780890514
 31
0.0
  0
LINE
  5
C2E
330
1F
100
AcDbEntity
  8
0
  6
Continuous
 62
     7
100
AcDbLine
 10
-251.7981611534733
 20
33.48546148202927
 30
0.0
 11
-259.0423611534732
 21
14.21942780890532
 31
0.0
  0
ARC
  5
C2F
330
1F
100
AcDbEntity
  8
0
  6
Continuous
 62
    30
100
AcDbCircle
 10
-251.0481111534733
 20
12.56822780890531
 30
0.0
 40
1.500165205069225
100
AcDbArc
 50
240.0014378087806
 51
299.9985621912193
  0
ARC
  5
C30
330
1F
100
AcDbEntity
  8
0
  6
Continuous
 62
    30
100
AcDbCircle
 10
-251.0481111534733
 20
9.969827808905222
 30
0.0
 40
1.500165205069024
100
AcDbArc
 50
60.00143780877504
 51
119.9985621912249
  0
ARC
  5
C31
330
1F
100
AcDbEntity
  8
0
  6
Continuous
 62
    30
100
AcDbCircle
 10
-257.8831513629783
 20
15.17142412796927
 30
0.0
 40
1.500021443143598
100
AcDbArc
 50
219.3944115395658
 51
279.3960417974694
  0
ARC
  5
C32
330
1F
100
AcDbEntity
  8
0
  6
Continuous
 62
    30
100
AcDbCircle
 10
-258.7974833287109
 20
12.73949854910038
 30
0.0
 40
1.500051920130502
100
AcDbArc
 50
39.39508364984872
 51
99.39536968718471
  0
ARC
  5
C33
330
1F
100
AcDbEntity
  8
0
  6
Continuous
 62
     7
100
AcDbCircle
 10
-248.7977701221651
 20
31.49067008222607
 30
0.0
 40
13.500007427739
100
AcDbArc
 50
247.2261118134436
 51
257.1582813240871
  0
ARC
  5
C34
330
1F
100
AcDbEntity
  8
0
  6
Continuous
 62
    30
100
AcDbCircle
 10
-256.4790389782355
 20
14.64355706871023
 30
0.0
 40
1.50005192013053
100
AcDbArc
 50
219.3950836498493
 51
279.3953696871895
  0
LINE
  5
C35
330
1F
100
AcDbEntity
  8
0
  6
Continuous
 62
     7
100
AcDbLine
 10
-241.3618611534733
 20
13.16352780890526
 30
0.0
 11
-245.7979611534731
 21
24.96142780890528
 31
0.0
  0
LINE
  5
C36
330
1F
100
AcDbEntity
  8
0
  6
Continuous
 62
     7
100
AcDbLine
 10
-248.7981611534733
 20
33.11582780890518
 30
0.0
 11
-248.7981611534733
 21
11.26902780890514
 31
0.0
  0
LINE
  5
C37
330
1F
100
AcDbEntity
  8
0
  6
Continuous
 62
     7
100
AcDbLine
 10
-245.7981611534733
 20
33.11582780890518
 30
0.0
 11
-245.7981611534733
 21
11.26902780890514
 31
0.0
  0
LINE
  5
C38
330
1F
100
AcDbEntity
  8
0
  6
Continuous
 62
     7
100
AcDbLine
 10
-245.7981611534733
 20
33.48599338434228
 30
0.0
 11
-238.5537611534733
 21
14.21942780890532
 31
0.0
  0
LINE
  5
C39
330
1F
100
AcDbEntity
  8
0
  6
Continuous
 62
     7
100
AcDbLine
 10
-224.7982611534733
 20
1.241227808905311
 30
0.0
 11
-245.7982611534733
 21
1.241227808905311
 31
0.0
  0
ARC
  5
C3A
330
1F
100
AcDbEntity
  8
0
  6
Continuous
 62
    30
100
AcDbCircle
 10
-248.0481111534733
 20
12.56822780890531
 30
0.0
 40
1.500165205069225
100
AcDbArc
 50
240.0014378087806
 51
299.9985621912193
  0
ARC
  5
C3B
330
1F
100
AcDbEntity
  8
0
  6
Continuous
 62
    30
100
AcDbCircle
 10
-246.5481111534733
 20
12.56822780890531
 30
0.0
 40
1.500078602107194
100
AcDbArc
 50
239.9995281325403
 51
300.0004718674596
  0
ARC
  5
C3C
330
1F
100
AcDbEntity
  8
0
  6
Continuous
 62
    30
100
AcDbCircle
 10
-248.0481111534733
 20
9.969827808905222
 30
0.0
 40
1.500165205069024
100
AcDbArc
 50
60.00143780877504
 51
119.9985621912249
  0
ARC
  5
C3D
330
1F
100
AcDbEntity
  8
0
  6
Continuous
 62
     7
100
AcDbCircle
 10
-248.7987428229759
 20
31.49067308164056
 30
0.0
 40
13.50003049752301
100
AcDbArc
 50
282.8420909044745
 51
292.7751848865343
  0
ARC
  5
C3E
330
1F
100
AcDbEntity
  8
0
  6
Continuous
 62
    30
100
AcDbCircle
 10
-240.2026389782357
 20
12.21159854910032
 30
0.0
 40
1.500051920130505
100
AcDbArc
 50
80.6046303128137
 51
140.6049163501512
  0
ARC
  5
C3F
330
1F
100
AcDbEntity
  8
0
  6
Continuous
 62
    30
100
AcDbCircle
 10
-239.7128833287109
 20
15.17155706871024
 30
0.0
 40
1.500051920130534
100
AcDbArc
 50
260.6046303128136
 51
320.6049163501508
  0
ARC
  5
C40
330
1F
100
AcDbEntity
  8
0
  6
Continuous
 62
    30
100
AcDbCircle
 10
-241.1169833287108
 20
14.64355706871023
 30
0.0
 40
1.500051920130548
100
AcDbArc
 50
260.604630312812
 51
320.6049163501508
  0
ARC
  5
C41
330
1F
100
AcDbEntity
  8
0
  6
Continuous
 62
     7
100
AcDbCircle
 10
-247.2981611534733
 20
33.11582780890518
 30
0.0
 40
1.5
100
AcDbArc
 50
0.0
 51
180.0
  0
LINE
  5
C42
330
1F
100
AcDbEntity
  8
0
  6
DASHED
 62
    30
100
AcDbLine
 10
-238.2982611534733
 20
62.00732780890536
 30
0.0
 11
-238.2982611534733
 21
90.40452780890523
 31
0.0
  0
LINE
  5
C43
330
1F
100
AcDbEntity
  8
0
  6
Continuous
 62
     7
100
AcDbLine
 10
-172.7982611534733
 20
14.24122780890531
 30
0.0
 11
-172.7982611534733
 21
10.24122780890531
 31
0.0
  0
ARC
  5
C44
330
1F
100
AcDbEntity
  8
0
  6
Continuous
 62
     7
100
AcDbCircle
 10
-170.7982611534733
 20
10.24122780890531
 30
0.0
 40
2.0
100
AcDbArc
 50
180.0
 51
270.0
  0
ARC
  5
C45
330
1F
100
AcDbEntity
  8
0
  6
Continuous
 62
     7
100
AcDbCircle
 10
-170.7982611534733
 20
11.24122780890531
 30
0.0
 40
2.0
100
AcDbArc
 50
180.0
 51
270.0
  0
ARC
  5
C46
330
1F
100
AcDbEntity
  8
0
  6
Continuous
 62
     7
100
AcDbCircle
 10
-170.7982611534733
 20
14.24122780890531
 30
0.0
 40
2.000000000000002
100
AcDbArc
 50
90.0
 51
180.0
  0
ARC
  5
C47
330
1F
100
AcDbEntity
  8
0
  6
Continuous
 62
     7
100
AcDbCircle
 10
-170.7982611534733
 20
26.24122780890531
 30
0.0
 40
2.0
100
AcDbArc
 50
180.0
 51
270.0
  0
ARC
  5
C48
330
1F
100
AcDbEntity
  8
0
  6
Continuous
 62
     7
100
AcDbCircle
 10
-170.7982611534733
 20
30.24122780890531
 30
0.0
 40
1.999999999999995
100
AcDbArc
 50
90.0
 51
180.0
  0
LINE
  5
C49
330
1F
100
AcDbEntity
  8
0
  6
Continuous
 62
     7
100
AcDbLine
 10
-172.7982611534733
 20
26.24122780890531
 30
0.0
 11
-172.7982611534733
 21
30.24122780890531
 31
0.0
  0
LINE
  5
C4A
330
1F
100
AcDbEntity
  8
0
  6
DASHED
 62
    30
100
AcDbLine
 10
-175.2982611534733
 20
90.40452780890523
 30
0.0
 11
-175.2982611534733
 21
62.00732780890536
 31
0.0
  0
LINE
  5
C5E
330
1F
100
AcDbEntity
  8
0
  6
Continuous
 62
     7
100
AcDbLine
 10
-133.7982611534733
 20
31.49062780890523
 30
0.0
 11
-133.7982611534733
 21
97.09062780890535
 31
0.0
  0
LINE
  5
C5F
330
1F
100
AcDbEntity
  8
0
  6
Continuous
 62
     7
100
AcDbLine
 10
-131.4982611534732
 20
96.9908278089052
 30
0.0
 11
-131.4982611534732
 21
31.49082780890518
 31
0.0
  0
LINE
  5
C60
330
1F
100
AcDbEntity
  8
0
  6
DASH_CENTER
 62
    30
100
AcDbLine
 10
-71.69396115347336
 20
31.49082780890518
 30
0.0
 11
-116.7982611534733
 21
31.49082780890518
 31
0.0
  0
ARC
  5
C61
330
1F
100
AcDbEntity
  8
0
  6
Continuous
 62
     7
100
AcDbCircle
 10
-241.3982557690713
 20
31.49077122655207
 30
0.0
 40
122.2999980491485
100
AcDbArc
 50
3.468985286571983
 51
7.402860689668464
  0
LINE
  5
C62
330
1F
100
AcDbEntity
  8
0
  6
Continuous
 62
     7
100
AcDbLine
 10
-121.398261153473
 20
31.49082780890518
 30
0.0
 11
-121.398261153473
 21
50.54062780890519
 31
0.0
  0
LINE
  5
C63
330
1F
100
AcDbEntity
  8
0
  6
Continuous
 62
     7
100
AcDbLine
 10
-119.322361153473
 20
24.09062780890537
 30
0.0
 11
-116.7982611534733
 21
24.09062780890537
 31
0.0
  0
LINE
  5
C64
330
1F
100
AcDbEntity
  8
0
  6
Continuous
 62
     7
100
AcDbLine
 10
-119.3223482140652
 20
38.89092780890524
 30
0.0
 11
-116.7982611534733
 21
38.89092780890524
 31
0.0
  0
ARC
  5
C65
330
1F
100
AcDbEntity
  8
0
  6
Continuous
 62
     7
100
AcDbCircle
 10
-241.3982592026278
 20
31.49085796472085
 30
0.0
 40
122.2999980491582
100
AcDbArc
 50
352.5971517948439
 51
359.9999858724367
  0
LINE
  5
C66
330
1F
100
AcDbEntity
  8
0
  6
Continuous
 62
     7
100
AcDbLine
 10
-121.398261153473
 20
12.44102780890518
 30
0.0
 11
-121.398261153473
 21
31.49082780890518
 31
0.0
  0
LINE
  5
C67
330
1F
100
AcDbEntity
  8
0
  6
Continuous
 62
     7
100
AcDbLine
 10
-147.7982611534733
 20
14.24122780890531
 30
0.0
 11
-147.7982611534733
 21
10.24122780890531
 31
0.0
  0
ARC
  5
C68
330
1F
100
AcDbEntity
  8
0
  6
Continuous
 62
     7
100
AcDbCircle
 10
-149.7982611534733
 20
10.24122780890531
 30
0.0
 40
2.000000000000002
100
AcDbArc
 50
270.0
 51
0.0
  0
ARC
  5
C69
330
1F
100
AcDbEntity
  8
0
  6
Continuous
 62
     7
100
AcDbCircle
 10
-149.7982611534733
 20
11.24122780890531
 30
0.0
 40
2.000000000000002
100
AcDbArc
 50
270.0
 51
0.0
  0
ARC
  5
C6A
330
1F
100
AcDbEntity
  8
0
  6
Continuous
 62
     7
100
AcDbCircle
 10
-149.7982611534733
 20
14.24122780890531
 30
0.0
 40
2.0
100
AcDbArc
 50
0.0
 51
90.0
  0
LINE
  5
C6B
330
1F
100
AcDbEntity
  8
0
  6
Continuous
 62
     7
100
AcDbLine
 10
-121.898261153473
 20
11.94102780890518
 30
0.0
 11
-131.4982611534732
 21
11.94102780890518
 31
0.0
  0
ARC
  5
C6C
330
1F
100
AcDbEntity
  8
0
  6
Continuous
 62
     7
100
AcDbCircle
 10
-121.898261153473
 20
12.44102780890518
 30
0.0
 40
0.5
100
AcDbArc
 50
270.0
 51
0.0
  0
ARC
  5
C6D
330
1F
100
AcDbEntity
  8
0
  6
Continuous
 62
     7
100
AcDbCircle
 10
-120.8982437508074
 20
13.79915720901555
 30
0.0
 40
0.5000174035299442
100
AcDbArc
 50
118.7519144098381
 51
180.0033688872067
  0
ARC
  5
C6E
330
1F
100
AcDbEntity
  8
0
  6
Continuous
 62
     7
100
AcDbCircle
 10
-122.1009613947785
 20
15.99082745546663
 30
0.0
 40
1.99997223855724
100
AcDbArc
 50
298.7577137620927
 51
352.5967635949517
  0
ARC
  5
C6F
330
1F
100
AcDbEntity
  8
0
  6
Continuous
 62
     7
100
AcDbCircle
 10
-149.7982611534733
 20
26.24122780890531
 30
0.0
 40
2.0
100
AcDbArc
 50
270.0
 51
0.0
  0
ARC
  5
C70
330
1F
100
AcDbEntity
  8
0
  6
Continuous
 62
     7
100
AcDbCircle
 10
-149.7982611534733
 20
30.24122780890531
 30
0.0
 40
2.0
100
AcDbArc
 50
0.0
 51
90.0
  0
LINE
  5
C71
330
1F
100
AcDbEntity
  8
0
  6
Continuous
 62
     7
100
AcDbLine
 10
-147.7982611534733
 20
26.24122780890531
 30
0.0
 11
-147.7982611534733
 21
30.24102780890535
 31
0.0
  0
ARC
  5
C72
330
1F
100
AcDbEntity
  8
0
  6
Continuous
 62
     7
100
AcDbCircle
 10
-241.3982611534733
 20
31.49082780890518
 30
0.0
 40
122.3
100
AcDbArc
 50
0.0
 51
3.468958674496588
  0
LINE
  5
C76
330
1F
100
AcDbEntity
  8
0
  6
Continuous
 62
     7
100
AcDbLine
 10
-87.79826115347331
 20
24.49082780890518
 30
0.0
 11
-116.4982611534734
 21
24.49082780890518
 31
0.0
  0
LINE
  5
C77
330
1F
100
AcDbEntity
  8
0
  6
Continuous
 62
     7
100
AcDbLine
 10
-113.7982611534733
 20
37.49082780890518
 30
0.0
 11
-86.79826115347331
 21
37.49082780890518
 31
0.0
  0
LINE
  5
C78
330
1F
100
AcDbEntity
  8
0
  6
Continuous
 62
     7
100
AcDbLine
 10
-116.7982611534733
 20
38.89092780890524
 30
0.0
 11
-116.7982611534733
 21
31.49082780890518
 31
0.0
  0
ARC
  5
C79
330
1F
100
AcDbEntity
  8
0
  6
Continuous
 62
     7
100
AcDbCircle
 10
-116.4982611534734
 20
24.19122780890535
 30
0.0
 40
0.2999999999999616
100
AcDbArc
 50
90.0
 51
180.0
  0
LINE
  5
C7A
330
1F
100
AcDbEntity
  8
0
  6
Continuous
 62
     7
100
AcDbLine
 10
-116.7982611534733
 20
31.49082780890518
 30
0.0
 11
-116.7982611534733
 21
24.09062780890537
 31
0.0
  0
ARC
  5
C7B
330
1F
100
AcDbEntity
  8
0
  6
Continuous
 62
     7
100
AcDbCircle
 10
-116.4982611534734
 20
38.79112780890528
 30
0.0
 40
0.2999999999999119
100
AcDbArc
 50
180.0
 51
270.0
  0
LINE
  5
C7C
330
1F
100
AcDbEntity
  8
0
  6
Continuous
 62
     7
100
AcDbLine
 10
-113.7982611534733
 20
37.49082780890518
 30
0.0
 11
-113.7982611534733
 21
38.49082780890518
 31
0.0
  0
LINE
  5
C7D
330
1F
100
AcDbEntity
  8
0
  6
Continuous
 62
     7
100
AcDbLine
 10
-116.4982611534734
 20
38.49082780890518
 30
0.0
 11
-113.7982611534733
 21
38.49082780890518
 31
0.0
  0
LINE
  5
C7E
330
1F
100
AcDbEntity
  8
0
  6
Continuous
 62
     7
100
AcDbLine
 10
-86.79826115347331
 20
25.49082780890518
 30
0.0
 11
-86.79826115347331
 21
37.49082780890518
 31
0.0
  0
LINE
  5
C7F
330
1F
100
AcDbEntity
  8
0
  6
Continuous
 62
     7
100
AcDbLine
 10
-87.79826115347331
 20
24.49082780890518
 30
0.0
 11
-87.79826115347331
 21
37.49082780890518
 31
0.0
  0
LINE
  5
C80
330
1F
100
AcDbEntity
  8
0
  6
Continuous
 62
     7
100
AcDbLine
 10
-87.79826115347331
 20
24.49082780890518
 30
0.0
 11
-86.79826115347331
 21
25.49082780890518
 31
0.0
  0
LINE
  5
C81
330
1F
100
AcDbEntity
  8
0
  6
Continuous
 62
     7
100
AcDbLine
 10
-131.4982611534732
 20
51.04062780890519
 30
0.0
 11
-121.898261153473
 21
51.04062780890519
 31
0.0
  0
ARC
  5
C82
330
1F
100
AcDbEntity
  8
0
  6
Continuous
 62
     7
100
AcDbCircle
 10
-121.898261153473
 20
50.54062780890519
 30
0.0
 40
0.5
100
AcDbArc
 50
0.0
 51
90.0
  0
ARC
  5
C83
330
1F
100
AcDbEntity
  8
0
  6
Continuous
 62
     7
100
AcDbCircle
 10
-120.8982437508074
 20
49.18249840879504
 30
0.0
 40
0.5000174035299418
100
AcDbArc
 50
179.996631112793
 51
241.2480855901616
  0
ARC
  5
C84
330
1F
100
AcDbEntity
  8
0
  6
Continuous
 62
     7
100
AcDbCircle
 10
-122.1009613947787
 20
46.9908281623439
 30
0.0
 40
1.999972238557363
100
AcDbArc
 50
7.403236405049501
 51
61.24228623790532
  0
LINE
  5
C85
330
1F
100
AcDbEntity
  8
0
  6
DASH_CENTER
 62
    30
100
AcDbLine
 10
-137.2821611534732
 20
74.62402780890517
 30
0.0
 11
-119.7100611534732
 21
74.62402780890517
 31
0.0
  0
LINE
  5
C86
330
1F
100
AcDbEntity
  8
0
  6
Continuous
 62
     7
100
AcDbLine
 10
-128.2982611534733
 20
76.62382780890522
 30
0.0
 11
-125.9482611534731
 21
76.62382780890522
 31
0.0
  0
LINE
  5
C87
330
1F
100
AcDbEntity
  8
0
  6
Continuous
 62
    30
100
AcDbLine
 10
-125.5981611534733
 20
76.2739278089053
 30
0.0
 11
-128.2982611534733
 21
76.2739278089053
 31
0.0
  0
LINE
  5
C88
330
1F
100
AcDbEntity
  8
0
  6
Continuous
 62
    30
100
AcDbLine
 10
-128.2982611534733
 20
72.97392780890533
 30
0.0
 11
-125.5981611534733
 21
72.97392780890533
 31
0.0
  0
LINE
  5
C89
330
1F
100
AcDbEntity
  8
0
  6
Continuous
 62
     7
100
AcDbLine
 10
-128.2982611534733
 20
72.62382780890522
 30
0.0
 11
-125.9482611534731
 21
72.62382780890522
 31
0.0
  0
ARC
  5
C8A
330
1F
100
AcDbEntity
  8
0
  6
Continuous
 62
     7
100
AcDbCircle
 10
-134.8865611534731
 20
74.62377780890524
 30
0.0
 40
6.588350567668677
100
AcDbArc
 50
342.1385907380355
 51
17.86140926196448
  0
ARC
  5
C8B
330
1F
100
AcDbEntity
  8
0
  6
Continuous
 62
     7
100
AcDbCircle
 10
-134.8866292766633
 20
78.66498177328427
 30
0.0
 40
6.588324615607426
100
AcDbArc
 50
342.1412228528698
 51
355.5842639617697
  0
ARC
  5
C8C
330
1F
100
AcDbEntity
  8
0
  6
Continuous
 62
     7
100
AcDbCircle
 10
-134.8866292766633
 20
70.58267384452609
 30
0.0
 40
6.588324615607419
100
AcDbArc
 50
4.415736038232999
 51
17.85877714713053
  0
ARC
  5
C8D
330
1F
100
AcDbEntity
  8
0
  6
Continuous
 62
     7
100
AcDbCircle
 10
-124.9099611560753
 20
74.62393296788079
 30
0.0
 40
6.588302977166545
100
AcDbArc
 50
162.1398750480696
 51
197.8629603239205
  0
ARC
  5
C8E
330
1F
100
AcDbEntity
  8
0
  6
Continuous
 62
     7
100
AcDbCircle
 10
-124.9099715721676
 20
78.66538071349751
 30
0.0
 40
6.588277034786285
100
AcDbArc
 50
184.4192477633636
 51
197.8625555803118
  0
ARC
  5
C8F
330
1F
100
AcDbEntity
  8
0
  6
Continuous
 62
     7
100
AcDbCircle
 10
-124.9099715721676
 20
70.58227490431284
 30
0.0
 40
6.588277034786293
100
AcDbArc
 50
162.1374444196876
 51
175.5807522366336
  0
LINE
  5
C90
330
1F
100
AcDbEntity
  8
0
  6
Continuous
 62
     7
100
AcDbLine
 10
-128.6157611534732
 20
72.60302780890519
 30
0.0
 11
-131.1806611534732
 21
72.60302780890519
 31
0.0
  0
LINE
  5
C91
330
1F
100
AcDbEntity
  8
0
  6
Continuous
 62
     7
100
AcDbLine
 10
-128.6157611534732
 20
76.64452780890525
 30
0.0
 11
-131.1806611534732
 21
76.64452780890525
 31
0.0
  0
LINE
  5
C92
330
1F
100
AcDbEntity
  8
0
  6
Continuous
 62
     7
100
AcDbLine
 10
-128.2982611534733
 20
71.12382780890522
 30
0.0
 11
-128.2982611534733
 21
78.12382780890522
 31
0.0
  0
LINE
  5
C93
330
1F
100
AcDbEntity
  8
0
  6
Continuous
 62
     7
100
AcDbLine
 10
-128.615861153473
 20
78.67382780890517
 30
0.0
 11
-128.2982611534733
 21
78.12382780890522
 31
0.0
  0
LINE
  5
C94
330
1F
100
AcDbEntity
  8
0
  6
Continuous
 62
     7
100
AcDbLine
 10
-131.1806611534732
 20
78.67382780890517
 30
0.0
 11
-131.4982611534732
 21
78.12382780890522
 31
0.0
  0
LINE
  5
C95
330
1F
100
AcDbEntity
  8
0
  6
Continuous
 62
     7
100
AcDbLine
 10
-128.615861153473
 20
70.57372780890529
 30
0.0
 11
-128.2982611534733
 21
71.12382780890522
 31
0.0
  0
LINE
  5
C96
330
1F
100
AcDbEntity
  8
0
  6
Continuous
 62
     7
100
AcDbLine
 10
-128.615861153473
 20
70.57402780890519
 30
0.0
 11
-131.1806611534732
 21
70.57402780890519
 31
0.0
  0
LINE
  5
C97
330
1F
100
AcDbEntity
  8
0
  6
Continuous
 62
     7
100
AcDbLine
 10
-128.2982611534733
 20
78.12382780890522
 30
0.0
 11
-128.2982611534733
 21
71.12382780890522
 31
0.0
  0
LINE
  5
C98
330
1F
100
AcDbEntity
  8
0
  6
Continuous
 62
     7
100
AcDbLine
 10
-131.1806611534732
 20
78.67382780890517
 30
0.0
 11
-128.615861153473
 21
78.67382780890517
 31
0.0
  0
LINE
  5
C99
330
1F
100
AcDbEntity
  8
0
  6
Continuous
 62
     7
100
AcDbLine
 10
-131.1806611534732
 20
70.57372780890529
 30
0.0
 11
-131.4982611534732
 21
71.12382780890522
 31
0.0
  0
LINE
  5
C9A
330
1F
100
AcDbEntity
  8
0
  6
Continuous
 62
     7
100
AcDbLine
 10
-125.9482611534731
 20
72.62382780890522
 30
0.0
 11
-125.5981611534733
 21
72.97392780890533
 31
0.0
  0
LINE
  5
C9B
330
1F
100
AcDbEntity
  8
0
  6
Continuous
 62
     7
100
AcDbLine
 10
-125.5981611534733
 20
76.2739278089053
 30
0.0
 11
-125.9482611534731
 21
76.62382780890522
 31
0.0
  0
LINE
  5
C9C
330
1F
100
AcDbEntity
  8
0
  6
Continuous
 62
     7
100
AcDbLine
 10
-125.9482611534731
 20
76.62382780890522
 30
0.0
 11
-125.9482611534731
 21
72.62382780890522
 31
0.0
  0
LINE
  5
C9D
330
1F
100
AcDbEntity
  8
0
  6
Continuous
 62
     7
100
AcDbLine
 10
-125.5981611534733
 20
72.97392780890533
 30
0.0
 11
-125.5981611534733
 21
76.2739278089053
 31
0.0
  0
POINT
  5
CA2
330
1F
100
AcDbEntity
  8
0
 62
     2
100
AcDbPoint
 10
-25.60869056738515
 20
30.31832780890528
 30
0.0
  0
LINE
  5
CA6
330
1F
100
AcDbEntity
  8
0
  6
Continuous
 62
     7
100
AcDbLine
 10
-133.7982611534733
 20
96.9908278089052
 30
0.0
 11
-131.4982611534732
 21
96.9908278089052
 31
0.0
  0
CIRCLE
  5
CC0
330
1F
100
AcDbEntity
  8
0
  6
Continuous
 62
     7
100
AcDbCircle
 10
198.8008388465266
 20
31.49122780890531
 30
0.0
 40
54.0
  0
ARC
  5
CC1
330
1F
100
AcDbEntity
  8
0
  6
Continuous
 62
     7
100
AcDbCircle
 10
198.8011388465266
 20
31.49122780890531
 30
0.0
 40
40.99999039853535
100
AcDbArc
 50
189.1542383912593
 51
260.8457616087408
  0
ARC
  5
CC2
330
1F
100
AcDbEntity
  8
0
  6
Continuous
 62
     7
100
AcDbCircle
 10
198.8008388465266
 20
31.49122780890531
 30
0.0
 40
40.99999039853557
100
AcDbArc
 50
279.154238391259
 51
350.8457616087403
  0
ARC
  5
CC3
330
1F
100
AcDbEntity
  8
0
  6
Continuous
 62
     7
100
AcDbCircle
 10
198.8008249844028
 20
31.49121394673096
 30
0.0
 40
35.99995862629032
100
AcDbArc
 50
282.2469486801674
 51
347.7532593334085
  0
ARC
  5
CC4
330
1F
100
AcDbEntity
  8
0
  6
Continuous
 62
     7
100
AcDbCircle
 10
198.8011928225104
 20
31.49109749858799
 30
0.0
 40
64.24999600591521
100
AcDbArc
 50
194.8975903814512
 51
210.1021716594472
  0
ARC
  5
CC5
330
1F
100
AcDbEntity
  8
0
  6
Continuous
 62
     7
100
AcDbCircle
 10
211.8009769699983
 20
1.15970267009603
 30
0.0
 40
3.000038123576807
100
AcDbArc
 50
179.9995198902101
 51
293.1983611864982
  0
ARC
  5
CC6
330
1F
100
AcDbEntity
  8
0
  6
Continuous
 62
     7
100
AcDbCircle
 10
198.8011388465266
 20
31.49122780890531
 30
0.0
 40
50.00001364499803
100
AcDbArc
 50
196.0572626883143
 51
253.9427373116855
  0
ARC
  5
CC7
330
1F
100
AcDbEntity
  8
0
  6
Continuous
 62
     7
100
AcDbCircle
 10
185.801000723055
 20
1.15970267009601
 30
0.0
 40
3.000038123576842
100
AcDbArc
 50
246.8016388134999
 51
0.0004801097901729
  0
ARC
  5
CC8
330
1F
100
AcDbEntity
  8
0
  6
Continuous
 62
     7
100
AcDbCircle
 10
198.8008388465266
 20
31.49122780890531
 30
0.0
 40
50.00001364499823
100
AcDbArc
 50
286.0572626883143
 51
343.9427373116856
  0
ARC
  5
CC9
330
1F
100
AcDbEntity
  8
0
  6
Continuous
 62
     7
100
AcDbCircle
 10
198.8009099958537
 20
31.49139957694377
 30
0.0
 40
64.24995274924656
100
AcDbArc
 50
329.8974945998212
 51
345.1021206038893
  0
ARC
  5
CCA
330
1F
100
AcDbEntity
  8
0
  6
Continuous
 62
     7
100
AcDbCircle
 10
198.8011527086508
 20
31.49121394673092
 30
0.0
 40
35.99995862629035
100
AcDbArc
 50
192.2467406665914
 51
257.7530513198325
  0
ARC
  5
CCB
330
1F
100
AcDbEntity
  8
0
  6
Continuous
 62
     7
100
AcDbCircle
 10
198.8011388465266
 20
31.49122780890531
 30
0.0
 40
65.59999999999991
100
AcDbArc
 50
180.0
 51
359.9998253177453
  0
LINE
  5
CCC
330
1F
100
AcDbEntity
  8
0
  6
Continuous
 62
     7
100
AcDbLine
 10
146.0140388465265
 20
0.4258278089053606
 30
0.0
 11
143.2165388465268
 21
-0.7330721910947773
 31
0.0
  0
LINE
  5
CCD
330
1F
100
AcDbEntity
  8
0
  6
Continuous
 62
     7
100
AcDbLine
 10
202.8009388465267
 20
10.05492780890522
 30
0.0
 11
202.8009388465267
 21
-19.02607219109467
 31
0.0
  0
LINE
  5
CCE
330
1F
100
AcDbEntity
  8
0
  6
Continuous
 62
     7
100
AcDbLine
 10
194.8010388465266
 20
10.05492780890522
 30
0.0
 11
194.8010388465266
 21
-19.02607219109467
 31
0.0
  0
LINE
  5
CCF
330
1F
100
AcDbEntity
  8
0
  6
Continuous
 62
     7
100
AcDbLine
 10
251.5879388465266
 20
0.4258278089053606
 30
0.0
 11
254.3854388465266
 21
-0.7330721910947773
 31
0.0
  0
LINE
  5
CD0
330
1F
100
AcDbEntity
  8
0
  6
DASH_CENTER
 62
    30
100
AcDbLine
 10
198.8011388465266
 20
-53.91183932802476
 30
0.0
 11
198.8011388465266
 21
105.1144278089052
 31
0.0
  0
SPLINE
  5
CD7
330
1F
100
AcDbEntity
  8
0
  6
Continuous
 62
    54
100
AcDbSpline
210
0.0
220
0.0
230
1.0
 70
     8
 71
     3
 72
   141
 73
   137
 74
   135
 42
0.0000000001
 43
0.0000000001
 44
0.00000001
 40
0.0
 40
0.0
 40
0.0
 40
0.0
 40
0.2626125722551598
 40
0.5252229897640073
 40
0.7878464660565485
 40
1.075428894538338
 40
1.363038469517729
 40
1.65058637073706
 40
1.931165997058217
 40
2.211798652446462
 40
2.492417660816384
 40
2.793855024798055
 40
3.095312440914767
 40
3.396867360776555
 40
3.698451587454376
 40
4.13141936717362
 40
4.564261333664252
 40
4.997082101088661
 40
5.504456529644617
 40
6.011845427821777
 40
6.017628938580491
 40
6.023412446105703
 40
6.029184323753067
 40
6.034956207770049
 40
6.392597960614826
 40
6.750241790400272
 40
7.107879068241928
 40
7.458869678834045
 40
7.809872634915696
 40
8.160857351961478
 40
8.662250235285418
 40
9.163667674269134
 40
9.665963731559008
 40
10.16826034608038
 40
10.67057205969122
 40
11.53513511739642
 40
12.39966727442271
 40
13.15108807270353
 40
13.90254681865537
 40
14.34352127109252
 40
14.78447779930958
 40
15.22546558312039
 40
15.66670408180174
 40
15.94520950941985
 40
16.22377830584742
 40
16.50228001026627
 40
16.78067696223623
 40
17.05903809259489
 40
17.33755265406569
 40
17.60555161429054
 40
17.87365499844993
 40
18.14164887677162
 40
18.40945504999439
 40
18.67714768750736
 40
18.95195816673648
 40
19.22705363335515
 40
19.50247915331789
 40
19.7781714159686
 40
20.05397194558558
 40
20.32963988899165
 40
20.62920858574775
 40
20.92853756368647
 40
21.2278079549895
 40
21.52710147147607
 40
21.82640832152137
 40
22.12563524598786
 40
22.45504233936309
 40
22.78431214062593
 40
23.11352656920966
 40
23.44269033167582
 40
23.77173681646032
 40
24.13304127693775
 40
24.49434029182019
 40
24.85579325322688
 40
25.21743423172726
 40
25.57918777449543
 40
25.94088462366809
 40
26.51623964039972
 40
27.09123668120902
 40
27.66612082861319
 40
28.24100476126297
 40
29.19453933397104
 40
30.14813028236428
 40
30.86917923654546
 40
31.59022136773077
 40
32.31126706812876
 40
32.81978126287585
 40
33.32830297845309
 40
33.83682121827257
 40
34.34537023208761
 40
34.8876894593362
 40
35.42995946351245
 40
35.97207848225589
 40
36.45475494073444
 40
36.9375107657844
 40
37.42039946419995
 40
37.90335952236842
 40
38.4133312922064
 40
38.92320624963209
 40
39.43298700024064
 40
39.94276972224131
 40
40.41621510374437
 40
40.88973934494176
 40
41.36324863011898
 40
41.83667380712261
 40
42.35248327591787
 40
42.86833599801298
 40
43.38431243746254
 40
43.90038956571912
 40
44.41646096010013
 40
45.30530436082287
 40
46.19393822957704
 40
47.08256538739846
 40
47.76074793111809
 40
48.43893529127584
 40
49.11712161447479
 40
49.61240291207171
 40
50.10770005288009
 40
50.60300444592141
 40
51.09835660715086
 40
51.47019034914698
 40
51.8420060755641
 40
52.21375512448331
 40
52.58544661174297
 40
52.88720975880579
 40
53.18899926557898
 40
53.49091296168177
 40
53.67862654352663
 40
53.8663049094254
 40
54.05389867814405
 40
54.24150005309826
 40
54.41175084459156
 40
54.58197677432687
 40
54.75206400148849
 40
54.92310382909673
 40
55.09419135664018
 40
55.09419135664018
 40
55.09419135664018
 40
55.09419135664018
 10
235.5976388465264
 20
-137.7762134387399
 30
0.0
 10
235.5804000507969
 20
-137.8620369993192
 30
0.0
 10
235.5459226085328
 20
-138.0336834178292
 30
0.0
 10
235.4972236796533
 20
-138.2917557539376
 30
0.0
 10
235.4529168160061
 20
-138.5590828717866
 30
0.0
 10
235.4168173874941
 20
-138.8360832259902
 30
0.0
 10
235.3910669195335
 20
-139.1225902951785
 30
0.0
 10
235.3780136285042
 20
-139.4076416649376
 30
0.0
 10
235.3784485649247
 20
-139.6906590212731
 30
0.0
 10
235.3909020491948
 20
-139.971070396046
 30
0.0
 10
235.4148702875541
 20
-140.2576996327152
 30
0.0
 10
235.4501724749142
 20
-140.5501424131546
 30
0.0
 10
235.495770263657
 20
-140.848197759325
 30
0.0
 10
235.5488923353485
 20
-141.1450386796608
 30
0.0
 10
235.616152810553
 20
-141.4838078153115
 30
0.0
 10
235.6977785248572
 20
-141.864299622405
 30
0.0
 10
235.7946138157061
 20
-142.28621725734
 30
0.0
 10
235.9016594393823
 20
-142.7312077596806
 30
0.0
 10
236.0179006789412
 20
-143.1995265505378
 30
0.0
 10
236.1001458068522
 20
-143.5296173628676
 30
0.0
 10
236.1414582192505
 20
-143.6975971283161
 30
0.0
 10
236.1428380161426
 20
-143.703209641652
 30
0.0
 10
236.14421627927
 20
-143.7088185411562
 30
0.0
 10
236.1735715297238
 20
-143.8283278882558
 30
0.0
 10
236.2303649158798
 20
-144.0618762641063
 30
0.0
 10
236.3115433100157
 20
-144.4101905946829
 30
0.0
 10
236.3871615425358
 20
-144.7574959836224
 30
0.0
 10
236.4555921564386
 20
-145.1040379214115
 30
0.0
 10
236.5167415674823
 20
-145.4496868323117
 30
0.0
 10
236.578516487517
 20
-145.8460579592397
 30
0.0
 10
236.6365467484702
 20
-146.2936369753643
 30
0.0
 10
236.6894383902862
 20
-146.7925732826961
 30
0.0
 10
236.7341329651037
 20
-147.2925992145048
 30
0.0
 10
236.7730421435168
 20
-147.7933981785259
 30
0.0
 10
236.81712315955
 20
-148.4148954629327
 30
0.0
 10
236.867874994389
 20
-149.1569638378265
 30
0.0
 10
236.9256755380962
 20
-149.9817819761553
 30
0.0
 10
236.9856542208072
 20
-150.7686435578123
 30
0.0
 10
237.0409700016027
 20
-151.4142436337842
 30
0.0
 10
237.0930850817192
 20
-151.9562158055078
 30
0.0
 10
237.1414416212374
 20
-152.394551367971
 30
0.0
 10
237.1987181783272
 20
-152.8319162106767
 30
0.0
 10
237.2591822577253
 20
-153.2141363940675
 30
0.0
 10
237.3199856346612
 20
-153.541332137016
 30
0.0
 10
237.3775936180034
 20
-153.8138683919629
 30
0.0
 10
237.4429270735112
 20
-154.0846294203843
 30
0.0
 10
237.5169802984797
 20
-154.3530773567435
 30
0.0
 10
237.6007488650598
 20
-154.6186723086731
 30
0.0
 10
237.6939911125656
 20
-154.8774259964994
 30
0.0
 10
237.7970674375214
 20
-155.1287348942251
 30
0.0
 10
237.9100198847111
 20
-155.3719146065013
 30
0.0
 10
238.0347175012409
 20
-155.6092306713403
 30
0.0
 10
238.1716426251192
 20
-155.8395677266428
 30
0.0
 10
238.3225865842571
 20
-156.0637449897422
 30
0.0
 10
238.4883706238922
 20
-156.2802683206967
 30
0.0
 10
238.6683061941697
 20
-156.4885766468501
 30
0.0
 10
238.8599157886686
 20
-156.6865942016337
 30
0.0
 10
239.0621377633682
 20
-156.8740904099377
 30
0.0
 10
239.2739147178413
 20
-157.0508355625254
 30
0.0
 10
239.5006731754666
 20
-157.2214801273676
 30
0.0
 10
239.7423532070518
 20
-157.3847404284842
 30
0.0
 10
239.9987524134134
 20
-157.5395530986541
 30
0.0
 10
240.262279629796
 20
-157.6816792964557
 30
0.0
 10
240.5320931801864
 20
-157.8114343246345
 30
0.0
 10
240.8073541123877
 20
-157.9291339767548
 30
0.0
 10
241.0967095155613
 20
-158.0386852771365
 30
0.0
 10
241.3999331025881
 20
-158.1390532557062
 30
0.0
 10
241.7167406306435
 20
-158.2292259166894
 30
0.0
 10
242.0368447923766
 20
-158.306509465497
 30
0.0
 10
242.359605275488
 20
-158.3714002765897
 30
0.0
 10
242.6950787508676
 20
-158.426141269281
 30
0.0
 10
243.042968065613
 20
-158.4698955063075
 30
0.0
 10
243.4029055968609
 20
-158.5025522466359
 30
0.0
 10
243.7637782422663
 20
-158.5240930380345
 30
0.0
 10
244.1252410416573
 20
-158.535849581774
 30
0.0
 10
244.4869513077551
 20
-158.5391519086671
 30
0.0
 10
244.9198834515173
 20
-158.5345750054812
 30
0.0
 10
245.4237005277728
 20
-158.5187531765407
 30
0.0
 10
245.9980252537344
 20
-158.4887107355563
 30
0.0
 10
246.5716216926513
 20
-158.4494352701927
 30
0.0
 10
247.2705068512146
 20
-158.3936174730175
 30
0.0
 10
248.094612764993
 20
-158.3205633287828
 30
0.0
 10
248.9674192713773
 20
-158.2450176681112
 30
0.0
 10
249.7638687027339
 20
-158.1866555558423
 30
0.0
 10
250.4836928144998
 20
-158.1442224508805
 30
0.0
 10
251.1333686364693
 20
-158.1171140307223
 30
0.0
 10
251.7125748662975
 20
-158.1028782771493
 30
0.0
 10
252.2210973463604
 20
-158.0984413593362
 30
0.0
 10
252.7296359677693
 20
-158.1029230977466
 30
0.0
 10
253.2492612811609
 20
-158.1174996551941
 30
0.0
 10
253.7797013601934
 20
-158.1438631028933
 30
0.0
 10
254.3205119501827
 20
-158.183921123792
 30
0.0
 10
254.8403161958952
 20
-158.2361887355932
 30
0.0
 10
255.3388297043065
 20
-158.2998343636521
 30
0.0
 10
255.8165022527818
 20
-158.3699546652831
 30
0.0
 10
256.2933568909473
 20
-158.4459639106455
 30
0.0
 10
256.778701559509
 20
-158.5262489994843
 30
0.0
 10
257.2729694784416
 20
-158.6077115486822
 30
0.0
 10
257.7765513204197
 20
-158.6876175102671
 30
0.0
 10
258.2809559760826
 20
-158.7617869292622
 30
0.0
 10
258.7745079126424
 20
-158.8259326100882
 30
0.0
 10
259.2573038557842
 20
-158.8782342570735
 30
0.0
 10
259.7290582955425
 20
-158.9192004991639
 30
0.0
 10
260.2015978225022
 20
-158.949747407607
 30
0.0
 10
260.6888005088982
 20
-158.9700708005279
 30
0.0
 10
261.1904751636771
 20
-158.9785703471818
 30
0.0
 10
261.7063824269868
 20
-158.9758445666752
 30
0.0
 10
262.222228068881
 20
-158.963509753803
 30
0.0
 10
262.7378934996762
 20
-158.9434195779334
 30
0.0
 10
263.3774203752305
 20
-158.9111647240021
 30
0.0
 10
264.1405264287246
 20
-158.8644585408772
 30
0.0
 10
265.0270525381279
 20
-158.8022394488693
 30
0.0
 10
265.8432728823663
 20
-158.7414458037616
 30
0.0
 10
266.5895578660027
 20
-158.6861170832435
 30
0.0
 10
267.2661891191095
 20
-158.6401163878344
 30
0.0
 10
267.8824675419592
 20
-158.6056140332138
 30
0.0
 10
268.438283308633
 20
-158.5830667635556
 30
0.0
 10
268.9334360820063
 20
-158.5703822642471
 30
0.0
 10
269.4287610404612
 20
-158.5660608160563
 30
0.0
 10
269.8829322458311
 20
-158.5706583880725
 30
0.0
 10
270.2957853851453
 20
-158.5823570173191
 30
0.0
 10
270.6672076836749
 20
-158.5996144111808
 30
0.0
 10
271.0381538445722
 20
-158.6245203556015
 30
0.0
 10
271.3851747312528
 20
-158.6558987158368
 30
0.0
 10
271.7081936896793
 20
-158.6926957136895
 30
0.0
 10
272.0071800837721
 20
-158.7342254628666
 30
0.0
 10
272.2673845807989
 20
-158.7779211626459
 30
0.0
 10
272.4890059873843
 20
-158.8210905410059
 30
0.0
 10
272.6721935201118
 20
-158.861963212478
 30
0.0
 10
272.8538429284075
 20
-158.9091136829342
 30
0.0
 10
273.0278253190568
 20
-158.9621253535177
 30
0.0
 10
273.193686784546
 20
-159.0212689552938
 30
0.0
 10
273.351033998353
 20
-159.0863158823052
 30
0.0
 10
273.5048380408351
 20
-159.1600292398884
 30
0.0
 10
273.6541370624229
 20
-159.2430107341295
 30
0.0
 10
273.7519337043563
 20
-159.3016764816347
 30
0.0
 10
273.8008388465268
 20
-159.3310134387388
 30
0.0
 11
235.5976388465264
 21
-137.7762134387399
 31
0.0
 11
235.546425460466
 21
-138.0337839276161
 31
0.0
 11
235.4981833028677
 21
-138.2919252185256
 31
0.0
 11
235.4557092312206
 21
-138.5510912730555
 31
0.0
 11
235.4187222989233
 21
-138.8362852772763
 31
0.0
 11
235.3931639145125
 21
-139.1227569798981
 31
0.0
 11
235.3802019240758
 21
-139.4100125838635
 31
0.0
 11
235.3804518161537
 21
-139.6905920983978
 31
0.0
 11
235.3927249884919
 21
-139.970956247786
 31
0.0
 11
235.4159388465268
 21
-140.2506134387388
 31
0.0
 11
235.4517479001986
 21
-140.5499162885391
 31
0.0
 11
235.4970176547261
 21
-140.8479552506304
 31
0.0
 11
235.549824180607
 21
-141.1448505864425
 31
0.0
 11
235.6082435483386
 21
-141.4407225574039
 31
0.0
 11
235.6987932440606
 21
-141.8641158153119
 31
0.0
 11
235.7953502611623
 21
-142.2860505382556
 31
0.0
 11
235.8963127931988
 21
-142.7069310247359
 31
0.0
 11
236.0179728662155
 21
-143.1995034940355
 31
0.0
 11
236.1400769419315
 21
-143.6919809948899
 31
0.0
 11
236.1414581432025
 21
-143.6975971572601
 31
0.0
 11
236.1428388465266
 21
-143.7032134387387
 31
0.0
 11
236.1442162003004
 21
-143.7088185674778
 31
0.0
 11
236.1455930455526
 21
-143.7144238277108
 31
0.0
 11
236.2298098713879
 21
-144.0620085651733
 31
0.0
 11
236.3106957182928
 21
-144.4103856437195
 31
0.0
 11
236.3864888136296
 21
-144.7598993477608
 31
0.0
 11
236.4544494612174
 21
-145.1042476586584
 31
0.0
 11
236.515560014268
 21
-145.4498899240171
 31
0.0
 11
236.5695712928804
 21
-145.7966939803666
 31
0.0
 11
236.6346095145015
 21
-146.2938507498114
 31
0.0
 11
236.6880388465266
 21
-146.7924134387399
 31
0.0
 11
236.7331643059376
 21
-147.2926783907708
 31
0.0
 11
236.7724798405264
 21
-147.7934339976255
 31
0.0
 11
236.8084252703008
 21
-148.2944579329379
 31
0.0
 11
236.868116699226
 21
-149.156957912088
 31
0.0
 11
236.9292516900038
 21
-150.0193257937166
 31
0.0
 11
236.9868260560906
 21
-150.7685376517866
 31
0.0
 11
237.0514388465266
 21
-151.5172134387389
 31
0.0
 11
237.0941102380241
 21
-151.9561184626051
 31
0.0
 11
237.1429251330475
 21
-152.3943647012961
 31
0.0
 11
237.2006480857061
 21
-152.8315583496203
 31
0.0
 11
237.2700436501086
 21
-153.2673056023858
 31
0.0
 11
237.3211009443554
 21
-153.5410909670281
 31
0.0
 11
237.3788875895396
 21
-153.8136001924845
 31
0.0
 11
237.4443919650918
 21
-154.0842888995406
 31
0.0
 11
237.5186024504428
 21
-154.3526127089818
 31
0.0
 11
237.6025074250235
 21
-154.6180272415934
 31
0.0
 11
237.6970952682647
 21
-154.8799881181617
 31
0.0
 11
237.7989215167453
 21
-155.1278890213401
 31
0.0
 11
237.9119986992278
 21
-155.3709794888584
 31
0.0
 11
238.0367971152966
 21
-155.6081420368454
 31
0.0
 11
238.1737870645348
 21
-155.8382591814295
 31
0.0
 11
238.3234388465266
 21
-156.0602134387385
 31
0.0
 11
238.4904067175324
 21
-156.2784851262381
 31
0.0
 11
238.6701445715754
 21
-156.4867441466927
 31
0.0
 11
238.8615932085595
 21
-156.6847508043335
 31
0.0
 11
239.0636934283886
 21
-156.8722654033924
 31
0.0
 11
239.275386030967
 21
-157.0490482481003
 31
0.0
 11
239.4956118161986
 21
-157.2148596426889
 31
0.0
 11
239.7437869484814
 21
-157.3826407734378
 31
0.0
 11
239.999970472947
 21
-157.5374562728899
 31
0.0
 11
240.2633215346049
 21
-157.6796145842181
 31
0.0
 11
240.532999278465
 21
-157.8094241505962
 31
0.0
 11
240.8081628495377
 21
-157.927193415197
 31
0.0
 11
241.0879713928327
 21
-158.0332308211939
 31
0.0
 11
241.4006588337979
 21
-158.1368435495783
 31
0.0
 11
241.7173209696755
 21
-158.2270859663166
 31
0.0
 11
242.03731613044
 21
-158.3044502806173
 31
0.0
 11
242.3600026460654
 21
-158.3694287016884
 31
0.0
 11
242.6847388465266
 21
-158.4225134387389
 31
0.0
 11
243.0431911784844
 21
-158.4678217043305
 31
0.0
 11
243.402991618444
 21
-158.5006945139619
 31
0.0
 11
243.7637887674572
 21
-158.5224582595919
 31
0.0
 11
244.1252312265759
 21
-158.5344393331794
 31
0.0
 11
244.4869675968521
 21
-158.5379641266835
 31
0.0
 11
244.8486464793377
 21
-158.5343590320628
 31
0.0
 11
245.4237319525399
 21
-158.516749549175
 31
0.0
 11
245.9979675680364
 21
-158.487168221915
 31
0.0
 11
246.5715398201318
 21
-158.4483525724746
 31
0.0
 11
247.1446352031318
 21
-158.4030401230459
 31
0.0
 11
248.0946247321228
 21
-158.3208934473746
 31
0.0
 11
249.0448388465265
 21
-158.240713438739
 31
0.0
 11
249.7639851088816
 21
-158.1883660631091
 31
0.0
 11
250.4837981986666
 21
-158.1462843476195
 31
0.0
 11
251.2042315190285
 21
-158.1165735242259
 31
0.0
 11
251.7125956700855
 21
-158.1042213502558
 31
0.0
 11
252.2210992597138
 21
-158.0999278006226
 31
0.0
 11
252.7295964672956
 21
-158.1045527468235
 31
0.0
 11
253.2379414722138
 21
-158.1189560603559
 31
0.0
 11
253.779583267896
 21
-158.1460542046754
 31
0.0
 11
254.3203583526356
 21
-158.1862918134761
 31
0.0
 11
254.8597388465267
 21
-158.240713438739
 31
0.0
 11
255.3385943816322
 21
-158.301326474191
 31
0.0
 11
255.8163065774492
 21
-158.3709270818181
 31
0.0
 11
256.2932566816702
 21
-158.4464260429516
 31
0.0
 11
256.7698259419878
 21
-158.5247341389228
 31
0.0
 11
257.2730834570293
 21
-158.6072149219575
 31
0.0
 11
257.7767298742359
 21
-158.686667792432
 31
0.0
 11
258.2811536454895
 21
-158.7603771721991
 31
0.0
 11
258.7867432226715
 21
-158.8256274831108
 31
0.0
 11
259.2574410583731
 21
-158.8765595625184
 31
0.0
 11
259.7291952403309
 21
-158.9174643151231
 31
0.0
 11
260.2017223194225
 21
-158.9479471406289
 31
0.0
 11
260.6747388465266
 21
-158.9676134387389
 31
0.0
 11
261.190468985807
 21
-158.9766595153355
 31
0.0
 11
261.7063160520498
 21
-158.9742439197969
 31
0.0
 11
262.2221523413451
 21
-158.9622185853698
 31
0.0
 11
262.7378501497835
 21
-158.9424354453005
 31
0.0
 11
263.2532817734555
 21
-158.9167464328359
 31
0.0
 11
264.1405067615593
 21
-158.8631328962473
 31
0.0
 11
265.0270081971614
 21
-158.8016076400035
 31
0.0
 11
265.9132317429235
 21
-158.7362926164319
 31
0.0
 11
266.5896064790463
 21
-158.6868074795205
 31
0.0
 11
267.2662763640236
 21
-158.6414647617047
 31
0.0
 11
267.9434388465267
 21
-158.6042134387388
 31
0.0
 11
268.4383196147745
 21
-158.5842989000331
 31
0.0
 11
268.9334584233943
 21
-158.5717762099091
 31
0.0
 11
269.4287453511722
 21
-158.5676167861438
 31
0.0
 11
269.9240704768945
 21
-158.5727920465148
 31
0.0
 11
270.2957506292188
 21
-158.5834782978573
 31
0.0
 11
270.6671584041056
 21
-158.6008909102639
 31
0.0
 11
271.0380618245873
 21
-158.6259509969633
 31
0.0
 11
271.4082289136958
 21
-158.6595796711838
 31
0.0
 11
271.7080315146755
 21
-158.6939220253306
 31
0.0
 11
272.0069250861141
 21
-158.7356298094706
 31
0.0
 11
272.3046388465267
 21
-158.7858134387388
 31
0.0
 11
272.4888462413542
 21
-158.8219247174471
 31
0.0
 11
272.6719706456008
 21
-158.8630175579303
 31
0.0
 11
272.8534891849121
 21
-158.9103719862834
 31
0.0
 11
273.0328789849347
 21
-158.9652680286028
 31
0.0
 11
273.1931921469819
 21
-159.0225831401903
 31
0.0
 11
273.3504462594209
 21
-159.087759909143
 31
0.0
 11
273.5037627219587
 21
-159.1614058669909
 31
0.0
 11
273.6536418433879
 21
-159.2438126124342
 31
0.0
 11
273.8008388465268
 21
-159.3310134387388
 31
0.0
  0
CIRCLE
  5
CD8
330
1F
100
AcDbEntity
  8
0
  6
Continuous
 62
    30
100
AcDbCircle
 10
241.9347388465266
 20
-11.64227219109483
 30
0.0
 40
1.599999999999909
  0
CIRCLE
  5
CD9
330
1F
100
AcDbEntity
  8
0
  6
Continuous
 62
     7
100
AcDbCircle
 10
241.9347388465266
 20
-11.64227219109483
 30
0.0
 40
2.0
  0
CIRCLE
  5
CDA
330
1F
100
AcDbEntity
  8
0
  6
Continuous
 62
     7
100
AcDbCircle
 10
241.9347388465266
 20
-11.64227219109483
 30
0.0
 40
3.5
  0
ARC
  5
CDB
330
1F
100
AcDbEntity
  8
0
  6
Continuous
 62
    30
100
AcDbCircle
 10
198.8010290861954
 20
31.49111815069853
 30
0.0
 40
60.99996143380689
100
AcDbArc
 50
309.685959318036
 51
320.2607060817575
  0
ARC
  5
CDC
330
1F
100
AcDbEntity
  8
0
  6
Continuous
 62
     7
100
AcDbCircle
 10
244.8009388465268
 20
-147.7762134387399
 30
0.0
 40
3.5
100
AcDbArc
 50
90.0
 51
270.0
  0
LINE
  5
CDD
330
1F
100
AcDbEntity
  8
0
  6
Continuous
 62
     7
100
AcDbLine
 10
244.7925388465268
 20
-14.49997219109484
 30
0.0
 11
240.8887388465266
 21
-15.54617219109483
 31
0.0
  0
LINE
  5
CDE
330
1F
100
AcDbEntity
  8
0
  6
Continuous
 62
     7
100
AcDbLine
 10
239.0770388465266
 20
-8.784672191094777
 30
0.0
 11
242.9807388465266
 21
-7.738472191094778
 31
0.0
  0
LINE
  5
CDF
330
1F
100
AcDbEntity
  8
0
  6
Continuous
 62
    30
100
AcDbLine
 10
237.6831388465268
 20
-7.390572191094797
 30
0.0
 11
246.9488388465265
 21
-16.65627219109472
 31
0.0
  0
LINE
  5
CE0
330
1F
100
AcDbEntity
  8
0
  6
Continuous
 62
     7
100
AcDbLine
 10
231.3260388465266
 20
-36.30877219109464
 30
0.0
 11
273.8009388465266
 21
-36.30877219109464
 31
0.0
  0
LINE
  5
CE1
330
1F
100
AcDbEntity
  8
0
  6
Continuous
 62
     7
100
AcDbLine
 10
228.8011388465266
 20
-39.50877219109469
 30
0.0
 11
273.8009388465266
 21
-39.50877219109469
 31
0.0
  0
LINE
  5
CE2
330
1F
100
AcDbEntity
  8
0
  6
Continuous
 62
     7
100
AcDbLine
 10
235.5977388465265
 20
-137.7762134387399
 30
0.0
 11
263.8011388465266
 21
-137.7762134387399
 31
0.0
  0
LINE
  5
CE3
330
1F
100
AcDbEntity
  8
0
  6
DASH_CENTER
 62
    30
100
AcDbLine
 10
271.3683388465266
 20
-147.7762134387399
 30
0.0
 11
235.5053388465266
 21
-147.7762134387399
 31
0.0
  0
ARC
  5
D11
330
1F
100
AcDbEntity
  8
0
  6
Continuous
 62
     7
100
AcDbCircle
 10
108.3179888465267
 20
-23.43792701624983
 30
0.0
 40
3.299966800211787
100
AcDbArc
 50
168.1508663061888
 51
11.84913369381114
  0
LINE
  5
D12
330
1F
100
AcDbEntity
  8
0
  6
DASH_CENTER
 62
    30
100
AcDbLine
 10
114.0143545978987
 20
-23.43792701624983
 30
0.0
 11
110.4679388465278
 21
-23.43792701624983
 31
0.0
  0
LINE
  5
D13
330
1F
100
AcDbEntity
  8
0
  6
Continuous
 62
     7
100
AcDbLine
 10
110.3677388465277
 20
-17.13812701624983
 30
0.0
 11
111.5474388465267
 21
-22.76042701624982
 31
0.0
  0
CIRCLE
  5
D17
330
1F
100
AcDbEntity
  8
0
  6
Continuous
 62
     7
100
AcDbCircle
 10
108.3179388465277
 20
-23.43792701624983
 30
0.0
 40
2.150000000000103
  0
LINE
  5
D18
330
1F
100
AcDbEntity
  8
0
  6
DASH_CENTER
 62
    30
100
AcDbLine
 10
108.3179388465277
 20
-18.86089826782171
 30
0.0
 11
108.3179388465277
 21
-29.30549777217874
 31
0.0
  0
LINE
  5
D19
330
1F
100
AcDbEntity
  8
0
  6
DASH_CENTER
 62
    30
100
AcDbLine
 10
110.4679388465278
 20
-23.43792701624983
 30
0.0
 11
102.5569454446317
 21
-23.43792701624983
 31
0.0
  0
LINE
  5
D1B
330
1F
100
AcDbEntity
  8
0
  6
Continuous
 62
     7
100
AcDbLine
 10
106.7178388465267
 20
-12.33812701624873
 30
0.0
 11
106.7178388465267
 21
-1.481027282181848
 31
0.0
  0
LINE
  5
D1C
330
1F
100
AcDbEntity
  8
0
  6
Continuous
 62
     7
100
AcDbLine
 10
109.9178388465277
 20
-1.481027282181848
 30
0.0
 11
109.9178388465277
 21
-12.33812701624873
 31
0.0
  0
LINE
  5
D1D
330
1F
100
AcDbEntity
  8
0
  6
Continuous
 62
     7
100
AcDbLine
 10
106.2679388465278
 20
-17.13812701624983
 30
0.0
 11
105.0882388465265
 21
-22.76042701624982
 31
0.0
  0
LINE
  5
D1E
330
1F
100
AcDbEntity
  8
0
  6
Continuous
 62
     7
100
AcDbLine
 10
106.2679388465278
 20
-12.33812701624873
 30
0.0
 11
106.2679388465278
 21
-17.13812701624983
 31
0.0
  0
LINE
  5
D1F
330
1F
100
AcDbEntity
  8
0
  6
Continuous
 62
     7
100
AcDbLine
 10
110.3677388465277
 20
-12.33812701624873
 30
0.0
 11
110.3677388465277
 21
-17.13812701624983
 31
0.0
  0
LINE
  5
D20
330
1F
100
AcDbEntity
  8
0
  6
Continuous
 62
     7
100
AcDbLine
 10
106.2679388465278
 20
-17.13812701624983
 30
0.0
 11
110.3677388465277
 21
-17.13812701624983
 31
0.0
  0
LINE
  5
D21
330
1F
100
AcDbEntity
  8
0
  6
Continuous
 62
     7
100
AcDbLine
 10
110.3677388465277
 20
-12.33812701624873
 30
0.0
 11
109.9178388465277
 21
-12.33812701624873
 31
0.0
  0
LINE
  5
D22
330
1F
100
AcDbEntity
  8
0
  6
Continuous
 62
     7
100
AcDbLine
 10
106.7178388465267
 20
-12.33812701624873
 30
0.0
 11
106.2679388465278
 21
-12.33812701624873
 31
0.0
  0
LINE
  5
D23
330
1F
100
AcDbEntity
  8
0
  6
Continuous
 62
     7
100
AcDbLine
 10
109.9178388465277
 20
-12.33812701624873
 30
0.0
 11
106.7178388465267
 21
-12.33812701624873
 31
0.0
  0
ARC
  5
D24
330
1F
100
AcDbEntity
  8
0
  6
Continuous
 62
    30
100
AcDbCircle
 10
107.5178388465267
 20
-2.866667928236828
 30
0.0
 40
1.600000000000448
100
AcDbArc
 50
59.99999999996433
 51
120.0000000000019
  0
ARC
  5
D25
330
1F
100
AcDbEntity
  8
0
  6
Continuous
 62
    30
100
AcDbCircle
 10
109.1178388465277
 20
-0.0953866361257383
 30
0.0
 40
1.600000000000821
100
AcDbArc
 50
240.0000000000208
 51
299.9999999999811
  0
ARC
  5
D26
330
1F
100
AcDbEntity
  8
0
  6
Continuous
 62
    30
100
AcDbCircle
 10
109.1178388465277
 20
-2.866667928236828
 30
0.0
 40
1.599999999999893
100
AcDbArc
 50
59.99999999999804
 51
119.9999999999981
  0
POINT
  5
D35
330
1F
100
AcDbEntity
  8
0
 62
     2
100
AcDbPoint
 10
241.3009388465268
 20
-145.4312134387389
 30
0.0
  0
ARC
  5
D37
330
1F
100
AcDbEntity
  8
0
  6
Continuous
 62
     7
100
AcDbCircle
 10
198.8014521086603
 20
31.49109804942238
 30
0.0
 40
61.24997582215879
100
AcDbArc
 50
239.5226869080301
 51
255.4766703386779
  0
ARC
  5
D38
330
1F
100
AcDbEntity
  8
0
  6
Continuous
 62
     7
100
AcDbCircle
 10
198.8010085362091
 20
31.49128178488908
 30
0.0
 40
64.24999600591518
100
AcDbArc
 50
239.8978283405528
 51
255.1024096185489
  0
LINE
  5
D39
330
1F
100
AcDbEntity
  8
0
  6
Continuous
 62
     7
100
AcDbLine
 10
228.8011388465266
 20
-38.50877219109469
 30
0.0
 11
168.8011388465265
 21
-38.50877219109469
 31
0.0
  0
LINE
  5
D3A
330
1F
100
AcDbEntity
  8
0
  6
Continuous
 62
     7
100
AcDbLine
 10
230.3260388465266
 20
-35.30877219109465
 30
0.0
 11
167.2762388465268
 21
-35.30877219109465
 31
0.0
  0
LINE
  5
D3D
330
1F
100
AcDbEntity
  8
0
  6
DASH_CENTER
 62
    30
100
AcDbLine
 10
142.8011388465265
 20
-32.06567219109473
 30
0.0
 11
142.8011388465265
 21
-46.64057219109479
 31
0.0
  0
ARC
  5
D47
330
1F
100
AcDbEntity
  8
0
  6
Continuous
 62
     7
100
AcDbCircle
 10
145.528713545502
 20
-22.15037579140589
 30
0.0
 40
9.999984019204735
100
AcDbArc
 50
45.19762225190589
 51
150.9999007826472
  0
LINE
  5
D48
330
1F
100
AcDbEntity
  8
0
  6
Continuous
 62
     7
100
AcDbLine
 10
166.2762388465266
 20
-36.30877219109464
 30
0.0
 11
123.8013388465267
 21
-36.30877219109464
 31
0.0
  0
LINE
  5
D49
330
1F
100
AcDbEntity
  8
0
  6
Continuous
 62
     7
100
AcDbLine
 10
168.8011388465265
 20
-39.50877219109469
 30
0.0
 11
123.8013388465267
 21
-39.50877219109469
 31
0.0
  0
LINE
  5
D4A
330
1F
100
AcDbEntity
  8
0
  6
Continuous
 62
     7
100
AcDbLine
 10
127.3724388465268
 20
-34.27857219109471
 30
0.0
 11
136.7826388465267
 21
-17.30227219109468
 31
0.0
  0
ARC
  5
D4B
330
1F
100
AcDbEntity
  8
0
  6
Continuous
 62
     7
100
AcDbCircle
 10
125.623342819152
 20
-33.30876985130387
 30
0.0
 40
2.000002342493333
100
AcDbArc
 50
269.9970214071758
 51
330.9973152755391
  0
LINE
  5
D4C
330
1F
100
AcDbEntity
  8
0
  6
Continuous
 62
     7
100
AcDbLine
 10
123.8013388465267
 20
-35.30877219109465
 30
0.0
 11
125.6232388465267
 21
-35.30877219109465
 31
0.0
  0
LINE
  5
D4D
330
1F
100
AcDbEntity
  8
0
  6
Continuous
 62
     7
100
AcDbLine
 10
123.8013388465267
 20
-35.30877219109465
 30
0.0
 11
123.8013388465267
 21
-39.50877219109469
 31
0.0
  0
LINE
  5
D4E
330
1F
100
AcDbEntity
  8
0
  6
Continuous
 62
     7
100
AcDbLine
 10
167.7356388465268
 20
-21.29607219109464
 30
0.0
 11
166.5769388465266
 21
-24.0934721910948
 31
0.0
  0
LINE
  5
D4F
330
1F
100
AcDbEntity
  8
0
  6
Continuous
 62
     7
100
AcDbLine
 10
164.2147388465268
 20
-34.85667219109466
 30
0.0
 11
165.1483388465265
 21
-31.57837219109473
 31
0.0
  0
ARC
  5
D50
330
1F
100
AcDbEntity
  8
0
  6
Continuous
 62
     7
100
AcDbCircle
 10
166.2762388415266
 20
-35.80877219609364
 30
0.0
 40
0.500000004999998
100
AcDbArc
 50
269.98854141707
 51
0.0000005728434443
  0
ARC
  5
D51
330
1F
100
AcDbEntity
  8
0
  6
Continuous
 62
     7
100
AcDbCircle
 10
167.2762388515268
 20
-35.80877218609364
 30
0.0
 40
0.5000000050000013
100
AcDbArc
 50
90.01145972884643
 51
180.0000005730722
  0
ARC
  5
D52
330
1F
100
AcDbEntity
  8
0
  6
Continuous
 62
     7
100
AcDbCircle
 10
162.2912284305463
 20
-34.30878005492975
 30
0.0
 40
1.999992136192014
100
AcDbArc
 50
270.0002983970323
 51
344.1036980077039
  0
LINE
  5
D53
330
1F
100
AcDbEntity
  8
0
  6
Continuous
 62
     7
100
AcDbLine
 10
168.8011388465265
 20
-38.50877219109469
 30
0.0
 11
168.8011388465265
 21
-39.50877219109469
 31
0.0
  0
ARC
  5
D54
330
1F
100
AcDbEntity
  8
0
  6
Continuous
 62
     7
100
AcDbCircle
 10
169.9571569408689
 20
-32.94776375555442
 30
0.0
 40
5.000023860903216
100
AcDbArc
 50
65.88594125756904
 51
164.1037063012193
  0
CIRCLE
  5
D55
330
1F
100
AcDbEntity
  8
0
  6
Continuous
 62
    30
100
AcDbCircle
 10
155.6676388465268
 20
-11.6423721910948
 30
0.0
 40
1.600000000000139
  0
CIRCLE
  5
D56
330
1F
100
AcDbEntity
  8
0
  6
Continuous
 62
     7
100
AcDbCircle
 10
155.6676388465268
 20
-11.6423721910948
 30
0.0
 40
1.999999999999998
  0
CIRCLE
  5
D57
330
1F
100
AcDbEntity
  8
0
  6
Continuous
 62
     7
100
AcDbCircle
 10
155.6676388465268
 20
-11.6423721910948
 30
0.0
 40
3.499999999999998
  0
ARC
  5
D58
330
1F
100
AcDbEntity
  8
0
  6
Continuous
 62
    30
100
AcDbCircle
 10
198.8010291883188
 20
31.49133756923752
 30
0.0
 40
60.99996143380693
100
AcDbArc
 50
219.6859593180378
 51
230.2607060817594
  0
LINE
  5
D59
330
1F
100
AcDbEntity
  8
0
  6
Continuous
 62
     7
100
AcDbLine
 10
152.8099388465268
 20
-14.50007219109483
 30
0.0
 11
151.7638388465268
 21
-10.59637219109474
 31
0.0
  0
LINE
  5
D5A
330
1F
100
AcDbEntity
  8
0
  6
Continuous
 62
     7
100
AcDbLine
 10
158.5252388465265
 20
-8.784672191094777
 30
0.0
 11
159.5714388465265
 21
-12.68837219109483
 31
0.0
  0
LINE
  5
D5B
330
1F
100
AcDbEntity
  8
0
  6
Continuous
 62
    30
100
AcDbLine
 10
159.9193388465264
 20
-7.390772191094746
 30
0.0
 11
150.6537388465265
 21
-16.6563721910947
 31
0.0
  0
LINE
  5
D5C
330
1F
100
AcDbEntity
  8
0
  6
Continuous
 62
     7
100
AcDbLine
 10
156.7157388465268
 20
-15.55437219109484
 30
0.0
 11
152.8099388465268
 21
-14.50007219109483
 31
0.0
  0
LINE
  5
D5D
330
1F
100
AcDbEntity
  8
0
  6
Continuous
 62
     7
100
AcDbLine
 10
159.5714388465265
 20
-12.68837219109483
 30
0.0
 11
156.7157388465268
 21
-15.55437219109484
 31
0.0
  0
LINE
  5
D5E
330
1F
100
AcDbEntity
  8
0
  6
Continuous
 62
     7
100
AcDbLine
 10
151.7638388465268
 20
-10.59637219109474
 30
0.0
 11
154.6192388465265
 21
-7.730372191094772
 31
0.0
  0
LINE
  5
D5F
330
1F
100
AcDbEntity
  8
0
  6
Continuous
 62
     7
100
AcDbLine
 10
154.6192388465265
 20
-7.730372191094772
 30
0.0
 11
158.5252388465265
 21
-8.784672191094777
 31
0.0
  0
ARC
  5
D68
330
1F
100
AcDbEntity
  8
0
  6
Continuous
 62
     7
100
AcDbCircle
 10
211.8009583603818
 20
-10.54464573069141
 30
0.0
 40
3.000019514756362
100
AcDbArc
 50
107.1857976845407
 51
179.998595506298
  0
ARC
  5
D69
330
1F
100
AcDbEntity
  8
0
  6
Continuous
 62
     7
100
AcDbCircle
 10
211.80094643733
 20
-13.67527790545506
 30
0.0
 40
3.000007590808691
100
AcDbArc
 50
179.9998908640326
 51
286.0552064655288
  0
ARC
  5
D6A
330
1F
100
AcDbEntity
  8
0
  6
Continuous
 62
     7
100
AcDbCircle
 10
209.8874367149294
 20
-34.17971700090409
 30
0.0
 40
0.9999863086868195
100
AcDbArc
 50
99.57858149445632
 51
127.799942442933
  0
LINE
  5
D6B
330
1F
100
AcDbEntity
  8
0
  6
Continuous
 62
     7
100
AcDbLine
 10
190.5306388465266
 20
-35.0988721910948
 30
0.0
 11
188.3277388465266
 21
-33.38967219109479
 31
0.0
  0
ARC
  5
D6C
330
1F
100
AcDbEntity
  8
0
  6
Continuous
 62
     7
100
AcDbCircle
 10
191.1436296286374
 20
-34.30873479942123
 30
0.0
 40
1.000037397637453
100
AcDbArc
 50
232.1955907783453
 51
270.0062574901028
  0
LINE
  5
D6D
330
1F
100
AcDbEntity
  8
0
  6
Continuous
 62
     7
100
AcDbLine
 10
183.4416388465266
 20
-27.80147219109466
 30
0.0
 11
182.2828388465268
 21
-30.59907219109476
 31
0.0
  0
ARC
  5
D6E
330
1F
100
AcDbEntity
  8
0
  6
Continuous
 62
     7
100
AcDbCircle
 10
187.7148409781239
 20
-34.17971700090407
 30
0.0
 40
0.999986308686809
100
AcDbArc
 50
52.20005755706903
 51
80.4214185055437
  0
LINE
  5
D6F
330
1F
100
AcDbEntity
  8
0
  6
Continuous
 62
     7
100
AcDbLine
 10
207.0716388465266
 20
-35.0988721910948
 30
0.0
 11
209.2745388465266
 21
-33.38967219109479
 31
0.0
  0
ARC
  5
D70
330
1F
100
AcDbEntity
  8
0
  6
Continuous
 62
     7
100
AcDbCircle
 10
206.4586585655179
 20
-34.30876543902896
 30
0.0
 40
1.000006752260091
100
AcDbArc
 50
269.9988701926565
 51
307.8050099118118
  0
ARC
  5
D71
330
1F
100
AcDbEntity
  8
0
  6
Continuous
 62
     7
100
AcDbCircle
 10
191.8010326357239
 20
-11.94846489924258
 30
0.0
 40
3.000006210811641
100
AcDbArc
 50
359.9998607361686
 51
80.84523809260636
  0
ARC
  5
D72
330
1F
100
AcDbEntity
  8
0
  6
Continuous
 62
     7
100
AcDbCircle
 10
191.8010468923979
 20
-19.02606518311889
 30
0.0
 40
2.999991954136937
100
AcDbArc
 50
262.1120409445176
 51
359.9998661571627
  0
ARC
  5
D73
330
1F
100
AcDbEntity
  8
0
  6
Continuous
 62
     7
100
AcDbCircle
 10
191.8010496924247
 20
-0.7577634470293974
 30
0.0
 40
2.999989154114771
100
AcDbArc
 50
257.75234267351
 51
359.9998330000502
  0
LINE
  5
D74
330
1F
100
AcDbEntity
  8
0
  6
Continuous
 62
     7
100
AcDbLine
 10
188.8010388465266
 20
-10.54467219109475
 30
0.0
 11
188.8010388465266
 21
-13.67527219109472
 31
0.0
  0
ARC
  5
D75
330
1F
100
AcDbEntity
  8
0
  6
Continuous
 62
     7
100
AcDbCircle
 10
185.8010174267663
 20
-13.67528831547961
 30
0.0
 40
3.000021419803743
100
AcDbArc
 50
253.94315700622
 51
0.0003079508681124
  0
ARC
  5
D76
330
1F
100
AcDbEntity
  8
0
  6
Continuous
 62
     7
100
AcDbCircle
 10
185.8010193326715
 20
-10.54464573069145
 30
0.0
 40
3.000019514756333
100
AcDbArc
 50
0.0014044937025853
 51
72.81420231546427
  0
ARC
  5
D77
330
1F
100
AcDbEntity
  8
0
  6
Continuous
 62
     7
100
AcDbCircle
 10
205.8009450573294
 20
-11.94846489924258
 30
0.0
 40
3.000006210811633
100
AcDbArc
 50
99.15476190739198
 51
180.0001392638309
  0
LINE
  5
D78
330
1F
100
AcDbEntity
  8
0
  6
Continuous
 62
     7
100
AcDbLine
 10
208.8009388465267
 20
-10.54467219109475
 30
0.0
 11
208.8009388465267
 21
-13.67527219109472
 31
0.0
  0
ARC
  5
D79
330
1F
100
AcDbEntity
  8
0
  6
Continuous
 62
     7
100
AcDbCircle
 10
205.8009308006556
 20
-19.02606518311888
 30
0.0
 40
2.999991954136929
100
AcDbArc
 50
180.0001338428376
 51
277.887959055479
  0
ARC
  5
D7A
330
1F
100
AcDbEntity
  8
0
  6
Continuous
 62
     7
100
AcDbCircle
 10
205.8009173946071
 20
-0.7577548958789464
 30
0.0
 40
2.999978548130118
100
AcDbArc
 50
180.0003303166514
 51
282.2459542283293
  0
ARC
  5
D7B
330
1F
100
AcDbEntity
  8
0
  6
Continuous
 62
     7
100
AcDbCircle
 10
198.8006090581039
 20
31.49113262652005
 30
0.0
 40
61.2499632841779
100
AcDbArc
 50
284.5231554053746
 51
300.4772293909158
  0
LINE
  5
D7C
330
1F
100
AcDbEntity
  8
0
  6
Continuous
 62
     7
100
AcDbLine
 10
229.8663388465266
 20
-21.29607219109464
 30
0.0
 11
231.0250388465266
 21
-24.0934721910948
 31
0.0
  0
ARC
  5
D7D
330
1F
100
AcDbEntity
  8
0
  6
Continuous
 62
     7
100
AcDbCircle
 10
198.800794031434
 20
31.49120924587701
 30
0.0
 40
64.24997092880784
100
AcDbArc
 50
284.897757933212
 51
300.1022620618833
  0
ARC
  5
D7E
330
1F
100
AcDbEntity
  8
0
  6
Continuous
 62
     7
100
AcDbCircle
 10
227.6451207521843
 20
-32.94776375555438
 30
0.0
 40
5.000023860903162
100
AcDbArc
 50
15.89629369878027
 51
114.1140587424309
  0
LINE
  5
D7F
330
1F
100
AcDbEntity
  8
0
  6
Continuous
 62
     7
100
AcDbLine
 10
214.1603388465266
 20
-27.80147219109466
 30
0.0
 11
215.3191388465266
 21
-30.59907219109476
 31
0.0
  0
LINE
  5
D80
330
1F
100
AcDbEntity
  8
0
  6
Continuous
 62
     7
100
AcDbLine
 10
233.3875388465266
 20
-34.85667219109466
 30
0.0
 11
232.4539388465268
 21
-31.57837219109473
 31
0.0
  0
ARC
  5
D81
330
1F
100
AcDbEntity
  8
0
  6
Continuous
 62
     7
100
AcDbCircle
 10
235.3110855670033
 20
-34.30873196832289
 30
0.0
 40
2.000040223481414
100
AcDbArc
 50
195.8973420051874
 51
270.0015263152133
  0
ARC
  5
D82
330
1F
100
AcDbEntity
  8
0
  6
Continuous
 62
     7
100
AcDbCircle
 10
231.3260388515264
 20
-35.80877219609364
 30
0.0
 40
0.500000005000004
100
AcDbArc
 50
179.9999994271565
 51
270.0114585829298
  0
ARC
  5
D83
330
1F
100
AcDbEntity
  8
0
  6
Continuous
 62
     7
100
AcDbCircle
 10
230.3260388415266
 20
-35.80877218609364
 30
0.0
 40
0.500000005000004
100
AcDbArc
 50
359.9999994269277
 51
89.98854027115354
  0
LINE
  5
D84
330
1F
100
AcDbEntity
  8
0
  6
Continuous
 62
     7
100
AcDbLine
 10
228.8011388465266
 20
-38.50877219109469
 30
0.0
 11
228.8011388465266
 21
-39.50877219109469
 31
0.0
  0
LINE
  5
D85
330
1F
100
AcDbEntity
  8
0
  6
Continuous
 62
     7
100
AcDbLine
 10
238.0227388465268
 20
-12.69067219109473
 30
0.0
 11
239.0770388465266
 21
-8.784672191094777
 31
0.0
  0
LINE
  5
D86
330
1F
100
AcDbEntity
  8
0
  6
Continuous
 62
     7
100
AcDbLine
 10
240.8887388465266
 20
-15.54617219109483
 30
0.0
 11
238.0227388465268
 21
-12.69067219109473
 31
0.0
  0
ARC
  5
D97
330
1F
100
AcDbEntity
  8
0
  6
Continuous
 62
     7
100
AcDbCircle
 10
263.8009388455266
 20
-147.7765134377388
 30
0.0
 40
10.00000000099999
100
AcDbArc
 50
359.9999999942703
 51
89.99885407868044
  0
LINE
  5
D98
330
1F
100
AcDbEntity
  8
0
  6
Continuous
 62
     7
100
AcDbLine
 10
244.8009388465268
 20
-151.2762134387399
 30
0.0
 11
264.8009388465268
 21
-151.2762134387399
 31
0.0
  0
LINE
  5
D99
330
1F
100
AcDbEntity
  8
0
  6
Continuous
 62
     7
100
AcDbLine
 10
244.8009388465268
 20
-144.2762134387399
 30
0.0
 11
264.8009388465268
 21
-144.2762134387399
 31
0.0
  0
LINE
  5
D9A
330
1F
100
AcDbEntity
  8
0
  6
DASH_CENTER
 62
    30
100
AcDbLine
 10
254.8009388465267
 20
-140.1793134387399
 30
0.0
 11
254.8009388465267
 21
-155.8018134387386
 31
0.0
  0
ARC
  5
D9B
330
1F
100
AcDbEntity
  8
0
  6
Continuous
 62
     7
100
AcDbCircle
 10
264.8009388465268
 20
-147.7762134387399
 30
0.0
 40
3.5
100
AcDbArc
 50
270.0
 51
90.0
  0
LINE
  5
D9C
330
1F
100
AcDbEntity
  8
0
  6
Continuous
 62
     7
100
AcDbLine
 10
273.8009388465266
 20
-147.7765134387388
 30
0.0
 11
273.8009388465266
 21
-159.3311134387388
 31
0.0
  0
POINT
  5
D9D
330
1F
100
AcDbEntity
  8
0
 62
     2
100
AcDbPoint
 10
268.3009388465266
 20
-145.4312134387389
 30
0.0
  0
LINE
  5
DA8
330
1F
100
AcDbEntity
  8
0
  6
DASH_CENTER
 62
    30
100
AcDbLine
 10
254.8011388465265
 20
-32.06567219109473
 30
0.0
 11
254.8011388465265
 21
-46.64057219109479
 31
0.0
  0
LINE
  5
DAE
330
1F
100
AcDbEntity
  8
0
  6
Continuous
 62
     7
100
AcDbLine
 10
270.2298388465266
 20
-34.27857219109471
 30
0.0
 11
260.8197388465266
 21
-17.30227219109468
 31
0.0
  0
ARC
  5
DAF
330
1F
100
AcDbEntity
  8
0
  6
Continuous
 62
     7
100
AcDbCircle
 10
271.978960633388
 20
-33.30872612787486
 30
0.0
 40
2.00004607115955
100
AcDbArc
 50
209.0034224157444
 51
270.0051053127551
  0
LINE
  5
DB0
330
1F
100
AcDbEntity
  8
0
  6
Continuous
 62
     7
100
AcDbLine
 10
273.8009388465266
 20
-35.30877219109465
 30
0.0
 11
273.8009388465266
 21
-39.50877219109469
 31
0.0
  0
LINE
  5
DB1
330
1F
100
AcDbEntity
  8
0
  6
Continuous
 62
     7
100
AcDbLine
 10
273.8009388465266
 20
-35.30877219109465
 30
0.0
 11
271.9791388465266
 21
-35.30877219109465
 31
0.0
  0
ARC
  5
DB2
330
1F
100
AcDbEntity
  8
0
  6
Continuous
 62
     7
100
AcDbCircle
 10
252.0736204138463
 20
-22.15036956815906
 30
0.0
 40
10.00001925246426
100
AcDbArc
 50
28.99994654985624
 51
134.8026316169925
  0
LINE
  5
DB3
330
1F
100
AcDbEntity
  8
0
  6
Continuous
 62
     7
100
AcDbLine
 10
245.8467388465265
 20
-10.59417219109483
 30
0.0
 11
244.7925388465268
 21
-14.49997219109484
 31
0.0
  0
LINE
  5
DB4
330
1F
100
AcDbEntity
  8
0
  6
Continuous
 62
     7
100
AcDbLine
 10
242.9807388465266
 20
-7.738472191094778
 30
0.0
 11
245.8467388465265
 21
-10.59417219109483
 31
0.0
  0
CIRCLE
  5
DC6
330
1F
100
AcDbEntity
  8
0
  6
Continuous
 62
    30
100
AcDbCircle
 10
241.9347388465266
 20
74.62482780890519
 30
0.0
 40
1.599999999999909
  0
CIRCLE
  5
DC7
330
1F
100
AcDbEntity
  8
0
  6
Continuous
 62
     7
100
AcDbCircle
 10
241.9347388465266
 20
74.62482780890519
 30
0.0
 40
2.0
  0
CIRCLE
  5
DC8
330
1F
100
AcDbEntity
  8
0
  6
Continuous
 62
     7
100
AcDbCircle
 10
241.9347388465266
 20
74.62482780890519
 30
0.0
 40
3.5
  0
ARC
  5
DC9
330
1F
100
AcDbEntity
  8
0
  6
Continuous
 62
    30
100
AcDbCircle
 10
198.8012984581908
 20
31.4910680485952
 30
0.0
 40
61.00003187637693
100
AcDbArc
 50
39.68596544126464
 51
50.26069995853127
  0
ARC
  5
DCA
330
1F
100
AcDbEntity
  8
0
  6
Continuous
 62
     7
100
AcDbCircle
 10
198.8003847012059
 20
31.49108195441755
 30
0.0
 40
66.39993552563989
100
AcDbArc
 50
27.46991300344966
 51
62.5298844252272
  0
ARC
  5
DCB
330
1F
100
AcDbEntity
  8
0
  6
Continuous
 62
     7
100
AcDbCircle
 10
198.8008196364523
 20
31.49124701909294
 30
0.0
 40
40.99999039864829
100
AcDbArc
 50
9.154069650863027
 51
80.84559286847444
  0
ARC
  5
DCC
330
1F
100
AcDbEntity
  8
0
  6
Continuous
 62
     7
100
AcDbCircle
 10
198.8007782240325
 20
31.49128843193087
 30
0.0
 40
49.9999998152764
100
AcDbArc
 50
16.05695647323472
 51
73.94254121787837
  0
ARC
  5
DCD
330
1F
100
AcDbEntity
  8
0
  6
Continuous
 62
     7
100
AcDbCircle
 10
198.8011388465266
 20
31.49122780890531
 30
0.0
 40
65.59999999999991
100
AcDbArc
 50
359.9998253177453
 51
90.0
  0
LINE
  5
DCE
330
1F
100
AcDbEntity
  8
0
  6
Continuous
 62
     7
100
AcDbLine
 10
240.8866388465266
 20
78.53682780890524
 30
0.0
 11
244.7923388465266
 21
77.48262780890519
 31
0.0
  0
LINE
  5
DCF
330
1F
100
AcDbEntity
  8
0
  6
Continuous
 62
     7
100
AcDbLine
 10
242.9830388465266
 20
70.71282780890514
 30
0.0
 11
239.0770388465266
 21
71.76712780890517
 31
0.0
  0
LINE
  5
DD0
330
1F
100
AcDbEntity
  8
0
  6
Continuous
 62
    30
100
AcDbLine
 10
237.6830388465266
 20
70.37322780890514
 30
0.0
 11
246.9486388465266
 21
79.63882780890532
 31
0.0
  0
LINE
  5
DD1
330
1F
100
AcDbEntity
  8
0
  6
Continuous
 62
     7
100
AcDbLine
 10
249.3182388465266
 20
27.49122780890531
 30
0.0
 11
220.2368388465266
 21
27.49122780890531
 31
0.0
  0
LINE
  5
DD2
330
1F
100
AcDbEntity
  8
0
  6
Continuous
 62
     7
100
AcDbLine
 10
240.8365388465266
 20
21.49122780890531
 30
0.0
 11
243.9672388465266
 21
21.49122780890531
 31
0.0
  0
LINE
  5
DD3
330
1F
100
AcDbEntity
  8
0
  6
Continuous
 62
     7
100
AcDbLine
 10
249.3183388465266
 20
35.49122780890531
 30
0.0
 11
220.2370388465266
 21
35.49122780890531
 31
0.0
  0
LINE
  5
DD4
330
1F
100
AcDbEntity
  8
0
  6
Continuous
 62
     7
100
AcDbLine
 10
240.8367388465264
 20
41.49122780890531
 30
0.0
 11
243.9673388465266
 21
41.49122780890531
 31
0.0
  0
LINE
  5
DD5
330
1F
100
AcDbEntity
  8
0
  6
DASH_CENTER
 62
    30
100
AcDbLine
 10
273.2831822956967
 20
31.49102780890535
 30
0.0
 11
105.7128927417547
 21
31.49102780890535
 31
0.0
  0
ARC
  5
DD7
330
1F
100
AcDbEntity
  8
0
  6
Continuous
 62
     7
100
AcDbCircle
 10
121.7178388465267
 20
19.49072780890521
 30
0.0
 40
15.0
100
AcDbArc
 50
90.0
 51
180.0
  0
ARC
  5
DD8
330
1F
100
AcDbEntity
  8
0
  6
Continuous
 62
     7
100
AcDbCircle
 10
121.7178388465267
 20
19.49072780890521
 30
0.0
 40
12.0
100
AcDbArc
 50
90.0
 51
180.0
  0
ARC
  5
DD9
330
1F
100
AcDbEntity
  8
0
  6
Continuous
 62
     7
100
AcDbCircle
 10
121.7178388465267
 20
19.49072780890521
 30
0.0
 40
9.0
100
AcDbArc
 50
90.0
 51
180.0
  0
ARC
  5
DDA
330
1F
100
AcDbEntity
  8
0
  6
Continuous
 62
    30
100
AcDbCircle
 10
111.9678388465267
 20
5.96642422412021
 30
0.0
 40
1.500000000000324
100
AcDbArc
 50
240.0000000000074
 51
299.9999999999923
  0
LINE
  5
DDF
330
1F
100
AcDbEntity
  8
0
  6
DASH_CENTER
 62
    30
100
AcDbLine
 10
-18.60869056738516
 20
42.87072780890531
 30
0.0
 11
-18.60869056738516
 21
19.31822780890531
 31
0.0
  0
ARC
  5
DE3
330
1F
100
AcDbEntity
  8
0
  6
Continuous
 62
     7
100
AcDbCircle
 10
-18.60869056738516
 20
31.49082780890518
 30
0.0
 40
7.000000000000002
100
AcDbArc
 50
0.0
 51
90.0
  0
POINT
  5
DE4
330
1F
100
AcDbEntity
  8
0
 62
     2
100
AcDbPoint
 10
-11.60869056738516
 20
30.31832780890528
 30
0.0
  0
LINE
  5
DE9
330
1F
100
AcDbEntity
  8
0
  6
Continuous
 62
     7
100
AcDbLine
 10
106.7178388465267
 20
4.667386118443178
 30
0.0
 11
106.7178388465267
 21
19.49072780890521
 31
0.0
  0
LINE
  5
DEA
330
1F
100
AcDbEntity
  8
0
  6
Continuous
 62
     7
100
AcDbLine
 10
109.7178388465267
 20
4.667386118443178
 30
0.0
 11
109.7178388465267
 21
19.49072780890521
 31
0.0
  0
ARC
  5
DEB
330
1F
100
AcDbEntity
  8
0
  6
Continuous
 62
    30
100
AcDbCircle
 10
107.4678388465267
 20
3.368348012767288
 30
0.0
 40
1.499999999999331
100
AcDbArc
 50
59.99999999998492
 51
120.000000000015
  0
ARC
  5
DEC
330
1F
100
AcDbEntity
  8
0
  6
Continuous
 62
    30
100
AcDbCircle
 10
108.9678388465265
 20
5.96642422412021
 30
0.0
 40
1.500000000000324
100
AcDbArc
 50
240.0000000000074
 51
299.9999999999923
  0
ARC
  5
DED
330
1F
100
AcDbEntity
  8
0
  6
Continuous
 62
    30
100
AcDbCircle
 10
107.4678388465267
 20
5.96642422412021
 30
0.0
 40
1.500000000000324
100
AcDbArc
 50
240.0000000000074
 51
299.9999999999923
  0
ARC
  5
DEE
330
1F
100
AcDbEntity
  8
0
  6
Continuous
 62
    30
100
AcDbCircle
 10
110.4678388465267
 20
3.368348012767288
 30
0.0
 40
1.499999999999331
100
AcDbArc
 50
59.99999999998492
 51
120.000000000015
  0
ARC
  5
DEF
330
1F
100
AcDbEntity
  8
0
  6
Continuous
 62
    30
100
AcDbCircle
 10
110.4678388465267
 20
5.96642422412021
 30
0.0
 40
1.500000000000324
100
AcDbArc
 50
240.0000000000074
 51
299.9999999999923
  0
ARC
  5
DF2
330
1F
100
AcDbEntity
  8
0
  6
Continuous
 62
     7
100
AcDbCircle
 10
198.8010085362091
 20
31.4911738329215
 30
0.0
 40
64.24999600591497
100
AcDbArc
 50
104.8975903814509
 51
120.102171659447
  0
ARC
  5
DF3
330
1F
100
AcDbEntity
  8
0
  6
Continuous
 62
     7
100
AcDbCircle
 10
198.800879386761
 20
31.49121101658221
 30
0.0
 40
64.25000886080136
100
AcDbArc
 50
59.89774245286925
 51
75.1022375520358
  0
ARC
  5
DF4
330
1F
100
AcDbEntity
  8
0
  6
Continuous
 62
     7
100
AcDbCircle
 10
198.8011388465266
 20
31.49122780890531
 30
0.0
 40
65.59999999999991
100
AcDbArc
 50
90.0
 51
180.0
  0
LINE
  5
DF5
330
1F
100
AcDbEntity
  8
0
  6
Continuous
 62
     7
100
AcDbLine
 10
183.4416388465266
 20
90.78392780890528
 30
0.0
 11
182.2828388465268
 21
93.58132780890519
 31
0.0
  0
LINE
  5
DF6
330
1F
100
AcDbEntity
  8
0
  6
Continuous
 62
     7
100
AcDbLine
 10
214.1603388465266
 20
90.78392780890528
 30
0.0
 11
215.3191388465266
 21
93.58132780890519
 31
0.0
  0
ARC
  5
DF7
330
1F
100
AcDbEntity
  8
0
  6
Continuous
 62
     7
100
AcDbCircle
 10
198.8011580566011
 20
31.49124701909294
 30
0.0
 40
40.99999039864829
100
AcDbArc
 50
99.15440713152555
 51
170.8459303491368
  0
ARC
  5
DF8
330
1F
100
AcDbEntity
  8
0
  6
Continuous
 62
     7
100
AcDbCircle
 10
198.8011165708553
 20
31.49120553307217
 30
0.0
 40
36.0000074887354
100
AcDbArc
 50
102.2470358064303
 51
167.7533802199663
  0
ARC
  5
DF9
330
1F
100
AcDbEntity
  8
0
  6
Continuous
 62
     7
100
AcDbCircle
 10
198.8011692830353
 20
31.4912580173561
 30
0.0
 40
27.00000906792737
100
AcDbArc
 50
103.0624040874493
 51
166.5066717198802
  0
ARC
  5
DFA
330
1F
100
AcDbEntity
  8
0
  6
Continuous
 62
     7
100
AcDbCircle
 10
198.800996404057
 20
31.49116880764907
 30
0.0
 40
61.25004427415722
100
AcDbArc
 50
104.5228727180707
 51
120.4768893228297
  0
ARC
  5
DFB
330
1F
100
AcDbEntity
  8
0
  6
Continuous
 62
     7
100
AcDbCircle
 10
198.8011546324065
 20
31.49121202294616
 30
0.0
 40
26.99999818693505
100
AcDbArc
 50
193.4933652950028
 51
256.506347575032
  0
ARC
  5
DFC
330
1F
100
AcDbEntity
  8
0
  6
Continuous
 62
     7
100
AcDbCircle
 10
198.8011994690208
 20
31.49128843193089
 30
0.0
 40
49.9999998152764
100
AcDbArc
 50
106.0574587821216
 51
163.9430435267652
  0
LINE
  5
DFD
330
1F
100
AcDbEntity
  8
0
  6
Continuous
 62
     7
100
AcDbLine
 10
148.2836388465268
 20
35.49122780890531
 30
0.0
 11
177.3649388465264
 21
35.49122780890531
 31
0.0
  0
LINE
  5
DFE
330
1F
100
AcDbEntity
  8
0
  6
Continuous
 62
     7
100
AcDbLine
 10
148.2837388465268
 20
27.49122780890531
 30
0.0
 11
177.3650388465268
 21
27.49122780890531
 31
0.0
  0
ARC
  5
DFF
330
1F
100
AcDbEntity
  8
0
  6
Continuous
 62
     7
100
AcDbCircle
 10
198.8010790197185
 20
31.49137224222529
 30
0.0
 40
61.25000118253515
100
AcDbArc
 50
194.5231603732955
 51
210.4772244229939
  0
ARC
  5
E00
330
1F
100
AcDbEntity
  8
0
  6
Continuous
 62
     7
100
AcDbCircle
 10
124.7178388465265
 20
19.49072780890521
 30
0.0
 40
9.0
100
AcDbArc
 50
90.0
 51
180.0
  0
ARC
  5
E01
330
1F
100
AcDbEntity
  8
0
  6
Continuous
 62
     7
100
AcDbCircle
 10
127.7178388465265
 20
19.49072780890521
 30
0.0
 40
9.0
100
AcDbArc
 50
90.0
 51
180.0
  0
ARC
  5
E02
330
1F
100
AcDbEntity
  8
0
  6
Continuous
 62
     7
100
AcDbCircle
 10
198.8008388465266
 20
31.49072780890521
 30
0.0
 40
68.10001821945426
100
AcDbArc
 50
170.0830676042469
 51
189.9169323957529
  0
LINE
  5
E03
330
1F
100
AcDbEntity
  8
0
  6
Continuous
 62
     7
100
AcDbLine
 10
112.7178388465267
 20
4.667386118443178
 30
0.0
 11
112.7178388465267
 21
19.49072780890521
 31
0.0
  0
LINE
  5
E04
330
1F
100
AcDbEntity
  8
0
  6
Continuous
 62
     7
100
AcDbLine
 10
115.7178388465267
 20
4.667386118443178
 30
0.0
 11
115.7178388465267
 21
19.49072780890521
 31
0.0
  0
LINE
  5
E05
330
1F
100
AcDbEntity
  8
0
  6
Continuous
 62
     7
100
AcDbLine
 10
118.7178388465267
 20
4.667386118443178
 30
0.0
 11
118.7178388465267
 21
19.49072780890521
 31
0.0
  0
ARC
  5
E06
330
1F
100
AcDbEntity
  8
0
  6
Continuous
 62
    30
100
AcDbCircle
 10
113.4678388465267
 20
3.368348012767288
 30
0.0
 40
1.499999999999331
100
AcDbArc
 50
59.99999999998492
 51
120.000000000015
  0
ARC
  5
E07
330
1F
100
AcDbEntity
  8
0
  6
Continuous
 62
    30
100
AcDbCircle
 10
114.9678388465267
 20
5.96642422412021
 30
0.0
 40
1.500000000000324
100
AcDbArc
 50
240.0000000000074
 51
299.9999999999923
  0
ARC
  5
E08
330
1F
100
AcDbEntity
  8
0
  6
Continuous
 62
    30
100
AcDbCircle
 10
113.4678388465267
 20
5.96642422412021
 30
0.0
 40
1.500000000000324
100
AcDbArc
 50
240.0000000000074
 51
299.9999999999923
  0
ARC
  5
E09
330
1F
100
AcDbEntity
  8
0
  6
Continuous
 62
    30
100
AcDbCircle
 10
116.4678388465267
 20
3.368348012767288
 30
0.0
 40
1.499999999999331
100
AcDbArc
 50
59.99999999998492
 51
120.000000000015
  0
ARC
  5
E0A
330
1F
100
AcDbEntity
  8
0
  6
Continuous
 62
    30
100
AcDbCircle
 10
117.9678388465267
 20
5.96642422412021
 30
0.0
 40
1.500000000000324
100
AcDbArc
 50
240.0000000000074
 51
299.9999999999923
  0
ARC
  5
E0B
330
1F
100
AcDbEntity
  8
0
  6
Continuous
 62
    30
100
AcDbCircle
 10
116.4678388465267
 20
5.96642422412021
 30
0.0
 40
1.500000000000324
100
AcDbArc
 50
240.0000000000074
 51
299.9999999999923
  0
ARC
  5
E0C
330
1F
100
AcDbEntity
  8
0
  6
Continuous
 62
     7
100
AcDbCircle
 10
133.6884571768307
 20
20.10691534368078
 30
0.0
 40
1.999992252362057
100
AcDbArc
 50
189.9154326880874
 51
281.6505225303453
  0
LINE
  5
E0D
330
1F
100
AcDbEntity
  8
0
  6
Continuous
 62
     7
100
AcDbLine
 10
134.0923388465265
 20
18.14822780890523
 30
0.0
 11
134.5524388465266
 21
18.24292780890534
 31
0.0
  0
LINE
  5
E0E
330
1F
100
AcDbEntity
  8
0
  6
Continuous
 62
     7
100
AcDbLine
 10
139.5083388465266
 20
16.13162780890531
 30
0.0
 11
136.7109388465265
 21
14.97292780890534
 31
0.0
  0
LINE
  5
E0F
330
1F
100
AcDbEntity
  8
0
  6
Continuous
 62
     7
100
AcDbLine
 10
121.7178388465267
 20
31.49072780890521
 30
0.0
 11
130.7008388465267
 21
31.49072780890521
 31
0.0
  0
LINE
  5
E10
330
1F
100
AcDbEntity
  8
0
  6
Continuous
 62
     7
100
AcDbLine
 10
130.7669388465267
 20
28.49072780890521
 30
0.0
 11
121.7178388465267
 21
28.49072780890521
 31
0.0
  0
LINE
  5
E11
330
1F
100
AcDbEntity
  8
0
  6
Continuous
 62
     7
100
AcDbLine
 10
130.7669388465267
 20
34.49072780890521
 30
0.0
 11
121.7178388465267
 21
34.49072780890521
 31
0.0
  0
POINT
  5
E13
330
1F
100
AcDbEntity
  8
0
 62
     2
100
AcDbPoint
 10
112.4605388465267
 20
31.4907278089052
 30
0.0
  0
POINT
  5
E14
330
1F
100
AcDbEntity
  8
0
 62
     2
100
AcDbPoint
 10
133.2008388465265
 20
32.66352780890525
 30
0.0
  0
ARC
  5
E15
330
1F
100
AcDbEntity
  8
0
  6
Continuous
 62
     7
100
AcDbCircle
 10
133.6884472559263
 20
42.87453352722609
 30
0.0
 40
2.000000863723875
100
AcDbArc
 50
78.34923814445597
 51
170.0815059783186
  0
LINE
  5
E16
330
1F
100
AcDbEntity
  8
0
  6
Continuous
 62
     7
100
AcDbLine
 10
134.5524388465266
 20
44.73832780890535
 30
0.0
 11
134.0923388465265
 21
44.83322780890516
 31
0.0
  0
ARC
  5
E17
330
1F
100
AcDbEntity
  8
0
  6
Continuous
 62
     7
100
AcDbCircle
 10
153.6347227221418
 20
18.49120638914487
 30
0.0
 40
3.000021419803776
100
AcDbArc
 50
89.99969204913107
 51
196.0568429937794
  0
ARC
  5
E18
330
1F
100
AcDbEntity
  8
0
  6
Continuous
 62
     7
100
AcDbCircle
 10
156.7654005345386
 20
18.49125606299401
 30
0.0
 40
2.999971746155918
100
AcDbArc
 50
17.18512490280097
 51
89.99926828803291
  0
LINE
  5
E19
330
1F
100
AcDbEntity
  8
0
  6
Continuous
 62
     7
100
AcDbLine
 10
156.7654388465268
 20
21.49122780890531
 30
0.0
 11
153.6347388465267
 21
21.49122780890531
 31
0.0
  0
LINE
  5
E1A
330
1F
100
AcDbEntity
  8
0
  6
Continuous
 62
     7
100
AcDbLine
 10
171.7641388465267
 20
21.49122780890531
 30
0.0
 11
168.4696388465265
 21
21.49122780890531
 31
0.0
  0
ARC
  5
E1B
330
1F
100
AcDbEntity
  8
0
  6
Continuous
 62
     7
100
AcDbCircle
 10
168.469644011698
 20
18.49123564226801
 30
0.0
 40
2.999992166641738
100
AcDbArc
 50
90.00009864776805
 51
203.1996922744276
  0
ARC
  5
E1C
330
1F
100
AcDbEntity
  8
0
  6
Continuous
 62
     7
100
AcDbCircle
 10
171.7640663437488
 20
18.491273398017
 30
0.0
 40
2.999954411764444
100
AcDbArc
 50
25.6787411439099
 51
89.99861527789937
  0
ARC
  5
E1D
330
1F
100
AcDbEntity
  8
0
  6
Continuous
 62
     7
100
AcDbCircle
 10
148.2837398771838
 20
24.4912289922394
 30
0.0
 40
2.999998816666088
100
AcDbArc
 50
90.00001968410671
 51
187.8897366870047
  0
ARC
  5
E1E
330
1F
100
AcDbEntity
  8
0
  6
Continuous
 62
     7
100
AcDbCircle
 10
155.3613461383789
 20
24.49122159810251
 30
0.0
 40
3.000006210811652
100
AcDbArc
 50
9.15476190739232
 51
90.000139263832
  0
ARC
  5
E1F
330
1F
100
AcDbEntity
  8
0
  6
Continuous
 62
     7
100
AcDbCircle
 10
153.6345588920361
 20
44.49120117936838
 30
0.0
 40
2.999973370530024
100
AcDbArc
 50
163.9419379396029
 51
269.9996171555715
  0
ARC
  5
E20
330
1F
100
AcDbEntity
  8
0
  6
Continuous
 62
     7
100
AcDbCircle
 10
148.2836458545025
 20
38.49121976303406
 30
0.0
 40
2.999991954136966
100
AcDbArc
 50
172.1120409445213
 51
269.999866157162
  0
ARC
  5
E21
330
1F
100
AcDbEntity
  8
0
  6
Continuous
 62
     7
100
AcDbCircle
 10
156.7652653077873
 20
44.49104732271181
 30
0.0
 40
3.000019513923148
100
AcDbArc
 50
269.999494630434
 51
342.8142023115089
  0
ARC
  5
E22
330
1F
100
AcDbEntity
  8
0
  6
Continuous
 62
     7
100
AcDbCircle
 10
155.3613461383789
 20
38.4912340197081
 30
0.0
 40
3.000006210811664
100
AcDbArc
 50
269.9998607361679
 51
350.8452380926073
  0
LINE
  5
E23
330
1F
100
AcDbEntity
  8
0
  6
Continuous
 62
     7
100
AcDbLine
 10
156.7652388465266
 20
41.49122780890531
 30
0.0
 11
153.6345388465266
 21
41.49122780890531
 31
0.0
  0
ARC
  5
E24
330
1F
100
AcDbEntity
  8
0
  6
Continuous
 62
     7
100
AcDbCircle
 10
166.5519561417425
 20
38.49120635698552
 30
0.0
 40
2.999978548130076
100
AcDbArc
 50
167.7540457716684
 51
269.9996696833483
  0
ARC
  5
E25
330
1F
100
AcDbEntity
  8
0
  6
Continuous
 62
     7
100
AcDbCircle
 10
166.5520475905919
 20
24.49123865480329
 30
0.0
 40
2.999989154114767
100
AcDbArc
 50
90.00016699994938
 51
192.2476573264893
  0
ARC
  5
E26
330
1F
100
AcDbEntity
  8
0
  6
Continuous
 62
     7
100
AcDbCircle
 10
169.6290447485479
 20
24.49122315559076
 30
0.0
 40
3.000004653320357
100
AcDbArc
 50
13.49346889057676
 51
90.00011272013136
  0
LINE
  5
E27
330
1F
100
AcDbEntity
  8
0
  6
Continuous
 62
     7
100
AcDbLine
 10
171.7638388465268
 20
41.49122780890531
 30
0.0
 11
168.4694388465268
 21
41.49122780890531
 31
0.0
  0
ARC
  5
E28
330
1F
100
AcDbEntity
  8
0
  6
Continuous
 62
     7
100
AcDbCircle
 10
168.4694137077175
 20
44.49126593237682
 30
0.0
 40
3.000038123576837
100
AcDbArc
 50
156.8016388135021
 51
270.0004801097907
  0
ARC
  5
E29
330
1F
100
AcDbEntity
  8
0
  6
Continuous
 62
     7
100
AcDbCircle
 10
171.763909677074
 20
44.49127234323853
 30
0.0
 40
3.000044535169383
100
AcDbArc
 50
269.9986472562761
 51
334.3201766009132
  0
ARC
  5
E2A
330
1F
100
AcDbEntity
  8
0
  6
Continuous
 62
     7
100
AcDbCircle
 10
169.6290447485479
 20
38.49123246221985
 30
0.0
 40
3.000004653320361
100
AcDbArc
 50
269.9998872798685
 51
346.5065311094233
  0
ARC
  5
E2B
330
1F
100
AcDbEntity
  8
0
  6
Continuous
 62
     7
100
AcDbCircle
 10
198.8010790197183
 20
31.49108337558493
 30
0.0
 40
61.25000118253508
100
AcDbArc
 50
149.522775577006
 51
165.4768396267039
  0
LINE
  5
E2C
330
1F
100
AcDbEntity
  8
0
  6
Continuous
 62
     7
100
AcDbLine
 10
146.0139388465265
 20
62.55662780890526
 30
0.0
 11
143.2165388465268
 21
63.71532780890522
 31
0.0
  0
ARC
  5
E2D
330
1F
100
AcDbEntity
  8
0
  6
Continuous
 62
     7
100
AcDbCircle
 10
198.8011928225103
 20
31.49135811922221
 30
0.0
 40
64.24999600591513
100
AcDbArc
 50
149.8978283405527
 51
165.1024096185484
  0
LINE
  5
E2E
330
1F
100
AcDbEntity
  8
0
  6
Continuous
 62
     7
100
AcDbLine
 10
139.5084388465267
 20
46.85082780890531
 30
0.0
 11
136.7109388465265
 21
48.00952780890526
 31
0.0
  0
CIRCLE
  5
E2F
330
1F
100
AcDbEntity
  8
0
  6
Continuous
 62
     7
100
AcDbCircle
 10
155.6675388465268
 20
74.62482780890519
 30
0.0
 40
3.5
  0
ARC
  5
E30
330
1F
100
AcDbEntity
  8
0
  6
Continuous
 62
    30
100
AcDbCircle
 10
198.8014937221615
 20
31.49158235881075
 30
0.0
 40
60.99999336084682
100
AcDbArc
 50
129.6863556624168
 51
140.2610301441925
  0
LINE
  5
E31
330
1F
100
AcDbEntity
  8
0
  6
Continuous
 62
     7
100
AcDbLine
 10
151.7555388465268
 20
73.57672780890522
 30
0.0
 11
152.8098388465268
 21
77.48242780890524
 31
0.0
  0
LINE
  5
E32
330
1F
100
AcDbEntity
  8
0
  6
Continuous
 62
     7
100
AcDbLine
 10
154.6215388465268
 20
70.72102780890515
 30
0.0
 11
151.7555388465268
 21
73.57672780890522
 31
0.0
  0
LINE
  5
E33
330
1F
100
AcDbEntity
  8
0
  6
Continuous
 62
    30
100
AcDbLine
 10
159.9191388465265
 20
70.37312780890515
 30
0.0
 11
150.6535388465265
 21
79.63872780890534
 31
0.0
  0
CIRCLE
  5
E34
330
1F
100
AcDbEntity
  8
0
  6
Continuous
 62
    30
100
AcDbCircle
 10
155.6675388465268
 20
74.62482780890519
 30
0.0
 40
1.599999999999879
  0
CIRCLE
  5
E35
330
1F
100
AcDbEntity
  8
0
  6
Continuous
 62
     7
100
AcDbCircle
 10
155.6675388465268
 20
74.62482780890519
 30
0.0
 40
2.0
  0
LINE
  5
E36
330
1F
100
AcDbEntity
  8
0
  6
Continuous
 62
     7
100
AcDbLine
 10
152.8098388465268
 20
77.48242780890524
 30
0.0
 11
156.7135388465267
 21
78.52862780890524
 31
0.0
  0
LINE
  5
E37
330
1F
100
AcDbEntity
  8
0
  6
Continuous
 62
     7
100
AcDbLine
 10
158.5252388465265
 20
71.76712780890517
 30
0.0
 11
154.6215388465268
 21
70.72102780890515
 31
0.0
  0
LINE
  5
E38
330
1F
100
AcDbEntity
  8
0
  6
Continuous
 62
     7
100
AcDbLine
 10
159.5795388465266
 20
75.67312780890535
 30
0.0
 11
158.5252388465265
 21
71.76712780890517
 31
0.0
  0
LINE
  5
E39
330
1F
100
AcDbEntity
  8
0
  6
Continuous
 62
     7
100
AcDbLine
 10
156.7135388465267
 20
78.52862780890524
 30
0.0
 11
159.5795388465266
 21
75.67312780890535
 31
0.0
  0
LINE
  5
E3A
330
1F
100
AcDbEntity
  8
0
  6
Continuous
 62
     7
100
AcDbLine
 10
167.7357388465266
 20
84.27832780890531
 30
0.0
 11
166.5769388465266
 21
87.07592780890518
 31
0.0
  0
CIRCLE
  5
E3B
330
1F
100
AcDbEntity
  8
0
  6
Continuous
 62
     7
100
AcDbCircle
 10
198.8008388465266
 20
31.49122780890531
 30
0.0
 40
17.25
  0
CIRCLE
  5
E3C
330
1F
100
AcDbEntity
  8
0
  6
Continuous
 62
     7
100
AcDbCircle
 10
198.8008388465266
 20
31.49122780890531
 30
0.0
 40
19.54990000000001
  0
ARC
  5
E3D
330
1F
100
AcDbEntity
  8
0
  6
Continuous
 62
     7
100
AcDbCircle
 10
198.800811122561
 20
31.49125553307227
 30
0.0
 40
35.99994802021874
100
AcDbArc
 50
12.24655889346608
 51
77.75302508013635
  0
ARC
  5
E3E
330
1F
100
AcDbEntity
  8
0
  6
Continuous
 62
     7
100
AcDbCircle
 10
198.8007926619202
 20
31.49127364768423
 30
0.0
 40
26.99999740131036
100
AcDbArc
 50
13.49308188037592
 51
76.93755586226217
  0
ARC
  5
E3F
330
1F
100
AcDbEntity
  8
0
  6
Continuous
 62
     7
100
AcDbCircle
 10
198.8008230606468
 20
31.49121202294621
 30
0.0
 40
26.99999818693511
100
AcDbArc
 50
283.4936524249678
 51
346.5066347049967
  0
ARC
  5
E40
330
1F
100
AcDbEntity
  8
0
  6
Continuous
 62
     7
100
AcDbCircle
 10
211.800938320693
 20
4.454126972613288
 30
0.0
 40
2.999999474166468
100
AcDbArc
 50
115.6792823049394
 51
179.9999840279963
  0
ARC
  5
E41
330
1F
100
AcDbEntity
  8
0
  6
Continuous
 62
     7
100
AcDbCircle
 10
191.801034193212
 20
2.319333710926669
 30
0.0
 40
3.000004653320368
100
AcDbArc
 50
359.999887279869
 51
76.50653110942215
  0
ARC
  5
E42
330
1F
100
AcDbEntity
  8
0
  6
Continuous
 62
     7
100
AcDbCircle
 10
191.8010474565983
 20
10.05521594009125
 30
0.0
 40
2.999991389951875
100
AcDbArc
 50
0.0002266782984533
 51
71.91678129655136
  0
ARC
  5
E43
330
1F
100
AcDbEntity
  8
0
  6
Continuous
 62
     7
100
AcDbCircle
 10
185.8010393723604
 20
4.454126972613288
 30
0.0
 40
2.999999474166461
100
AcDbArc
 50
0.0000159720036505
 51
64.32071769506055
  0
LINE
  5
E44
330
1F
100
AcDbEntity
  8
0
  6
Continuous
 62
     7
100
AcDbLine
 10
188.8010388465266
 20
4.454127808905298
 30
0.0
 11
188.8010388465266
 21
1.159727808905297
 31
0.0
  0
ARC
  5
E45
330
1F
100
AcDbEntity
  8
0
  6
Continuous
 62
     7
100
AcDbCircle
 10
205.8009302364552
 20
10.05521594009125
 30
0.0
 40
2.999991389951884
100
AcDbArc
 50
108.0832187034485
 51
179.9997733217013
  0
ARC
  5
E46
330
1F
100
AcDbEntity
  8
0
  6
Continuous
 62
     7
100
AcDbCircle
 10
205.8009434998414
 20
2.319333710926669
 30
0.0
 40
3.000004653320366
100
AcDbArc
 50
103.4934688905777
 51
180.0001127201309
  0
LINE
  5
E47
330
1F
100
AcDbEntity
  8
0
  6
Continuous
 62
     7
100
AcDbLine
 10
208.8009388465267
 20
4.454127808905298
 30
0.0
 11
208.8009388465267
 21
1.159727808905297
 31
0.0
  0
CIRCLE
  5
E48
330
1F
100
AcDbEntity
  8
0
  6
Continuous
 62
     7
100
AcDbCircle
 10
198.8008388465266
 20
31.49102780890535
 30
0.0
 40
7.399999999999892
  0
CIRCLE
  5
E49
330
1F
100
AcDbEntity
  8
0
  6
Continuous
 62
     7
100
AcDbCircle
 10
198.8008388465266
 20
31.49102780890535
 30
0.0
 40
7.0
  0
CIRCLE
  5
E4A
330
1F
100
AcDbEntity
  8
0
  6
Continuous
 62
     7
100
AcDbCircle
 10
198.8008388465266
 20
31.49122780890531
 30
0.0
 40
7.75
  0
ARC
  5
E4B
330
1F
100
AcDbEntity
  8
0
  6
Continuous
 62
     7
100
AcDbCircle
 10
177.3650483733709
 20
24.4912208981182
 30
0.0
 40
3.000006910802227
100
AcDbArc
 50
18.08544284543685
 51
90.00018194890406
  0
ARC
  5
E4C
330
1F
100
AcDbEntity
  8
0
  6
Continuous
 62
     7
100
AcDbCircle
 10
177.3649269777125
 20
38.49121919883371
 30
0.0
 40
2.999991389951903
100
AcDbArc
 50
270.000226678297
 51
341.9167812965513
  0
LINE
  5
E4D
330
1F
100
AcDbEntity
  8
0
  6
Continuous
 62
     7
100
AcDbLine
 10
202.4063388465267
 20
37.49102780890535
 30
0.0
 11
195.1952388465265
 21
37.49102780890535
 31
0.0
  0
LINE
  5
E4E
330
1F
100
AcDbEntity
  8
0
  6
Continuous
 62
     7
100
AcDbLine
 10
225.8378388465267
 20
21.49122780890531
 30
0.0
 11
229.1323388465268
 21
21.49122780890531
 31
0.0
  0
ARC
  5
E4F
330
1F
100
AcDbEntity
  8
0
  6
Continuous
 62
     7
100
AcDbCircle
 10
225.8378396828188
 20
18.49122833473898
 30
0.0
 40
2.999999474166439
100
AcDbArc
 50
90.00001597200506
 51
154.3207176950614
  0
ARC
  5
E50
330
1F
100
AcDbEntity
  8
0
  6
Continuous
 62
     7
100
AcDbCircle
 10
229.1323336813553
 20
18.49123564226798
 30
0.0
 40
2.999992166641768
100
AcDbArc
 50
336.8003077255729
 51
89.99990135223354
  0
ARC
  5
E51
330
1F
100
AcDbEntity
  8
0
  6
Continuous
 62
     7
100
AcDbCircle
 10
240.8365771585148
 20
18.49125606299403
 30
0.0
 40
2.999971746155915
100
AcDbArc
 50
90.00073171196708
 51
162.8148750971994
  0
ARC
  5
E52
330
1F
100
AcDbEntity
  8
0
  6
Continuous
 62
     7
100
AcDbCircle
 10
227.9729329445054
 20
24.49122315559076
 30
0.0
 40
3.000004653320361
100
AcDbArc
 50
89.99988727986865
 51
166.5065311094234
  0
ARC
  5
E53
330
1F
100
AcDbEntity
  8
0
  6
Continuous
 62
     7
100
AcDbCircle
 10
227.9729329445054
 20
38.49123246221985
 30
0.0
 40
3.000004653320361
100
AcDbArc
 50
193.4934688905767
 51
270.0001127201313
  0
LINE
  5
E54
330
1F
100
AcDbEntity
  8
0
  6
Continuous
 62
     7
100
AcDbLine
 10
225.8380388465266
 20
41.49122780890531
 30
0.0
 11
229.1325388465266
 21
41.49122780890531
 31
0.0
  0
ARC
  5
E55
330
1F
100
AcDbEntity
  8
0
  6
Continuous
 62
     7
100
AcDbCircle
 10
220.2368948415795
 20
24.49126842780064
 30
0.0
 40
2.999959381427413
100
AcDbArc
 50
89.99915955603581
 51
161.9152156496235
  0
ARC
  5
E56
330
1F
100
AcDbEntity
  8
0
  6
Continuous
 62
     7
100
AcDbCircle
 10
220.2370507153408
 20
38.4912191988336
 30
0.0
 40
2.999991389951775
100
AcDbArc
 50
198.0832187034459
 51
269.999773321698
  0
ARC
  5
E57
330
1F
100
AcDbEntity
  8
0
  6
Continuous
 62
     7
100
AcDbCircle
 10
225.8380396828189
 20
44.49122728307165
 30
0.0
 40
2.999999474166458
100
AcDbArc
 50
205.6792823049388
 51
269.9999840279965
  0
ARC
  5
E58
330
1F
100
AcDbEntity
  8
0
  6
Continuous
 62
     7
100
AcDbCircle
 10
231.0500215513109
 20
38.49120635698543
 30
0.0
 40
2.999978548129977
100
AcDbArc
 50
270.0003303166531
 51
12.24595422833336
  0
ARC
  5
E59
330
1F
100
AcDbEntity
  8
0
  6
Continuous
 62
     7
100
AcDbCircle
 10
231.0499301024613
 20
24.49123865480339
 30
0.0
 40
2.999989154114666
100
AcDbArc
 50
347.7523426735078
 51
89.99983300004897
  0
ARC
  5
E5A
330
1F
100
AcDbEntity
  8
0
  6
Continuous
 62
     7
100
AcDbCircle
 10
242.2405895098815
 20
24.49127096119278
 30
0.0
 40
2.999956848118218
100
AcDbArc
 50
89.99905772592985
 51
170.8460411028456
  0
ARC
  5
E5B
330
1F
100
AcDbEntity
  8
0
  6
Continuous
 62
     7
100
AcDbCircle
 10
229.132533681355
 20
44.49121997554259
 30
0.0
 40
2.999992166641721
100
AcDbArc
 50
270.0000986477681
 51
23.19969227442328
  0
ARC
  5
E5C
330
1F
100
AcDbEntity
  8
0
  6
Continuous
 62
     7
100
AcDbCircle
 10
242.2405895091751
 20
38.49118465576238
 30
0.0
 40
2.999956847284871
100
AcDbArc
 50
189.1539588831703
 51
269.9990324007694
  0
ARC
  5
E5D
330
1F
100
AcDbEntity
  8
0
  6
Continuous
 62
     7
100
AcDbCircle
 10
240.8367123852659
 20
44.49104732271165
 30
0.0
 40
3.000019513923013
100
AcDbArc
 50
197.1857976884895
 51
270.0005053695627
  0
ARC
  5
E5E
330
1F
100
AcDbEntity
  8
0
  6
Continuous
 62
     7
100
AcDbCircle
 10
211.800938320693
 20
58.52812864519738
 30
0.0
 40
2.999999474166461
100
AcDbArc
 50
180.0000159720038
 51
244.3207176950605
  0
ARC
  5
E5F
330
1F
100
AcDbEntity
  8
0
  6
Continuous
 62
     7
100
AcDbCircle
 10
211.8009507106259
 20
61.82253563168149
 30
0.0
 40
3.000011864109531
100
AcDbArc
 50
66.79880036545853
 51
180.0001494034279
  0
ARC
  5
E60
330
1F
100
AcDbEntity
  8
0
  6
Continuous
 62
     7
100
AcDbCircle
 10
211.8010122169895
 20
76.6575077633957
 30
0.0
 40
2.999973370530029
100
AcDbArc
 50
73.94193793960145
 51
179.9996171555716
  0
ARC
  5
E61
330
1F
100
AcDbEntity
  8
0
  6
Continuous
 62
     7
100
AcDbCircle
 10
211.8009435875531
 20
73.52692138047093
 30
0.0
 40
3.000004742485642
100
AcDbArc
 50
180.0017870824405
 51
252.8164094844346
  0
LINE
  5
E62
330
1F
100
AcDbEntity
  8
0
  6
Continuous
 62
     7
100
AcDbLine
 10
194.8009388465268
 20
82.00862780890528
 30
0.0
 11
194.8009388465268
 21
52.92702780890528
 31
0.0
  0
LINE
  5
E63
330
1F
100
AcDbEntity
  8
0
  6
Continuous
 62
     7
100
AcDbLine
 10
202.8009388465267
 20
82.00862780890528
 30
0.0
 11
202.8009388465267
 21
52.92702780890528
 31
0.0
  0
ARC
  5
E64
330
1F
100
AcDbEntity
  8
0
  6
Continuous
 62
     7
100
AcDbCircle
 10
191.8009008306551
 20
63.74025845870533
 30
0.0
 40
3.000038016028288
100
AcDbArc
 50
359.9994146393565
 51
102.2464998420401
  0
ARC
  5
E65
330
1F
100
AcDbEntity
  8
0
  6
Continuous
 62
     7
100
AcDbCircle
 10
191.8009319357395
 20
52.92701828206104
 30
0.0
 40
3.000006910802231
100
AcDbArc
 50
288.0854428454365
 51
0.000181948903048
  0
ARC
  5
E66
330
1F
100
AcDbEntity
  8
0
  6
Continuous
 62
     7
100
AcDbCircle
 10
191.8009341932122
 20
60.66312190688396
 30
0.0
 40
3.000004653320363
100
AcDbArc
 50
283.4934688905761
 51
0.0001127201305401
  0
ARC
  5
E67
330
1F
100
AcDbEntity
  8
0
  6
Continuous
 62
     7
100
AcDbCircle
 10
185.800917705386
 20
58.52809418380839
 30
0.0
 40
3.000021141329225
100
AcDbArc
 50
295.6816616606421
 51
0.0006421875221019
  0
ARC
  5
E68
330
1F
100
AcDbEntity
  8
0
  6
Continuous
 62
     7
100
AcDbCircle
 10
185.8009466798894
 20
61.82252264373386
 30
0.0
 40
2.999992166641773
100
AcDbArc
 50
0.0000986477668609
 51
113.1996922744278
  0
LINE
  5
E69
330
1F
100
AcDbEntity
  8
0
  6
Continuous
 62
     7
100
AcDbLine
 10
188.8009388465268
 20
58.52812780890536
 30
0.0
 11
188.8009388465268
 21
61.82252780890536
 31
0.0
  0
ARC
  5
E6A
330
1F
100
AcDbEntity
  8
0
  6
Continuous
 62
     7
100
AcDbCircle
 10
205.8009434998414
 20
60.66312190688393
 30
0.0
 40
3.000004653320368
100
AcDbArc
 50
179.9998872798689
 51
256.5065311094222
  0
ARC
  5
E6B
330
1F
100
AcDbEntity
  8
0
  6
Continuous
 62
     7
100
AcDbCircle
 10
205.800930236455
 20
52.92703967771933
 30
0.0
 40
2.999991389951761
100
AcDbArc
 50
180.0002266783015
 51
251.916781296553
  0
ARC
  5
E6C
330
1F
100
AcDbEntity
  8
0
  6
Continuous
 62
     7
100
AcDbCircle
 10
205.8009768623985
 20
63.74025845870531
 30
0.0
 40
3.000038016028252
100
AcDbArc
 50
77.7535001579648
 51
180.0005853606426
  0
LINE
  5
E6D
330
1F
100
AcDbEntity
  8
0
  6
Continuous
 62
     7
100
AcDbLine
 10
208.8009388465267
 20
58.52812780890536
 30
0.0
 11
208.8009388465267
 21
61.82252780890536
 31
0.0
  0
ARC
  5
E6E
330
1F
100
AcDbEntity
  8
0
  6
Continuous
 62
     7
100
AcDbCircle
 10
191.8009326357239
 20
74.93072051705301
 30
0.0
 40
3.000006210811631
100
AcDbArc
 50
279.1547619073919
 51
0.0001392638311991
  0
ARC
  5
E6F
330
1F
100
AcDbEntity
  8
0
  6
Continuous
 62
     7
100
AcDbCircle
 10
191.8009400298609
 20
82.00862677824821
 30
0.0
 40
2.999998816666085
100
AcDbArc
 50
0.0000196841068792
 51
97.88973668700457
  0
ARC
  5
E70
330
1F
100
AcDbEntity
  8
0
  6
Continuous
 62
     7
100
AcDbCircle
 10
185.8009654760635
 20
76.65750776339574
 30
0.0
 40
2.999973370530037
100
AcDbArc
 50
0.0003828444281454
 51
106.0580620603985
  0
ARC
  5
E71
330
1F
100
AcDbEntity
  8
0
  6
Continuous
 62
     7
100
AcDbCircle
 10
185.8009193326718
 20
73.52690134850194
 30
0.0
 40
3.000019514756321
100
AcDbArc
 50
287.185797684534
 51
359.9985955062965
  0
LINE
  5
E72
330
1F
100
AcDbEntity
  8
0
  6
Continuous
 62
     7
100
AcDbLine
 10
188.8009388465268
 20
73.5269278089052
 30
0.0
 11
188.8009388465268
 21
76.65752780890517
 31
0.0
  0
ARC
  5
E73
330
1F
100
AcDbEntity
  8
0
  6
Continuous
 62
     7
100
AcDbCircle
 10
205.8009371031911
 20
74.93072985560407
 30
0.0
 40
2.999998256664968
100
AcDbArc
 50
180.0000390890901
 51
260.8473019798231
  0
LINE
  5
E74
330
1F
100
AcDbEntity
  8
0
  6
Continuous
 62
     7
100
AcDbLine
 10
208.8009388465267
 20
73.5269278089052
 30
0.0
 11
208.8009388465267
 21
76.65752780890517
 31
0.0
  0
ARC
  5
E75
330
1F
100
AcDbEntity
  8
0
  6
Continuous
 62
     7
100
AcDbCircle
 10
205.8009376631925
 20
82.00862677824821
 30
0.0
 40
2.99999881666605
100
AcDbArc
 50
82.11026331300034
 51
179.9999803158924
  0
ARC
  5
E76
330
1F
100
AcDbEntity
  8
0
  6
Continuous
 62
     7
100
AcDbCircle
 10
198.8006944132063
 20
31.49128763571372
 30
0.0
 40
61.2500011825351
100
AcDbArc
 50
59.52277557700591
 51
75.47683962670425
  0
LINE
  5
E77
330
1F
100
AcDbEntity
  8
0
  6
Continuous
 62
     7
100
AcDbLine
 10
238.0309388465267
 20
75.67082780890524
 30
0.0
 11
240.8866388465266
 21
78.53682780890524
 31
0.0
  0
LINE
  5
E78
330
1F
100
AcDbEntity
  8
0
  6
Continuous
 62
     7
100
AcDbLine
 10
239.0770388465266
 20
71.76712780890517
 30
0.0
 11
238.0309388465267
 21
75.67082780890524
 31
0.0
  0
LINE
  5
E79
330
1F
100
AcDbEntity
  8
0
  6
Continuous
 62
     7
100
AcDbLine
 10
228.9490388465265
 20
89.75242780890523
 30
0.0
 11
229.3167388465267
 21
90.46312780890531
 31
0.0
  0
LINE
  5
E7A
330
1F
100
AcDbEntity
  8
0
  6
Continuous
 62
     7
100
AcDbLine
 10
229.8662388465266
 20
84.27832780890531
 30
0.0
 11
231.0250388465266
 21
87.07592780890518
 31
0.0
  0
POINT
  5
E7F
330
1F
100
AcDbEntity
  8
0
 62
     2
100
AcDbPoint
 10
197.6282388465266
 20
97.09062780890532
 30
0.0
  0
LINE
  5
E8D
330
1F
100
AcDbEntity
  8
0
  6
Continuous
 62
     7
100
AcDbLine
 10
258.0936388465266
 20
16.13162780890531
 30
0.0
 11
260.8910388465266
 21
14.97292780890534
 31
0.0
  0
ARC
  5
E8E
330
1F
100
AcDbEntity
  8
0
  6
Continuous
 62
     7
100
AcDbCircle
 10
198.8008351312194
 20
31.4912188393646
 30
0.0
 40
61.24992742073175
100
AcDbArc
 50
329.5230100163629
 51
345.4769699885429
  0
ARC
  5
E8F
330
1F
100
AcDbEntity
  8
0
  6
Continuous
 62
     7
100
AcDbCircle
 10
243.9672549709114
 20
18.49120638914487
 30
0.0
 40
3.000021419803763
100
AcDbArc
 50
343.9431570062197
 51
90.00030795086894
  0
ARC
  5
E90
330
1F
100
AcDbEntity
  8
0
  6
Continuous
 62
     7
100
AcDbCircle
 10
249.3182378158695
 20
24.49122899223941
 30
0.0
 40
2.99999881666609
100
AcDbArc
 50
352.1102633129951
 51
89.99998031589333
  0
ARC
  5
E91
330
1F
100
AcDbEntity
  8
0
  6
Continuous
 62
     7
100
AcDbCircle
 10
249.3183318385509
 20
38.49121976303407
 30
0.0
 40
2.99999195413695
100
AcDbArc
 50
270.0001338428364
 51
7.887959055478346
  0
ARC
  5
E92
330
1F
100
AcDbEntity
  8
0
  6
Continuous
 62
     7
100
AcDbCircle
 10
243.9674188001976
 20
44.49120117920307
 30
0.0
 40
2.999973371363221
100
AcDbArc
 50
269.9984729838098
 51
16.05806205910178
  0
POINT
  5
E93
330
1F
100
AcDbEntity
  8
0
 62
     2
100
AcDbPoint
 10
264.4007388465266
 20
32.66352780890525
 30
0.0
  0
ARC
  5
E94
330
1F
100
AcDbEntity
  8
0
  6
Continuous
 62
     7
100
AcDbCircle
 10
198.8007848705431
 20
31.49135811922267
 30
0.0
 40
64.2499960059149
100
AcDbArc
 50
14.89759038145141
 51
30.10217165944711
  0
LINE
  5
E95
330
1F
100
AcDbEntity
  8
0
  6
Continuous
 62
     7
100
AcDbLine
 10
258.0935388465266
 20
46.85082780890531
 30
0.0
 11
260.8910388465266
 21
48.00952780890526
 31
0.0
  0
ARC
  5
E96
330
1F
100
AcDbEntity
  8
0
  6
Continuous
 62
     7
100
AcDbCircle
 10
198.8009686060094
 20
31.49091454677255
 30
0.0
 40
61.24997582215868
100
AcDbArc
 50
14.52332966132152
 51
30.47731309196958
  0
LINE
  5
E97
330
1F
100
AcDbEntity
  8
0
  6
Continuous
 62
     7
100
AcDbLine
 10
257.7725388465266
 20
62.00732780890536
 30
0.0
 11
257.0620388465266
 21
61.63972780890532
 31
0.0
  0
LINE
  5
E98
330
1F
100
AcDbEntity
  8
0
  6
Continuous
 62
     7
100
AcDbLine
 10
251.5879388465266
 20
62.55662780890526
 30
0.0
 11
254.3854388465266
 21
63.71532780890522
 31
0.0
  0
LINE
  5
E99
330
1F
100
AcDbEntity
  8
0
  6
Continuous
 62
     7
100
AcDbLine
 10
244.7923388465266
 20
77.48262780890519
 30
0.0
 11
245.8385388465265
 21
73.57882780890516
 31
0.0
  0
LINE
  5
E9A
330
1F
100
AcDbEntity
  8
0
  6
Continuous
 62
     7
100
AcDbLine
 10
245.8385388465265
 20
73.57882780890516
 30
0.0
 11
242.9830388465266
 21
70.71282780890514
 31
0.0
  0
MTEXT
  5
EA8
330
1F
100
AcDbEntity
  8
0
100
AcDbMText
 10
-57.46017508239072
 20
-126.4053894360507
 30
0.0
 40
8.0
 41
125.7467277009812
 71
     1
 72
     1
  1
AES-DBF 4P 0.2kW
 73
     1
 44
1.0
  0
VIEWPORT
  5
71
330
55
100
AcDbEntity
 67
     1
  8
0
100
AcDbViewport
 10
133.3499908447265
 20
101.5999970436096
 30
0.0
 40
381.3957395593833
 41
218.2856291881582
 68
     1
 69
     1
 12
133.3499908447265
 22
101.5999970436096
 13
0.0
 23
0.0
 14
10.0
 24
10.0
 15
10.0
 25
10.0
 16
0.0
 26
0.0
 36
1.0
 17
0.0
 27
0.0
 37
0.0
 42
50.0
 43
0.0
 44
0.0
 45
218.2856291881582
 50
0.0
 51
0.0
 72
   100
 90
    32800
  1

281
     0
 71
     1
 74
     0
110
0.0
120
0.0
130
0.0
111
1.0
121
0.0
131
0.0
112
0.0
122
1.0
132
0.0
 79
     0
146
0.0
  0
VIEWPORT
  5
73
330
55
100
AcDbEntity
 67
     1
  8
0
100
AcDbViewport
 10
133.3499939441679
 20
101.5999939441679
 30
0.0
 40
213.3599903106689
 41
162.5599903106689
 68
     2
 69
     2
 12
210.0
 22
148.5
 13
0.0
 23
0.0
 14
10.0
 24
10.0
 15
10.0
 25
10.0
 16
0.0
 26
0.0
 36
1.0
 17
0.0
 27
0.0
 37
0.0
 42
50.0
 43
0.0
 44
0.0
 45
324.0677920111345
 50
0.0
 51
0.0
 72
   100
 90
    32864
  1

281
     0
 71
     1
 74
     0
110
0.0
120
0.0
130
0.0
111
1.0
121
0.0
131
0.0
112
0.0
122
1.0
132
0.0
 79
     0
146
0.0
  0
ENDSEC
  0
SECTION
  2
OBJECTS
  0
DICTIONARY
  5
C
330
0
100
AcDbDictionary
281
     1
  3
ACAD_GROUP
350
D
  3
ACAD_LAYOUT
350
1A
  3
ACAD_MLINESTYLE
350
17
  3
ACAD_PLOTSETTINGS
350
19
  3
ACAD_PLOTSTYLENAME
350
E
  3
AcDbVariableDictionary
350
5E
  0
DICTIONARY
  5
D
102
{ACAD_REACTORS
330
C
102
}
330
C
100
AcDbDictionary
281
     1
  0
DICTIONARY
  5
1A
102
{ACAD_REACTORS
330
C
102
}
330
C
100
AcDbDictionary
281
     1
  3
Model
350
22
  3
ﾚｲｱｳﾄ1
350
51
  3
ﾚｲｱｳﾄ2
350
56
  0
DICTIONARY
  5
17
102
{ACAD_REACTORS
330
C
102
}
330
C
100
AcDbDictionary
281
     1
  3
Standard
350
18
  0
DICTIONARY
  5
19
102
{ACAD_REACTORS
330
C
102
}
330
C
100
AcDbDictionary
281
     1
  0
ACDBDICTIONARYWDFLT
  5
E
102
{ACAD_REACTORS
330
C
102
}
330
C
100
AcDbDictionary
281
     1
  3
Normal
350
F
100
AcDbDictionaryWithDefault
340
F
  0
DICTIONARY
  5
5E
102
{ACAD_REACTORS
330
C
102
}
330
C
100
AcDbDictionary
281
     1
  3
DIMASSOC
350
5F
  3
HIDETEXT
350
63
  0
LAYOUT
  5
22
102
{ACAD_REACTORS
330
1A
102
}
330
1A
100
AcDbPlotSettings
  1

  2
none_device
  4
ANSI_A_(8.50_x_11.00_Inches)
  6

 40
6.349999904632567
 41
19.04999923706053
 42
6.350006103515625
 43
19.04998779296875
 44
215.8999938964842
 45
279.3999938964843
 46
0.0
 47
0.0
 48
0.0
 49
0.0
140
0.0
141
0.0
142
1.0
143
78.436453180766
 70
 11952
 72
     0
 73
     1
 74
     0
  7

 75
     0
147
0.0127491741332998
148
0.0
149
0.0
100
AcDbLayout
  1
Model
 70
     1
 71
     0
 10
0.0
 20
0.0
 11
12.0
 21
9.0
 12
0.0
 22
0.0
 32
0.0
 14
0.0
 24
0.0
 34
0.0
 15
0.0
 25
0.0
 35
0.0
146
0.0
 13
0.0
 23
0.0
 33
0.0
 16
1.0
 26
0.0
 36
0.0
 17
0.0
 27
1.0
 37
0.0
 76
     0
330
1F
  0
LAYOUT
  5
51
102
{ACAD_REACTORS
330
1A
102
}
330
1A
100
AcDbPlotSettings
  1

  2
none_device
  4
Letter_(8.50_x_11.00_Inches)
  6

 40
6.349999904632567
 41
6.349999904632567
 42
6.350006103515625
 43
6.350006103515625
 44
215.8999938964842
 45
279.3999938964843
 46
0.0
 47
0.0
 48
0.0
 49
0.0
140
0.0
141
0.0
142
1.0
143
1.0
 70
   688
 72
     1
 73
     1
 74
     5
  7

 75
    16
147
1.0
148
0.0
149
0.0
100
AcDbLayout
  1
ﾚｲｱｳﾄ1
 70
     1
 71
     1
 10
-6.350006103515625
 20
-6.349999904632567
 11
273.0499877929687
 21
209.5499939918517
 12
0.0
 22
0.0
 32
0.0
 14
26.66076962115562
 24
20.31135699206657
 34
-0.0015258207003583
 15
240.039213369355
 25
182.8886381005154
 35
0.0000000349246037
146
0.0
 13
0.0
 23
0.0
 33
0.0
 16
1.0
 26
0.0
 36
0.0
 17
0.0
 27
1.0
 37
0.0
 76
     0
330
50
331
6B
  0
LAYOUT
  5
56
102
{ACAD_REACTORS
330
1A
102
}
330
1A
100
AcDbPlotSettings
  1

  2
none_device
  4
Letter_(8.50_x_11.00_Inches)
  6

 40
6.349999904632567
 41
6.349999904632567
 42
6.350006103515625
 43
6.350006103515625
 44
215.8999938964842
 45
279.3999938964843
 46
0.0
 47
0.0
 48
0.0
 49
0.0
140
0.0
141
0.0
142
1.0
143
1.0
 70
   688
 72
     1
 73
     1
 74
     5
  7

 75
    16
147
1.0
148
0.0
149
0.0
100
AcDbLayout
  1
ﾚｲｱｳﾄ2
 70
     1
 71
     2
 10
-6.350006103515625
 20
-6.349999904632567
 11
273.0499877929687
 21
209.5499939918517
 12
0.0
 22
0.0
 32
0.0
 14
26.66076962115562
 24
20.31135699206657
 34
-0.0015258207003583
 15
240.039213369355
 25
182.8886381005154
 35
0.0000000349246037
146
0.0
 13
0.0
 23
0.0
 33
0.0
 16
1.0
 26
0.0
 36
0.0
 17
0.0
 27
1.0
 37
0.0
 76
     0
330
55
331
71
  0
MLINESTYLE
  5
18
102
{ACAD_REACTORS
330
17
102
}
330
17
100
AcDbMlineStyle
  2
STANDARD
 70
     0
  3

 62
   256
 51
90.0
 52
90.0
 71
     2
 49
0.5
 62
   256
  6
BYLAYER
 49
-0.5
 62
   256
  6
BYLAYER
  0
ACDBPLACEHOLDER
  5
F
102
{ACAD_REACTORS
330
E
102
}
330
E
  0
DICTIONARYVAR
  5
5F
102
{ACAD_REACTORS
330
5E
102
}
330
5E
100
DictionaryVariables
280
     0
  1
2
  0
DICTIONARYVAR
  5
63
102
{ACAD_REACTORS
330
5E
102
}
330
5E
100
DictionaryVariables
280
     0
  1
1
  0
ENDSEC
  0
EOF
