  0
SECTION
  2
HEADER
  9
$ACADVER
  1
AC1015
  9
$ACADMAINTVER
 70
    20
  9
$DWGCODEPAGE
  3
ANSI_932
  9
$INSBASE
 10
0.0
 20
0.0
 30
0.0
  9
$EXTMIN
 10
-300.5284537996167
 20
-170.3378453397417
 30
-0.0000000349181948
  9
$EXTMAX
 10
250.9931411144866
 20
99.57894909038509
 30
0.0000000814935746
  9
$LIMMIN
 10
0.0
 20
0.0
  9
$LIMMAX
 10
12.0
 20
9.0
  9
$ORTHOMODE
 70
     0
  9
$REGENMODE
 70
     1
  9
$FILLMODE
 70
     1
  9
$QTEXTMODE
 70
     0
  9
$MIRRTEXT
 70
     1
  9
$LTSCALE
 40
1.0
  9
$ATTMODE
 70
     1
  9
$TEXTSIZE
 40
0.2
  9
$TRACEWID
 40
0.05
  9
$TEXTSTYLE
  7
CONVERTER_2
  9
$CLAYER
  8
0
  9
$CELTYPE
  6
ByLayer
  9
$CECOLOR
 62
   256
  9
$CELTSCALE
 40
1.0
  9
$DISPSILH
 70
     0
  9
$DIMSCALE
 40
1.0
  9
$DIMASZ
 40
4.0
  9
$DIMEXO
 40
2.35
  9
$DIMDLI
 40
0.38
  9
$DIMRND
 40
0.0
  9
$DIMDLE
 40
0.0
  9
$DIMEXE
 40
4.0
  9
$DIMTP
 40
0.0
  9
$DIMTM
 40
0.0
  9
$DIMTXT
 40
5.0
  9
$DIMCEN
 40
0.09
  9
$DIMTSZ
 40
0.0
  9
$DIMTOL
 70
     0
  9
$DIMLIM
 70
     0
  9
$DIMTIH
 70
     0
  9
$DIMTOH
 70
     0
  9
$DIMSE1
 70
     0
  9
$DIMSE2
 70
     0
  9
$DIMTAD
 70
     1
  9
$DIMZIN
 70
     8
  9
$DIMBLK
  1

  9
$DIMASO
 70
     1
  9
$DIMSHO
 70
     1
  9
$DIMPOST
  1

  9
$DIMAPOST
  1

  9
$DIMALT
 70
     0
  9
$DIMALTD
 70
     2
  9
$DIMALTF
 40
25.4
  9
$DIMLFAC
 40
1.0
  9
$DIMTOFL
 70
     1
  9
$DIMTVP
 40
0.0
  9
$DIMTIX
 70
     0
  9
$DIMSOXD
 70
     0
  9
$DIMSAH
 70
     1
  9
$DIMBLK1
  1
Open30
  9
$DIMBLK2
  1
Open30
  9
$DIMSTYLE
  2
ME10_DIM_1
  9
$DIMCLRD
 70
    54
  9
$DIMCLRE
 70
    54
  9
$DIMCLRT
 70
     2
  9
$DIMTFAC
 40
1.0
  9
$DIMGAP
 40
1.6
  9
$DIMJUST
 70
     0
  9
$DIMSD1
 70
     0
  9
$DIMSD2
 70
     0
  9
$DIMTOLJ
 70
     1
  9
$DIMTZIN
 70
     0
  9
$DIMALTZ
 70
     0
  9
$DIMALTTZ
 70
     0
  9
$DIMUPT
 70
     0
  9
$DIMDEC
 70
     2
  9
$DIMTDEC
 70
     2
  9
$DIMALTU
 70
     2
  9
$DIMALTTD
 70
     2
  9
$DIMTXSTY
  7
CONVERTER_4
  9
$DIMAUNIT
 70
     0
  9
$DIMADEC
 70
     0
  9
$DIMALTRND
 40
0.0
  9
$DIMAZIN
 70
     0
  9
$DIMDSEP
 70
    46
  9
$DIMATFIT
 70
     3
  9
$DIMFRAC
 70
     0
  9
$DIMLDRBLK
  1

  9
$DIMLUNIT
 70
     2
  9
$DIMLWD
 70
    -2
  9
$DIMLWE
 70
    -2
  9
$DIMTMOVE
 70
     0
  9
$LUNITS
 70
     2
  9
$LUPREC
 70
     4
  9
$SKETCHINC
 40
0.1
  9
$FILLETRAD
 40
4.0
  9
$AUNITS
 70
     0
  9
$AUPREC
 70
     0
  9
$MENU
  1
.
  9
$ELEVATION
 40
0.0
  9
$PELEVATION
 40
0.0
  9
$THICKNESS
 40
0.0
  9
$LIMCHECK
 70
     0
  9
$CHAMFERA
 40
0.5
  9
$CHAMFERB
 40
0.5
  9
$CHAMFERC
 40
1.0
  9
$CHAMFERD
 40
0.0
  9
$SKPOLY
 70
     0
  9
$TDCREATE
 40
2455132.439189445
  9
$TDUCREATE
 40
2455132.064189444
  9
$TDUPDATE
 40
2460104.371532072
  9
$TDUUPDATE
 40
2460103.996532072
  9
$TDINDWG
 40
0.4400850347
  9
$TDUSRTIMER
 40
0.4400835880
  9
$USRTIMER
 70
     1
  9
$ANGBASE
 50
0.0
  9
$ANGDIR
 70
     0
  9
$PDMODE
 70
     0
  9
$PDSIZE
 40
0.0
  9
$PLINEWID
 40
0.0
  9
$SPLFRAME
 70
     0
  9
$SPLINETYPE
 70
     6
  9
$SPLINESEGS
 70
     8
  9
$HANDSEED
  5
1D9B
  9
$SURFTAB1
 70
     6
  9
$SURFTAB2
 70
     6
  9
$SURFTYPE
 70
     6
  9
$SURFU
 70
     6
  9
$SURFV
 70
     6
  9
$UCSBASE
  2

  9
$UCSNAME
  2

  9
$UCSORG
 10
0.0
 20
0.0
 30
0.0
  9
$UCSXDIR
 10
1.0
 20
0.0
 30
0.0
  9
$UCSYDIR
 10
0.0
 20
1.0
 30
0.0
  9
$UCSORTHOREF
  2

  9
$UCSORTHOVIEW
 70
     0
  9
$UCSORGTOP
 10
0.0
 20
0.0
 30
0.0
  9
$UCSORGBOTTOM
 10
0.0
 20
0.0
 30
0.0
  9
$UCSORGLEFT
 10
0.0
 20
0.0
 30
0.0
  9
$UCSORGRIGHT
 10
0.0
 20
0.0
 30
0.0
  9
$UCSORGFRONT
 10
0.0
 20
0.0
 30
0.0
  9
$UCSORGBACK
 10
0.0
 20
0.0
 30
0.0
  9
$PUCSBASE
  2

  9
$PUCSNAME
  2

  9
$PUCSORG
 10
0.0
 20
0.0
 30
0.0
  9
$PUCSXDIR
 10
1.0
 20
0.0
 30
0.0
  9
$PUCSYDIR
 10
0.0
 20
1.0
 30
0.0
  9
$PUCSORTHOREF
  2

  9
$PUCSORTHOVIEW
 70
     0
  9
$PUCSORGTOP
 10
0.0
 20
0.0
 30
0.0
  9
$PUCSORGBOTTOM
 10
0.0
 20
0.0
 30
0.0
  9
$PUCSORGLEFT
 10
0.0
 20
0.0
 30
0.0
  9
$PUCSORGRIGHT
 10
0.0
 20
0.0
 30
0.0
  9
$PUCSORGFRONT
 10
0.0
 20
0.0
 30
0.0
  9
$PUCSORGBACK
 10
0.0
 20
0.0
 30
0.0
  9
$USERI1
 70
     0
  9
$USERI2
 70
     0
  9
$USERI3
 70
     0
  9
$USERI4
 70
     0
  9
$USERI5
 70
     0
  9
$USERR1
 40
14.0
  9
$USERR2
 40
0.0
  9
$USERR3
 40
0.0
  9
$USERR4
 40
0.0
  9
$USERR5
 40
0.0
  9
$WORLDVIEW
 70
     1
  9
$SHADEDGE
 70
     3
  9
$SHADEDIF
 70
    70
  9
$TILEMODE
 70
     1
  9
$MAXACTVP
 70
    64
  9
$PINSBASE
 10
0.0
 20
0.0
 30
0.0
  9
$PLIMCHECK
 70
     0
  9
$PEXTMIN
 10
1.000000000000000E+20
 20
1.000000000000000E+20
 30
1.000000000000000E+20
  9
$PEXTMAX
 10
-1.000000000000000E+20
 20
-1.000000000000000E+20
 30
-1.000000000000000E+20
  9
$PLIMMIN
 10
0.0
 20
0.0
  9
$PLIMMAX
 10
12.0
 20
9.0
  9
$UNITMODE
 70
     0
  9
$VISRETAIN
 70
     1
  9
$PLINEGEN
 70
     0
  9
$PSLTSCALE
 70
     1
  9
$TREEDEPTH
 70
  3020
  9
$CMLSTYLE
  2
Standard
  9
$CMLJUST
 70
     0
  9
$CMLSCALE
 40
1.0
  9
$PROXYGRAPHICS
 70
     1
  9
$MEASUREMENT
 70
     1
  9
$CELWEIGHT
370
    -1
  9
$ENDCAPS
280
     0
  9
$JOINSTYLE
280
     0
  9
$LWDISPLAY
290
     0
  9
$INSUNITS
 70
     1
  9
$HYPERLINKBASE
  1

  9
$STYLESHEET
  1
P社図面.ctb
  9
$XEDIT
290
     1
  9
$CEPSNTYPE
380
     0
  9
$PSTYLEMODE
290
     1
  9
$FINGERPRINTGUID
  2
{D441265F-BD07-4E74-90F9-0F9D2D666C67}
  9
$VERSIONGUID
  2
{DF53767F-2B1D-4B3D-9B42-DBDA0E6BE499}
  9
$EXTNAMES
290
     1
  9
$PSVPSCALE
 40
0.0
  9
$OLESTARTUP
290
     0
  0
ENDSEC
  0
SECTION
  2
CLASSES
  0
CLASS
  1
ACDBDICTIONARYWDFLT
  2
AcDbDictionaryWithDefault
  3
ObjectDBX Classes
 90
        0
280
     0
281
     0
  0
CLASS
  1

  2
exOdDbSpline
  3

 90
    32768
280
     0
281
     1
  0
CLASS
  1

  2
exOdDbPolyline
  3

 90
    32768
280
     0
281
     1
  0
CLASS
  1

  2
exOdDbCircle
  3

 90
    32768
280
     0
281
     1
  0
CLASS
  1
ACDBPLACEHOLDER
  2
AcDbPlaceHolder
  3
ObjectDBX Classes
 90
        0
280
     0
281
     0
  0
CLASS
  1
LAYOUT
  2
AcDbLayout
  3
ObjectDBX Classes
 90
        0
280
     0
281
     0
  0
CLASS
  1
MATERIAL
  2
AcDbMaterial
  3
ObjectDBX Classes
 90
     1153
280
     0
281
     0
  0
CLASS
  1
VISUALSTYLE
  2
AcDbVisualStyle
  3
ObjectDBX Classes
 90
     4095
280
     0
281
     0
  0
CLASS
  1
TABLESTYLE
  2
AcDbTableStyle
  3
ObjectDBX Classes
 90
     4095
280
     0
281
     0
  0
CLASS
  1
SCALE
  2
AcDbScale
  3
ObjectDBX Classes
 90
     1153
280
     0
281
     0
  0
CLASS
  1
MLEADERSTYLE
  2
AcDbMLeaderStyle
  3
ACDB_MLEADERSTYLE_CLASS
 90
     4095
280
     0
281
     0
  0
CLASS
  1
DICTIONARYVAR
  2
AcDbDictionaryVar
  3
ObjectDBX Classes
 90
        0
280
     0
281
     0
  0
CLASS
  1
SORTENTSTABLE
  2
AcDbSortentsTable
  3
ObjectDBX Classes
 90
        0
280
     0
281
     0
  0
CLASS
  1
CELLSTYLEMAP
  2
AcDbCellStyleMap
  3
ObjectDBX Classes
 90
     1152
280
     0
281
     0
  0
ENDSEC
  0
SECTION
  2
TABLES
  0
TABLE
  2
VPORT
  5
8
102
{ACAD_XDICTIONARY
360
1607
102
}
330
0
100
AcDbSymbolTable
 70
     1
  0
VPORT
  5
1CC2
330
8
100
AcDbSymbolTableRecord
100
AcDbViewportTableRecord
  2
*Active
 70
     0
 10
0.0
 20
0.0
 11
1.0
 21
1.0
 12
-24.76765634256504
 22
-35.37944812467833
 13
0.0
 23
0.0
 14
0.5
 24
0.5
 15
0.5
 25
0.5
 16
0.0
 26
0.0
 36
1.0
 17
0.0
 27
0.0
 37
0.0
 40
311.7879308309858
 41
1.776047904191616
 42
50.0
 43
0.0
 44
0.0
 50
0.0
 51
0.0
 71
     0
 72
   100
 73
     1
 74
     3
 75
     0
 76
     0
 77
     0
 78
     0
281
     0
 65
     1
110
0.0
120
0.0
130
0.0
111
1.0
121
0.0
131
0.0
112
0.0
122
1.0
132
0.0
 79
     0
146
0.0
1001
ACAD_NAV_VCDISPLAY
1070
     3
  0
ENDTAB
  0
TABLE
  2
LTYPE
  5
5
330
0
100
AcDbSymbolTable
 70
     9
  0
LTYPE
  5
14
330
5
100
AcDbSymbolTableRecord
100
AcDbLinetypeTableRecord
  2
ByBlock
 70
     0
  3

 72
    65
 73
     0
 40
0.0
  0
LTYPE
  5
15
330
5
100
AcDbSymbolTableRecord
100
AcDbLinetypeTableRecord
  2
ByLayer
 70
     0
  3

 72
    65
 73
     0
 40
0.0
  0
LTYPE
  5
16
330
5
100
AcDbSymbolTableRecord
100
AcDbLinetypeTableRecord
  2
Continuous
 70
     0
  3
Solid line
 72
    65
 73
     0
 40
0.0
  0
LTYPE
  5
2A
330
5
100
AcDbSymbolTableRecord
100
AcDbLinetypeTableRecord
  2
DASHED
 70
     0
  3
Dashed
 72
    65
 73
     2
 40
15.0
 49
7.0
 74
     0
 49
-8.0
 74
     0
  0
LTYPE
  5
2E
330
5
100
AcDbSymbolTableRecord
100
AcDbLinetypeTableRecord
  2
DASH_CENTER
 70
     0
  3
Dash_Center
 72
    65
 73
     4
 40
14.0
 49
11.0
 74
     0
 49
-1.0
 74
     0
 49
1.0
 74
     0
 49
-1.0
 74
     0
  0
ENDTAB
  0
TABLE
  2
LAYER
  5
2
102
{ACAD_XDICTIONARY
360
CA9
102
}
330
0
100
AcDbSymbolTable
 70
    14
  0
LAYER
  5
10
102
{ACAD_XDICTIONARY
360
14F6
102
}
330
2
100
AcDbSymbolTableRecord
100
AcDbLayerTableRecord
  2
0
 70
     0
 62
     7
  6
Continuous
370
    -3
390
F
  0
LAYER
  5
31
102
{ACAD_XDICTIONARY
360
14F8
102
}
330
2
100
AcDbSymbolTableRecord
100
AcDbLayerTableRecord
  2
1
 70
     0
 62
     7
  6
Continuous
370
    -3
390
F
  0
LAYER
  5
32
102
{ACAD_XDICTIONARY
360
14FA
102
}
330
2
100
AcDbSymbolTableRecord
100
AcDbLayerTableRecord
  2
10
 70
     0
 62
     7
  6
Continuous
370
    -3
390
F
  0
LAYER
  5
33
102
{ACAD_XDICTIONARY
360
14FC
102
}
330
2
100
AcDbSymbolTableRecord
100
AcDbLayerTableRecord
  2
100
 70
     0
 62
     7
  6
Continuous
370
    -3
390
F
  0
LAYER
  5
34
102
{ACAD_XDICTIONARY
360
14FE
102
}
330
2
100
AcDbSymbolTableRecord
100
AcDbLayerTableRecord
  2
105
 70
     0
 62
     7
  6
Continuous
370
    -3
390
F
  0
LAYER
  5
35
102
{ACAD_XDICTIONARY
360
1500
102
}
330
2
100
AcDbSymbolTableRecord
100
AcDbLayerTableRecord
  2
110
 70
     0
 62
     7
  6
Continuous
370
    -3
390
F
  0
LAYER
  5
36
102
{ACAD_XDICTIONARY
360
1502
102
}
330
2
100
AcDbSymbolTableRecord
100
AcDbLayerTableRecord
  2
115
 70
     0
 62
     7
  6
Continuous
370
    -3
390
F
  0
LAYER
  5
38
102
{ACAD_XDICTIONARY
360
1506
102
}
330
2
100
AcDbSymbolTableRecord
100
AcDbLayerTableRecord
  2
160
 70
     0
 62
     7
  6
Continuous
370
    -3
390
F
  0
LAYER
  5
39
102
{ACAD_XDICTIONARY
360
1508
102
}
330
2
100
AcDbSymbolTableRecord
100
AcDbLayerTableRecord
  2
165
 70
     0
 62
     7
  6
Continuous
370
    -3
390
F
  0
LAYER
  5
3B
102
{ACAD_XDICTIONARY
360
150C
102
}
330
2
100
AcDbSymbolTableRecord
100
AcDbLayerTableRecord
  2
60
 70
     0
 62
     7
  6
Continuous
370
    -3
390
F
  0
LAYER
  5
54B
330
2
100
AcDbSymbolTableRecord
100
AcDbLayerTableRecord
  2
Defpoints
 70
     0
 62
     7
  6
Continuous
290
     0
370
    -3
390
F
  0
ENDTAB
  0
TABLE
  2
STYLE
  5
3
330
0
100
AcDbSymbolTable
 70
    32
  0
STYLE
  5
11
330
3
100
AcDbSymbolTableRecord
100
AcDbTextStyleTableRecord
  2
Standard
 70
     0
 40
0.0
 41
1.0
 50
0.0
 71
     0
 42
0.2
  3
txt
  4

  0
STYLE
  5
8E
330
3
100
AcDbSymbolTableRecord
100
AcDbTextStyleTableRecord
  2
CONVERTER_2
 70
     0
 40
0.0
 41
0.89
 50
0.0
 71
     0
 42
0.2
  3
simplex.shx
  4
bigfont.shx
  0
STYLE
  5
A2
330
3
100
AcDbSymbolTableRecord
100
AcDbTextStyleTableRecord
  2
CONVERTER_4
 70
     0
 40
0.0
 41
0.7565
 50
0.0
 71
     0
 42
0.2
  3
simplex.shx
  4

  0
STYLE
  5
3B7
330
3
100
AcDbSymbolTableRecord
100
AcDbTextStyleTableRecord
  2
CONVERTER_6
 70
     0
 40
0.0
 41
0.7120000000000001
 50
0.0
 71
     0
 42
0.2
  3
simplex.shx
  4

  0
STYLE
  5
434
330
3
100
AcDbSymbolTableRecord
100
AcDbTextStyleTableRecord
  2
CONVERTER_15
 70
     0
 40
0.0
 41
0.89
 50
0.0
 71
     0
 42
0.2
  3
txt.shx
  4

  0
STYLE
  5
44D
330
3
100
AcDbSymbolTableRecord
100
AcDbTextStyleTableRecord
  2
CONVERTER_21
 70
     0
 40
0.0
 41
0.6230000000000001
 50
0.0
 71
     0
 42
0.2
  3
simplex.shx
  4

  0
ENDTAB
  0
TABLE
  2
VIEW
  5
6
330
0
100
AcDbSymbolTable
 70
     0
  0
ENDTAB
  0
TABLE
  2
UCS
  5
7
330
0
100
AcDbSymbolTable
 70
     0
  0
ENDTAB
  0
TABLE
  2
APPID
  5
9
330
0
100
AcDbSymbolTable
 70
     6
  0
APPID
  5
12
330
9
100
AcDbSymbolTableRecord
100
AcDbRegAppTableRecord
  2
ACAD
 70
     0
  0
APPID
  5
B63
330
9
100
AcDbSymbolTableRecord
100
AcDbRegAppTableRecord
  2
ACAD_NAV_VCDISPLAY
 70
     0
  0
APPID
  5
CA8
330
9
100
AcDbSymbolTableRecord
100
AcDbRegAppTableRecord
  2
ACAD_SPLINE_DATA
 70
     0
  0
APPID
  5
13B1
330
9
100
AcDbSymbolTableRecord
100
AcDbRegAppTableRecord
  2
ACAD_EXEMPT_FROM_CAD_STANDARDS
 70
     0
  0
APPID
  5
15B4
330
9
100
AcDbSymbolTableRecord
100
AcDbRegAppTableRecord
  2
ACAD_DSTYLE_DIMRADIAL_EXTENSION
 70
     0
  0
APPID
  5
163D
330
9
100
AcDbSymbolTableRecord
100
AcDbRegAppTableRecord
  2
ACAD_MLEADERVER
 70
     0
  0
ENDTAB
  0
TABLE
  2
DIMSTYLE
  5
A
330
0
100
AcDbSymbolTable
 70
    31
100
AcDbDimStyleTable
 71
     2
340
BB
340
27
  0
DIMSTYLE
105
27
330
A
100
AcDbSymbolTableRecord
100
AcDbDimStyleTableRecord
  2
Standard
 70
     0
340
11
  0
DIMSTYLE
105
BB
330
A
100
AcDbSymbolTableRecord
100
AcDbDimStyleTableRecord
  2
ME10_DIM_1
 70
     0
 41
4.0
 42
2.35
 44
4.0
 73
     0
 74
     0
 77
     1
 78
     8
140
5.0
147
1.6
172
     1
173
     1
176
    54
177
    54
178
     2
271
     2
272
     2
340
A2
343
A6
344
A6
  0
ENDTAB
  0
TABLE
  2
BLOCK_RECORD
  5
1
330
0
100
AcDbSymbolTable
 70
    64
  0
BLOCK_RECORD
  5
1F
102
{ACAD_XDICTIONARY
360
1526
102
}
330
1
100
AcDbSymbolTableRecord
100
AcDbBlockTableRecord
  2
*Model_Space
340
22
  0
BLOCK_RECORD
  5
1B
330
1
100
AcDbSymbolTableRecord
100
AcDbBlockTableRecord
  2
*Paper_Space
340
1E
  0
BLOCK_RECORD
  5
23
330
1
100
AcDbSymbolTableRecord
100
AcDbBlockTableRecord
  2
*Paper_Space0
340
26
  0
BLOCK_RECORD
  5
A6
330
1
100
AcDbSymbolTableRecord
100
AcDbBlockTableRecord
  2
_Open30
340
0
  0
ENDTAB
  0
ENDSEC
  0
SECTION
  2
BLOCKS
  0
BLOCK
  5
20
330
1F
100
AcDbEntity
  8
0
100
AcDbBlockBegin
  2
*Model_Space
 70
     0
 10
0.0
 20
0.0
 30
0.0
  3
*Model_Space
  1

  0
ENDBLK
  5
21
330
1F
100
AcDbEntity
  8
0
100
AcDbBlockEnd
  0
BLOCK
  5
1C
330
1B
100
AcDbEntity
 67
     1
  8
0
100
AcDbBlockBegin
  2
*Paper_Space
 70
     0
 10
0.0
 20
0.0
 30
0.0
  3
*Paper_Space
  1

  0
ENDBLK
  5
1D
330
1B
100
AcDbEntity
 67
     1
  8
0
100
AcDbBlockEnd
  0
BLOCK
  5
24
330
23
100
AcDbEntity
 67
     1
  8
0
100
AcDbBlockBegin
  2
*Paper_Space0
 70
     0
 10
0.0
 20
0.0
 30
0.0
  3
*Paper_Space0
  1

  0
ENDBLK
  5
25
330
23
100
AcDbEntity
 67
     1
  8
0
100
AcDbBlockEnd
  0
BLOCK
  5
A7
330
A6
100
AcDbEntity
  8
0
100
AcDbBlockBegin
  2
_Open30
 70
     0
 10
0.0
 20
0.0
 30
0.0
  3
_Open30
  1

  0
LINE
  5
A9
330
A6
100
AcDbEntity
  8
0
  6
ByBlock
 62
     0
370
    -2
100
AcDbLine
 10
-1.0
 20
0.267949
 30
0.0
 11
0.0
 21
0.0
 31
0.0
  0
LINE
  5
AA
330
A6
100
AcDbEntity
  8
0
  6
ByBlock
 62
     0
370
    -2
100
AcDbLine
 10
0.0
 20
0.0
 30
0.0
 11
-1.0
 21
-0.267949
 31
0.0
  0
LINE
  5
AB
330
A6
100
AcDbEntity
  8
0
  6
ByBlock
 62
     0
370
    -2
100
AcDbLine
 10
0.0
 20
0.0
 30
0.0
 11
-1.0
 21
0.0
 31
0.0
  0
ENDBLK
  5
A8
330
A6
100
AcDbEntity
  8
0
100
AcDbBlockEnd
  0
ENDSEC
  0
SECTION
  2
ENTITIES
  0
MTEXT
  5
4EF
330
1F
100
AcDbEntity
  8
0
 62
     2
100
AcDbMText
 10
205.5000000000006
 20
-255.4997860470252
 30
0.0
 40
4.0
 41
0.0
 71
     5
 72
     1
  1
 
  7
CONVERTER_21
 73
     1
 44
1.32052821128451
1001
ACAD
1000
MTEXTBEGIN
1070
    73
1070
     1
1070
    44
1040
1.32052821128451
1070
    74
1070
     0
1000
MTEXTEND
  0
MTEXT
  5
4F8
330
1F
100
AcDbEntity
  8
0
 62
     2
100
AcDbMText
 10
131.5002
 20
-267.9996999999998
 30
0.0
 40
6.0
 41
0.0
 71
     5
 72
     1
  1
 
  7
CONVERTER_15
 73
     1
 44
1.32052821128451
1001
ACAD
1000
MTEXTBEGIN
1070
    73
1070
     1
1070
    44
1040
1.32052821128451
1070
    74
1070
     0
1000
MTEXTEND
  0
MTEXT
  5
4F9
330
1F
100
AcDbEntity
  8
0
 62
     2
100
AcDbMText
 10
170.5002
 20
-267.9996999999998
 30
0.0
 40
6.0
 41
0.0
 71
     5
 72
     1
  1
 
  7
CONVERTER_15
 73
     1
 44
1.32052821128451
1001
ACAD
1000
MTEXTBEGIN
1070
    73
1070
     1
1070
    44
1040
1.32052821128451
1070
    74
1070
     0
1000
MTEXTEND
  0
MTEXT
  5
4FA
330
1F
100
AcDbEntity
  8
0
 62
     2
100
AcDbMText
 10
92.50020000000002
 20
-267.9996999999998
 30
0.0
 40
6.0
 41
0.0
 71
     5
 72
     1
  1
 
  7
CONVERTER_15
 73
     1
 44
1.32052821128451
1001
ACAD
1000
MTEXTBEGIN
1070
    73
1070
     1
1070
    44
1040
1.32052821128451
1070
    74
1070
     0
1000
MTEXTEND
  0
MTEXT
  5
4FB
330
1F
100
AcDbEntity
  8
0
 62
     2
100
AcDbMText
 10
205.5000000000006
 20
-279.9996999999998
 30
0.0
 40
4.0
 41
0.0
 71
     5
 72
     1
  1
 
  7
CONVERTER_21
 73
     1
 44
1.32052821128451
1001
ACAD
1000
MTEXTBEGIN
1070
    73
1070
     1
1070
    44
1040
1.32052821128451
1070
    74
1070
     0
1000
MTEXTEND
  0
MTEXT
  5
4FC
330
1F
100
AcDbEntity
  8
0
 62
     2
100
AcDbMText
 10
166.5002
 20
-279.9996999999998
 30
0.0
 40
4.0
 41
0.0
 71
     5
 72
     1
  1
 
  7
CONVERTER_21
 73
     1
 44
1.32052821128451
1001
ACAD
1000
MTEXTBEGIN
1070
    73
1070
     1
1070
    44
1040
1.32052821128451
1070
    74
1070
     0
1000
MTEXTEND
  0
MTEXT
  5
4FD
330
1F
100
AcDbEntity
  8
0
 62
     2
100
AcDbMText
 10
127.5002
 20
-279.9996999999998
 30
0.0
 40
4.0
 41
0.0
 71
     5
 72
     1
  1
 
  7
CONVERTER_21
 73
     1
 44
1.32052821128451
1001
ACAD
1000
MTEXTBEGIN
1070
    73
1070
     1
1070
    44
1040
1.32052821128451
1070
    74
1070
     0
1000
MTEXTEND
  0
MTEXT
  5
4FE
330
1F
100
AcDbEntity
  8
0
 62
     2
100
AcDbMText
 10
49.50020000000002
 20
-279.9996999999998
 30
0.0
 40
4.0
 41
0.0
 71
     5
 72
     1
  1
 
  7
CONVERTER_21
 73
     1
 44
1.32052821128451
1001
ACAD
1000
MTEXTBEGIN
1070
    73
1070
     1
1070
    44
1040
1.32052821128451
1070
    74
1070
     0
1000
MTEXTEND
  0
MTEXT
  5
4FF
330
1F
100
AcDbEntity
  8
0
 62
     2
100
AcDbMText
 10
88.50020000000002
 20
-279.9996999999998
 30
0.0
 40
4.0
 41
0.0
 71
     5
 72
     1
  1
 
  7
CONVERTER_21
 73
     1
 44
1.32052821128451
1001
ACAD
1000
MTEXTBEGIN
1070
    73
1070
     1
1070
    44
1040
1.32052821128451
1070
    74
1070
     0
1000
MTEXTEND
  0
MTEXT
  5
500
330
1F
100
AcDbEntity
  8
0
 62
     2
100
AcDbMText
 10
209.5000000000006
 20
-267.9996999999998
 30
0.0
 40
6.0
 41
0.0
 71
     5
 72
     1
  1
 
  7
CONVERTER_15
 73
     1
 44
1.32052821128451
1001
ACAD
1000
MTEXTBEGIN
1070
    73
1070
     1
1070
    44
1040
1.32052821128451
1070
    74
1070
     0
1000
MTEXTEND
  0
MTEXT
  5
501
330
1F
100
AcDbEntity
  8
0
 62
     2
100
AcDbMText
 10
205.5000000000006
 20
-240.9997577209246
 30
0.0
 40
6.0
 41
0.0
 71
     5
 72
     1
  1
 
  7
CONVERTER_15
 73
     1
 44
1.32052821128451
1001
ACAD
1000
MTEXTBEGIN
1070
    73
1070
     1
1070
    44
1040
1.32052821128451
1070
    74
1070
     0
1000
MTEXTEND
  0
LINE
  5
50D
330
1F
100
AcDbEntity
  8
160
  6
DASH_CENTER
 62
    30
100
AcDbLine
 10
-19.28549330300272
 20
18.76072289353954
 30
0.0
 11
-19.28549330300272
 21
34.16072289353954
 31
0.0
  0
LINE
  5
50E
330
1F
100
AcDbEntity
  8
60
  6
Continuous
 62
     7
100
AcDbLine
 10
-16.12279330300272
 20
30.96052289353954
 30
0.0
 11
-22.44809330300273
 21
30.96052289353954
 31
0.0
  0
LINE
  5
50F
330
1F
100
AcDbEntity
  8
160
  6
DASH_CENTER
 62
    30
100
AcDbLine
 10
-26.98549330300272
 20
26.46072289353954
 30
0.0
 11
-11.58549330300272
 21
26.46072289353954
 31
0.0
  0
LINE
  5
510
330
1F
100
AcDbEntity
  8
60
  6
Continuous
 62
     7
100
AcDbLine
 10
247.2076066969972
 20
-158.451125427328
 30
0.0
 11
247.2076066969972
 21
-166.4508254273289
 31
0.0
  0
LINE
  5
511
330
1F
100
AcDbEntity
  8
60
  6
Continuous
 62
     7
100
AcDbLine
 10
225.7076066969972
 20
-153.9508254273289
 30
0.0
 11
238.7076066969972
 21
-153.9508254273289
 31
0.0
  0
LINE
  5
512
330
1F
100
AcDbEntity
  8
60
  6
Continuous
 62
     7
100
AcDbLine
 10
225.7076066969972
 20
-160.9508254273289
 30
0.0
 11
238.7076066969972
 21
-160.9508254273289
 31
0.0
  0
LINE
  5
51B
330
1F
100
AcDbEntity
  8
0
  6
Continuous
 62
     7
100
AcDbLine
 10
217.7076066969973
 20
-148.4508254273289
 30
0.0
 11
217.7076066969973
 21
-156.4508254273289
 31
0.0
  0
LINE
  5
51C
330
1F
100
AcDbEntity
  8
60
  6
Continuous
 62
     7
100
AcDbLine
 10
217.7076066969973
 20
-148.4508254273289
 30
0.0
 11
237.2078066969972
 21
-148.4508254273289
 31
0.0
  0
LINE
  5
51D
330
1F
100
AcDbEntity
  8
0
  6
Continuous
 62
     7
100
AcDbLine
 10
247.2076066969972
 20
-166.4508254273289
 30
0.0
 11
227.7076066969973
 21
-166.4508254273289
 31
0.0
  0
LINE
  5
51E
330
1F
100
AcDbEntity
  8
60
  6
Continuous
 62
     7
100
AcDbLine
 10
247.2076066969972
 20
-166.4508254273289
 30
0.0
 11
247.2076066969972
 21
-170.005725427328
 31
0.0
  0
LINE
  5
51F
330
1F
100
AcDbEntity
  8
60
  6
Continuous
 62
     7
100
AcDbLine
 10
213.689217433939
 20
-148.4508254273289
 30
0.0
 11
217.7076066969973
 21
-148.4508254273289
 31
0.0
  0
LINE
  5
520
330
1F
100
AcDbEntity
  8
160
  6
DASH_CENTER
 62
    30
100
AcDbLine
 10
232.2076066969972
 20
-151.858512028115
 30
0.0
 11
232.2076066969972
 21
-163.537202327672
 31
0.0
  0
LINE
  5
521
330
1F
100
AcDbEntity
  8
160
  6
DASH_CENTER
 62
    30
100
AcDbLine
 10
219.939784073139
 20
-157.4508254273289
 30
0.0
 11
244.6130734384
 21
-157.4508254273289
 31
0.0
  0
ARC
  5
522
330
1F
100
AcDbEntity
  8
60
  6
Continuous
 62
     7
100
AcDbCircle
 10
-19.28549330300272
 20
26.46072289353954
 30
0.0
 40
5.5
100
AcDbArc
 50
90.0
 51
180.0
  0
ARC
  5
523
330
1F
100
AcDbEntity
  8
60
  6
Continuous
 62
     7
100
AcDbCircle
 10
-19.28549330300272
 20
26.46072289353954
 30
0.0
 40
5.5
100
AcDbArc
 50
180.0
 51
0.0
  0
ARC
  5
524
330
1F
100
AcDbEntity
  8
60
  6
Continuous
 62
     7
100
AcDbCircle
 10
-19.28549330300272
 20
26.46072289353954
 30
0.0
 40
5.5
100
AcDbArc
 50
0.0
 51
90.0
  0
ARC
  5
525
330
1F
100
AcDbEntity
  8
60
  6
Continuous
 62
     7
100
AcDbCircle
 10
225.7076066969972
 20
-157.4508254273289
 30
0.0
 40
3.5
100
AcDbArc
 50
90.0
 51
270.0
  0
ARC
  5
526
330
1F
100
AcDbEntity
  8
60
  6
Continuous
 62
     7
100
AcDbCircle
 10
238.7076066969972
 20
-157.4508254273289
 30
0.0
 40
3.5
100
AcDbArc
 50
270.0
 51
90.0
  0
ARC
  5
527
330
1F
100
AcDbEntity
  8
60
  6
Continuous
 62
     7
100
AcDbCircle
 10
237.2076066959972
 20
-158.451125426328
 30
0.0
 40
10.00000000099999
100
AcDbArc
 50
359.9999999942703
 51
89.99885407868022
  0
SPLINE
  5
530
330
1F
100
AcDbEntity
  8
0
  6
Continuous
 62
    54
100
AcDbSpline
210
0.0
220
0.0
230
1.0
 70
  1064
 71
     3
 72
    43
 73
    39
 74
    37
 42
0.0000000001
 43
0.0000000001
 44
0.00000001
 40
0.0
 40
0.0
 40
0.0
 40
0.0
 40
0.8471816714305751
 40
1.689169959995542
 40
2.590104621960542
 40
3.501006629114028
 40
4.461195657762456
 40
5.401698254185887
 40
6.571337160449576
 40
7.723787593613985
 40
9.106922446661009
 40
10.52291279458823
 40
11.81595970429799
 40
13.13254938173914
 40
14.09044672965143
 40
15.05864013087218
 40
17.07332712875481
 40
18.95001536264303
 40
20.46941598695332
 40
22.09090604931144
 40
23.11567761697788
 40
24.10831466054579
 40
25.59912106645734
 40
27.12589708421694
 40
28.754487579675
 40
30.35873628300523
 40
32.28266960900596
 40
34.18751293899088
 40
35.67457756359539
 40
37.19420579361858
 40
39.75649540460162
 40
42.31767394547281
 40
43.52694652517565
 40
44.71899662987659
 40
45.84624380374292
 40
46.96399395010588
 40
48.15101560961148
 40
49.37828922711997
 40
49.37828922711997
 40
49.37828922711997
 40
49.37828922711997
 10
213.689217433939
 20
-148.4508254273289
 30
0.0
 10
213.7265156573153
 20
-148.7307288573026
 30
0.0
 10
213.8008834731517
 20
-149.288819854851
 30
0.0
 10
213.8703179733121
 20
-150.150620198673
 30
0.0
 10
213.8433881913627
 20
-151.03606663671
 30
0.0
 10
213.7687889126183
 20
-151.9572440852963
 30
0.0
 10
213.7016615438718
 20
-152.8908787691184
 30
0.0
 10
213.8104884351665
 20
-153.9270929224441
 30
0.0
 10
214.3257102194718
 20
-154.8928770458963
 30
0.0
 10
214.8868581891372
 20
-156.0215425523247
 30
0.0
 10
214.7797347786152
 20
-157.3720137094461
 30
0.0
 10
214.5763834438477
 20
-158.7289803848312
 30
0.0
 10
214.9522046474703
 20
-160.0491109846093
 30
0.0
 10
215.4623915671369
 20
-161.1190172901006
 30
0.0
 10
215.8618920915552
 20
-162.1245710891756
 30
0.0
 10
216.2753142879727
 20
-163.3742322407518
 30
0.0
 10
216.646239196958
 20
-164.936253673097
 30
0.0
 10
217.4934305186896
 20
-166.6305026408663
 30
0.0
 10
219.0446336678601
 20
-167.4171714177037
 30
0.0
 10
220.3995567089348
 20
-167.7088811870641
 30
0.0
 10
221.5981356522008
 20
-167.8940934667325
 30
0.0
 10
222.7447595818802
 20
-168.1486309543192
 30
0.0
 10
223.9509834332456
 20
-168.7468230301619
 30
0.0
 10
225.2971187871636
 20
-169.5102218855009
 30
0.0
 10
226.7923705451615
 20
-170.0686885778392
 30
0.0
 10
228.5237708159944
 20
-170.2938925963524
 30
0.0
 10
230.3070401601919
 20
-169.9282987659576
 30
0.0
 10
232.0685024466454
 20
-169.6007821353132
 30
0.0
 10
233.6990640746778
 20
-169.8972695201356
 30
0.0
 10
235.481087082208
 20
-170.4043768974343
 30
0.0
 10
237.6952860304023
 20
-170.6781756263451
 30
0.0
 10
239.8152596069098
 20
-170.5463557130067
 30
0.0
 10
241.437438438165
 20
-170.236281343956
 30
0.0
 10
242.6227545212614
 20
-170.1416370551316
 30
0.0
 10
243.7475222325669
 20
-170.3809437468349
 30
0.0
 10
244.8802386588094
 20
-170.5958047335408
 30
0.0
 10
246.0618034760984
 20
-170.4031751739569
 30
0.0
 10
246.8214505902612
 20
-170.1396730731429
 30
0.0
 10
247.2076066969972
 20
-170.005725427328
 30
0.0
 11
213.689217433939
 21
-148.4508254273289
 31
0.0
 11
213.7937960246074
 21
-149.2915275778137
 31
0.0
 11
213.853706029708
 21
-150.131381772547
 31
0.0
 11
213.8359792649625
 21
-151.0321420215333
 31
0.0
 11
213.771461731824
 21
-151.940756325999
 31
0.0
 11
213.7299656412857
 21
-152.9000482760421
 31
0.0
 11
213.853706029708
 21
-153.832375177336
 31
0.0
 11
214.3246126947893
 21
-154.9030301567001
 31
0.0
 11
214.758393306434
 21
-155.970726922325
 31
0.0
 11
214.765190604056
 21
-157.3538450729617
 31
0.0
 11
214.67614900855
 21
-158.767033050388
 31
0.0
 11
214.9818177586053
 21
-160.0234314454038
 31
0.0
 11
215.498591987392
 21
-161.234361986914
 31
0.0
 11
215.8519095401395
 21
-162.1247181160216
 31
0.0
 11
216.156546370465
 21
-163.043736540367
 31
0.0
 11
216.7404744526293
 21
-164.9719459937393
 31
0.0
 11
217.7076066969973
 21
-166.580241349387
 31
0.0
 11
219.0249105268705
 21
-167.3373997721238
 31
0.0
 11
220.597738456212
 21
-167.731661519766
 31
0.0
 11
221.6073979657948
 21
-167.9070024442614
 31
0.0
 11
222.571601605433
 21
-168.142883009187
 31
0.0
 11
223.9320201221675
 21
-168.7526085205183
 31
0.0
 11
225.285663435612
 21
-169.458791775335
 31
0.0
 11
226.8177378163818
 21
-170.0111097035544
 31
0.0
 11
228.410946755212
 21
-170.198990456292
 31
0.0
 11
230.3163351515673
 21
-169.9325049886956
 31
0.0
 11
232.2076066969972
 21
-169.705524668987
 31
0.0
 11
233.6794311046545
 21
-169.9178784142162
 31
0.0
 11
235.154979181716
 21
-170.281234754177
 31
0.0
 11
237.6975217536807
 21
-170.5987332956818
 31
0.0
 11
240.254125650537
 21
-170.445723349945
 31
0.0
 11
241.448568697779
 21
-170.2569219172166
 31
0.0
 11
242.639210289179
 21
-170.198990456292
 31
0.0
 11
243.7522124001146
 21
-170.3776311329459
 31
0.0
 11
244.859806332052
 21
-170.527967647829
 31
0.0
 11
246.0367348932375
 21
-170.3735022220592
 31
0.0
 11
247.2076066969972
 21
-170.005725427328
 31
0.0
  0
ARC
  5
531
330
1F
100
AcDbEntity
  8
0
  6
Continuous
 62
     7
100
AcDbCircle
 10
227.7076066969973
 20
-156.4508254273289
 30
0.0
 40
10.0
100
AcDbArc
 50
180.0
 51
270.0
  0
POINT
  5
619
330
1F
100
AcDbEntity
  8
115
 62
     2
100
AcDbPoint
 10
183.3801066969973
 20
84.06032289353955
 30
0.0
  0
POINT
  5
61A
330
1F
100
AcDbEntity
  8
115
 62
     2
100
AcDbPoint
 10
239.8074066969972
 20
27.63302289353955
 30
0.0
  0
POINT
  5
61B
330
1F
100
AcDbEntity
  8
115
 62
     2
100
AcDbPoint
 10
124.6075066969973
 20
27.63302289353955
 30
0.0
  0
LINE
  5
61C
330
1F
100
AcDbEntity
  8
10
  6
Continuous
 62
     7
100
AcDbLine
 10
117.2076066969973
 20
-32.33927710646046
 30
0.0
 11
247.2076066969972
 21
-32.33927710646046
 31
0.0
  0
LINE
  5
61D
330
1F
100
AcDbEntity
  8
10
  6
Continuous
 62
     7
100
AcDbLine
 10
235.3757066969973
 20
51.10052289353954
 30
0.0
 11
234.4683066969973
 21
50.68002289353954
 31
0.0
  0
LINE
  5
61E
330
1F
100
AcDbEntity
  8
10
  6
Continuous
 62
     7
100
AcDbLine
 10
206.4275066969973
 20
78.72122289353955
 30
0.0
 11
206.8480066969973
 21
79.62852289353953
 31
0.0
  0
LINE
  5
61F
330
1F
100
AcDbEntity
  8
10
  6
Continuous
 62
     7
100
AcDbLine
 10
185.3702066969973
 20
30.96052289353954
 30
0.0
 11
179.0450066969973
 21
30.96052289353954
 31
0.0
  0
LINE
  5
620
330
1F
100
AcDbEntity
  8
110
  6
DASH_CENTER
 62
    30
100
AcDbLine
 10
224.1640066969973
 20
-15.49597710646046
 30
0.0
 11
214.2065066969973
 21
-5.53827710646046
 31
0.0
  0
LINE
  5
627
330
1F
100
AcDbEntity
  8
110
  6
DASH_CENTER
 62
    30
100
AcDbLine
 10
224.1640066969973
 20
-15.49597710646046
 30
0.0
 11
214.2065066969973
 21
-5.53827710646046
 31
0.0
  0
LINE
  5
628
330
1F
100
AcDbEntity
  8
110
  6
DASH_CENTER
 62
    30
100
AcDbLine
 10
140.2510066969973
 20
-15.49567710646046
 30
0.0
 11
150.2087066969973
 21
-5.53807710646046
 31
0.0
  0
LINE
  5
62F
330
1F
100
AcDbEntity
  8
110
  6
DASH_CENTER
 62
    30
100
AcDbLine
 10
140.2510066969973
 20
-15.49567710646046
 30
0.0
 11
150.2087066969973
 21
-5.53807710646046
 31
0.0
  0
LINE
  5
630
330
1F
100
AcDbEntity
  8
110
  6
DASH_CENTER
 62
    30
100
AcDbLine
 10
140.2512066969973
 20
68.41752289353954
 30
0.0
 11
150.2090066969973
 21
58.45972289353953
 31
0.0
  0
LINE
  5
637
330
1F
100
AcDbEntity
  8
110
  6
DASH_CENTER
 62
    30
100
AcDbLine
 10
140.2512066969973
 20
68.41752289353954
 30
0.0
 11
150.2090066969973
 21
58.45972289353953
 31
0.0
  0
LINE
  5
638
330
1F
100
AcDbEntity
  8
10
  6
Continuous
 62
     7
100
AcDbLine
 10
117.5180066969973
 20
21.16922289353954
 30
0.0
 11
122.2987066969973
 21
21.67162289353954
 31
0.0
  0
LINE
  5
639
330
1F
100
AcDbEntity
  8
10
  6
Continuous
 62
     7
100
AcDbLine
 10
118.1452066969973
 20
15.20192289353954
 30
0.0
 11
123.0751066969973
 21
15.72002289353954
 31
0.0
  0
LINE
  5
640
330
1F
100
AcDbEntity
  8
10
  6
Continuous
 62
     7
100
AcDbLine
 10
114.2050066969973
 20
23.83722289353954
 30
0.0
 11
122.1343066969973
 21
24.67072289353954
 31
0.0
  0
LINE
  5
641
330
1F
100
AcDbEntity
  8
10
  6
Continuous
 62
     7
100
AcDbLine
 10
106.1906066969973
 20
-3.73067710646046
 30
0.0
 11
106.1906066969973
 21
5.25662289353954
 31
0.0
  0
LINE
  5
642
330
1F
100
AcDbEntity
  8
10
  6
Continuous
 62
     7
100
AcDbLine
 10
109.1906066969973
 20
-3.73067710646046
 30
0.0
 11
109.1906066969973
 21
5.25662289353954
 31
0.0
  0
LINE
  5
643
330
1F
100
AcDbEntity
  8
10
  6
Continuous
 62
     7
100
AcDbLine
 10
154.2575066969973
 20
71.72682289353955
 30
0.0
 11
153.0953066969973
 21
74.53252289353955
 31
0.0
  0
LINE
  5
644
330
1F
100
AcDbEntity
  8
10
  6
Continuous
 62
     7
100
AcDbLine
 10
169.9634066969973
 20
78.23242289353955
 30
0.0
 11
168.8012066969973
 21
81.03812289353953
 31
0.0
  0
LINE
  5
645
330
1F
100
AcDbEntity
  8
10
  6
Continuous
 62
     7
100
AcDbLine
 10
151.7077066969973
 20
20.76072289353954
 30
0.0
 11
140.0970066969973
 21
20.76072289353954
 31
0.0
  0
LINE
  5
646
330
1F
100
AcDbEntity
  8
10
  6
Continuous
 62
     7
100
AcDbLine
 10
154.7077066969973
 20
23.76072289353954
 30
0.0
 11
154.7077066969973
 21
29.16092289353954
 31
0.0
  0
LINE
  5
647
330
1F
100
AcDbEntity
  8
10
  6
Continuous
 62
     7
100
AcDbLine
 10
151.7077066969973
 20
32.16092289353954
 30
0.0
 11
140.0970066969973
 21
32.16092289353954
 31
0.0
  0
LINE
  5
648
330
1F
100
AcDbEntity
  8
10
  6
Continuous
 62
     7
100
AcDbLine
 10
176.5077066969973
 20
56.96072289353954
 30
0.0
 11
176.5077066969973
 21
68.57152289353954
 31
0.0
  0
LINE
  5
649
330
1F
100
AcDbEntity
  8
10
  6
Continuous
 62
     7
100
AcDbLine
 10
179.5077066969973
 20
53.96072289353954
 30
0.0
 11
184.9077066969973
 21
53.96072289353954
 31
0.0
  0
LINE
  5
64A
330
1F
100
AcDbEntity
  8
10
  6
Continuous
 62
     7
100
AcDbLine
 10
187.9077066969973
 20
56.96072289353954
 30
0.0
 11
187.9077066969973
 21
68.57152289353954
 31
0.0
  0
LINE
  5
64B
330
1F
100
AcDbEntity
  8
10
  6
Continuous
 62
     7
100
AcDbLine
 10
212.7076066969973
 20
32.16092289353954
 30
0.0
 11
224.3183066969973
 21
32.16092289353954
 31
0.0
  0
LINE
  5
64C
330
1F
100
AcDbEntity
  8
10
  6
Continuous
 62
     7
100
AcDbLine
 10
209.7076066969973
 20
29.16092289353954
 30
0.0
 11
209.7076066969973
 21
23.76072289353954
 31
0.0
  0
LINE
  5
64D
330
1F
100
AcDbEntity
  8
10
  6
Continuous
 62
     7
100
AcDbLine
 10
212.7076066969973
 20
20.76072289353954
 30
0.0
 11
224.3183066969973
 21
20.76072289353954
 31
0.0
  0
LINE
  5
64E
330
1F
100
AcDbEntity
  8
110
  6
DASH_CENTER
 62
    30
100
AcDbLine
 10
224.1646066969972
 20
68.41722289353954
 30
0.0
 11
214.2068066969973
 21
58.45952289353954
 31
0.0
  0
LINE
  5
64F
330
1F
100
AcDbEntity
  8
10
  6
Continuous
 62
     7
100
AcDbLine
 10
176.5076066969973
 20
-4.03927710646046
 30
0.0
 11
176.5076066969973
 21
-15.64987710646046
 31
0.0
  0
LINE
  5
650
330
1F
100
AcDbEntity
  8
10
  6
Continuous
 62
     7
100
AcDbLine
 10
184.9076066969973
 20
-1.03927710646046
 30
0.0
 11
179.5076066969973
 21
-1.03927710646046
 31
0.0
  0
LINE
  5
651
330
1F
100
AcDbEntity
  8
10
  6
Continuous
 62
     7
100
AcDbLine
 10
187.9076066969973
 20
-4.03927710646046
 30
0.0
 11
187.9076066969973
 21
-15.64987710646046
 31
0.0
  0
LINE
  5
652
330
1F
100
AcDbEntity
  8
10
  6
Continuous
 62
     7
100
AcDbLine
 10
233.9793066969972
 20
38.70512289353954
 30
0.0
 11
236.7851066969973
 21
39.86722289353954
 31
0.0
  0
LINE
  5
653
330
1F
100
AcDbEntity
  8
10
  6
Continuous
 62
     7
100
AcDbLine
 10
227.4737066969973
 20
54.41092289353954
 30
0.0
 11
230.2795066969973
 21
55.57322289353955
 31
0.0
  0
LINE
  5
654
330
1F
100
AcDbEntity
  8
10
  6
Continuous
 62
     7
100
AcDbLine
 10
227.4737066969973
 20
-1.489277106460459
 30
0.0
 11
230.2795066969973
 21
-2.651577106460459
 31
0.0
  0
LINE
  5
655
330
1F
100
AcDbEntity
  8
10
  6
Continuous
 62
     7
100
AcDbLine
 10
233.9794066969973
 20
14.21662289353954
 30
0.0
 11
236.7852066969972
 21
13.05442289353954
 31
0.0
  0
LINE
  5
656
330
1F
100
AcDbEntity
  8
10
  6
Continuous
 62
     7
100
AcDbLine
 10
194.4519066969973
 20
-25.31097710646046
 30
0.0
 11
195.6140066969973
 21
-28.11667710646046
 31
0.0
  0
LINE
  5
657
330
1F
100
AcDbEntity
  8
10
  6
Continuous
 62
     7
100
AcDbLine
 10
210.1578066969973
 20
-18.80537710646045
 30
0.0
 11
211.3200066969973
 21
-21.61107710646046
 31
0.0
  0
LINE
  5
658
330
1F
100
AcDbEntity
  8
10
  6
Continuous
 62
     7
100
AcDbLine
 10
154.2575066969973
 20
-18.80537710646045
 30
0.0
 11
153.0953066969973
 21
-21.61107710646046
 31
0.0
  0
LINE
  5
659
330
1F
100
AcDbEntity
  8
10
  6
Continuous
 62
     7
100
AcDbLine
 10
169.9634066969973
 20
-25.31097710646046
 30
0.0
 11
168.8012066969973
 21
-28.11667710646046
 31
0.0
  0
LINE
  5
65A
330
1F
100
AcDbEntity
  8
10
  6
Continuous
 62
     7
100
AcDbLine
 10
130.4359066969973
 20
14.21662289353954
 30
0.0
 11
127.6302066969973
 21
13.05442289353954
 31
0.0
  0
LINE
  5
65B
330
1F
100
AcDbEntity
  8
10
  6
Continuous
 62
     7
100
AcDbLine
 10
136.9415066969973
 20
-1.489277106460459
 30
0.0
 11
134.1357066969973
 21
-2.651577106460459
 31
0.0
  0
LINE
  5
65C
330
1F
100
AcDbEntity
  8
10
  6
Continuous
 62
     7
100
AcDbLine
 10
136.9415066969973
 20
54.41092289353954
 30
0.0
 11
134.1358066969973
 21
55.57322289353955
 31
0.0
  0
LINE
  5
65D
330
1F
100
AcDbEntity
  8
10
  6
Continuous
 62
     7
100
AcDbLine
 10
130.4359066969973
 20
38.70512289353954
 30
0.0
 11
127.6301066969973
 21
39.86722289353954
 31
0.0
  0
LINE
  5
65E
330
1F
100
AcDbEntity
  8
10
  6
Continuous
 62
     7
100
AcDbLine
 10
194.4519066969973
 20
78.23272289353955
 30
0.0
 11
195.6140066969973
 21
81.03832289353954
 31
0.0
  0
LINE
  5
65F
330
1F
100
AcDbEntity
  8
10
  6
Continuous
 62
     7
100
AcDbLine
 10
210.1578066969973
 20
71.72712289353954
 30
0.0
 11
211.3200066969973
 21
74.53272289353954
 31
0.0
  0
LINE
  5
660
330
1F
100
AcDbEntity
  8
10
  6
Continuous
 62
     7
100
AcDbLine
 10
117.8316066969973
 20
18.18562289353954
 30
0.0
 11
122.6123066969973
 21
18.68802289353954
 31
0.0
  0
LINE
  5
661
330
1F
100
AcDbEntity
  8
110
  6
DASH_CENTER
 62
    30
100
AcDbLine
 10
232.2076066969972
 20
-29.45677710646046
 30
0.0
 11
232.2076066969972
 21
-41.18677710646045
 31
0.0
  0
LINE
  5
662
330
1F
100
AcDbEntity
  8
10
  6
Continuous
 62
     7
100
AcDbLine
 10
247.2076066969972
 20
-32.33927710646046
 30
0.0
 11
247.2076066969972
 21
-36.53927710646046
 31
0.0
  0
LINE
  5
663
330
1F
100
AcDbEntity
  8
10
  6
Continuous
 62
     7
100
AcDbLine
 10
219.3659066969973
 20
-33.33927710646046
 30
0.0
 11
247.2076066969972
 21
-33.33927710646046
 31
0.0
  0
LINE
  5
664
330
1F
100
AcDbEntity
  8
10
  6
Continuous
 62
     7
100
AcDbLine
 10
217.7076066969973
 20
-35.53927710646046
 30
0.0
 11
217.7076066969973
 21
-36.53927710646046
 31
0.0
  0
LINE
  5
665
330
1F
100
AcDbEntity
  8
10
  6
Continuous
 62
     7
100
AcDbLine
 10
146.7076066969973
 20
-35.53927710646046
 30
0.0
 11
146.7076066969973
 21
-36.53927710646046
 31
0.0
  0
LINE
  5
666
330
1F
100
AcDbEntity
  8
110
  6
DASH_CENTER
 62
    30
100
AcDbLine
 10
132.2076066969973
 20
-29.45677710646046
 30
0.0
 11
132.2076066969973
 21
-41.18677710646045
 31
0.0
  0
LINE
  5
667
330
1F
100
AcDbEntity
  8
10
  6
Continuous
 62
     7
100
AcDbLine
 10
135.3774066969972
 20
-14.53927710646046
 30
0.0
 11
138.5916066969972
 21
-14.53927710646046
 31
0.0
  0
LINE
  5
668
330
1F
100
AcDbEntity
  8
10
  6
Continuous
 62
     7
100
AcDbLine
 10
128.8195066969973
 20
-17.95747710646046
 30
0.0
 11
119.6668066969973
 21
-31.05737710646046
 31
0.0
  0
LINE
  5
669
330
1F
100
AcDbEntity
  8
10
  6
Continuous
 62
     7
100
AcDbLine
 10
145.0493066969973
 20
-33.33927710646046
 30
0.0
 11
117.2076066969973
 21
-33.33927710646046
 31
0.0
  0
LINE
  5
66A
330
1F
100
AcDbEntity
  8
10
  6
Continuous
 62
     7
100
AcDbLine
 10
217.7076066969973
 20
-35.53927710646046
 30
0.0
 11
146.7076066969973
 21
-35.53927710646046
 31
0.0
  0
LINE
  5
66B
330
1F
100
AcDbEntity
  8
10
  6
Continuous
 62
     7
100
AcDbLine
 10
117.2076066969973
 20
-32.33927710646046
 30
0.0
 11
117.2076066969973
 21
-36.53927710646046
 31
0.0
  0
LINE
  5
66C
330
1F
100
AcDbEntity
  8
10
  6
Continuous
 62
     7
100
AcDbLine
 10
117.2076066969973
 20
-36.53927710646046
 30
0.0
 11
146.7076066969973
 21
-36.53927710646046
 31
0.0
  0
LINE
  5
66D
330
1F
100
AcDbEntity
  8
110
  6
DASH_CENTER
 62
    30
100
AcDbLine
 10
182.2076066969973
 20
-47.19597710646045
 30
0.0
 11
182.2076066969973
 21
95.58402289353955
 31
0.0
  0
LINE
  5
66E
330
1F
100
AcDbEntity
  8
110
  6
DASH_CENTER
 62
    30
100
AcDbLine
 10
250.9516066969973
 20
26.46072289353954
 30
0.0
 11
113.4693066969973
 21
26.46072289353954
 31
0.0
  0
LINE
  5
66F
330
1F
100
AcDbEntity
  8
10
  6
Continuous
 62
     7
100
AcDbLine
 10
235.5958066969973
 20
-17.95747710646046
 30
0.0
 11
244.7484066969972
 21
-31.05737710646046
 31
0.0
  0
LINE
  5
670
330
1F
100
AcDbEntity
  8
10
  6
Continuous
 62
     7
100
AcDbLine
 10
247.2076066969972
 20
-36.53927710646046
 30
0.0
 11
217.7076066969973
 21
-36.53927710646046
 31
0.0
  0
LINE
  5
671
330
1F
100
AcDbEntity
  8
10
  6
Continuous
 62
     7
100
AcDbLine
 10
229.0379066969973
 20
-14.53927710646046
 30
0.0
 11
225.8237066969972
 21
-14.53927710646046
 31
0.0
  0
LINE
  5
672
330
1F
100
AcDbEntity
  8
10
  6
Continuous
 62
     7
100
AcDbLine
 10
124.8074066969973
 20
31.25322289353954
 30
0.0
 11
124.3434066969973
 21
31.29182289353954
 31
0.0
  0
LINE
  5
673
330
1F
100
AcDbEntity
  8
10
  6
Continuous
 62
     7
100
AcDbLine
 10
126.6127066969973
 20
9.70362289353954
 30
0.0
 11
127.0583066969973
 21
9.838122893539539
 31
0.0
  0
LINE
  5
674
330
1F
100
AcDbEntity
  8
10
  6
Continuous
 62
     7
100
AcDbLine
 10
103.1906066969973
 20
-3.73047710646046
 30
0.0
 11
103.1906066969973
 21
5.256822893539539
 31
0.0
  0
LINE
  5
675
330
1F
100
AcDbEntity
  8
10
  6
Continuous
 62
     7
100
AcDbLine
 10
100.3906066969985
 20
-32.0723116987991
 30
0.0
 11
97.19060669699729
 21
-32.0723116987991
 31
0.0
  0
LINE
  5
676
330
1F
100
AcDbEntity
  8
0
  6
Continuous
 62
     7
100
AcDbLine
 10
100.3906066969985
 20
-11.21521196473199
 30
0.0
 11
100.3906066969985
 21
-32.0723116987991
 31
0.0
  0
LINE
  5
677
330
1F
100
AcDbEntity
  8
10
  6
Continuous
 62
     7
100
AcDbLine
 10
97.19060669699729
 20
-32.0723116987991
 30
0.0
 11
96.74070669699837
 21
-32.0723116987991
 31
0.0
  0
LINE
  5
678
330
1F
100
AcDbEntity
  8
0
  6
Continuous
 62
     7
100
AcDbLine
 10
97.19060669699729
 20
-32.0723116987991
 30
0.0
 11
97.19060669699729
 21
-11.21521196473199
 31
0.0
  0
LINE
  5
679
330
1F
100
AcDbEntity
  8
10
  6
Continuous
 62
     7
100
AcDbLine
 10
100.8405066969983
 20
-32.0723116987991
 30
0.0
 11
100.3906066969985
 21
-32.0723116987991
 31
0.0
  0
LINE
  5
67A
330
1F
100
AcDbEntity
  8
10
  6
Continuous
 62
     7
100
AcDbLine
 10
96.74070669699837
 20
-36.87231169879996
 30
0.0
 11
100.8405066969983
 21
-36.87231169879996
 31
0.0
  0
LINE
  5
67B
330
1F
100
AcDbEntity
  8
10
  6
Continuous
 62
     7
100
AcDbLine
 10
100.8405066969983
 20
-32.0723116987991
 30
0.0
 11
100.8405066969983
 21
-36.87231169879996
 31
0.0
  0
LINE
  5
67C
330
1F
100
AcDbEntity
  8
10
  6
Continuous
 62
     7
100
AcDbLine
 10
96.74070669699837
 20
-32.0723116987991
 30
0.0
 11
96.74070669699837
 21
-36.87231169879996
 31
0.0
  0
LINE
  5
67D
330
1F
100
AcDbEntity
  8
10
  6
Continuous
 62
     7
100
AcDbLine
 10
100.8405066969983
 20
-36.87231169879996
 30
0.0
 11
102.0202066969973
 21
-42.49461169879996
 31
0.0
  0
LINE
  5
67E
330
1F
100
AcDbEntity
  8
10
  6
Continuous
 62
     7
100
AcDbLine
 10
96.74070669699837
 20
-36.87231169879996
 30
0.0
 11
95.56100669699729
 21
-42.49461169879996
 31
0.0
  0
LINE
  5
67F
330
1F
100
AcDbEntity
  8
110
  6
DASH_CENTER
 62
    30
100
AcDbLine
 10
98.79070669699828
 20
-38.59508295037207
 30
0.0
 11
98.79070669699828
 21
-49.0396824547291
 31
0.0
  0
LINE
  5
680
330
1F
100
AcDbEntity
  8
110
  6
DASH_CENTER
 62
    30
100
AcDbLine
 10
104.4871224483693
 20
-43.17211169879997
 30
0.0
 11
100.9407066969984
 21
-43.17211169879997
 31
0.0
  0
LINE
  5
681
330
1F
100
AcDbEntity
  8
110
  6
DASH_CENTER
 62
    30
100
AcDbLine
 10
100.9407066969984
 20
-43.17211169879997
 30
0.0
 11
93.02971329510226
 21
-43.17211169879997
 31
0.0
  0
LINE
  5
682
330
1F
100
AcDbEntity
  8
10
  6
Continuous
 62
     7
100
AcDbLine
 10
97.19060669699729
 20
-8.73047710646046
 30
0.0
 11
97.19060669699729
 21
4.941222893539539
 31
0.0
  0
LINE
  5
683
330
1F
100
AcDbEntity
  8
10
  6
Continuous
 62
     7
100
AcDbLine
 10
100.1906066969973
 20
-8.73067710646046
 30
0.0
 11
100.1906066969973
 21
5.25662289353954
 31
0.0
  0
ARC
  5
684
330
1F
100
AcDbEntity
  8
10
  6
Continuous
 62
     7
100
AcDbCircle
 10
182.2076271387563
 20
26.4607024515656
 30
0.0
 40
58.6000463764677
100
AcDbArc
 50
24.86454315167264
 51
65.13485432364172
  0
ARC
  5
685
330
1F
100
AcDbEntity
  8
110
  6
DASH_CENTER
 62
    30
100
AcDbCircle
 10
182.2077792604807
 20
26.46089555683859
 30
0.0
 40
51.99995862660371
100
AcDbArc
 50
306.7017103041017
 51
323.0894645499621
  0
ARC
  5
686
330
1F
100
AcDbEntity
  8
110
  6
DASH_CENTER
 62
    30
100
AcDbCircle
 10
182.2077792604807
 20
26.46089555683859
 30
0.0
 40
51.99995862660371
100
AcDbArc
 50
306.7017103041017
 51
323.0894645499621
  0
ARC
  5
687
330
1F
100
AcDbEntity
  8
110
  6
DASH_CENTER
 62
    30
100
AcDbCircle
 10
182.2080293599643
 20
26.4607001478223
 30
0.0
 40
52.00002848777075
100
AcDbArc
 50
216.7017213881044
 51
233.0894534659594
  0
ARC
  5
688
330
1F
100
AcDbEntity
  8
110
  6
DASH_CENTER
 62
    30
100
AcDbCircle
 10
182.2080293599643
 20
26.4607001478223
 30
0.0
 40
52.00002848777075
100
AcDbArc
 50
216.7017213881044
 51
233.0894534659594
  0
ARC
  5
689
330
1F
100
AcDbEntity
  8
110
  6
DASH_CENTER
 62
    30
100
AcDbCircle
 10
182.2077339516121
 20
26.46045041280647
 30
0.0
 40
51.99995837151657
100
AcDbArc
 50
126.7017102636302
 51
143.0894645904336
  0
ARC
  5
68A
330
1F
100
AcDbEntity
  8
110
  6
DASH_CENTER
 62
    30
100
AcDbCircle
 10
182.2077339516121
 20
26.46045041280647
 30
0.0
 40
51.99995837151657
100
AcDbArc
 50
126.7017102636302
 51
143.0894645904336
  0
ARC
  5
68B
330
1F
100
AcDbEntity
  8
110
  6
Continuous
 62
    30
100
AcDbCircle
 10
97.94060669699728
 20
-7.43157710646046
 30
0.0
 40
1.500053602375594
100
AcDbArc
 50
240.0011820522606
 51
299.9988179477394
  0
ARC
  5
68C
330
1F
100
AcDbEntity
  8
110
  6
Continuous
 62
    30
100
AcDbCircle
 10
97.94060669699728
 20
-10.02947710646046
 30
0.0
 40
1.499966999636991
100
AcDbArc
 50
59.99927221917261
 51
120.0007277808274
  0
ARC
  5
68D
330
1F
100
AcDbEntity
  8
110
  6
Continuous
 62
    30
100
AcDbCircle
 10
99.44060669699728
 20
-7.43157710646046
 30
0.0
 40
1.500053602375594
100
AcDbArc
 50
240.0011820522606
 51
299.9988179477403
  0
ARC
  5
68E
330
1F
100
AcDbEntity
  8
110
  6
Continuous
 62
    30
100
AcDbCircle
 10
106.9406066969973
 20
-2.431577106460459
 30
0.0
 40
1.500053602375594
100
AcDbArc
 50
240.0011820522606
 51
299.9988179477394
  0
ARC
  5
68F
330
1F
100
AcDbEntity
  8
110
  6
Continuous
 62
    30
100
AcDbCircle
 10
106.9406066969973
 20
-5.029477106460459
 30
0.0
 40
1.499966999636991
100
AcDbArc
 50
59.99927221917261
 51
120.0007277808274
  0
ARC
  5
690
330
1F
100
AcDbEntity
  8
110
  6
Continuous
 62
    30
100
AcDbCircle
 10
108.4406066969973
 20
-2.431577106460459
 30
0.0
 40
1.500053602375594
100
AcDbArc
 50
240.0011820522606
 51
299.9988179477394
  0
ARC
  5
691
330
1F
100
AcDbEntity
  8
110
  6
Continuous
 62
    30
100
AcDbCircle
 10
103.9406066969973
 20
-2.431577106460459
 30
0.0
 40
1.500053602375594
100
AcDbArc
 50
240.0011820522606
 51
299.9988179477394
  0
ARC
  5
692
330
1F
100
AcDbEntity
  8
110
  6
Continuous
 62
    30
100
AcDbCircle
 10
103.9406066969973
 20
-5.029477106460459
 30
0.0
 40
1.499966999636991
100
AcDbArc
 50
59.99927221917261
 51
120.0007277808274
  0
ARC
  5
693
330
1F
100
AcDbEntity
  8
110
  6
Continuous
 62
    30
100
AcDbCircle
 10
105.4406066969973
 20
-2.431577106460459
 30
0.0
 40
1.500053602375594
100
AcDbArc
 50
240.0011820522606
 51
299.9988179477394
  0
ARC
  5
694
330
1F
100
AcDbEntity
  8
10
  6
Continuous
 62
     7
100
AcDbCircle
 10
182.2075742264791
 20
26.46070944388958
 30
0.0
 40
56.19993757486537
100
AcDbArc
 50
103.800737071601
 51
121.199024969298
  0
ARC
  5
695
330
1F
100
AcDbEntity
  8
10
  6
Continuous
 62
     7
100
AcDbCircle
 10
182.207681597507
 20
26.46075391836183
 30
0.0
 40
53.19998431069717
100
AcDbArc
 50
103.3062333940282
 51
121.6937866010676
  0
ARC
  5
696
330
1F
100
AcDbEntity
  8
10
  6
Continuous
 62
     7
100
AcDbCircle
 10
168.2076848200237
 20
-12.07493732359699
 30
0.0
 40
3.999970303126668
100
AcDbArc
 50
250.0334143216984
 51
70.03427151509725
  0
ARC
  5
697
330
1F
100
AcDbEntity
  8
10
  6
Continuous
 62
     7
100
AcDbCircle
 10
168.2076950439889
 20
1.064001754527799
 30
0.0
 40
3.999995388049541
100
AcDbArc
 50
241.1333551527563
 51
61.1346095751232
  0
ARC
  5
698
330
1F
100
AcDbEntity
  8
10
  6
Continuous
 62
     7
100
AcDbCircle
 10
156.8108066969972
 20
12.46072289353954
 30
0.0
 40
3.999971249896767
100
AcDbArc
 50
28.86539042109115
 51
208.8653904210925
  0
ARC
  5
699
330
1F
100
AcDbEntity
  8
10
  6
Continuous
 62
     7
100
AcDbCircle
 10
143.6719625272928
 20
12.46070684603407
 30
0.0
 40
3.999987376578953
100
AcDbArc
 50
19.96707479855885
 51
199.9665856685643
  0
ARC
  5
69A
330
1F
100
AcDbEntity
  8
10
  6
Continuous
 62
     7
100
AcDbCircle
 10
182.2076566969973
 20
26.46067289353954
 30
0.0
 40
44.99997243093601
100
AcDbArc
 50
199.9660660935816
 51
250.0339339064184
  0
ARC
  5
69B
330
1F
100
AcDbEntity
  8
10
  6
Continuous
 62
     7
100
AcDbCircle
 10
182.2076566969973
 20
26.46067289353955
 30
0.0
 40
25.0000044384996
100
AcDbArc
 50
208.8656811992112
 51
241.1343188007888
  0
ARC
  5
69C
330
1F
100
AcDbEntity
  8
10
  6
Continuous
 62
     7
100
AcDbCircle
 10
182.2076566969974
 20
26.46067289353947
 30
0.0
 40
32.99999521401483
100
AcDbArc
 50
208.8657627595769
 51
241.1342372404226
  0
ARC
  5
69D
330
1F
100
AcDbEntity
  8
10
  6
Continuous
 62
     7
100
AcDbCircle
 10
182.2075781670381
 20
26.46075142336981
 30
0.0
 40
36.99998483017765
100
AcDbArc
 50
199.9662022418576
 51
250.034056523877
  0
ARC
  5
69E
330
1F
100
AcDbEntity
  8
10
  6
Continuous
 62
     7
100
AcDbCircle
 10
143.6719066969973
 20
40.46072289353953
 30
0.0
 40
4.000034371102334
100
AcDbArc
 50
160.0334143285629
 51
340.0334143285624
  0
ARC
  5
69F
330
1F
100
AcDbEntity
  8
10
  6
Continuous
 62
     7
100
AcDbCircle
 10
156.8107066969973
 20
40.46072289353953
 30
0.0
 40
4.000019526202353
100
AcDbArc
 50
151.1333551565428
 51
331.1333551565426
  0
ARC
  5
6A0
330
1F
100
AcDbEntity
  8
10
  6
Continuous
 62
     7
100
AcDbCircle
 10
168.2076183500057
 20
51.85770175452785
 30
0.0
 40
3.999995388049533
100
AcDbArc
 50
298.8666448472423
 51
118.8653904248781
  0
ARC
  5
6A1
330
1F
100
AcDbEntity
  8
10
  6
Continuous
 62
     7
100
AcDbCircle
 10
168.2076125267788
 20
64.99660684664815
 30
0.0
 40
4.000017298051163
100
AcDbArc
 50
289.9665856743106
 51
109.9652393783748
  0
ARC
  5
6A2
330
1F
100
AcDbEntity
  8
10
  6
Continuous
 62
     7
100
AcDbCircle
 10
182.2076852265838
 20
26.46080142341768
 30
0.0
 40
44.99995535767413
100
AcDbArc
 50
109.9661126391014
 51
160.03410012343
  0
ARC
  5
6A3
330
1F
100
AcDbEntity
  8
10
  6
Continuous
 62
     7
100
AcDbCircle
 10
182.2076066969973
 20
26.46072289353954
 30
0.0
 40
24.99993651291938
100
AcDbArc
 50
118.8656361650805
 51
151.1343638349195
  0
ARC
  5
6A4
330
1F
100
AcDbEntity
  8
10
  6
Continuous
 62
     7
100
AcDbCircle
 10
182.2074952763185
 20
26.46061147371988
 30
0.0
 40
32.99997107574752
100
AcDbArc
 50
118.8654658358334
 51
151.1340923687919
  0
ARC
  5
6A5
330
1F
100
AcDbEntity
  8
10
  6
Continuous
 62
     7
100
AcDbCircle
 10
182.2076066969973
 20
26.46072289353954
 30
0.0
 40
36.99996775701297
100
AcDbArc
 50
109.9660000859925
 51
160.0339999140074
  0
ARC
  5
6A6
330
1F
100
AcDbEntity
  8
10
  6
Continuous
 62
     7
100
AcDbCircle
 10
182.2076066969973
 20
26.46072289353954
 30
0.0
 40
45.00003649887399
100
AcDbArc
 50
19.96610419088181
 51
70.03389580911823
  0
ARC
  5
6A7
330
1F
100
AcDbEntity
  8
10
  6
Continuous
 62
     7
100
AcDbCircle
 10
220.7433066969973
 20
40.46072289353953
 30
0.0
 40
4.000034371102333
100
AcDbArc
 50
199.9665856714369
 51
19.96658567143771
  0
ARC
  5
6A8
330
1F
100
AcDbEntity
  8
10
  6
Continuous
 62
     7
100
AcDbCircle
 10
182.2076066969973
 20
26.46072289353954
 30
0.0
 40
37.00000190337834
100
AcDbArc
 50
19.96614563204025
 51
70.0338543679597
  0
ARC
  5
6A9
330
1F
100
AcDbEntity
  8
10
  6
Continuous
 62
     7
100
AcDbCircle
 10
196.2076066969973
 20
64.99662289353953
 30
0.0
 40
4.000034371102337
100
AcDbArc
 50
70.03341432856275
 51
250.033414328563
  0
ARC
  5
6AA
330
1F
100
AcDbEntity
  8
10
  6
Continuous
 62
     7
100
AcDbCircle
 10
196.2075950439889
 20
51.85770175452784
 30
0.0
 40
3.999995388049513
100
AcDbArc
 50
61.13460957512307
 51
241.1333551527579
  0
ARC
  5
6AB
330
1F
100
AcDbEntity
  8
10
  6
Continuous
 62
     7
100
AcDbCircle
 10
182.2076066969973
 20
26.46072289353954
 30
0.0
 40
25.00007236409527
100
AcDbArc
 50
28.86572623309719
 51
61.13427376690302
  0
ARC
  5
6AC
330
1F
100
AcDbEntity
  8
10
  6
Continuous
 62
     7
100
AcDbCircle
 10
220.7433066969973
 20
12.46072289353954
 30
0.0
 40
4.000034371102228
100
AcDbArc
 50
340.0334143285623
 51
160.0334143285629
  0
ARC
  5
6AD
330
1F
100
AcDbEntity
  8
10
  6
Continuous
 62
     7
100
AcDbCircle
 10
207.6044683492878
 20
12.4607440320979
 30
0.0
 40
4.000015037857068
100
AcDbArc
 50
331.1346095826938
 51
151.1353010659321
  0
ARC
  5
6AE
330
1F
100
AcDbEntity
  8
10
  6
Continuous
 62
     7
100
AcDbCircle
 10
196.2076227445028
 20
-12.07492127616488
 30
0.0
 40
3.999987376579011
100
AcDbArc
 50
109.9670747985585
 51
289.9665856685641
  0
ARC
  5
6AF
330
1F
100
AcDbEntity
  8
10
  6
Continuous
 62
     7
100
AcDbCircle
 10
182.2076681176762
 20
26.46066147333428
 30
0.0
 40
33.00003900160506
100
AcDbArc
 50
28.86594174796709
 51
61.13450004740808
  0
ARC
  5
6B0
330
1F
100
AcDbEntity
  8
10
  6
Continuous
 62
     7
100
AcDbCircle
 10
207.6044683492878
 20
40.46070175498117
 30
0.0
 40
4.000015037857051
100
AcDbArc
 50
208.8646989340678
 51
28.86539041730624
  0
ARC
  5
6B1
330
1F
100
AcDbEntity
  8
10
  6
Continuous
 62
     7
100
AcDbCircle
 10
196.2075950439889
 20
1.064044032551249
 30
0.0
 40
3.999995388049508
100
AcDbArc
 50
118.8666448472421
 51
298.8653904248769
  0
ARC
  5
6B2
330
1F
100
AcDbEntity
  8
10
  6
Continuous
 62
     7
100
AcDbCircle
 10
182.2076066969973
 20
26.46072289353954
 30
0.0
 40
45.0000364988741
100
AcDbArc
 50
289.9661041908818
 51
340.0338958091182
  0
ARC
  5
6B3
330
1F
100
AcDbEntity
  8
10
  6
Continuous
 62
     7
100
AcDbCircle
 10
182.2076066969973
 20
26.46072289353954
 30
0.0
 40
37.00000190337834
100
AcDbArc
 50
289.9661456320402
 51
340.0338543679597
  0
ARC
  5
6B4
330
1F
100
AcDbEntity
  8
10
  6
Continuous
 62
     7
100
AcDbCircle
 10
182.2076681176762
 20
26.4607843137448
 30
0.0
 40
33.00003900160508
100
AcDbArc
 50
298.8654999525919
 51
331.1340582520329
  0
ARC
  5
6B5
330
1F
100
AcDbEntity
  8
10
  6
Continuous
 62
     7
100
AcDbCircle
 10
182.2076681172153
 20
26.4607843131324
 30
0.0
 40
25.0000482261026
100
AcDbArc
 50
298.8653342959954
 51
331.1340825378867
  0
ARC
  5
6B6
330
1F
100
AcDbEntity
  8
10
  6
Continuous
 62
     7
100
AcDbCircle
 10
140.0969785692939
 20
17.76098836003412
 30
0.0
 40
3.000034533637283
100
AcDbArc
 50
89.99946280661992
 51
191.6745797303478
  0
ARC
  5
6B7
330
1F
100
AcDbEntity
  8
10
  6
Continuous
 62
     7
100
AcDbCircle
 10
151.7077066969973
 20
23.76072289353954
 30
0.0
 40
3.0
100
AcDbArc
 50
270.0
 51
0.0
  0
ARC
  5
6B8
330
1F
100
AcDbEntity
  8
10
  6
Continuous
 62
     7
100
AcDbCircle
 10
151.7077066969973
 20
29.16092289353954
 30
0.0
 40
3.0
100
AcDbArc
 50
0.0
 51
90.0
  0
ARC
  5
6B9
330
1F
100
AcDbEntity
  8
10
  6
Continuous
 62
     7
100
AcDbCircle
 10
140.0969868092248
 20
35.16094730987565
 30
0.0
 40
3.000024416402052
100
AcDbArc
 50
168.3271332232289
 51
270.0003798253849
  0
ARC
  5
6BA
330
1F
100
AcDbEntity
  8
10
  6
Continuous
 62
     7
100
AcDbCircle
 10
173.5077721634918
 20
68.57155102124294
 30
0.0
 40
3.000034533637272
100
AcDbArc
 50
359.9994628066196
 51
101.6745797303482
  0
ARC
  5
6BB
330
1F
100
AcDbEntity
  8
10
  6
Continuous
 62
     7
100
AcDbCircle
 10
179.5077066978306
 20
56.96072289270619
 30
0.0
 40
3.000000000833325
100
AcDbArc
 50
179.9999999840842
 51
269.9980901247677
  0
ARC
  5
6BC
330
1F
100
AcDbEntity
  8
10
  6
Continuous
 62
     7
100
AcDbCircle
 10
184.9077066969973
 20
56.96072289353954
 30
0.0
 40
3.0
100
AcDbArc
 50
270.0
 51
0.0
  0
ARC
  5
6BD
330
1F
100
AcDbEntity
  8
10
  6
Continuous
 62
     7
100
AcDbCircle
 10
190.9077209977171
 20
68.57153454218938
 30
0.0
 40
3.000014300742537
100
AcDbArc
 50
78.32884621428636
 51
180.0002224717639
  0
ARC
  5
6BE
330
1F
100
AcDbEntity
  8
10
  6
Continuous
 62
     7
100
AcDbCircle
 10
224.3182867014391
 20
35.16069834403872
 30
0.0
 40
2.999975450565808
100
AcDbArc
 50
270.0003818901564
 51
11.67401492061684
  0
ARC
  5
6BF
330
1F
100
AcDbEntity
  8
10
  6
Continuous
 62
     7
100
AcDbCircle
 10
212.7076066969973
 20
29.16092289353954
 30
0.0
 40
3.000000000000003
100
AcDbArc
 50
90.0
 51
180.0
  0
ARC
  5
6C0
330
1F
100
AcDbEntity
  8
10
  6
Continuous
 62
     7
100
AcDbCircle
 10
212.7076066969973
 20
23.76072289353954
 30
0.0
 40
3.0
100
AcDbArc
 50
180.0
 51
270.0
  0
ARC
  5
6C1
330
1F
100
AcDbEntity
  8
10
  6
Continuous
 62
     7
100
AcDbCircle
 10
224.3182784610437
 20
17.76075755920586
 30
0.0
 40
2.999965334466557
100
AcDbArc
 50
348.3276980891704
 51
89.99946072677785
  0
ARC
  5
6C2
330
1F
100
AcDbEntity
  8
110
  6
DASH_CENTER
 62
    30
100
AcDbCircle
 10
182.2075840340304
 20
26.46074563925678
 30
0.0
 40
52.00002848777074
100
AcDbArc
 50
36.70172138810444
 51
53.08945346595947
  0
ARC
  5
6C3
330
1F
100
AcDbEntity
  8
10
  6
Continuous
 62
     7
100
AcDbCircle
 10
179.5076066969973
 20
-4.03927710646046
 30
0.0
 40
3.000000000000001
100
AcDbArc
 50
90.0
 51
180.0
  0
ARC
  5
6C4
330
1F
100
AcDbEntity
  8
10
  6
Continuous
 62
     7
100
AcDbCircle
 10
190.9074922652152
 20
-15.64986535210577
 30
0.0
 40
2.999985568240879
100
AcDbArc
 50
180.0002244927181
 51
281.6757278929212
  0
ARC
  5
6C5
330
1F
100
AcDbEntity
  8
10
  6
Continuous
 62
     7
100
AcDbCircle
 10
173.5075822806612
 20
-15.64989699423297
 30
0.0
 40
3.000024416402037
100
AcDbArc
 50
258.3271332232284
 51
0.00037982538499
  0
ARC
  5
6C6
330
1F
100
AcDbEntity
  8
10
  6
Continuous
 62
     7
100
AcDbCircle
 10
184.9076066969973
 20
-4.03927710646046
 30
0.0
 40
3.0
100
AcDbArc
 50
0.0
 51
90.0
  0
ARC
  5
6C7
330
1F
100
AcDbEntity
  8
10
  6
Continuous
 62
     7
100
AcDbCircle
 10
182.2076380707381
 20
26.46064715066642
 30
0.0
 40
56.20004082737192
100
AcDbArc
 50
13.80092979770906
 51
31.19909019738671
  0
ARC
  5
6C8
330
1F
100
AcDbEntity
  8
10
  6
Continuous
 62
     7
100
AcDbCircle
 10
182.2076377218196
 20
26.46064799302977
 30
0.0
 40
53.19998431069718
100
AcDbArc
 50
13.30623339402823
 51
31.69378660106767
  0
ARC
  5
6C9
330
1F
100
AcDbEntity
  8
10
  6
Continuous
 62
     7
100
AcDbCircle
 10
182.2077109306736
 20
26.46097453190257
 30
0.0
 40
56.20003588625015
100
AcDbArc
 50
328.8005779183695
 51
346.1987793283398
  0
ARC
  5
6CA
330
1F
100
AcDbEntity
  8
10
  6
Continuous
 62
     7
100
AcDbCircle
 10
182.2076023664682
 20
26.46071243872262
 30
0.0
 40
53.20002208744725
100
AcDbArc
 50
328.3062199839459
 51
346.6937600209582
  0
ARC
  5
6CB
330
1F
100
AcDbEntity
  8
10
  6
Continuous
 62
     7
100
AcDbCircle
 10
182.2077245230013
 20
26.46077169838174
 30
0.0
 40
56.19997540278586
100
AcDbArc
 50
283.8007429723622
 51
301.1990190685368
  0
ARC
  5
6CC
330
1F
100
AcDbEntity
  8
10
  6
Continuous
 62
     7
100
AcDbCircle
 10
182.2076171518143
 20
26.46072722406868
 30
0.0
 40
53.20002208744722
100
AcDbArc
 50
283.3062399790417
 51
301.693780016054
  0
ARC
  5
6CD
330
1F
100
AcDbEntity
  8
10
  6
Continuous
 62
     7
100
AcDbCircle
 10
182.2074888709934
 20
26.46077169838172
 30
0.0
 40
56.19997540278586
100
AcDbArc
 50
238.8009809314631
 51
256.1992570276377
  0
ARC
  5
6CE
330
1F
100
AcDbEntity
  8
10
  6
Continuous
 62
     7
100
AcDbCircle
 10
182.2075962421803
 20
26.46072722406866
 30
0.0
 40
53.20002208744721
100
AcDbArc
 50
238.306219983946
 51
256.6937600209582
  0
ARC
  5
6CF
330
1F
100
AcDbEntity
  8
10
  6
Continuous
 62
     7
100
AcDbCircle
 10
182.2075899679298
 20
26.46076328106129
 30
0.0
 40
56.199949502229
100
AcDbArc
 50
193.8009155520381
 51
211.1991044430576
  0
ARC
  5
6D0
330
1F
100
AcDbEntity
  8
10
  6
Continuous
 62
     7
100
AcDbCircle
 10
182.2075756721749
 20
26.46079779404959
 30
0.0
 40
53.19998431069725
100
AcDbArc
 50
193.3062333940284
 51
211.6937866010679
  0
ARC
  5
6D1
330
1F
100
AcDbEntity
  8
10
  6
Continuous
 62
     7
100
AcDbCircle
 10
182.2075171083783
 20
26.46050661091193
 30
0.0
 40
56.19994456131781
100
AcDbArc
 50
148.8005636726958
 51
166.198793574013
  0
ARC
  5
6D2
330
1F
100
AcDbEntity
  8
10
  6
Continuous
 62
     7
100
AcDbCircle
 10
182.2076256721997
 20
26.46076870370794
 30
0.0
 40
53.19993088635118
100
AcDbArc
 50
148.3062040863088
 51
166.6937759185955
  0
ARC
  5
6D3
330
1F
100
AcDbEntity
  8
10
  6
Continuous
 62
     7
100
AcDbCircle
 10
182.2076516648021
 20
26.46070426725568
 30
0.0
 40
56.19998733036005
100
AcDbArc
 50
58.80090145770096
 51
76.19907854720317
  0
ARC
  5
6D4
330
1F
100
AcDbEntity
  8
10
  6
Continuous
 62
     7
100
AcDbCircle
 10
182.2076171518143
 20
26.46071856301042
 30
0.0
 40
53.2000220874472
100
AcDbArc
 50
58.30621998394602
 51
76.69376002095822
  0
ARC
  5
6D5
330
1F
100
AcDbEntity
  8
10
  6
Continuous
 62
     7
100
AcDbCircle
 10
225.8236557763065
 20
-22.53929648640186
 30
0.0
 40
8.000019380103452
100
AcDbArc
 50
89.99963530830001
 51
131.6730834857862
  0
ARC
  5
6D6
330
1F
100
AcDbEntity
  8
10
  6
Continuous
 62
     7
100
AcDbCircle
 10
194.8439649677689
 20
-27.88954008791339
 30
0.0
 40
3.000064989335101
100
AcDbArc
 50
283.0877073053516
 51
321.7666582095753
  0
ARC
  5
6D7
330
1F
100
AcDbEntity
  8
10
  6
Continuous
 62
     7
100
AcDbCircle
 10
204.0692028991948
 20
-32.19767539070138
 30
0.0
 40
4.999993490994024
100
AcDbArc
 50
20.93570647043801
 51
110.4395956116899
  0
ARC
  5
6D8
330
1F
100
AcDbEntity
  8
10
  6
Continuous
 62
     7
100
AcDbCircle
 10
152.8742536860851
 20
-29.33924477421152
 30
0.0
 40
3.00003233261693
100
AcDbArc
 50
269.999102584198
 51
339.0630581758236
  0
ARC
  5
6D9
330
1F
100
AcDbEntity
  8
10
  6
Continuous
 62
     7
100
AcDbCircle
 10
160.3460498490283
 20
-32.19770278816843
 30
0.0
 40
4.999946638826141
100
AcDbArc
 50
69.55946264418564
 51
159.0637519790301
  0
ARC
  5
6DA
330
1F
100
AcDbEntity
  8
10
  6
Continuous
 62
     7
100
AcDbCircle
 10
148.3660645815862
 20
-35.33925964997918
 30
0.0
 40
2.99998254767334
100
AcDbArc
 50
90.00301539107354
 51
123.5608653235593
  0
ARC
  5
6DB
330
1F
100
AcDbEntity
  8
10
  6
Continuous
 62
     7
100
AcDbCircle
 10
145.0492953347228
 20
-30.33928053234074
 30
0.0
 40
2.999996574141233
100
AcDbArc
 50
270.0002170037067
 51
303.5573294902923
  0
ARC
  5
6DC
330
1F
100
AcDbEntity
  8
10
  6
Continuous
 62
     7
100
AcDbCircle
 10
164.8582686378616
 20
-31.60281920408064
 30
0.0
 40
3.000003364063298
100
AcDbArc
 50
38.23196117760847
 51
73.36468234953979
  0
ARC
  5
6DD
330
1F
100
AcDbEntity
  8
10
  6
Continuous
 62
     7
100
AcDbCircle
 10
138.5916576176881
 20
-22.53929648640193
 30
0.0
 40
8.00001938010353
100
AcDbArc
 50
48.32691651421399
 51
90.00036469170138
  0
ARC
  5
6DE
330
1F
100
AcDbEntity
  8
10
  6
Continuous
 62
     7
100
AcDbCircle
 10
135.3774150896093
 20
-22.53927273207422
 30
0.0
 40
7.999995625618165
100
AcDbArc
 50
90.00006010768961
 51
145.0586749120043
  0
ARC
  5
6DF
330
1F
100
AcDbEntity
  8
10
  6
Continuous
 62
     7
100
AcDbCircle
 10
117.2076654890053
 20
-29.33924646375895
 30
0.0
 40
3.000030643277587
100
AcDbArc
 50
269.998877166827
 51
325.0586447866816
  0
ARC
  5
6E0
330
1F
100
AcDbEntity
  8
10
  6
Continuous
 62
     7
100
AcDbCircle
 10
169.5713196722531
 20
-27.88958534944583
 30
0.0
 40
3.000014392426084
100
AcDbArc
 50
218.2330026402153
 51
256.9126318448582
  0
ARC
  5
6E1
330
1F
100
AcDbEntity
  8
10
  6
Continuous
 62
     7
100
AcDbCircle
 10
182.2076566969973
 20
26.46072289353954
 30
0.0
 40
58.79995184251854
100
AcDbArc
 50
256.9114408963237
 51
283.0885591036763
  0
ARC
  5
6E2
330
1F
100
AcDbEntity
  8
10
  6
Continuous
 62
     7
100
AcDbCircle
 10
211.5410275747091
 20
-29.33929147250789
 30
0.0
 40
2.999985634025218
100
AcDbArc
 50
200.9363281352891
 51
269.9996012631673
  0
ARC
  5
6E3
330
1F
100
AcDbEntity
  8
10
  6
Continuous
 62
     7
100
AcDbCircle
 10
216.049157138633
 20
-35.33923200084111
 30
0.0
 40
2.999954904760693
100
AcDbArc
 50
56.43897526131262
 51
89.99523371467587
  0
ARC
  5
6E4
330
1F
100
AcDbEntity
  8
10
  6
Continuous
 62
     7
100
AcDbCircle
 10
219.3659263939909
 20
-30.33925289547205
 30
0.0
 40
3.000024212063173
100
AcDbArc
 50
236.4428296238499
 51
270.0015336620715
  0
ARC
  5
6E5
330
1F
100
AcDbEntity
  8
10
  6
Continuous
 62
     7
100
AcDbCircle
 10
229.0378983043853
 20
-22.53927273207427
 30
0.0
 40
7.999995625618196
100
AcDbArc
 50
34.94132508799592
 51
89.99993989231098
  0
ARC
  5
6E6
330
1F
100
AcDbEntity
  8
10
  6
Continuous
 62
     7
100
AcDbCircle
 10
247.2076265415407
 20
-29.33928744996072
 30
0.0
 40
2.999989656565373
100
AcDbArc
 50
214.94094722159
 51
269.9996209958306
  0
ARC
  5
6E7
330
1F
100
AcDbEntity
  8
10
  6
Continuous
 62
     7
100
AcDbCircle
 10
199.5570523864725
 20
-31.60274605189526
 30
0.0
 40
2.999964088443062
100
AcDbArc
 50
106.6376871944402
 51
141.7692264619106
  0
ARC
  5
6E8
330
1F
100
AcDbEntity
  8
10
  6
Continuous
 62
     7
100
AcDbCircle
 10
116.1905756991212
 20
4.941188467831469
 30
0.0
 40
18.9999690021551
100
AcDbArc
 50
95.99857924283506
 51
179.9998961867896
  0
ARC
  5
6E9
330
1F
100
AcDbEntity
  8
10
  6
Continuous
 62
     7
100
AcDbCircle
 10
182.207616463744
 20
26.46062997302671
 30
0.0
 40
60.09996202196196
100
AcDbArc
 50
177.1999774637376
 51
194.8005193844388
  0
ARC
  5
6EA
330
1F
100
AcDbEntity
  8
10
  6
Continuous
 62
     7
100
AcDbCircle
 10
126.0353410325715
 20
11.61840369378655
 30
0.0
 40
1.999934154779215
100
AcDbArc
 50
194.7942545730494
 51
286.7796843188482
  0
ARC
  5
6EB
330
1F
100
AcDbEntity
  8
10
  6
Continuous
 62
     7
100
AcDbCircle
 10
124.1770258403138
 20
29.29863965898016
 30
0.0
 40
2.00001584227536
100
AcDbArc
 50
85.22806242225117
 51
177.1947534632849
  0
ARC
  5
6EC
330
1F
100
AcDbEntity
  8
10
  6
Continuous
 62
     7
100
AcDbCircle
 10
119.1906033019947
 20
5.256619122965799
 30
0.0
 40
9.999996604998136
100
AcDbArc
 50
96.0006471330843
 51
179.9999783961965
  0
ARC
  5
6ED
330
1F
100
AcDbEntity
  8
10
  6
Continuous
 62
     7
100
AcDbCircle
 10
119.1906211285
 20
5.25663892154503
 30
0.0
 40
13.00001443151256
100
AcDbArc
 50
96.00063328398952
 51
180.0000706412345
  0
ARC
  5
6EE
330
1F
100
AcDbEntity
  8
10
  6
Continuous
 62
     7
100
AcDbCircle
 10
119.19061228252
 20
5.256629096980139
 30
0.0
 40
19.00000558552367
100
AcDbArc
 50
96.00080110052243
 51
180.0000187068874
  0
ARC
  5
6EF
330
1F
100
AcDbEntity
  8
10
  6
Continuous
 62
     7
100
AcDbCircle
 10
119.1906389550447
 20
5.25685871997893
 30
0.0
 40
16.00003225817611
100
AcDbArc
 50
96.00062462841174
 51
179.9997701958271
  0
ARC
  5
6F0
330
1F
100
AcDbEntity
  8
110
  6
Continuous
 62
    30
100
AcDbCircle
 10
102.4406066969973
 20
-2.431577106460459
 30
0.0
 40
1.500053602375594
100
AcDbArc
 50
240.0011820522606
 51
299.9988179477394
  0
ARC
  5
6F1
330
1F
100
AcDbEntity
  8
110
  6
Continuous
 62
    30
100
AcDbCircle
 10
100.9406066969973
 20
-5.029477106460459
 30
0.0
 40
1.499966999636991
100
AcDbArc
 50
59.99927221917261
 51
120.0007277808274
  0
ARC
  5
6F2
330
1F
100
AcDbEntity
  8
110
  6
Continuous
 62
    30
100
AcDbCircle
 10
100.9406066969973
 20
-2.431577106460459
 30
0.0
 40
1.500053602375594
100
AcDbArc
 50
240.0011820522606
 51
299.9988179477394
  0
ARC
  5
6F3
330
1F
100
AcDbEntity
  8
10
  6
Continuous
 62
     7
100
AcDbCircle
 10
182.2076066969973
 20
26.46072289353954
 30
0.0
 40
57.60000000000001
100
AcDbArc
 50
0.0
 51
0.22454700836376
  0
ARC
  5
6F4
330
1F
100
AcDbEntity
  8
10
  6
Continuous
 62
     7
100
AcDbCircle
 10
182.2076066969973
 20
26.46072289353954
 30
0.0
 40
57.59999999999998
100
AcDbArc
 50
180.0
 51
0.0
  0
ARC
  5
6F5
330
1F
100
AcDbEntity
  8
10
  6
Continuous
 62
     7
100
AcDbCircle
 10
182.2076066969973
 20
26.46072289353954
 30
0.0
 40
57.59999999999998
100
AcDbArc
 50
90.0
 51
180.0
  0
ARC
  5
6F6
330
1F
100
AcDbEntity
  8
10
  6
Continuous
 62
     7
100
AcDbCircle
 10
182.2076066969973
 20
26.46072289353954
 30
0.0
 40
57.60000000000001
100
AcDbArc
 50
0.22454700836376
 51
90.0
  0
ARC
  5
6F7
330
1F
100
AcDbEntity
  8
0
  6
Continuous
 62
    30
100
AcDbCircle
 10
99.59060669699828
 20
-12.60085261078697
 30
0.0
 40
1.600000000000005
100
AcDbArc
 50
59.99999999999082
 51
120.0000000000008
  0
ARC
  5
6F8
330
1F
100
AcDbEntity
  8
0
  6
Continuous
 62
    30
100
AcDbCircle
 10
99.59060669699828
 20
-9.8295713186761
 30
0.0
 40
1.600000000000659
100
AcDbArc
 50
240.0000000000155
 51
299.9999999999929
  0
ARC
  5
6F9
330
1F
100
AcDbEntity
  8
0
  6
Continuous
 62
    30
100
AcDbCircle
 10
97.99060669699745
 20
-12.60085261078697
 30
0.0
 40
1.600000000000324
100
AcDbArc
 50
59.999999999971
 51
120.0000000000079
  0
ARC
  5
6FA
330
1F
100
AcDbEntity
  8
10
  6
Continuous
 62
     7
100
AcDbCircle
 10
98.79075669699743
 20
-43.17211169879997
 30
0.0
 40
3.299966800211898
100
AcDbArc
 50
168.1508663061894
 51
11.84913369381063
  0
CIRCLE
  5
6FB
330
1F
100
AcDbEntity
  8
10
  6
Continuous
 62
     7
100
AcDbCircle
 10
182.2076066969973
 20
26.46072289353954
 30
0.0
 40
5.5
  0
CIRCLE
  5
705
330
1F
100
AcDbEntity
  8
10
  6
Continuous
 62
     7
100
AcDbCircle
 10
182.2076066969973
 20
26.46072289353954
 30
0.0
 40
7.400000000000005
  0
CIRCLE
  5
709
330
1F
100
AcDbEntity
  8
10
  6
Continuous
 62
     7
100
AcDbCircle
 10
182.2076066969973
 20
26.46072289353954
 30
0.0
 40
17.5
  0
CIRCLE
  5
70A
330
1F
100
AcDbEntity
  8
10
  6
Continuous
 62
     7
100
AcDbCircle
 10
182.2076066969973
 20
26.46072289353954
 30
0.0
 40
45.99999999999992
  0
CIRCLE
  5
70B
330
1F
100
AcDbEntity
  8
10
  6
Continuous
 62
     7
100
AcDbCircle
 10
182.2076066969973
 20
26.46072289353954
 30
0.0
 40
19.55000000000001
  0
CIRCLE
  5
70C
330
1F
100
AcDbEntity
  8
10
  6
Continuous
 62
     7
100
AcDbCircle
 10
182.2076066969973
 20
26.46072289353954
 30
0.0
 40
7.75
  0
CIRCLE
  5
70D
330
1F
100
AcDbEntity
  8
10
  6
Continuous
 62
     7
100
AcDbCircle
 10
182.2076066969973
 20
26.46072289353954
 30
0.0
 40
24.0
  0
CIRCLE
  5
70E
330
1F
100
AcDbEntity
  8
0
  6
Continuous
 62
     7
100
AcDbCircle
 10
98.79070669699828
 20
-43.17211169879997
 30
0.0
 40
2.150000000000104
  0
LINE
  5
F0F
330
1F
100
AcDbEntity
  8
0
  6
DASH_CENTER
 62
    30
100
AcDbLine
 10
-100.368965032429
 20
30.96070848258944
 30
0.0
 11
-130.1835619648
 21
30.96070848258944
 31
0.0
  0
LINE
  5
F1A
330
1F
100
AcDbEntity
  8
0
  6
DASH_CENTER
 62
    30
100
AcDbLine
 10
-297.5414215929279
 20
30.96070848258944
 30
0.0
 11
-267.726824660557
 21
30.96070848258944
 31
0.0
  0
ARC
  5
FD7
330
1F
100
AcDbEntity
  8
100
  6
Continuous
 62
    30
100
AcDbCircle
 10
-243.541665103962
 20
4.586754703255204
 30
0.0
 40
1.500051920130523
100
AcDbArc
 50
39.39508364984961
 51
99.39536968719652
  0
ARC
  5
FD9
330
1F
100
AcDbEntity
  8
100
  6
Continuous
 62
    30
100
AcDbCircle
 10
-234.2922929287244
 20
5.915583963060081
 30
0.0
 40
1.500165205069041
100
AcDbArc
 50
240.001437808773
 51
299.998562191227
  0
ARC
  5
FDA
330
1F
100
AcDbEntity
  8
100
  6
Continuous
 62
    30
100
AcDbCircle
 10
-241.2231613513374
 20
6.490790890728741
 30
0.0
 40
1.5000201914016
100
AcDbArc
 50
219.3900326277512
 51
279.3932704113136
  0
ARC
  5
FDE
330
1F
100
AcDbEntity
  8
100
  6
Continuous
 62
    30
100
AcDbCircle
 10
-225.8612574515463
 20
6.490878501874968
 30
0.0
 40
1.500101251502468
100
AcDbArc
 50
260.6085171996093
 51
320.6081797613314
  0
ARC
  5
FDF
330
1F
100
AcDbEntity
  8
100
  6
Continuous
 62
    30
100
AcDbCircle
 10
-242.6272737401912
 20
7.018657945293947
 30
0.0
 40
1.499989709810132
100
AcDbArc
 50
219.3893603617114
 51
279.3939426773543
  0
ARC
  5
FE0
330
1F
100
AcDbEntity
  8
100
  6
Continuous
 62
    30
100
AcDbCircle
 10
-224.4570651039619
 20
7.018813222865086
 30
0.0
 40
1.500051920130549
100
AcDbArc
 50
260.6046303128108
 51
320.6049163501504
  0
ARC
  5
FE1
330
1F
100
AcDbEntity
  8
100
  6
Continuous
 62
    30
100
AcDbCircle
 10
-235.7922929287244
 20
3.317183963059996
 30
0.0
 40
1.500078602107189
100
AcDbArc
 50
59.9995281325403
 51
120.0004718674621
  0
ARC
  5
FE2
330
1F
100
AcDbEntity
  8
100
  6
Continuous
 62
    30
100
AcDbCircle
 10
-235.7922929287244
 20
5.915483963060106
 30
0.0
 40
1.500078602107204
100
AcDbArc
 50
239.9995281325379
 51
300.0004718674597
  0
ARC
  5
FE3
330
1F
100
AcDbEntity
  8
100
  6
Continuous
 62
    30
100
AcDbCircle
 10
-224.9467284059023
 20
4.058889424245117
 30
0.0
 40
1.500101251502479
100
AcDbArc
 50
80.60851719960927
 51
140.6081797613314
  0
ARC
  5
FE4
330
1F
100
AcDbEntity
  8
100
  6
Continuous
 62
    30
100
AcDbCircle
 10
-232.7922929287244
 20
3.317183963059996
 30
0.0
 40
1.500078602107189
100
AcDbArc
 50
59.9995281325403
 51
120.0004718674621
  0
ARC
  5
FE5
330
1F
100
AcDbEntity
  8
100
  6
Continuous
 62
    30
100
AcDbCircle
 10
-231.2922929287244
 20
5.915583963060081
 30
0.0
 40
1.500165205069041
100
AcDbArc
 50
240.001437808773
 51
299.998562191227
  0
ARC
  5
FE6
330
1F
100
AcDbEntity
  8
100
  6
Continuous
 62
    30
100
AcDbCircle
 10
-232.7922929287244
 20
5.915483963060106
 30
0.0
 40
1.500078602107204
100
AcDbArc
 50
239.9995281325379
 51
300.0004718674597
  0
LINE
  5
FE7
330
1F
100
AcDbEntity
  8
0
  6
Continuous
 62
     7
100
AcDbLine
 10
-226.1060429287243
 20
5.010883963060033
 30
0.0
 11
-230.5421429287244
 21
16.80878396306006
 31
0.0
  0
LINE
  5
FE8
330
1F
100
AcDbEntity
  8
0
  6
Continuous
 62
     7
100
AcDbLine
 10
-236.5423429287246
 20
4.616283963059872
 30
0.0
 11
-236.5423429287245
 21
23.33808396305998
 31
0.0
  0
LINE
  5
FE9
330
1F
100
AcDbEntity
  8
0
  6
Continuous
 62
     7
100
AcDbLine
 10
-233.5423429287245
 20
4.616283963059898
 30
0.0
 11
-233.5423429287245
 21
23.33808396305998
 31
0.0
  0
LINE
  5
FEA
330
1F
100
AcDbEntity
  8
0
  6
Continuous
 62
     7
100
AcDbLine
 10
-223.2979429287244
 20
6.066783963060098
 30
0.0
 11
-230.6556133226162
 21
23.90990648757487
 31
0.0
  0
LINE
  5
FEB
330
1F
100
AcDbEntity
  8
0
  6
Continuous
 62
     7
100
AcDbLine
 10
-243.7865429287246
 20
6.066783963060098
 30
0.0
 11
-236.4769271500426
 21
23.77622562045546
 31
0.0
  0
LINE
  5
FEC
330
1F
100
AcDbEntity
  8
0
  6
Continuous
 62
     7
100
AcDbLine
 10
-240.9785429287243
 20
5.010883963060033
 30
0.0
 11
-236.5423429287245
 21
16.80878396306006
 31
0.0
  0
LINE
  5
FED
330
1F
100
AcDbEntity
  8
0
  6
Continuous
 62
     7
100
AcDbLine
 10
-230.5423429287245
 20
4.616326236510047
 30
0.0
 11
-230.5423429287245
 21
23.33808396305998
 31
0.0
  0
ARC
  5
103F
102
{ACAD_REACTORS
330
193F
102
}
330
1F
100
AcDbEntity
  8
0
  6
Continuous
 62
     7
100
AcDbCircle
 10
-238.0728486444813
 20
-25.83929573325929
 30
0.0
 40
2.999995784155997
100
AcDbArc
 50
270.0001020148643
 51
346.5655796904238
  0
ARC
  5
1040
102
{ACAD_REACTORS
330
193F
102
}
330
1F
100
AcDbEntity
  8
0
  6
Continuous
 62
     7
100
AcDbCircle
 10
-146.0108232448831
 20
-25.8394073492949
 30
0.0
 40
2.999984168182725
100
AcDbArc
 50
193.4322816191403
 51
269.9996169161122
  0
ARC
  5
1041
102
{ACAD_REACTORS
330
193F
102
}
330
1F
100
AcDbEntity
  8
0
  6
Continuous
 62
     7
100
AcDbCircle
 10
-207.587369041698
 20
-18.03951389382769
 30
0.0
 40
8.000022376458508
100
AcDbArc
 50
89.99981566068671
 51
172.005536645207
  0
ARC
  5
1042
102
{ACAD_REACTORS
330
193F
102
}
330
1F
100
AcDbEntity
  8
0
  6
Continuous
 62
     7
100
AcDbCircle
 10
-158.3839319407282
 20
-25.83939494329082
 30
0.0
 40
2.999996574141236
100
AcDbArc
 50
236.4426705097082
 51
269.9997829962887
  0
ARC
  5
1043
102
{ACAD_REACTORS
330
193F
102
}
330
1F
100
AcDbEntity
  8
0
  6
Continuous
 62
     7
100
AcDbCircle
 10
-221.3891465743405
 20
-22.83939436141429
 30
0.0
 40
4.999997155997321
100
AcDbArc
 50
270.0000374867873
 51
352.0054150123033
  0
ARC
  5
1044
102
{ACAD_REACTORS
330
193F
102
}
330
1F
100
AcDbEntity
  8
0
  6
Continuous
 62
     7
100
AcDbCircle
 10
-153.7919414785439
 20
-27.6979929574095
 30
0.0
 40
5.000001439999261
100
AcDbArc
 50
13.43371144768608
 51
90.00002090675218
  0
ARC
  5
1045
102
{ACAD_REACTORS
330
193F
102
}
330
1F
100
AcDbEntity
  8
0
  6
Continuous
 62
     7
100
AcDbCircle
 10
-160.8500415821295
 20
-14.69799290959867
 30
0.0
 40
7.999998607812072
100
AcDbArc
 50
192.0542274125936
 51
269.9999876751477
  0
ARC
  5
1046
102
{ACAD_REACTORS
330
193F
102
}
330
1F
100
AcDbEntity
  8
0
  6
Continuous
 62
     7
100
AcDbCircle
 10
-222.3840236060092
 20
-30.83941572839899
 30
0.0
 40
3.000024212063173
100
AcDbArc
 50
89.99846633793124
 51
123.5571703761483
  0
ARC
  5
1047
102
{ACAD_REACTORS
330
193F
102
}
330
1F
100
AcDbEntity
  8
0
  6
Continuous
 62
     7
100
AcDbCircle
 10
-223.234345023876
 20
-14.69799290959867
 30
0.0
 40
7.999998607812072
100
AcDbArc
 50
270.0000123248458
 51
347.9457725874064
  0
ARC
  5
1048
102
{ACAD_REACTORS
330
193F
102
}
330
1F
100
AcDbEntity
  8
0
  6
Continuous
 62
     7
100
AcDbCircle
 10
-230.2924129478434
 20
-27.69796755961147
 30
0.0
 40
4.999976042293072
100
AcDbArc
 50
90.00034784617049
 51
166.5641619402942
  0
ARC
  5
1049
102
{ACAD_REACTORS
330
193F
102
}
330
1F
100
AcDbEntity
  8
0
  6
Continuous
 62
     7
100
AcDbCircle
 10
-161.7003546652773
 20
-30.83938809153028
 30
0.0
 40
2.999996574141242
100
AcDbArc
 50
56.44267050970825
 51
89.99978299628876
  0
ARC
  5
104A
102
{ACAD_REACTORS
330
193F
102
}
330
1F
100
AcDbEntity
  8
0
  6
Continuous
 62
     7
100
AcDbCircle
 10
-162.695240031665
 20
-22.83939436141429
 30
0.0
 40
4.999997155997307
100
AcDbArc
 50
187.9945849876967
 51
269.9999625132062
  0
ARC
  5
104B
102
{ACAD_REACTORS
330
193F
102
}
330
1F
100
AcDbEntity
  8
0
  6
Continuous
 62
     7
100
AcDbCircle
 10
-225.7003546674701
 20
-25.83939494374539
 30
0.0
 40
2.99999657497456
100
AcDbArc
 50
269.9983071840871
 51
303.5573295299914
  0
ARC
  5
104C
102
{ACAD_REACTORS
330
193F
102
}
330
1F
100
AcDbEntity
  8
0
  6
Continuous
 62
     7
100
AcDbCircle
 10
-176.4970175643075
 20
-18.03951389382769
 30
0.0
 40
8.00002237645851
100
AcDbArc
 50
7.994463354786406
 51
90.00018433930678
  0
LINE
  5
104D
102
{ACAD_REACTORS
330
193F
102
}
330
1F
100
AcDbEntity
  8
0
  6
Continuous
 62
     7
100
AcDbLine
 10
-142.0421433030027
 20
-32.03949151741057
 30
0.0
 11
-142.0421433030027
 21
-28.83939151741055
 31
0.0
  0
LINE
  5
104E
102
{ACAD_REACTORS
330
193F
102
}
330
1F
100
AcDbEntity
  8
0
  6
Continuous
 62
     7
100
AcDbLine
 10
-142.0421433030027
 20
-28.83939151741055
 30
0.0
 11
-158.3839433030028
 21
-28.83939151741055
 31
0.0
  0
LINE
  5
104F
102
{ACAD_REACTORS
330
193F
102
}
330
1F
100
AcDbEntity
  8
0
  6
Continuous
 62
     7
100
AcDbLine
 10
-160.0421433030027
 20
-32.03949151741057
 30
0.0
 11
-142.0421433030027
 21
-32.03949151741057
 31
0.0
  0
LINE
  5
1050
102
{ACAD_REACTORS
330
193F
102
}
330
1F
100
AcDbEntity
  8
0
  6
Continuous
 62
     7
100
AcDbLine
 10
-160.0421433030027
 20
-31.03949151741057
 30
0.0
 11
-160.0421433030027
 21
-32.03949151741057
 31
0.0
  0
LINE
  5
1051
102
{ACAD_REACTORS
330
193F
102
}
330
1F
100
AcDbEntity
  8
100
  6
Continuous
 62
    30
100
AcDbLine
 10
-152.0423433030028
 20
-25.08789151741053
 30
0.0
 11
-152.0423433030028
 21
-35.08809151741059
 31
0.0
  0
LINE
  5
1054
330
1F
100
AcDbEntity
  8
100
  6
DASH_CENTER
 62
    30
100
AcDbLine
 10
-78.32576116853489
 20
30.96070848258944
 30
0.0
 11
-300.4803581788972
 21
30.96070848258944
 31
0.0
  0
LINE
  5
1064
330
1F
100
AcDbEntity
  8
100
  6
DASH_CENTER
 62
    30
100
AcDbLine
 10
-192.0422142191014
 20
-39.03068935301929
 30
0.0
 11
-192.0421142191014
 21
99.57641064698073
 31
0.0
  0
LINE
  5
107F
102
{ACAD_REACTORS
330
193F
102
}
330
1F
100
AcDbEntity
  8
100
  6
DASHED
 62
    30
100
AcDbLine
 10
-155.5423433030028
 20
-28.83939151741055
 30
0.0
 11
-155.5423433030028
 21
-32.03949151741057
 31
0.0
  0
LINE
  5
1080
102
{ACAD_REACTORS
330
193F
102
}
330
1F
100
AcDbEntity
  8
100
  6
DASHED
 62
    30
100
AcDbLine
 10
-148.5423433030028
 20
-28.83939151741055
 30
0.0
 11
-148.5423433030028
 21
-32.03949151741057
 31
0.0
  0
LINE
  5
1081
102
{ACAD_REACTORS
330
193F
102
}
330
1F
100
AcDbEntity
  8
100
  6
DASHED
 62
    30
100
AcDbLine
 10
-235.5421433030028
 20
-28.83939151741055
 30
0.0
 11
-235.5421433030028
 21
-32.03949151741057
 31
0.0
  0
LINE
  5
1082
102
{ACAD_REACTORS
330
193F
102
}
330
1F
100
AcDbEntity
  8
0
  6
Continuous
 62
     7
100
AcDbLine
 10
-160.8500433030027
 20
-22.69799151741057
 30
0.0
 11
-153.7919433030027
 21
-22.69799151741057
 31
0.0
  0
LINE
  5
1083
102
{ACAD_REACTORS
330
193F
102
}
330
1F
100
AcDbEntity
  8
100
  6
DASHED
 62
    30
100
AcDbLine
 10
-228.5421433030028
 20
-28.83939151741055
 30
0.0
 11
-228.5421433030028
 21
-32.03949151741057
 31
0.0
  0
LINE
  5
1084
102
{ACAD_REACTORS
330
193F
102
}
330
1F
100
AcDbEntity
  8
0
  6
Continuous
 62
     7
100
AcDbLine
 10
-215.5094433030027
 20
-16.92679151741055
 30
0.0
 11
-216.4377433030027
 21
-23.53489151741053
 31
0.0
  0
LINE
  5
1085
102
{ACAD_REACTORS
330
193F
102
}
330
1F
100
AcDbEntity
  8
0
  6
Continuous
 62
     7
100
AcDbLine
 10
-242.0421433030028
 20
-28.83939151741055
 30
0.0
 11
-225.7003433030027
 21
-28.83939151741055
 31
0.0
  0
LINE
  5
1086
102
{ACAD_REACTORS
330
193F
102
}
330
1F
100
AcDbEntity
  8
0
  6
Continuous
 62
     7
100
AcDbLine
 10
-224.0421433030028
 20
-32.03949151741057
 30
0.0
 11
-242.0421433030028
 21
-32.03949151741057
 31
0.0
  0
LINE
  5
1087
102
{ACAD_REACTORS
330
193F
102
}
330
1F
100
AcDbEntity
  8
0
  6
Continuous
 62
     7
100
AcDbLine
 10
-161.7003433030027
 20
-27.83939151741055
 30
0.0
 11
-222.3839433030028
 21
-27.83939151741055
 31
0.0
  0
LINE
  5
1088
102
{ACAD_REACTORS
330
193F
102
}
330
1F
100
AcDbEntity
  8
0
  6
Continuous
 62
     7
100
AcDbLine
 10
-224.0421433030028
 20
-31.03949151741057
 30
0.0
 11
-224.0421433030028
 21
-32.03949151741057
 31
0.0
  0
LINE
  5
1089
102
{ACAD_REACTORS
330
193F
102
}
330
1F
100
AcDbEntity
  8
0
  6
Continuous
 62
     7
100
AcDbLine
 10
-242.0414433030027
 20
-32.03949151741057
 30
0.0
 11
-242.0414433030027
 21
-28.83929151741052
 31
0.0
  0
LINE
  5
108A
102
{ACAD_REACTORS
330
193F
102
}
330
1F
100
AcDbEntity
  8
0
  6
Continuous
 62
     7
100
AcDbLine
 10
-224.0421433030028
 20
-31.03949151741057
 30
0.0
 11
-160.0421433030027
 21
-31.03949151741057
 31
0.0
  0
LINE
  5
108B
102
{ACAD_REACTORS
330
193F
102
}
330
1F
100
AcDbEntity
  8
0
  6
Continuous
 62
     7
100
AcDbLine
 10
-223.2343433030028
 20
-22.69799151741057
 30
0.0
 11
-230.2924433030028
 21
-22.69799151741057
 31
0.0
  0
LINE
  5
108C
102
{ACAD_REACTORS
330
193F
102
}
330
1F
100
AcDbEntity
  8
100
  6
Continuous
 62
    30
100
AcDbLine
 10
-232.0421433030028
 20
-25.08789151741053
 30
0.0
 11
-232.0421433030028
 21
-35.08809151741059
 31
0.0
  0
LINE
  5
108D
102
{ACAD_REACTORS
330
193F
102
}
330
1F
100
AcDbEntity
  8
0
  6
Continuous
 62
     7
100
AcDbLine
 10
-168.5749433030027
 20
-16.92679151741055
 30
0.0
 11
-167.6466433030028
 21
-23.53489151741053
 31
0.0
  0
LINE
  5
108E
102
{ACAD_REACTORS
330
193F
102
}
330
1F
100
AcDbEntity
  8
0
  6
Continuous
 62
     7
100
AcDbLine
 10
-207.5873433030027
 20
-10.03949151741057
 30
0.0
 11
-176.4970433030027
 21
-10.03949151741057
 31
0.0
  0
LINE
  5
108F
330
1F
100
AcDbEntity
  8
0
  6
Continuous
 62
     7
100
AcDbLine
 10
-130.0423933030027
 20
-26.63959151741057
 30
0.0
 11
-148.9021223138907
 21
-26.63959151741056
 31
0.0
  0
LINE
  5
1090
330
1F
100
AcDbEntity
  8
0
  6
Continuous
 62
     7
100
AcDbLine
 10
-235.1815567611993
 20
-26.63954941217677
 30
0.0
 11
-284.0423933030259
 21
-26.63940932910157
 31
0.0
  0
POINT
  5
1091
102
{ACAD_REACTORS
330
193F
102
}
330
1F
100
AcDbEntity
  8
105
 62
     2
100
AcDbPoint
 10
-242.0421433030028
 20
-33.21199151741053
 30
0.0
  0
LINE
  5
1093
330
1F
100
AcDbEntity
  8
0
  6
DASH_CENTER
 62
    30
100
AcDbLine
 10
-112.369165032429
 20
30.96050848258938
 30
0.0
 11
-142.1837619648
 21
30.96050848258938
 31
0.0
  0
LINE
  5
10E0
330
1F
100
AcDbEntity
  8
0
  6
Continuous
 62
     7
100
AcDbLine
 10
-130.0423933031572
 20
-26.63959151741057
 30
0.0
 11
-130.042310262182
 21
88.56108304111343
 31
0.0
  0
LINE
  5
10E9
330
1F
100
AcDbEntity
  8
0
  6
Continuous
 62
     7
100
AcDbLine
 10
-119.1423933030027
 20
11.41062289353954
 30
0.0
 11
-127.7423933030027
 21
11.41062289353954
 31
0.0
  0
LINE
  5
10EE
330
1F
100
AcDbEntity
  8
0
  6
Continuous
 62
     7
100
AcDbLine
 10
-127.7422273656982
 20
88.46096537607866
 30
0.0
 11
-127.7423933030027
 21
-26.53947710646048
 31
0.0
  0
LINE
  5
10F1
330
1F
100
AcDbEntity
  8
0
  6
Continuous
 62
     7
100
AcDbLine
 10
-127.7423933030027
 20
-26.53947710646048
 30
0.0
 11
-130.0423933030027
 21
-26.53947710646048
 31
0.0
  0
LINE
  5
10F6
330
1F
100
AcDbEntity
  8
0
  6
Continuous
 62
     7
100
AcDbLine
 10
-117.6423933030027
 20
13.46052289353952
 30
0.0
 11
-117.5571933030027
 21
13.46052289353952
 31
0.0
  0
LINE
  5
10F7
330
1F
100
AcDbEntity
  8
0
  6
Continuous
 62
     7
100
AcDbLine
 10
-117.6423933030027
 20
12.91062289353954
 30
0.0
 11
-117.6423933030027
 21
30.96052289353952
 31
0.0
  0
LINE
  5
1103
330
1F
100
AcDbEntity
  8
0
  6
Continuous
 62
     7
100
AcDbLine
 10
-107.0421933030027
 20
35.46072289353953
 30
0.0
 11
-89.04219330300271
 21
35.46072289353953
 31
0.0
  0
LINE
  5
1109
330
1F
100
AcDbEntity
  8
0
  6
Continuous
 62
     7
100
AcDbLine
 10
-90.04219330300271
 20
25.46072289353953
 30
0.0
 11
-89.04219330300271
 21
26.46072289353952
 31
0.0
  0
LINE
  5
110B
330
1F
100
AcDbEntity
  8
0
  6
Continuous
 62
     7
100
AcDbLine
 10
-90.04219330300271
 20
25.46072289353953
 30
0.0
 11
-90.04219330300271
 21
35.46072289353953
 31
0.0
  0
LINE
  5
110D
330
1F
100
AcDbEntity
  8
0
  6
Continuous
 62
     7
100
AcDbLine
 10
-109.9817698487493
 20
36.46072289353952
 30
0.0
 11
-107.0421933030027
 21
36.46072289353952
 31
0.0
  0
LINE
  5
1111
330
1F
100
AcDbEntity
  8
0
  6
Continuous
 62
     7
100
AcDbLine
 10
-90.04219330300271
 20
25.46072289353953
 30
0.0
 11
-109.9807088336024
 21
25.46072289353953
 31
0.0
  0
LINE
  5
1112
330
1F
100
AcDbEntity
  8
0
  6
Continuous
 62
     7
100
AcDbLine
 10
-115.5664909135471
 20
23.56082289353953
 30
0.0
 11
-112.0421933030027
 21
23.56082289353953
 31
0.0
  0
LINE
  5
113A
330
1F
100
AcDbEntity
  8
0
  6
Continuous
 62
     7
100
AcDbLine
 10
-89.04219330300271
 20
26.46072289353952
 30
0.0
 11
-89.04219330300271
 21
35.46072289353953
 31
0.0
  0
LINE
  5
113C
330
1F
100
AcDbEntity
  8
0
  6
Continuous
 62
     7
100
AcDbLine
 10
-107.0421933030027
 20
36.46072289353952
 30
0.0
 11
-107.0421933030027
 21
35.46072289353953
 31
0.0
  0
LINE
  5
113F
330
1F
100
AcDbEntity
  8
0
  6
Continuous
 62
     7
100
AcDbLine
 10
-112.0421933030027
 20
23.56082289353953
 30
0.0
 11
-112.0421933030027
 21
38.36059407163936
 31
0.0
  0
ARC
  5
1141
330
1F
100
AcDbEntity
  8
0
  6
Continuous
 62
     7
100
AcDbCircle
 10
-237.6423543611834
 20
30.96109578035589
 30
0.0
 40
122.2999610600318
100
AcDbArc
 50
352.2229502951369
 51
359.9996847621699
  0
ARC
  5
114D
330
1F
100
AcDbEntity
  8
0
  6
Continuous
 62
     7
100
AcDbCircle
 10
-117.5571871963937
 20
14.56052822302524
 30
0.0
 40
1.100005329502682
100
AcDbArc
 50
269.9996819261532
 51
352.2253670527893
  0
ARC
  5
114E
330
1F
100
AcDbEntity
  8
0
  6
Continuous
 62
     7
100
AcDbCircle
 10
-119.1423933030027
 20
12.91062289353954
 30
0.0
 40
1.5
100
AcDbArc
 50
270.0
 51
0.0
  0
LINE
  5
1390
330
1F
100
AcDbEntity
  8
0
  6
Continuous
 62
     7
100
AcDbLine
 10
-119.1423650936036
 20
50.51085296706111
 30
0.0
 11
-127.7423650935946
 21
50.51086537623786
 31
0.0
  0
LINE
  5
1391
330
1F
100
AcDbEntity
  8
0
  6
Continuous
 62
     7
100
AcDbLine
 10
-127.7423103343506
 20
88.46096537619837
 30
0.0
 11
-130.0423103343482
 21
88.4609686949317
 31
0.0
  0
LINE
  5
1392
330
1F
100
AcDbEntity
  8
0
  6
Continuous
 62
     7
100
AcDbLine
 10
-117.6423680514622
 20
48.46095080267201
 30
0.0
 11
-117.5571680514623
 21
48.46095067973459
 31
0.0
  0
LINE
  5
1393
330
1F
100
AcDbEntity
  8
0
  6
Continuous
 62
     7
100
AcDbLine
 10
-117.6423672579964
 20
49.01085080267143
 30
0.0
 11
-117.642393302694
 21
30.96095080269021
 31
0.0
  0
ARC
  5
13A8
330
1F
100
AcDbEntity
  8
0
  6
Continuous
 62
     7
100
AcDbCircle
 10
-237.6423543615763
 20
30.960551067121
 30
0.0
 40
122.2999610600318
100
AcDbArc
 50
0.000232564171066
 51
7.776967031208239
  0
ARC
  5
13A9
330
1F
100
AcDbEntity
  8
0
  6
Continuous
 62
     7
100
AcDbCircle
 10
-117.5571635320813
 20
47.36094535024119
 30
0.0
 40
1.100005329502682
100
AcDbArc
 50
7.774550273552114
 51
90.00023540018935
  0
ARC
  5
13AA
330
1F
100
AcDbEntity
  8
0
  6
Continuous
 62
     7
100
AcDbCircle
 10
-119.1423672579948
 20
49.0108529670627
 30
0.0
 40
1.499999999999999
100
AcDbArc
 50
359.9999173263409
 51
89.99991732634256
  0
LINE
  5
13B8
330
1F
100
AcDbEntity
  8
0
  6
Continuous
 62
     7
100
AcDbLine
 10
-130.0423102620274
 20
88.56108304111343
 30
0.0
 11
-284.0423102621821
 21
88.56108304111343
 31
0.0
  0
LINE
  5
13C6
330
1F
100
AcDbEntity
  8
0
  6
Continuous
 62
     7
100
AcDbLine
 10
-115.5664933030027
 20
38.36059407163936
 30
0.0
 11
-112.0421933030027
 21
38.36059407163936
 31
0.0
  0
LINE
  5
14F2
330
1F
100
AcDbEntity
  8
0
  6
DASHED
 62
    30
 48
0.5
100
AcDbLine
 10
-225.5421221662611
 20
84.12948304111342
 30
0.0
 11
-162.5421221662611
 21
84.12948304111342
 31
0.0
  0
LINE
  5
14F3
330
1F
100
AcDbEntity
  8
0
  6
DASHED
 62
    30
 48
0.5
100
AcDbLine
 10
-162.5421221662611
 20
84.12948304111342
 30
0.0
 11
-162.5421221662611
 21
55.60148304111342
 31
0.0
  0
LINE
  5
14F4
330
1F
100
AcDbEntity
  8
0
  6
DASHED
 62
    30
 48
0.5
100
AcDbLine
 10
-162.5421221662611
 20
55.60148304111342
 30
0.0
 11
-225.5421221662611
 21
55.60148304111342
 31
0.0
  0
LINE
  5
14F5
330
1F
100
AcDbEntity
  8
0
  6
DASHED
 62
    30
 48
0.5
100
AcDbLine
 10
-225.5421221662611
 20
55.60148304111342
 30
0.0
 11
-225.5421221662611
 21
84.12948304111342
 31
0.0
  0
ARC
  5
156C
330
1F
100
AcDbEntity
  8
0
100
AcDbCircle
 10
-233.5423429287245
 20
20.33811969407431
 30
0.0
 40
10.5
100
AcDbArc
 50
314.9809512828368
 51
225.0350614969464
  0
ARC
  5
156D
330
1F
100
AcDbEntity
  8
0
100
AcDbCircle
 10
-235.0423429287245
 20
23.33808396305998
 30
0.0
 40
1.5
100
AcDbArc
 50
0.0
 51
180.0
  0
ARC
  5
156E
330
1F
100
AcDbEntity
  8
0
100
AcDbCircle
 10
-232.0423429287245
 20
23.33808396305998
 30
0.0
 40
1.5
100
AcDbArc
 50
0.0
 51
180.0
  0
ARC
  5
156F
330
1F
100
AcDbEntity
  8
0
100
AcDbCircle
 10
-233.5423429287245
 20
20.33811969407431
 30
0.0
 40
10.5
100
AcDbArc
 50
286.6015495990203
 51
299.1844131713909
  0
ARC
  5
1570
330
1F
100
AcDbEntity
  8
0
100
AcDbCircle
 10
-233.5423429287245
 20
20.33811969407431
 30
0.0
 40
10.5
100
AcDbArc
 50
240.816373069647
 51
253.3984504009798
  0
ARC
  5
15B2
330
1F
100
AcDbEntity
  8
0
100
AcDbCircle
 10
-108.4725456561237
 20
21.75593628293734
 30
0.0
 40
4.0
100
AcDbArc
 50
112.1505026737907
 51
153.1779090331888
  0
ARC
  5
15B3
330
1F
100
AcDbEntity
  8
0
100
AcDbCircle
 10
-108.4727130125719
 20
40.16514558340449
 30
0.0
 40
4.0
100
AcDbArc
 50
206.8231327082573
 51
247.8505390676553
  0
LINE
  5
187A
330
1F
100
AcDbEntity
  8
0
  6
Continuous
 62
     7
100
AcDbLine
 10
-284.0423933031573
 20
-26.63959151741055
 30
0.0
 11
-284.042310262182
 21
88.56108304111344
 31
0.0
  0
LINE
  5
18D0
330
1F
100
AcDbEntity
  8
0
100
AcDbLine
 10
-287.0423484710544
 20
87.53575848258945
 30
0.0
 11
-287.0423484710544
 21
-25.56424151741064
 31
0.0
  0
ARC
  5
1907
330
1F
100
AcDbEntity
  8
0
100
AcDbCircle
 10
-286.0423484710543
 20
87.53575848258945
 30
0.0
 40
1.0
100
AcDbArc
 50
90.0
 51
180.0
  0
ARC
  5
1908
330
1F
100
AcDbEntity
  8
0
100
AcDbCircle
 10
-288.0423484710544
 20
6.485758482589432
 30
0.0
 40
1.0
100
AcDbArc
 50
0.0
 51
90.0
  0
ARC
  5
1909
330
1F
100
AcDbEntity
  8
0
100
AcDbCircle
 10
-288.0423484710544
 20
55.48575848258943
 30
0.0
 40
1.0
100
AcDbArc
 50
270.0
 51
0.0
  0
ARC
  5
190A
330
1F
100
AcDbEntity
  8
0
100
AcDbCircle
 10
-288.0423484710543
 20
52.48575848258949
 30
0.0
 40
2.0
100
AcDbArc
 50
90.0
 51
180.0
  0
ARC
  5
190B
330
1F
100
AcDbEntity
  8
0
100
AcDbCircle
 10
-288.0423484710544
 20
9.485758482589432
 30
0.0
 40
2.0
100
AcDbArc
 50
180.0
 51
270.0
  0
LINE
  5
190E
330
1F
100
AcDbEntity
  8
0
100
AcDbLine
 10
-288.0423484710544
 20
7.485758482589432
 30
0.0
 11
-288.0423484710544
 21
7.485758482589432
 31
0.0
  0
LINE
  5
190F
330
1F
100
AcDbEntity
  8
0
100
AcDbLine
 10
-288.0423484710543
 20
54.48575848258949
 30
0.0
 11
-288.0423484710544
 21
54.48575848258943
 31
0.0
  0
LINE
  5
1919
330
1F
100
AcDbEntity
  8
0
100
AcDbLine
 10
-290.0423484710544
 20
9.485758482589432
 30
0.0
 11
-290.0423484710543
 21
52.48575848258949
 31
0.0
  0
LINE
  5
191A
330
1F
100
AcDbEntity
  8
0
100
AcDbLine
 10
-286.0423484710543
 20
88.53575848258945
 30
0.0
 11
-284.0423484710543
 21
88.53575848258945
 31
0.0
  0
ARC
  5
191B
330
1F
100
AcDbEntity
  8
0
100
AcDbCircle
 10
-286.0423484710543
 20
-25.56424151741064
 30
0.0
 40
1.0
100
AcDbArc
 50
180.0
 51
270.0
  0
LINE
  5
191C
330
1F
100
AcDbEntity
  8
0
100
AcDbLine
 10
-286.0423484710543
 20
-26.56424151741064
 30
0.0
 11
-284.0423484710543
 21
-26.56424151741064
 31
0.0
  0
LINE
  5
191D
330
1F
100
AcDbEntity
  8
0
  6
Continuous
 62
     7
100
AcDbLine
 10
-284.0423517826965
 20
88.53575848258941
 30
0.0
 11
-284.0423517826966
 21
-26.61434151741054
 31
0.0
  0
ARC
  5
191F
330
1F
100
AcDbEntity
  8
0
  6
Continuous
 62
     7
100
AcDbCircle
 10
-126.442336934528
 20
-3.727524253872445
 30
0.0
 40
1.299973439518797
100
AcDbArc
 50
0.0011121447233337
 51
85.00101644578661
  0
LINE
  5
1920
330
1F
100
AcDbEntity
  8
100
  6
DASH_CENTER
 62
    30
100
AcDbLine
 10
-132.8376141941898
 20
-5.808776813255153
 30
0.0
 11
-120.9816141942392
 21
-5.808811027952746
 31
0.0
  0
LINE
  5
1921
330
1F
100
AcDbEntity
  8
0
  6
Continuous
 62
     7
100
AcDbLine
 10
-127.7424796020661
 20
-9.308791517089728
 30
0.0
 11
-127.7424594010806
 21
-2.308791517118877
 31
0.0
  0
LINE
  5
1922
330
1F
100
AcDbEntity
  8
0
  6
Continuous
 62
     7
100
AcDbLine
 10
-127.7424796020661
 20
-9.308791517089728
 30
0.0
 11
-126.3290792453803
 21
-9.185195595957775
 31
0.0
  0
LINE
  5
1923
330
1F
100
AcDbEntity
  8
0
  6
Continuous
 62
     7
100
AcDbLine
 10
-125.1423755079144
 20
-7.89009902060732
 30
0.0
 11
-125.1423634952542
 21
-3.727499020624656
 31
0.0
  0
ARC
  5
1924
330
1F
100
AcDbEntity
  8
0
  6
Continuous
 62
     7
100
AcDbCircle
 10
-126.4423489470209
 20
-7.890066284289789
 30
0.0
 40
1.299973439518797
100
AcDbArc
 50
274.998652859583
 51
359.9985571606528
  0
LINE
  5
1925
330
1F
100
AcDbEntity
  8
0
  6
Continuous
 62
     7
100
AcDbLine
 10
-127.7424594010806
 20
-2.308791517118877
 30
0.0
 11
-126.3290597580669
 21
-2.43249559598589
 31
0.0
  0
ARC
  5
1926
330
1F
100
AcDbEntity
  8
0
  6
Continuous
 62
     7
100
AcDbCircle
 10
-126.4421367241257
 20
65.64893371540396
 30
0.0
 40
1.299973439518797
100
AcDbArc
 50
274.9986528595826
 51
359.9985571606462
  0
LINE
  5
1927
330
1F
100
AcDbEntity
  8
100
  6
DASH_CENTER
 62
    30
100
AcDbLine
 10
-132.8374019712946
 20
67.7302231864386
 30
0.0
 11
-120.9814019713439
 21
67.730188971741
 31
0.0
  0
LINE
  5
1928
330
1F
100
AcDbEntity
  8
0
  6
Continuous
 62
     7
100
AcDbLine
 10
-127.7422471781854
 20
71.23020848257488
 30
0.0
 11
-127.7422673791708
 21
64.23020848260404
 31
0.0
  0
LINE
  5
1929
330
1F
100
AcDbEntity
  8
0
  6
Continuous
 62
     7
100
AcDbLine
 10
-127.7422471781854
 20
71.23020848257488
 30
0.0
 11
-126.328847534883
 21
71.10660440370785
 31
0.0
  0
LINE
  5
192A
330
1F
100
AcDbEntity
  8
0
  6
Continuous
 62
     7
100
AcDbLine
 10
-125.1421512723589
 20
69.81150097906899
 30
0.0
 11
-125.1421632850191
 21
65.64890097908634
 31
0.0
  0
ARC
  5
192B
330
1F
100
AcDbEntity
  8
0
  6
Continuous
 62
     7
100
AcDbCircle
 10
-126.4421247116327
 20
69.81147574582132
 30
0.0
 40
1.299973439518797
100
AcDbArc
 50
0.00111214471682
 51
85.001016445787
  0
LINE
  5
192C
330
1F
100
AcDbEntity
  8
0
  6
Continuous
 62
     7
100
AcDbLine
 10
-127.7422673791708
 20
64.23020848260404
 30
0.0
 11
-126.3288670221965
 21
64.35390440373595
 31
0.0
  0
LINE
  5
1A19
330
1F
100
AcDbEntity
  8
0
  6
Continuous
 62
     7
100
AcDbLine
 10
-158.0421142190308
 20
-18.98499151741062
 30
0.0
 11
-158.0421142190308
 21
-18.96179151741062
 31
0.0
  0
ARC
  5
1A1A
330
1F
100
AcDbEntity
  8
0
  6
Continuous
 62
     7
100
AcDbCircle
 10
-155.3130305785855
 20
-16.76607936767021
 30
0.0
 40
2.928342612346896
100
AcDbArc
 50
210.4560909887402
 51
236.7314398513541
  0
ARC
  5
1A1B
330
1F
100
AcDbEntity
  8
0
  6
Continuous
 62
     7
100
AcDbCircle
 10
-156.0421142190308
 20
-18.96179151741062
 30
0.0
 40
2.000000000000003
100
AcDbArc
 50
90.0
 51
180.0
  0
ARC
  5
1A1C
330
1F
100
AcDbEntity
  8
0
  6
Continuous
 62
     7
100
AcDbCircle
 10
-156.0421142190308
 20
-18.98499151741062
 30
0.0
 40
2.0
100
AcDbArc
 50
180.0
 51
270.0
  0
ARC
  5
1A1D
330
1F
100
AcDbEntity
  8
0
  6
Continuous
 62
     7
100
AcDbCircle
 10
-155.822404471371
 20
-17.54206455934673
 30
0.0
 40
2.000026960100233
100
AcDbArc
 50
236.736005231763
 51
270.0025855042416
  0
LINE
  5
1A1E
330
1F
100
AcDbEntity
  8
0
  6
Continuous
 62
     7
100
AcDbLine
 10
-140.0421142190308
 20
-16.96179151741062
 30
0.0
 11
-156.0421142190308
 21
-16.96179151741062
 31
0.0
  0
LINE
  5
1A1F
330
1F
100
AcDbEntity
  8
0
  6
Continuous
 62
     7
100
AcDbLine
 10
-139.9486142190308
 20
-19.54209151741062
 30
0.0
 11
-155.8223142190308
 21
-19.54209151741062
 31
0.0
  0
LINE
  5
1A20
330
1F
100
AcDbEntity
  8
0
  6
Continuous
 62
     7
100
AcDbLine
 10
-140.0421142190308
 20
-20.98499151741062
 30
0.0
 11
-156.0421142190308
 21
-20.98499151741062
 31
0.0
  0
LINE
  5
1A21
330
1F
100
AcDbEntity
  8
0
  6
Continuous
 62
     7
100
AcDbLine
 10
-138.0421142190308
 20
-18.98499151741062
 30
0.0
 11
-138.0421142190308
 21
-18.96179151741062
 31
0.0
  0
ARC
  5
1A22
330
1F
100
AcDbEntity
  8
0
  6
Continuous
 62
     7
100
AcDbCircle
 10
-140.340881087229
 20
-17.22526629366583
 30
0.0
 40
2.349798377151982
100
AcDbArc
 50
279.6097420593542
 51
334.9553980866759
  0
ARC
  5
1A23
330
1F
100
AcDbEntity
  8
0
  6
Continuous
 62
     7
100
AcDbCircle
 10
-140.0421142190308
 20
-18.96179151741062
 30
0.0
 40
2.0
100
AcDbArc
 50
0.0
 51
90.0
  0
ARC
  5
1A24
330
1F
100
AcDbEntity
  8
0
  6
Continuous
 62
     7
100
AcDbCircle
 10
-140.0421142190308
 20
-18.98499151741062
 30
0.0
 40
2.0
100
AcDbArc
 50
270.0
 51
0.0
  0
LINE
  5
1A25
330
1F
100
AcDbEntity
  8
0
  6
Continuous
 62
     7
100
AcDbLine
 10
-138.0421142190308
 20
-11.67639151741062
 30
0.0
 11
-138.0421142190308
 21
-10.10389151741062
 31
0.0
  0
LINE
  5
1A26
330
1F
100
AcDbEntity
  8
0
  6
Continuous
 62
     7
100
AcDbLine
 10
-156.0421142190308
 20
-13.67639151741062
 30
0.0
 11
-140.0421142190308
 21
-13.67639151741062
 31
0.0
  0
LINE
  5
1A27
330
1F
100
AcDbEntity
  8
0
  6
Continuous
 62
     7
100
AcDbLine
 10
-140.0421142190308
 20
-12.43639151741062
 30
0.0
 11
-156.0421142190308
 21
-12.43639151741062
 31
0.0
  0
LINE
  5
1A28
330
1F
100
AcDbEntity
  8
0
  6
Continuous
 62
     7
100
AcDbLine
 10
-140.0421142190308
 20
-8.10389151741062
 30
0.0
 11
-156.0421142190308
 21
-8.10389151741062
 31
0.0
  0
LINE
  5
1A29
330
1F
100
AcDbEntity
  8
0
  6
Continuous
 62
     7
100
AcDbLine
 10
-158.0421142190308
 20
-10.10389151741062
 30
0.0
 11
-158.0421142190308
 21
-11.67639151741062
 31
0.0
  0
ARC
  5
1A2A
330
1F
100
AcDbEntity
  8
0
  6
Continuous
 62
     7
100
AcDbCircle
 10
-140.0421142177807
 20
-10.43639151616062
 30
0.0
 40
2.000000001249996
100
AcDbArc
 50
269.9999999641873
 51
359.9971351752153
  0
ARC
  5
1A2B
330
1F
100
AcDbEntity
  8
0
  6
Continuous
 62
     7
100
AcDbCircle
 10
-156.0421142190308
 20
-10.43639151741062
 30
0.0
 40
2.0
100
AcDbArc
 50
180.0
 51
270.0
  0
ARC
  5
1A2C
330
1F
100
AcDbEntity
  8
0
  6
Continuous
 62
     7
100
AcDbCircle
 10
-140.0421142190308
 20
-10.10389151741062
 30
0.0
 40
2.0
100
AcDbArc
 50
0.0
 51
90.0
  0
ARC
  5
1A2D
330
1F
100
AcDbEntity
  8
0
  6
Continuous
 62
     7
100
AcDbCircle
 10
-140.0421142190308
 20
-11.67639151741062
 30
0.0
 40
2.0
100
AcDbArc
 50
270.0
 51
0.0
  0
ARC
  5
1A2E
330
1F
100
AcDbEntity
  8
0
  6
Continuous
 62
     7
100
AcDbCircle
 10
-156.0421142190308
 20
-11.67639151741062
 30
0.0
 40
2.0
100
AcDbArc
 50
180.0
 51
270.0
  0
ARC
  5
1A2F
330
1F
100
AcDbEntity
  8
0
  6
Continuous
 62
     7
100
AcDbCircle
 10
-156.0421142190308
 20
-10.10389151741062
 30
0.0
 40
2.0
100
AcDbArc
 50
90.0
 51
180.0
  0
LINE
  5
1A30
330
1F
100
AcDbEntity
  8
0
  6
Continuous
 62
     7
100
AcDbLine
 10
-140.0421142190308
 20
8.505008482589378
 30
0.0
 11
-156.0421142190308
 21
8.505008482589378
 31
0.0
  0
LINE
  5
1A31
330
1F
100
AcDbEntity
  8
0
  6
Continuous
 62
     7
100
AcDbLine
 10
-138.0421142190308
 20
13.52550848258938
 30
0.0
 11
-138.0421142190308
 21
9.863408482589377
 31
0.0
  0
LINE
  5
1A32
330
1F
100
AcDbEntity
  8
0
  6
Continuous
 62
     7
100
AcDbLine
 10
-158.0421142190308
 20
13.52550848258938
 30
0.0
 11
-158.0421142190308
 21
9.863408482589377
 31
0.0
  0
LINE
  5
1A33
330
1F
100
AcDbEntity
  8
0
  6
Continuous
 62
     7
100
AcDbLine
 10
-158.0421142190308
 20
-1.86439151741062
 30
0.0
 11
-158.0421142190308
 21
0.9447084825893767
 31
0.0
  0
LINE
  5
1A34
330
1F
100
AcDbEntity
  8
0
  6
Continuous
 62
     7
100
AcDbLine
 10
-138.0421142190308
 20
0.9447084825893767
 30
0.0
 11
-138.0421142190308
 21
-1.86439151741062
 31
0.0
  0
LINE
  5
1A35
330
1F
100
AcDbEntity
  8
0
  6
Continuous
 62
     7
100
AcDbLine
 10
-140.0421142190308
 20
2.944708482589376
 30
0.0
 11
-156.0421142190308
 21
2.944708482589376
 31
0.0
  0
LINE
  5
1A36
330
1F
100
AcDbEntity
  8
0
  6
Continuous
 62
     7
100
AcDbLine
 10
-140.0421142190308
 20
-3.86439151741062
 30
0.0
 11
-156.0421142190308
 21
-3.86439151741062
 31
0.0
  0
LINE
  5
1A37
330
1F
100
AcDbEntity
  8
0
  6
Continuous
 62
     7
100
AcDbLine
 10
-156.0421142190308
 20
15.52550848258938
 30
0.0
 11
-140.0421142190308
 21
15.52550848258938
 31
0.0
  0
LINE
  5
1A38
330
1F
100
AcDbEntity
  8
0
  6
Continuous
 62
     7
100
AcDbLine
 10
-140.0421142190308
 20
-2.897091517410622
 30
0.0
 11
-156.0421142190308
 21
-2.897091517410622
 31
0.0
  0
LINE
  5
1A39
330
1F
100
AcDbEntity
  8
0
  6
Continuous
 62
     7
100
AcDbLine
 10
-140.0421142190308
 20
7.863408482589377
 30
0.0
 11
-156.0421142190308
 21
7.863408482589377
 31
0.0
  0
ARC
  5
1A3A
330
1F
100
AcDbEntity
  8
0
  6
Continuous
 62
     7
100
AcDbCircle
 10
-140.0421142190308
 20
-1.86439151741062
 30
0.0
 40
2.0
100
AcDbArc
 50
270.0
 51
0.0
  0
ARC
  5
1A3B
330
1F
100
AcDbEntity
  8
0
  6
Continuous
 62
     7
100
AcDbCircle
 10
-140.0421142190308
 20
-0.8970915174106224
 30
0.0
 40
2.000000000000002
100
AcDbArc
 50
270.0
 51
0.0
  0
ARC
  5
1A3C
330
1F
100
AcDbEntity
  8
0
  6
Continuous
 62
     7
100
AcDbCircle
 10
-140.0421142190308
 20
0.9447084825893767
 30
0.0
 40
2.0
100
AcDbArc
 50
0.0
 51
90.0
  0
ARC
  5
1A3D
330
1F
100
AcDbEntity
  8
0
  6
Continuous
 62
     7
100
AcDbCircle
 10
-140.0421142190308
 20
10.50500848258938
 30
0.0
 40
2.0
100
AcDbArc
 50
270.0
 51
0.0
  0
ARC
  5
1A3E
330
1F
100
AcDbEntity
  8
0
  6
Continuous
 62
     7
100
AcDbCircle
 10
-156.0421142190308
 20
10.50500848258938
 30
0.0
 40
2.0
100
AcDbArc
 50
180.0
 51
270.0
  0
ARC
  5
1A3F
330
1F
100
AcDbEntity
  8
0
  6
Continuous
 62
     7
100
AcDbCircle
 10
-156.0421142190308
 20
-0.8970915174106224
 30
0.0
 40
2.0
100
AcDbArc
 50
180.0
 51
270.0
  0
ARC
  5
1A40
330
1F
100
AcDbEntity
  8
0
  6
Continuous
 62
     7
100
AcDbCircle
 10
-156.0421142190308
 20
-1.86439151741062
 30
0.0
 40
2.0
100
AcDbArc
 50
180.0
 51
270.0
  0
ARC
  5
1A41
330
1F
100
AcDbEntity
  8
0
  6
Continuous
 62
     7
100
AcDbCircle
 10
-156.0421142190308
 20
0.9447084825893767
 30
0.0
 40
2.0
100
AcDbArc
 50
90.0
 51
180.0
  0
ARC
  5
1A42
330
1F
100
AcDbEntity
  8
0
  6
Continuous
 62
     7
100
AcDbCircle
 10
-140.0421142190308
 20
13.52550848258938
 30
0.0
 40
2.0
100
AcDbArc
 50
0.0
 51
90.0
  0
ARC
  5
1A43
330
1F
100
AcDbEntity
  8
0
  6
Continuous
 62
     7
100
AcDbCircle
 10
-140.0421142190308
 20
9.863408482589377
 30
0.0
 40
2.0
100
AcDbArc
 50
270.0
 51
0.0
  0
ARC
  5
1A44
330
1F
100
AcDbEntity
  8
0
  6
Continuous
 62
     7
100
AcDbCircle
 10
-156.0421142190308
 20
9.863408482589377
 30
0.0
 40
2.0
100
AcDbArc
 50
180.0
 51
270.0
  0
ARC
  5
1A45
330
1F
100
AcDbEntity
  8
0
  6
Continuous
 62
     7
100
AcDbCircle
 10
-156.0421142190308
 20
13.52550848258938
 30
0.0
 40
2.0
100
AcDbArc
 50
90.0
 51
180.0
  0
ARC
  5
1A46
330
1F
100
AcDbEntity
  8
0
  6
Continuous
 62
     7
100
AcDbCircle
 10
-235.0421142190308
 20
0.9447084825893803
 30
0.0
 40
2.0
100
AcDbArc
 50
90.0
 51
180.0
  0
ARC
  5
1A47
330
1F
100
AcDbEntity
  8
0
  6
Continuous
 62
     7
100
AcDbCircle
 10
-235.0421142190308
 20
-1.86439151741062
 30
0.0
 40
2.0
100
AcDbArc
 50
180.0
 51
270.0
  0
ARC
  5
1A48
330
1F
100
AcDbEntity
  8
0
  6
Continuous
 62
     7
100
AcDbCircle
 10
-235.0421142190308
 20
-0.8970915174106188
 30
0.0
 40
2.0
100
AcDbArc
 50
180.0
 51
270.0
  0
LINE
  5
1A49
330
1F
100
AcDbEntity
  8
0
  6
Continuous
 62
     7
100
AcDbLine
 10
-219.0421142190308
 20
-2.897091517410622
 30
0.0
 11
-235.0421142190308
 21
-2.897091517410622
 31
0.0
  0
LINE
  5
1A4A
330
1F
100
AcDbEntity
  8
0
  6
Continuous
 62
     7
100
AcDbLine
 10
-219.0421142190308
 20
-3.86439151741062
 30
0.0
 11
-235.0421142190308
 21
-3.86439151741062
 31
0.0
  0
LINE
  5
1A4B
330
1F
100
AcDbEntity
  8
0
  6
Continuous
 62
     7
100
AcDbLine
 10
-219.0421142190308
 20
2.94470848258938
 30
0.0
 11
-235.0421142190308
 21
2.94470848258938
 31
0.0
  0
LINE
  5
1A4C
330
1F
100
AcDbEntity
  8
0
  6
Continuous
 62
     7
100
AcDbLine
 10
-237.0421142190308
 20
-1.86439151741062
 30
0.0
 11
-237.0421142190308
 21
0.9447084825893803
 31
0.0
  0
ARC
  5
1A4D
330
1F
100
AcDbEntity
  8
0
  6
Continuous
 62
     7
100
AcDbCircle
 10
-235.0421142190308
 20
-10.10389151741062
 30
0.0
 40
2.0
100
AcDbArc
 50
90.0
 51
180.0
  0
ARC
  5
1A4E
330
1F
100
AcDbEntity
  8
0
  6
Continuous
 62
     7
100
AcDbCircle
 10
-235.0421142190308
 20
-11.67639151741062
 30
0.0
 40
2.0
100
AcDbArc
 50
180.0
 51
270.0
  0
ARC
  5
1A4F
330
1F
100
AcDbEntity
  8
0
  6
Continuous
 62
     7
100
AcDbCircle
 10
-235.0421142190308
 20
-10.43639151741062
 30
0.0
 40
2.0
100
AcDbArc
 50
180.0
 51
270.0
  0
LINE
  5
1A50
330
1F
100
AcDbEntity
  8
0
  6
Continuous
 62
     7
100
AcDbLine
 10
-237.0421142190308
 20
-10.10389151741062
 30
0.0
 11
-237.0421142190308
 21
-11.67639151741062
 31
0.0
  0
LINE
  5
1A51
330
1F
100
AcDbEntity
  8
0
  6
Continuous
 62
     7
100
AcDbLine
 10
-219.0421142190308
 20
-8.10389151741062
 30
0.0
 11
-235.0421142190308
 21
-8.10389151741062
 31
0.0
  0
LINE
  5
1A52
330
1F
100
AcDbEntity
  8
0
  6
Continuous
 62
     7
100
AcDbLine
 10
-219.0421142190308
 20
-12.43639151741062
 30
0.0
 11
-235.0421142190308
 21
-12.43639151741062
 31
0.0
  0
LINE
  5
1A53
330
1F
100
AcDbEntity
  8
0
  6
Continuous
 62
     7
100
AcDbLine
 10
-235.0421142190308
 20
-13.67639151741062
 30
0.0
 11
-219.0421142190308
 21
-13.67639151741062
 31
0.0
  0
ARC
  5
1A54
330
1F
100
AcDbEntity
  8
0
  6
Continuous
 62
     7
100
AcDbCircle
 10
-219.0421142190308
 20
0.9447084825893803
 30
0.0
 40
2.0
100
AcDbArc
 50
0.0
 51
90.0
  0
ARC
  5
1A55
330
1F
100
AcDbEntity
  8
0
  6
Continuous
 62
     7
100
AcDbCircle
 10
-219.0421142190308
 20
-0.8970915174106188
 30
0.0
 40
2.000000000000002
100
AcDbArc
 50
270.0
 51
0.0
  0
ARC
  5
1A56
330
1F
100
AcDbEntity
  8
0
  6
Continuous
 62
     7
100
AcDbCircle
 10
-219.0421142190308
 20
-1.86439151741062
 30
0.0
 40
2.0
100
AcDbArc
 50
270.0
 51
0.0
  0
LINE
  5
1A57
330
1F
100
AcDbEntity
  8
0
  6
Continuous
 62
     7
100
AcDbLine
 10
-217.0421142190308
 20
0.9447084825893803
 30
0.0
 11
-217.0421142190308
 21
-1.86439151741062
 31
0.0
  0
ARC
  5
1A5F
330
1F
100
AcDbEntity
  8
0
  6
Continuous
 62
     7
100
AcDbCircle
 10
-219.0421142190308
 20
-11.67639151741062
 30
0.0
 40
2.0
100
AcDbArc
 50
270.0
 51
0.0
  0
ARC
  5
1A60
330
1F
100
AcDbEntity
  8
0
  6
Continuous
 62
     7
100
AcDbCircle
 10
-219.0421142190308
 20
-10.10389151741062
 30
0.0
 40
2.0
100
AcDbArc
 50
0.0
 51
90.0
  0
ARC
  5
1A61
330
1F
100
AcDbEntity
  8
0
  6
Continuous
 62
     7
100
AcDbCircle
 10
-219.0421142177807
 20
-10.43639151616062
 30
0.0
 40
2.000000001249996
100
AcDbArc
 50
269.9999999641873
 51
359.9971351752153
  0
LINE
  5
1A62
330
1F
100
AcDbEntity
  8
0
  6
Continuous
 62
     7
100
AcDbLine
 10
-217.0421142190308
 20
-11.67639151741062
 30
0.0
 11
-217.0421142190308
 21
-10.10389151741062
 31
0.0
  0
LINE
  5
1A64
330
1F
100
AcDbEntity
  8
0
  6
Continuous
 62
     7
100
AcDbLine
 10
-217.0421142190309
 20
-18.98499151741058
 30
0.0
 11
-217.0421142190309
 21
-18.9617915174106
 31
0.0
  0
LINE
  5
1A65
330
1F
100
AcDbEntity
  8
0
  6
Continuous
 62
     7
100
AcDbLine
 10
-237.0421142190309
 20
-18.98499151741058
 30
0.0
 11
-237.0421142190309
 21
-18.9617915174106
 31
0.0
  0
LINE
  5
1A66
330
1F
100
AcDbEntity
  8
0
  6
Continuous
 62
     7
100
AcDbLine
 10
-219.0420142190309
 20
-20.98499151741058
 30
0.0
 11
-235.0421142190309
 21
-20.98499151741058
 31
0.0
  0
LINE
  5
1A67
330
1F
100
AcDbEntity
  8
0
  6
Continuous
 62
     7
100
AcDbLine
 10
-218.9486142190307
 20
-19.54209151741062
 30
0.0
 11
-234.8223142190308
 21
-19.54209151741062
 31
0.0
  0
LINE
  5
1A68
330
1F
100
AcDbEntity
  8
0
  6
Continuous
 62
     7
100
AcDbLine
 10
-219.0420142190309
 20
-16.9617915174106
 30
0.0
 11
-235.0421142190309
 21
-16.9617915174106
 31
0.0
  0
ARC
  5
1A69
330
1F
100
AcDbEntity
  8
0
  6
Continuous
 62
     7
100
AcDbCircle
 10
-234.822404471371
 20
-17.54206455934675
 30
0.0
 40
2.000026960100235
100
AcDbArc
 50
236.7360052317605
 51
270.0025855042384
  0
ARC
  5
1A6A
330
1F
100
AcDbEntity
  8
0
  6
Continuous
 62
     7
100
AcDbCircle
 10
-235.0421142190309
 20
-18.98499151741058
 30
0.0
 40
2.0
100
AcDbArc
 50
180.0
 51
270.0
  0
ARC
  5
1A6B
330
1F
100
AcDbEntity
  8
0
  6
Continuous
 62
     7
100
AcDbCircle
 10
-235.0421142190309
 20
-18.9617915174106
 30
0.0
 40
2.0
100
AcDbArc
 50
90.0
 51
180.0
  0
ARC
  5
1A6C
330
1F
100
AcDbEntity
  8
0
  6
Continuous
 62
     7
100
AcDbCircle
 10
-219.0420142190309
 20
-18.98499151741058
 30
0.0
 40
2.0
100
AcDbArc
 50
270.0
 51
0.0
  0
ARC
  5
1A6D
330
1F
100
AcDbEntity
  8
0
  6
Continuous
 62
     7
100
AcDbCircle
 10
-219.0420142190309
 20
-18.9617915174106
 30
0.0
 40
2.0
100
AcDbArc
 50
0.0
 51
90.0
  0
ARC
  5
1A6E
330
1F
100
AcDbEntity
  8
0
  6
Continuous
 62
     7
100
AcDbCircle
 10
-219.3408448201213
 20
-17.22513868696134
 30
0.0
 40
2.349819542516558
100
AcDbArc
 50
279.6087577944406
 51
334.9522048413364
  0
ARC
  5
1A6F
330
1F
100
AcDbEntity
  8
0
  6
Continuous
 62
     7
100
AcDbCircle
 10
-234.3130305785854
 20
-16.76607936767024
 30
0.0
 40
2.928342612346893
100
AcDbArc
 50
210.4560909887437
 51
236.7314398513542
  0
LINE
  5
1A72
330
1F
100
AcDbEntity
  8
100
  6
DASH_CENTER
 62
    30
100
AcDbLine
 10
-281.9777607238801
 20
67.73026373721212
 30
0.0
 11
-291.9379607238698
 21
67.73024936536535
 31
0.0
  0
LINE
  5
1A73
330
1F
100
AcDbEntity
  8
0
  6
DASH_CENTER
 62
     7
100
AcDbLine
 10
-287.3921636092967
 20
69.72995592462325
 30
0.0
 11
-287.3921578380194
 21
65.73025592462738
 31
0.0
  0
LINE
  5
1A74
330
1F
100
AcDbEntity
  8
0
  6
Continuous
 62
     7
100
AcDbLine
 10
-287.7422583427551
 20
66.08005541945812
 30
0.0
 11
-287.7422631045602
 21
69.38015541945469
 31
0.0
  0
LINE
  5
1A75
330
1F
100
AcDbEntity
  8
0
  6
Continuous
 62
     7
100
AcDbLine
 10
-287.7422583427551
 20
66.08005541945812
 30
0.0
 11
-287.3921578380194
 21
65.73025592462738
 31
0.0
  0
LINE
  5
1A76
330
1F
100
AcDbEntity
  8
0
  6
Continuous
 62
     7
100
AcDbLine
 10
-287.7422631045602
 20
69.38015541945469
 30
0.0
 11
-287.3921636092967
 21
69.72995592462325
 31
0.0
  0
LINE
  5
1A77
330
1F
100
AcDbEntity
  8
0
  6
Continuous
 62
     7
100
AcDbLine
 10
-287.3921636092967
 20
69.72995592462325
 30
0.0
 11
-287.0423542423316
 21
69.72996075899413
 31
0.0
  0
LINE
  5
1A78
330
1F
100
AcDbEntity
  8
100
  6
DASH_CENTER
 62
    30
100
AcDbLine
 10
-287.7422548979181
 20
69.38015974908785
 30
0.0
 11
-287.0423537375955
 21
69.38016075899451
 31
0.0
  0
LINE
  5
1A79
330
1F
100
AcDbEntity
  8
100
  6
DASH_CENTER
 62
    30
100
AcDbLine
 10
-287.7422583427613
 20
66.08005974907943
 30
0.0
 11
-287.0423489757904
 21
66.08006075899793
 31
0.0
  0
LINE
  5
1A7A
330
1F
100
AcDbEntity
  8
0
  6
Continuous
 62
     7
100
AcDbLine
 10
-287.0423484710544
 20
65.73026075899825
 30
0.0
 11
-287.3921578380256
 21
65.73026025424869
 31
0.0
  0
LINE
  5
1A7C
330
1F
100
AcDbEntity
  8
100
  6
DASH_CENTER
 62
    30
100
AcDbLine
 10
-281.9777607238801
 20
-5.808769505422048
 30
0.0
 11
-291.9379607238698
 21
-5.808783877268822
 31
0.0
  0
LINE
  5
1A7D
330
1F
100
AcDbEntity
  8
0
  6
DASH_CENTER
 62
     7
100
AcDbLine
 10
-287.3921636092967
 20
-3.80907731801092
 30
0.0
 11
-287.3921578380194
 21
-7.808777318006789
 31
0.0
  0
LINE
  5
1A7E
330
1F
100
AcDbEntity
  8
0
  6
Continuous
 62
     7
100
AcDbLine
 10
-287.7422583427551
 20
-7.458977823176056
 30
0.0
 11
-287.7422631045602
 21
-4.15887782317948
 31
0.0
  0
LINE
  5
1A7F
330
1F
100
AcDbEntity
  8
0
  6
Continuous
 62
     7
100
AcDbLine
 10
-287.7422583427551
 20
-7.458977823176056
 30
0.0
 11
-287.3921578380194
 21
-7.808777318006789
 31
0.0
  0
LINE
  5
1A80
330
1F
100
AcDbEntity
  8
0
  6
Continuous
 62
     7
100
AcDbLine
 10
-287.7422631045602
 20
-4.15887782317948
 30
0.0
 11
-287.3921636092967
 21
-3.80907731801092
 31
0.0
  0
LINE
  5
1A81
330
1F
100
AcDbEntity
  8
0
  6
Continuous
 62
     7
100
AcDbLine
 10
-287.3921636092967
 20
-3.80907731801092
 30
0.0
 11
-287.0423542423316
 21
-3.809072483640051
 31
0.0
  0
LINE
  5
1A82
330
1F
100
AcDbEntity
  8
100
  6
DASH_CENTER
 62
    30
100
AcDbLine
 10
-287.7422548979181
 20
-4.158873493546323
 30
0.0
 11
-287.0423537375955
 21
-4.158872483639669
 31
0.0
  0
LINE
  5
1A83
330
1F
100
AcDbEntity
  8
100
  6
DASH_CENTER
 62
    30
100
AcDbLine
 10
-287.7422583427613
 20
-7.458973493554751
 30
0.0
 11
-287.0423489757904
 21
-7.458972483636244
 31
0.0
  0
LINE
  5
1A84
330
1F
100
AcDbEntity
  8
0
  6
Continuous
 62
     7
100
AcDbLine
 10
-287.0423484710544
 20
-7.80877248363592
 30
0.0
 11
-287.3921578380256
 21
-7.808772988385484
 31
0.0
  0
CIRCLE
  5
1B8C
330
1F
100
AcDbEntity
  8
10
  6
Continuous
 62
     7
100
AcDbCircle
 10
145.4384833797643
 20
63.23024621077256
 30
0.0
 40
3.499966435553331
  0
ARC
  5
1B8D
330
1F
100
AcDbEntity
  8
10
  6
Continuous
 62
     7
100
AcDbCircle
 10
144.4384833797642
 20
64.23024621077257
 30
0.0
 40
0.5
100
AcDbArc
 50
270.0
 51
0.0
  0
ARC
  5
1B8E
330
1F
100
AcDbEntity
  8
10
  6
Continuous
 62
     7
100
AcDbCircle
 10
144.4384833797642
 20
62.23024621077256
 30
0.0
 40
0.5
100
AcDbArc
 50
0.0
 51
90.0
  0
ARC
  5
1B8F
330
1F
100
AcDbEntity
  8
10
  6
Continuous
 62
     7
100
AcDbCircle
 10
146.4384833797643
 20
62.23024621077256
 30
0.0
 40
0.5
100
AcDbArc
 50
90.0
 51
180.0
  0
ARC
  5
1B90
330
1F
100
AcDbEntity
  8
10
  6
Continuous
 62
     7
100
AcDbCircle
 10
146.4384833797643
 20
64.23024621077257
 30
0.0
 40
0.5
100
AcDbArc
 50
180.0
 51
270.0
  0
LINE
  5
1B91
330
1F
100
AcDbEntity
  8
10
  6
Continuous
 62
     7
100
AcDbLine
 10
143.2885833797643
 20
63.73024621077256
 30
0.0
 11
144.4384833797642
 21
63.73024621077256
 31
0.0
  0
LINE
  5
1B92
330
1F
100
AcDbEntity
  8
10
  6
Continuous
 62
     7
100
AcDbLine
 10
143.2885833797643
 20
62.73024621077256
 30
0.0
 11
144.4384833797642
 21
62.73024621077256
 31
0.0
  0
LINE
  5
1B93
330
1F
100
AcDbEntity
  8
10
  6
Continuous
 62
     7
100
AcDbLine
 10
146.4384833797643
 20
63.73024621077256
 30
0.0
 11
147.5885833797643
 21
63.73024621077256
 31
0.0
  0
LINE
  5
1B94
330
1F
100
AcDbEntity
  8
10
  6
Continuous
 62
     7
100
AcDbLine
 10
146.4384833797643
 20
62.73024621077256
 30
0.0
 11
147.5885833797643
 21
62.73024621077256
 31
0.0
  0
LINE
  5
1B95
330
1F
100
AcDbEntity
  8
10
  6
Continuous
 62
     7
100
AcDbLine
 10
144.9384833797642
 20
61.08034621077256
 30
0.0
 11
144.9384833797642
 21
62.23024621077256
 31
0.0
  0
LINE
  5
1B96
330
1F
100
AcDbEntity
  8
10
  6
Continuous
 62
     7
100
AcDbLine
 10
145.9384833797642
 20
61.08034621077256
 30
0.0
 11
145.9384833797642
 21
62.23024621077256
 31
0.0
  0
LINE
  5
1B97
330
1F
100
AcDbEntity
  8
10
  6
Continuous
 62
     7
100
AcDbLine
 10
144.9384833797642
 20
64.23024621077257
 30
0.0
 11
144.9384833797642
 21
65.38014621077254
 31
0.0
  0
LINE
  5
1B98
330
1F
100
AcDbEntity
  8
10
  6
Continuous
 62
     7
100
AcDbLine
 10
145.9384833797642
 20
64.23024621077257
 30
0.0
 11
145.9384833797642
 21
65.38014621077254
 31
0.0
  0
LINE
  5
1B99
330
1F
100
AcDbEntity
  8
10
  6
Continuous
 62
     7
100
AcDbLine
 10
144.9384833797642
 20
65.38014621077254
 30
0.0
 11
145.9384833797642
 21
65.38014621077254
 31
0.0
  0
LINE
  5
1B9A
330
1F
100
AcDbEntity
  8
10
  6
Continuous
 62
     7
100
AcDbLine
 10
144.9384833797642
 20
61.08034621077256
 30
0.0
 11
145.9384833797642
 21
61.08034621077256
 31
0.0
  0
LINE
  5
1B9B
330
1F
100
AcDbEntity
  8
10
  6
Continuous
 62
     7
100
AcDbLine
 10
143.2885833797643
 20
62.73024621077256
 30
0.0
 11
143.2885833797643
 21
63.73024621077256
 31
0.0
  0
LINE
  5
1B9C
330
1F
100
AcDbEntity
  8
10
  6
Continuous
 62
     7
100
AcDbLine
 10
147.5885833797643
 20
62.73024621077256
 30
0.0
 11
147.5885833797643
 21
63.73024621077256
 31
0.0
  0
CIRCLE
  5
1BB4
330
1F
100
AcDbEntity
  8
10
  6
Continuous
 62
     7
100
AcDbCircle
 10
218.9774034572114
 20
63.23007174561379
 30
0.0
 40
3.499966435553331
  0
ARC
  5
1BB5
330
1F
100
AcDbEntity
  8
10
  6
Continuous
 62
     7
100
AcDbCircle
 10
217.9774034572115
 20
64.2300717456138
 30
0.0
 40
0.5
100
AcDbArc
 50
270.0
 51
0.0
  0
ARC
  5
1BB6
330
1F
100
AcDbEntity
  8
10
  6
Continuous
 62
     7
100
AcDbCircle
 10
217.9774034572115
 20
62.23007174561379
 30
0.0
 40
0.5
100
AcDbArc
 50
0.0
 51
90.0
  0
ARC
  5
1BB7
330
1F
100
AcDbEntity
  8
10
  6
Continuous
 62
     7
100
AcDbCircle
 10
219.9774034572115
 20
62.23007174561379
 30
0.0
 40
0.5
100
AcDbArc
 50
90.0
 51
180.0
  0
ARC
  5
1BB8
330
1F
100
AcDbEntity
  8
10
  6
Continuous
 62
     7
100
AcDbCircle
 10
219.9774034572115
 20
64.2300717456138
 30
0.0
 40
0.5
100
AcDbArc
 50
180.0
 51
270.0
  0
LINE
  5
1BB9
330
1F
100
AcDbEntity
  8
10
  6
Continuous
 62
     7
100
AcDbLine
 10
216.8275034572114
 20
63.73007174561379
 30
0.0
 11
217.9774034572115
 21
63.73007174561379
 31
0.0
  0
LINE
  5
1BBA
330
1F
100
AcDbEntity
  8
10
  6
Continuous
 62
     7
100
AcDbLine
 10
216.8275034572114
 20
62.73007174561379
 30
0.0
 11
217.9774034572115
 21
62.73007174561379
 31
0.0
  0
LINE
  5
1BBB
330
1F
100
AcDbEntity
  8
10
  6
Continuous
 62
     7
100
AcDbLine
 10
219.9774034572115
 20
63.73007174561379
 30
0.0
 11
221.1275034572115
 21
63.73007174561379
 31
0.0
  0
LINE
  5
1BBC
330
1F
100
AcDbEntity
  8
10
  6
Continuous
 62
     7
100
AcDbLine
 10
219.9774034572115
 20
62.73007174561379
 30
0.0
 11
221.1275034572115
 21
62.73007174561379
 31
0.0
  0
LINE
  5
1BBD
330
1F
100
AcDbEntity
  8
10
  6
Continuous
 62
     7
100
AcDbLine
 10
218.4774034572114
 20
61.08017174561378
 30
0.0
 11
218.4774034572114
 21
62.23007174561379
 31
0.0
  0
LINE
  5
1BBE
330
1F
100
AcDbEntity
  8
10
  6
Continuous
 62
     7
100
AcDbLine
 10
219.4774034572114
 20
61.08017174561378
 30
0.0
 11
219.4774034572114
 21
62.23007174561379
 31
0.0
  0
LINE
  5
1BBF
330
1F
100
AcDbEntity
  8
10
  6
Continuous
 62
     7
100
AcDbLine
 10
218.4774034572114
 20
64.2300717456138
 30
0.0
 11
218.4774034572114
 21
65.37997174561377
 31
0.0
  0
LINE
  5
1BC0
330
1F
100
AcDbEntity
  8
10
  6
Continuous
 62
     7
100
AcDbLine
 10
219.4774034572114
 20
64.2300717456138
 30
0.0
 11
219.4774034572114
 21
65.37997174561377
 31
0.0
  0
LINE
  5
1BC1
330
1F
100
AcDbEntity
  8
10
  6
Continuous
 62
     7
100
AcDbLine
 10
218.4774034572114
 20
65.37997174561377
 30
0.0
 11
219.4774034572114
 21
65.37997174561377
 31
0.0
  0
LINE
  5
1BC2
330
1F
100
AcDbEntity
  8
10
  6
Continuous
 62
     7
100
AcDbLine
 10
218.4774034572114
 20
61.08017174561378
 30
0.0
 11
219.4774034572114
 21
61.08017174561378
 31
0.0
  0
LINE
  5
1BC3
330
1F
100
AcDbEntity
  8
10
  6
Continuous
 62
     7
100
AcDbLine
 10
216.8275034572114
 20
62.73007174561379
 30
0.0
 11
216.8275034572114
 21
63.73007174561379
 31
0.0
  0
LINE
  5
1BC4
330
1F
100
AcDbEntity
  8
10
  6
Continuous
 62
     7
100
AcDbLine
 10
221.1275034572115
 20
62.73007174561379
 30
0.0
 11
221.1275034572115
 21
63.73007174561379
 31
0.0
  0
CIRCLE
  5
1BDC
330
1F
100
AcDbEntity
  8
10
  6
Continuous
 62
     7
100
AcDbCircle
 10
218.977032103519
 20
-10.30889833071563
 30
0.0
 40
3.499966435553331
  0
ARC
  5
1BDD
330
1F
100
AcDbEntity
  8
10
  6
Continuous
 62
     7
100
AcDbCircle
 10
217.977032103519
 20
-9.308898330715631
 30
0.0
 40
0.5
100
AcDbArc
 50
270.0
 51
0.0
  0
ARC
  5
1BDE
330
1F
100
AcDbEntity
  8
10
  6
Continuous
 62
     7
100
AcDbCircle
 10
217.977032103519
 20
-11.30889833071563
 30
0.0
 40
0.5
100
AcDbArc
 50
0.0
 51
90.0
  0
ARC
  5
1BDF
330
1F
100
AcDbEntity
  8
10
  6
Continuous
 62
     7
100
AcDbCircle
 10
219.977032103519
 20
-11.30889833071563
 30
0.0
 40
0.5
100
AcDbArc
 50
90.0
 51
180.0
  0
ARC
  5
1BE0
330
1F
100
AcDbEntity
  8
10
  6
Continuous
 62
     7
100
AcDbCircle
 10
219.977032103519
 20
-9.308898330715631
 30
0.0
 40
0.5
100
AcDbArc
 50
180.0
 51
270.0
  0
LINE
  5
1BE1
330
1F
100
AcDbEntity
  8
10
  6
Continuous
 62
     7
100
AcDbLine
 10
216.827132103519
 20
-9.808898330715631
 30
0.0
 11
217.977032103519
 21
-9.808898330715631
 31
0.0
  0
LINE
  5
1BE2
330
1F
100
AcDbEntity
  8
10
  6
Continuous
 62
     7
100
AcDbLine
 10
216.827132103519
 20
-10.80889833071563
 30
0.0
 11
217.977032103519
 21
-10.80889833071563
 31
0.0
  0
LINE
  5
1BE3
330
1F
100
AcDbEntity
  8
10
  6
Continuous
 62
     7
100
AcDbLine
 10
219.977032103519
 20
-9.808898330715631
 30
0.0
 11
221.127132103519
 21
-9.808898330715631
 31
0.0
  0
LINE
  5
1BE4
330
1F
100
AcDbEntity
  8
10
  6
Continuous
 62
     7
100
AcDbLine
 10
219.977032103519
 20
-10.80889833071563
 30
0.0
 11
221.127132103519
 21
-10.80889833071563
 31
0.0
  0
LINE
  5
1BE5
330
1F
100
AcDbEntity
  8
10
  6
Continuous
 62
     7
100
AcDbLine
 10
218.477032103519
 20
-12.45879833071563
 30
0.0
 11
218.477032103519
 21
-11.30889833071563
 31
0.0
  0
LINE
  5
1BE6
330
1F
100
AcDbEntity
  8
10
  6
Continuous
 62
     7
100
AcDbLine
 10
219.477032103519
 20
-12.45879833071563
 30
0.0
 11
219.477032103519
 21
-11.30889833071563
 31
0.0
  0
LINE
  5
1BE7
330
1F
100
AcDbEntity
  8
10
  6
Continuous
 62
     7
100
AcDbLine
 10
218.477032103519
 20
-9.308898330715631
 30
0.0
 11
218.477032103519
 21
-8.158998330715657
 31
0.0
  0
LINE
  5
1BE8
330
1F
100
AcDbEntity
  8
10
  6
Continuous
 62
     7
100
AcDbLine
 10
219.477032103519
 20
-9.308898330715631
 30
0.0
 11
219.477032103519
 21
-8.158998330715657
 31
0.0
  0
LINE
  5
1BE9
330
1F
100
AcDbEntity
  8
10
  6
Continuous
 62
     7
100
AcDbLine
 10
218.477032103519
 20
-8.158998330715657
 30
0.0
 11
219.477032103519
 21
-8.158998330715657
 31
0.0
  0
LINE
  5
1BEA
330
1F
100
AcDbEntity
  8
10
  6
Continuous
 62
     7
100
AcDbLine
 10
218.477032103519
 20
-12.45879833071563
 30
0.0
 11
219.477032103519
 21
-12.45879833071563
 31
0.0
  0
LINE
  5
1BEB
330
1F
100
AcDbEntity
  8
10
  6
Continuous
 62
     7
100
AcDbLine
 10
216.827132103519
 20
-10.80889833071563
 30
0.0
 11
216.827132103519
 21
-9.808898330715631
 31
0.0
  0
LINE
  5
1BEC
330
1F
100
AcDbEntity
  8
10
  6
Continuous
 62
     7
100
AcDbLine
 10
221.127132103519
 20
-10.80889833071563
 30
0.0
 11
221.127132103519
 21
-9.808898330715631
 31
0.0
  0
CIRCLE
  5
1C04
330
1F
100
AcDbEntity
  8
10
  6
Continuous
 62
     7
100
AcDbCircle
 10
145.4381599371631
 20
-10.30857595817576
 30
0.0
 40
3.499966435553331
  0
ARC
  5
1C05
330
1F
100
AcDbEntity
  8
10
  6
Continuous
 62
     7
100
AcDbCircle
 10
144.4381599371631
 20
-9.30857595817576
 30
0.0
 40
0.5
100
AcDbArc
 50
270.0
 51
0.0
  0
ARC
  5
1C06
330
1F
100
AcDbEntity
  8
10
  6
Continuous
 62
     7
100
AcDbCircle
 10
144.4381599371631
 20
-11.30857595817576
 30
0.0
 40
0.5
100
AcDbArc
 50
0.0
 51
90.0
  0
ARC
  5
1C07
330
1F
100
AcDbEntity
  8
10
  6
Continuous
 62
     7
100
AcDbCircle
 10
146.438159937163
 20
-11.30857595817576
 30
0.0
 40
0.5
100
AcDbArc
 50
90.0
 51
180.0
  0
ARC
  5
1C08
330
1F
100
AcDbEntity
  8
10
  6
Continuous
 62
     7
100
AcDbCircle
 10
146.438159937163
 20
-9.30857595817576
 30
0.0
 40
0.5
100
AcDbArc
 50
180.0
 51
270.0
  0
LINE
  5
1C09
330
1F
100
AcDbEntity
  8
10
  6
Continuous
 62
     7
100
AcDbLine
 10
143.288259937163
 20
-9.80857595817576
 30
0.0
 11
144.4381599371631
 21
-9.80857595817576
 31
0.0
  0
LINE
  5
1C0A
330
1F
100
AcDbEntity
  8
10
  6
Continuous
 62
     7
100
AcDbLine
 10
143.288259937163
 20
-10.80857595817576
 30
0.0
 11
144.4381599371631
 21
-10.80857595817576
 31
0.0
  0
LINE
  5
1C0B
330
1F
100
AcDbEntity
  8
10
  6
Continuous
 62
     7
100
AcDbLine
 10
146.438159937163
 20
-9.80857595817576
 30
0.0
 11
147.5882599371631
 21
-9.80857595817576
 31
0.0
  0
LINE
  5
1C0C
330
1F
100
AcDbEntity
  8
10
  6
Continuous
 62
     7
100
AcDbLine
 10
146.438159937163
 20
-10.80857595817576
 30
0.0
 11
147.5882599371631
 21
-10.80857595817576
 31
0.0
  0
LINE
  5
1C0D
330
1F
100
AcDbEntity
  8
10
  6
Continuous
 62
     7
100
AcDbLine
 10
144.9381599371631
 20
-12.45847595817576
 30
0.0
 11
144.9381599371631
 21
-11.30857595817576
 31
0.0
  0
LINE
  5
1C0E
330
1F
100
AcDbEntity
  8
10
  6
Continuous
 62
     7
100
AcDbLine
 10
145.9381599371631
 20
-12.45847595817576
 30
0.0
 11
145.9381599371631
 21
-11.30857595817576
 31
0.0
  0
LINE
  5
1C0F
330
1F
100
AcDbEntity
  8
10
  6
Continuous
 62
     7
100
AcDbLine
 10
144.9381599371631
 20
-9.30857595817576
 30
0.0
 11
144.9381599371631
 21
-8.158675958175786
 31
0.0
  0
LINE
  5
1C10
330
1F
100
AcDbEntity
  8
10
  6
Continuous
 62
     7
100
AcDbLine
 10
145.9381599371631
 20
-9.30857595817576
 30
0.0
 11
145.9381599371631
 21
-8.158675958175786
 31
0.0
  0
LINE
  5
1C11
330
1F
100
AcDbEntity
  8
10
  6
Continuous
 62
     7
100
AcDbLine
 10
144.9381599371631
 20
-8.158675958175786
 30
0.0
 11
145.9381599371631
 21
-8.158675958175786
 31
0.0
  0
LINE
  5
1C12
330
1F
100
AcDbEntity
  8
10
  6
Continuous
 62
     7
100
AcDbLine
 10
144.9381599371631
 20
-12.45847595817576
 30
0.0
 11
145.9381599371631
 21
-12.45847595817576
 31
0.0
  0
LINE
  5
1C13
330
1F
100
AcDbEntity
  8
10
  6
Continuous
 62
     7
100
AcDbLine
 10
143.288259937163
 20
-10.80857595817576
 30
0.0
 11
143.288259937163
 21
-9.80857595817576
 31
0.0
  0
LINE
  5
1C14
330
1F
100
AcDbEntity
  8
10
  6
Continuous
 62
     7
100
AcDbLine
 10
147.5882599371631
 20
-10.80857595817576
 30
0.0
 11
147.5882599371631
 21
-9.80857595817576
 31
0.0
  0
MTEXT
  5
1CD1
330
1F
100
AcDbEntity
  8
0
100
AcDbMText
 10
-41.59818461897248
 20
-122.6559298536139
 30
0.0
 40
8.0
 41
97.07278699051585
 71
     1
 72
     1
  1
AES-DBH 4P 65W
  7
CONVERTER_2
 73
     1
 44
1.0
1001
ACAD
1000
MTEXTBEGIN
1070
    73
1070
     1
1070
    44
1040
1.0
1070
    74
1070
     0
1000
MTEXTEND
  0
ENDSEC
  0
SECTION
  2
OBJECTS
  0
DICTIONARY
  5
C
330
0
100
AcDbDictionary
281
     1
  3
ACAD_CIP_PREVIOUS_PRODUCT_INFO
350
B58
  3
ACAD_COLOR
350
469
  3
ACAD_GROUP
350
D
  3
ACAD_LAYOUT
350
1A
  3
ACAD_MATERIAL
350
468
  3
ACAD_MLEADERSTYLE
350
B50
  3
ACAD_MLINESTYLE
350
17
  3
ACAD_PLOTSETTINGS
350
19
  3
ACAD_PLOTSTYLENAME
350
E
  3
ACAD_SCALELIST
350
B3E
  3
ACAD_TABLESTYLE
350
B3C
  3
ACAD_VISUALSTYLE
350
B23
  3
ACDB_RECOMPOSE_DATA
350
1D60
  3
AcDbVariableDictionary
350
B66
  3
DWGPROPS
350
1D61
  0
DICTIONARY
  5
1607
330
8
100
AcDbDictionary
280
     1
281
     1
  0
DICTIONARY
  5
CA9
330
2
100
AcDbDictionary
280
     1
281
     1
  3
ACAD_LAYERSTATES
360
CAA
  0
DICTIONARY
  5
14F6
330
10
100
AcDbDictionary
280
     1
281
     1
  3
ADSK_XREC_LAYER_RECONCILED
360
14F7
  0
DICTIONARY
  5
14F8
330
31
100
AcDbDictionary
280
     1
281
     1
  3
ADSK_XREC_LAYER_RECONCILED
360
14F9
  0
DICTIONARY
  5
14FA
330
32
100
AcDbDictionary
280
     1
281
     1
  3
ADSK_XREC_LAYER_RECONCILED
360
14FB
  0
DICTIONARY
  5
14FC
330
33
100
AcDbDictionary
280
     1
281
     1
  3
ADSK_XREC_LAYER_RECONCILED
360
14FD
  0
DICTIONARY
  5
14FE
330
34
100
AcDbDictionary
280
     1
281
     1
  3
ADSK_XREC_LAYER_RECONCILED
360
14FF
  0
DICTIONARY
  5
1500
330
35
100
AcDbDictionary
280
     1
281
     1
  3
ADSK_XREC_LAYER_RECONCILED
360
1501
  0
DICTIONARY
  5
1502
330
36
100
AcDbDictionary
280
     1
281
     1
  3
ADSK_XREC_LAYER_RECONCILED
360
1503
  0
DICTIONARY
  5
1506
330
38
100
AcDbDictionary
280
     1
281
     1
  3
ADSK_XREC_LAYER_RECONCILED
360
1507
  0
DICTIONARY
  5
1508
330
39
100
AcDbDictionary
280
     1
281
     1
  3
ADSK_XREC_LAYER_RECONCILED
360
1509
  0
DICTIONARY
  5
150C
330
3B
100
AcDbDictionary
280
     1
281
     1
  3
ADSK_XREC_LAYER_RECONCILED
360
150D
  0
DICTIONARY
  5
1526
330
1F
100
AcDbDictionary
280
     1
281
     1
  3
ACAD_SORTENTS
360
1527
  0
XRECORD
  5
B58
102
{ACAD_REACTORS
330
C
102
}
330
C
100
AcDbXrecord
280
     1
300
ACDLT
300
2012
300
ACDLT_F_S
  0
DICTIONARY
  5
469
102
{ACAD_REACTORS
330
C
102
}
330
C
100
AcDbDictionary
281
     1
  0
DICTIONARY
  5
D
102
{ACAD_REACTORS
330
C
102
}
330
C
100
AcDbDictionary
281
     1
  3
*A2
350
193F
  0
DICTIONARY
  5
1A
102
{ACAD_REACTORS
330
C
102
}
330
C
100
AcDbDictionary
281
     1
  3
Layout1
350
1E
  3
Layout2
350
26
  3
Model
350
22
  0
DICTIONARY
  5
468
102
{ACAD_REACTORS
330
C
102
}
330
C
100
AcDbDictionary
281
     1
  3
ByBlock
350
B13
  3
ByLayer
350
B0B
  3
Global
350
B1B
  0
DICTIONARY
  5
B50
102
{ACAD_REACTORS
330
C
102
}
330
C
100
AcDbDictionary
281
     1
  3
Standard
350
B51
  0
DICTIONARY
  5
17
102
{ACAD_REACTORS
330
C
102
}
330
C
100
AcDbDictionary
281
     1
  3
Standard
350
18
  0
DICTIONARY
  5
19
102
{ACAD_REACTORS
330
C
102
}
330
C
100
AcDbDictionary
281
     1
  0
ACDBDICTIONARYWDFLT
  5
E
102
{ACAD_REACTORS
330
C
102
}
330
C
100
AcDbDictionary
281
     1
  3
Normal
350
F
100
AcDbDictionaryWithDefault
340
F
  0
DICTIONARY
  5
B3E
102
{ACAD_REACTORS
330
C
102
}
330
C
100
AcDbDictionary
281
     1
  3
A0
350
B3F
  3
A1
350
B40
  3
A2
350
B41
  3
A3
350
B42
  3
A4
350
B43
  3
A5
350
B44
  3
A6
350
B45
  3
A7
350
B46
  3
A8
350
B47
  3
A9
350
B48
  3
B0
350
B49
  3
B1
350
B4A
  3
B2
350
B4B
  3
B3
350
B4C
  3
B4
350
B4D
  3
B5
350
B4E
  3
B6
350
B4F
  0
DICTIONARY
  5
B3C
102
{ACAD_REACTORS
330
C
102
}
330
C
100
AcDbDictionary
281
     1
  3
Standard
350
B3D
  0
DICTIONARY
  5
B23
102
{ACAD_REACTORS
330
C
102
}
330
C
100
AcDbDictionary
281
     1
  3
2dWireframe
350
B29
  3
Basic
350
B28
  3
Brighten
350
B2F
  3
ColorChange
350
B33
  3
Conceptual
350
B2C
  3
Dim
350
B2E
  3
EdgeColorOff
350
B3B
  3
Facepattern
350
B32
  3
Flat
350
B24
  3
FlatWithEdges
350
B25
  3
Gouraud
350
B26
  3
GouraudWithEdges
350
B27
  3
Hidden
350
B2B
  3
JitterOff
350
B39
  3
Linepattern
350
B31
  3
OverhangOff
350
B3A
  3
Realistic
350
B2D
  3
Shaded
350
B38
  3
Shaded with edges
350
B37
  3
Shades of Gray
350
B34
  3
Sketchy
350
B35
  3
Thicken
350
B30
  3
Wireframe
350
B2A
  3
X-Ray
350
B36
  0
XRECORD
  5
1D60
102
{ACAD_REACTORS
330
C
102
}
330
C
100
AcDbXrecord
280
     1
 90
        1
330
B3D
  0
DICTIONARY
  5
B66
102
{ACAD_REACTORS
330
C
102
}
330
C
100
AcDbDictionary
281
     1
  3
CANNOSCALE
350
B6A
  3
CMLEADERSTYLE
350
B68
  3
CTABLESTYLE
350
B67
  3
DIMASSOC
350
1D5C
  3
INDEXCTL
350
1D5A
  3
LAYEREVAL
350
B6C
  3
LAYERNOTIFY
350
B6D
  3
LIGHTINGUNITS
350
B6B
  3
MSLTSCALE
350
B69
  3
SORTENTS
350
1D59
  3
XCLIPFRAME
350
1D5B
  0
XRECORD
  5
1D61
102
{ACAD_REACTORS
330
C
102
}
330
C
100
AcDbXrecord
280
     1
  1
DWGPROPS COOKIE
  2

  3

  4

  6

  7

  8
to.oishi
  9

300
=
301
=
302
=
303
=
304
=
305
=
306
=
307
=
308
=
309
=
 40
0.4400844907407408
 41
2455132.439189445
 42
2460104.371532072
  1

 90
        0
  0
DICTIONARY
  5
CAA
102
{ACAD_REACTORS
330
CA9
102
}
330
CA9
100
AcDbDictionary
281
     1
  0
XRECORD
  5
14F7
102
{ACAD_REACTORS
330
14F6
102
}
330
14F6
100
AcDbXrecord
280
     1
290
     1
  0
XRECORD
  5
14F9
102
{ACAD_REACTORS
330
14F8
102
}
330
14F8
100
AcDbXrecord
280
     1
290
     1
  0
XRECORD
  5
14FB
102
{ACAD_REACTORS
330
14FA
102
}
330
14FA
100
AcDbXrecord
280
     1
290
     1
  0
XRECORD
  5
14FD
102
{ACAD_REACTORS
330
14FC
102
}
330
14FC
100
AcDbXrecord
280
     1
290
     1
  0
XRECORD
  5
14FF
102
{ACAD_REACTORS
330
14FE
102
}
330
14FE
100
AcDbXrecord
280
     1
290
     1
  0
XRECORD
  5
1501
102
{ACAD_REACTORS
330
1500
102
}
330
1500
100
AcDbXrecord
280
     1
290
     1
  0
XRECORD
  5
1503
102
{ACAD_REACTORS
330
1502
102
}
330
1502
100
AcDbXrecord
280
     1
290
     1
  0
XRECORD
  5
1507
102
{ACAD_REACTORS
330
1506
102
}
330
1506
100
AcDbXrecord
280
     1
290
     1
  0
XRECORD
  5
1509
102
{ACAD_REACTORS
330
1508
102
}
330
1508
100
AcDbXrecord
280
     1
290
     1
  0
XRECORD
  5
150D
102
{ACAD_REACTORS
330
150C
102
}
330
150C
100
AcDbXrecord
280
     1
290
     1
  0
SORTENTSTABLE
  5
1527
102
{ACAD_REACTORS
330
1526
102
}
330
1526
100
AcDbSortentsTable
330
1F
331
13C6
  5
1477
331
108C
  5
108D
331
1570
  5
156E
331
1088
  5
1089
331
1084
  5
1085
331
FED
  5
FEF
331
627
  5
628
331
69D
  5
69E
331
1080
  5
1081
331
699
  5
69A
331
FE9
  5
FEA
331
6D4
  5
6D5
331
65E
  5
65F
331
61F
  5
620
331
501
  5
505
331
695
  5
696
331
70B
  5
70C
331
6D0
  5
6D1
331
65A
  5
65B
331
61B
  5
61C
331
4FD
  5
4FE
331
691
  5
692
331
4F9
  5
4FA
331
156C
  5
156D
331
110B
  5
110D
331
FE5
  5
FE6
331
FE1
  5
FE2
331
1103
  5
1109
331
6CC
  5
6CD
331
656
  5
657
331
68D
  5
68E
331
1064
  5
1068
331
13AA
  5
13AC
331
6C8
  5
6C9
331
652
  5
653
331
689
  5
68A
331
FD9
  5
FDA
331
6C4
  5
6C5
331
64E
  5
64F
331
685
  5
686
331
6FB
  5
6FC
331
6C0
  5
6C1
331
64A
  5
64B
331
681
  5
682
331
530
  5
531
331
10F7
  5
1102
331
14F5
  5
1529
331
1392
  5
1394
331
1054
  5
1064
331
1050
  5
1051
331
114E
  5
1165
331
6F7
  5
6F8
331
104C
  5
104D
331
6BC
  5
6BD
331
646
  5
647
331
67D
  5
67E
331
6F3
  5
6F4
331
1048
  5
1049
331
6EF
  5
6F0
331
6B8
  5
6B9
331
642
  5
643
331
524
  5
525
331
679
  5
67A
331
6B4
  5
6B5
331
675
  5
676
331
520
  5
521
331
6EB
  5
6EC
331
671
  5
672
331
51C
  5
51D
331
6B0
  5
6B1
331
1044
  5
1045
331
1040
  5
1041
331
6E7
  5
6E8
331
113A
  5
113C
331
1093
  5
10BD
331
66D
  5
66E
331
6AC
  5
6AD
331
6E3
  5
6E4
331
6DF
  5
6E0
331
669
  5
66A
331
6A8
  5
6A9
331
6A4
  5
6A5
331
665
  5
666
331
510
  5
511
331
6DB
  5
6DC
331
6A0
  5
6A1
331
661
  5
662
331
108F
  5
1090
331
108B
  5
108C
331
1087
  5
1088
331
1083
  5
1084
331
1112
  5
1126
331
FEC
  5
FED
331
69C
  5
69D
331
FE8
  5
FE9
331
70E
  5
70F
331
6D7
  5
6D8
331
698
  5
699
331
6D3
  5
6D4
331
65D
  5
65E
331
61E
  5
61F
331
500
  5
501
331
694
  5
695
331
70A
  5
70B
331
659
  5
65A
331
4FC
  5
4FD
331
61A
  5
61B
331
690
  5
691
331
4F8
  5
4F9
331
107F
  5
1080
331
FE4
  5
FE5
331
FE0
  5
FE1
331
6CF
  5
6D0
331
6CB
  5
6CC
331
655
  5
656
331
68C
  5
68D
331
13A9
  5
13AB
331
6C7
  5
6C8
331
651
  5
652
331
688
  5
689
331
6C3
  5
6C4
331
64D
  5
64E
331
684
  5
685
331
6FA
  5
6FB
331
649
  5
64A
331
680
  5
681
331
10F6
  5
10F7
331
14F4
  5
1525
331
1391
  5
1393
331
104F
  5
1050
331
10EE
  5
10F1
331
114D
  5
1164
331
6F6
  5
6F7
331
6BF
  5
6C0
331
104B
  5
104C
331
6BB
  5
6BC
331
645
  5
646
331
527
  5
530
331
67C
  5
67D
331
6F2
  5
6F3
331
6EE
  5
6EF
331
678
  5
679
331
523
  5
524
331
641
  5
642
331
6B7
  5
6B8
331
6B3
  5
6B4
331
674
  5
675
331
51F
  5
520
331
6EA
  5
6EB
331
639
  5
63A
331
51B
  5
51C
331
670
  5
671
331
1047
  5
1048
331
1043
  5
1044
331
1141
  5
114E
331
103F
  5
1040
331
6E6
  5
6E7
331
6AF
  5
6B0
331
66C
  5
66D
331
6AB
  5
6AC
331
6E2
  5
6E3
331
6DE
  5
6DF
331
668
  5
669
331
6A7
  5
6A8
331
6A3
  5
6A4
331
664
  5
665
331
50F
  5
510
331
6DA
  5
6DB
331
660
  5
661
331
108E
  5
108F
331
108A
  5
108B
331
1086
  5
1087
331
69F
  5
6A0
331
1082
  5
1083
331
1111
  5
1112
331
13B8
  5
13BA
331
FEB
  5
FEC
331
69B
  5
69C
331
70D
  5
70E
331
6D6
  5
6D7
331
697
  5
698
331
6D2
  5
6D3
331
65C
  5
65D
331
61D
  5
61E
331
4FF
  5
500
331
693
  5
694
331
709
  5
70A
331
658
  5
659
331
619
  5
61A
331
4FB
  5
4FC
331
156E
  5
15B0
331
110D
  5
1111
331
FE7
  5
FE8
331
1109
  5
110B
331
FE3
  5
FE4
331
FDF
  5
FE0
331
705
  5
706
331
6CE
  5
6CF
331
68F
  5
690
331
6CA
  5
6CB
331
654
  5
655
331
68B
  5
68C
331
13A8
  5
13AA
331
6C6
  5
6C7
331
650
  5
651
331
687
  5
688
331
6C2
  5
6C3
331
64C
  5
64D
331
4EF
  5
4F0
331
683
  5
684
331
6F9
  5
6FA
331
648
  5
649
331
14F3
  5
14F5
331
FD7
  5
FD9
331
10F1
  5
10F6
331
1390
  5
1392
331
104E
  5
104F
331
6F5
  5
6F6
331
6BE
  5
6BF
331
67F
  5
680
331
104A
  5
104B
331
10E9
  5
10EE
331
6BA
  5
6BB
331
644
  5
645
331
526
  5
527
331
67B
  5
67C
331
6F1
  5
6F2
331
6ED
  5
6EE
331
640
  5
641
331
522
  5
523
331
677
  5
678
331
6B6
  5
6B7
331
6B2
  5
6B3
331
673
  5
674
331
51E
  5
51F
331
6E9
  5
6EA
331
638
  5
639
331
1046
  5
1047
331
F0F
  5
F14
331
1042
  5
1043
331
113C
  5
113F
331
6E5
  5
6E6
331
66F
  5
670
331
6AE
  5
6AF
331
1091
  5
1092
331
66B
  5
66C
331
6AA
  5
6AB
331
6E1
  5
6E2
331
6DD
  5
6DE
331
630
  5
631
331
512
  5
513
331
667
  5
668
331
6A6
  5
6A7
331
6A2
  5
6A3
331
663
  5
664
331
50E
  5
50F
331
6D9
  5
6DA
331
628
  5
629
331
108D
  5
108E
331
1089
  5
108A
331
1085
  5
1086
331
69E
  5
69F
331
1081
  5
1082
331
FEA
  5
FEB
331
69A
  5
69B
331
6D5
  5
6D6
331
65F
  5
660
331
620
  5
621
331
696
  5
697
331
70C
  5
70D
331
6D1
  5
6D2
331
65B
  5
65C
331
61C
  5
61D
331
4FE
  5
4FF
331
692
  5
693
331
4FA
  5
4FB
331
156D
  5
1570
331
FE6
  5
FE7
331
FE2
  5
FE3
331
6CD
  5
6CE
331
657
  5
658
331
68E
  5
68F
331
FDE
  5
FDF
331
6C9
  5
6CA
331
653
  5
654
331
68A
  5
68B
331
FDA
  5
FDB
331
6C5
  5
6C6
331
64F
  5
650
331
686
  5
687
331
6C1
  5
6C2
331
64B
  5
64C
331
682
  5
683
331
6F8
  5
6F9
331
531
  5
534
331
1393
  5
1395
331
14F2
  5
14F4
331
1051
  5
1054
331
104D
  5
104E
331
6BD
  5
6BE
331
647
  5
648
331
67E
  5
67F
331
6F4
  5
6F5
331
1049
  5
104A
331
6F0
  5
6F1
331
6B9
  5
6BA
331
643
  5
644
331
525
  5
526
331
67A
  5
67B
331
F1A
  5
F1B
331
6B5
  5
6B6
331
676
  5
677
331
521
  5
522
331
6EC
  5
6ED
331
6E8
  5
6E9
331
6B1
  5
6B2
331
672
  5
673
331
51D
  5
51E
331
1045
  5
1046
331
1041
  5
1042
331
10E0
  5
10E9
331
113F
  5
1141
331
637
  5
638
331
66E
  5
66F
331
6AD
  5
6AE
331
6E4
  5
6E5
331
6E0
  5
6E1
331
66A
  5
66B
331
6A9
  5
6AA
331
1090
  5
1091
331
62F
  5
630
331
511
  5
512
331
666
  5
667
331
6A5
  5
6A6
331
6DC
  5
6DD
331
6D8
  5
6D9
331
6A1
  5
6A2
331
662
  5
663
331
50D
  5
50E
  0
GROUP
  5
193F
102
{ACAD_REACTORS
330
D
102
}
330
D
100
AcDbGroup
300

 70
     1
 71
     1
340
1091
340
108C
340
108A
340
1089
340
1088
340
1086
340
1085
340
1083
340
1081
340
104B
340
103F
340
1080
340
107F
340
1050
340
104F
340
104E
340
104D
340
1049
340
1042
340
1040
340
1051
340
1082
340
1044
340
108D
340
1087
340
104A
340
1045
340
108E
340
104C
340
1084
340
1047
340
1043
340
1041
340
1046
340
1048
340
108B
  0
LAYOUT
  5
1E
102
{ACAD_XDICTIONARY
360
1D62
102
}
102
{ACAD_REACTORS
330
1A
102
}
330
1A
100
AcDbPlotSettings
  1

  2

  4

  6

 40
0.0
 41
0.0
 42
0.0
 43
0.0
 44
0.0
 45
0.0
 46
0.0
 47
0.0
 48
0.0
 49
0.0
140
0.0
141
0.0
142
1.0
143
1.0
 70
   688
 72
     0
 73
     0
 74
     5
  7
P社図面.ctb
 75
    16
147
1.0
148
0.0
149
0.0
100
AcDbLayout
  1
Layout1
 70
     1
 71
     1
 10
0.0
 20
0.0
 11
12.0
 21
9.0
 12
0.0
 22
0.0
 32
0.0
 14
1.000000000000000E+20
 24
1.000000000000000E+20
 34
1.000000000000000E+20
 15
-1.000000000000000E+20
 25
-1.000000000000000E+20
 35
-1.000000000000000E+20
146
0.0
 13
0.0
 23
0.0
 33
0.0
 16
1.0
 26
0.0
 36
0.0
 17
0.0
 27
1.0
 37
0.0
 76
     0
330
1B
  0
LAYOUT
  5
26
102
{ACAD_XDICTIONARY
360
1D65
102
}
102
{ACAD_REACTORS
330
1A
102
}
330
1A
100
AcDbPlotSettings
  1

  2

  4

  6

 40
0.0
 41
0.0
 42
0.0
 43
0.0
 44
0.0
 45
0.0
 46
0.0
 47
0.0
 48
0.0
 49
0.0
140
0.0
141
0.0
142
1.0
143
1.0
 70
   688
 72
     0
 73
     0
 74
     5
  7
P社図面.ctb
 75
    16
147
1.0
148
0.0
149
0.0
100
AcDbLayout
  1
Layout2
 70
     1
 71
     2
 10
0.0
 20
0.0
 11
0.0
 21
0.0
 12
0.0
 22
0.0
 32
0.0
 14
0.0
 24
0.0
 34
0.0
 15
0.0
 25
0.0
 35
0.0
146
0.0
 13
0.0
 23
0.0
 33
0.0
 16
1.0
 26
0.0
 36
0.0
 17
0.0
 27
1.0
 37
0.0
 76
     0
330
23
  0
LAYOUT
  5
22
102
{ACAD_XDICTIONARY
360
1517
102
}
102
{ACAD_REACTORS
330
1A
102
}
330
1A
100
AcDbPlotSettings
  1

  2
CubePDF
  4
A4
  6

 40
3.174999952316284
 41
3.174999952316284
 42
3.175003051757812
 43
3.17498779296875
 44
209.9098358154297
 45
297.0318298339844
 46
0.0
 47
0.0
 48
-427.9997999999999
 49
-286.0002
140
390.9998
141
285.9998
142
1.0
143
2.817512074765538
 70
 11952
 72
     1
 73
     1
 74
     4
  7
P社図面.ctb
 75
     0
147
0.3549230574577806
148
427.9997999999999
149
286.0002
100
AcDbLayout
  1
Model
 70
     1
 71
     0
 10
0.0
 20
0.0
 11
0.0
 21
0.0
 12
0.0
 22
0.0
 32
0.0
 14
-427.9997999999999
 24
-286.0002
 34
0.0
 15
390.9998
 25
285.9998
 35
0.0
146
0.0
 13
0.0
 23
0.0
 33
0.0
 16
1.0
 26
0.0
 36
0.0
 17
0.0
 27
1.0
 37
0.0
 76
     0
330
1F
331
1CC2
  0
MATERIAL
  5
B13
102
{ACAD_XDICTIONARY
360
B14
102
}
102
{ACAD_REACTORS
330
468
102
}
330
468
100
AcDbMaterial
  1
ByBlock
 72
     0
 43
0.0208333333333333
 43
0.0
 43
0.0
 43
0.0
 43
0.0
 43
0.0208333333333333
 43
0.0
 43
0.0
 43
0.0
 43
0.0
 43
1.0
 43
0.0
 43
0.0
 43
0.0
 43
0.0
 43
1.0
 77
     0
 47
0.0208333333333333
 47
0.0
 47
0.0
 47
0.0
 47
0.0
 47
0.0208333333333333
 47
0.0
 47
0.0
 47
0.0
 47
0.0
 47
1.0
 47
0.0
 47
0.0
 47
0.0
 47
0.0
 47
1.0
171
     0
 49
0.0208333333333333
 49
0.0
 49
0.0
 49
0.0
 49
0.0
 49
0.0208333333333333
 49
0.0
 49
0.0
 49
0.0
 49
0.0
 49
1.0
 49
0.0
 49
0.0
 49
0.0
 49
0.0
 49
1.0
175
     0
142
0.0208333333333333
142
0.0
142
0.0
142
0.0
142
0.0
142
0.0208333333333333
142
0.0
142
0.0
142
0.0
142
0.0
142
1.0
142
0.0
142
0.0
142
0.0
142
0.0
142
1.0
179
     0
144
0.0208333333333333
144
0.0
144
0.0
144
0.0
144
0.0
144
0.0208333333333333
144
0.0
144
0.0
144
0.0
144
0.0
144
1.0
144
0.0
144
0.0
144
0.0
144
0.0
144
1.0
147
0.0208333333333333
147
0.0
147
0.0
147
0.0
147
0.0
147
0.0208333333333333
147
0.0
147
0.0
147
0.0
147
0.0
147
1.0
147
0.0
147
0.0
147
0.0
147
0.0
147
1.0
  0
MATERIAL
  5
B0B
102
{ACAD_XDICTIONARY
360
B0C
102
}
102
{ACAD_REACTORS
330
468
102
}
330
468
100
AcDbMaterial
  1
ByLayer
 72
     0
 43
0.0208333333333333
 43
0.0
 43
0.0
 43
0.0
 43
0.0
 43
0.0208333333333333
 43
0.0
 43
0.0
 43
0.0
 43
0.0
 43
1.0
 43
0.0
 43
0.0
 43
0.0
 43
0.0
 43
1.0
 77
     0
 47
0.0208333333333333
 47
0.0
 47
0.0
 47
0.0
 47
0.0
 47
0.0208333333333333
 47
0.0
 47
0.0
 47
0.0
 47
0.0
 47
1.0
 47
0.0
 47
0.0
 47
0.0
 47
0.0
 47
1.0
171
     0
 49
0.0208333333333333
 49
0.0
 49
0.0
 49
0.0
 49
0.0
 49
0.0208333333333333
 49
0.0
 49
0.0
 49
0.0
 49
0.0
 49
1.0
 49
0.0
 49
0.0
 49
0.0
 49
0.0
 49
1.0
175
     0
142
0.0208333333333333
142
0.0
142
0.0
142
0.0
142
0.0
142
0.0208333333333333
142
0.0
142
0.0
142
0.0
142
0.0
142
1.0
142
0.0
142
0.0
142
0.0
142
0.0
142
1.0
179
     0
144
0.0208333333333333
144
0.0
144
0.0
144
0.0
144
0.0
144
0.0208333333333333
144
0.0
144
0.0
144
0.0
144
0.0
144
1.0
144
0.0
144
0.0
144
0.0
144
0.0
144
1.0
147
0.0208333333333333
147
0.0
147
0.0
147
0.0
147
0.0
147
0.0208333333333333
147
0.0
147
0.0
147
0.0
147
0.0
147
1.0
147
0.0
147
0.0
147
0.0
147
0.0
147
1.0
  0
MATERIAL
  5
B1B
102
{ACAD_XDICTIONARY
360
B1C
102
}
102
{ACAD_REACTORS
330
468
102
}
330
468
100
AcDbMaterial
  1
Global
 72
     0
 43
0.0208333333333333
 43
0.0
 43
0.0
 43
0.0
 43
0.0
 43
0.0208333333333333
 43
0.0
 43
0.0
 43
0.0
 43
0.0
 43
1.0
 43
0.0
 43
0.0
 43
0.0
 43
0.0
 43
1.0
 77
     0
 47
0.0208333333333333
 47
0.0
 47
0.0
 47
0.0
 47
0.0
 47
0.0208333333333333
 47
0.0
 47
0.0
 47
0.0
 47
0.0
 47
1.0
 47
0.0
 47
0.0
 47
0.0
 47
0.0
 47
1.0
171
     0
 49
0.0208333333333333
 49
0.0
 49
0.0
 49
0.0
 49
0.0
 49
0.0208333333333333
 49
0.0
 49
0.0
 49
0.0
 49
0.0
 49
1.0
 49
0.0
 49
0.0
 49
0.0
 49
0.0
 49
1.0
175
     0
142
0.0208333333333333
142
0.0
142
0.0
142
0.0
142
0.0
142
0.0208333333333333
142
0.0
142
0.0
142
0.0
142
0.0
142
1.0
142
0.0
142
0.0
142
0.0
142
0.0
142
1.0
179
     0
144
0.0208333333333333
144
0.0
144
0.0
144
0.0
144
0.0
144
0.0208333333333333
144
0.0
144
0.0
144
0.0
144
0.0
144
1.0
144
0.0
144
0.0
144
0.0
144
0.0
144
1.0
147
0.0208333333333333
147
0.0
147
0.0
147
0.0
147
0.0
147
0.0208333333333333
147
0.0
147
0.0
147
0.0
147
0.0
147
1.0
147
0.0
147
0.0
147
0.0
147
0.0
147
1.0
  0
MLEADERSTYLE
  5
B51
102
{ACAD_XDICTIONARY
360
1D5E
102
}
102
{ACAD_REACTORS
330
B50
102
}
330
B50
100
AcDbMLeaderStyle
170
     2
171
     1
172
     0
 90
        2
 40
0.0
 41
0.0
173
     1
 91
-1056964608
340
14
 92
       -2
290
     1
 42
2.0
291
     1
 43
0.36
  3
Standard
 44
4.0
300

342
11
174
     1
178
     6
175
     1
176
     0
 93
-1056964608
 45
4.0
292
     0
297
     0
 46
4.0
 94
-1056964608
 47
1.0
 49
1.0
140
1.0
293
     1
141
0.0
294
     1
177
     0
142
1.0
295
     0
296
     0
143
0.125
1001
ACAD_MLEADERVER
1070
     2
  0
MLINESTYLE
  5
18
102
{ACAD_REACTORS
330
17
102
}
330
17
100
AcDbMlineStyle
  2
STANDARD
 70
     0
  3

 62
   256
 51
90.0
 52
90.0
 71
     2
 49
0.5
 62
   256
  6
BYLAYER
 49
-0.5
 62
   256
  6
BYLAYER
  0
ACDBPLACEHOLDER
  5
F
102
{ACAD_REACTORS
330
E
102
}
330
E
  0
SCALE
  5
B3F
102
{ACAD_REACTORS
330
B3E
102
}
330
B3E
100
AcDbScale
 70
     0
300
1:1
140
1.0
141
1.0
290
     1
  0
SCALE
  5
B40
102
{ACAD_REACTORS
330
B3E
102
}
330
B3E
100
AcDbScale
 70
     0
300
1:2
140
1.0
141
2.0
290
     0
  0
SCALE
  5
B41
102
{ACAD_REACTORS
330
B3E
102
}
330
B3E
100
AcDbScale
 70
     0
300
1:4
140
1.0
141
4.0
290
     0
  0
SCALE
  5
B42
102
{ACAD_REACTORS
330
B3E
102
}
330
B3E
100
AcDbScale
 70
     0
300
1:5
140
1.0
141
5.0
290
     0
  0
SCALE
  5
B43
102
{ACAD_REACTORS
330
B3E
102
}
330
B3E
100
AcDbScale
 70
     0
300
1:8
140
1.0
141
8.0
290
     0
  0
SCALE
  5
B44
102
{ACAD_REACTORS
330
B3E
102
}
330
B3E
100
AcDbScale
 70
     0
300
1:10
140
1.0
141
10.0
290
     0
  0
SCALE
  5
B45
102
{ACAD_REACTORS
330
B3E
102
}
330
B3E
100
AcDbScale
 70
     0
300
1:16
140
1.0
141
16.0
290
     0
  0
SCALE
  5
B46
102
{ACAD_REACTORS
330
B3E
102
}
330
B3E
100
AcDbScale
 70
     0
300
1:20
140
1.0
141
20.0
290
     0
  0
SCALE
  5
B47
102
{ACAD_REACTORS
330
B3E
102
}
330
B3E
100
AcDbScale
 70
     0
300
1:30
140
1.0
141
30.0
290
     0
  0
SCALE
  5
B48
102
{ACAD_REACTORS
330
B3E
102
}
330
B3E
100
AcDbScale
 70
     0
300
1:40
140
1.0
141
40.0
290
     0
  0
SCALE
  5
B49
102
{ACAD_REACTORS
330
B3E
102
}
330
B3E
100
AcDbScale
 70
     0
300
1:50
140
1.0
141
50.0
290
     0
  0
SCALE
  5
B4A
102
{ACAD_REACTORS
330
B3E
102
}
330
B3E
100
AcDbScale
 70
     0
300
1:100
140
1.0
141
100.0
290
     0
  0
SCALE
  5
B4B
102
{ACAD_REACTORS
330
B3E
102
}
330
B3E
100
AcDbScale
 70
     0
300
2:1
140
2.0
141
1.0
290
     0
  0
SCALE
  5
B4C
102
{ACAD_REACTORS
330
B3E
102
}
330
B3E
100
AcDbScale
 70
     0
300
4:1
140
4.0
141
1.0
290
     0
  0
SCALE
  5
B4D
102
{ACAD_REACTORS
330
B3E
102
}
330
B3E
100
AcDbScale
 70
     0
300
8:1
140
8.0
141
1.0
290
     0
  0
SCALE
  5
B4E
102
{ACAD_REACTORS
330
B3E
102
}
330
B3E
100
AcDbScale
 70
     0
300
10:1
140
10.0
141
1.0
290
     0
  0
SCALE
  5
B4F
102
{ACAD_REACTORS
330
B3E
102
}
330
B3E
100
AcDbScale
 70
     0
300
100:1
140
100.0
141
1.0
290
     0
  0
TABLESTYLE
  5
B3D
102
{ACAD_XDICTIONARY
360
1602
102
}
102
{ACAD_REACTORS
330
B3C
102
}
330
B3C
100
AcDbTableStyle
  3
Standard
 70
     0
 71
     0
 40
1.5
 41
1.5
280
     0
281
     0
  7
Standard
140
4.5
170
     2
 62
     0
 63
     7
283
     0
274
    -2
284
     1
 64
     0
275
    -2
285
     1
 65
     0
276
    -2
286
     1
 66
     0
277
    -2
287
     1
 67
     0
278
    -2
288
     1
 68
     0
279
    -2
289
     1
 69
     0
  7
Standard
140
6.0
170
     5
 62
     0
 63
     7
283
     0
274
    -2
284
     1
 64
     0
275
    -2
285
     1
 65
     0
276
    -2
286
     1
 66
     0
277
    -2
287
     1
 67
     0
278
    -2
288
     1
 68
     0
279
    -2
289
     1
 69
     0
  7
Standard
140
4.5
170
     5
 62
     0
 63
     7
283
     0
274
    -2
284
     1
 64
     0
275
    -2
285
     1
 65
     0
276
    -2
286
     1
 66
     0
277
    -2
287
     1
 67
     0
278
    -2
288
     1
 68
     0
279
    -2
289
     1
 69
     0
  0
VISUALSTYLE
  5
B29
102
{ACAD_XDICTIONARY
360
1D74
102
}
102
{ACAD_REACTORS
330
B23
102
}
330
B23
100
AcDbVisualStyle
  2
2dWireframe
 70
     4
 71
     0
 72
     2
 73
     0
 90
        0
 40
-0.6
 41
-30.0
 62
     5
 63
     7
 74
     1
 91
        4
 64
     7
 65
   257
 75
     1
175
     1
 42
1.0
 92
        0
 66
   257
 43
1.0
 76
     1
 77
     6
 78
     2
 67
     7
 79
     5
170
     0
171
     0
290
     0
174
     0
 93
        1
 44
0.0
173
     0
291
     0
 45
0.0
1001
ACAD
1000
AcDbSavedByObjectVersion
1070
     0
  0
VISUALSTYLE
  5
B28
102
{ACAD_XDICTIONARY
360
1D72
102
}
102
{ACAD_REACTORS
330
B23
102
}
330
B23
100
AcDbVisualStyle
  2
Basic
 70
     7
 71
     1
 72
     0
 73
     1
 90
        0
 40
-0.6
 41
-30.0
 62
     5
 63
     7
 74
     0
 91
        4
 64
     7
 65
   257
 75
     1
175
     1
 42
1.0
 92
        8
 66
     7
 43
1.0
 76
     1
 77
     6
 78
     2
 67
     7
 79
     5
170
     0
171
     0
290
     0
174
     0
 93
        1
 44
0.0
173
     0
291
     1
 45
0.0
1001
ACAD
1000
AcDbSavedByObjectVersion
1070
     0
  0
VISUALSTYLE
  5
B2F
102
{ACAD_XDICTIONARY
360
1D80
102
}
102
{ACAD_REACTORS
330
B23
102
}
330
B23
100
AcDbVisualStyle
  2
Brighten
 70
    12
 71
     2
 72
     2
 73
     0
 90
        0
 40
-0.6
 41
-30.0
 62
     5
 63
     7
 74
     1
 91
        4
 64
     7
 65
   257
 75
     1
175
     1
 42
1.0
 92
        8
 66
     7
 43
1.0
 76
     1
 77
     6
 78
     2
 67
     7
 79
     5
170
     0
171
     0
290
     0
174
     0
 93
        1
 44
50.0
173
     0
291
     1
 45
0.0
1001
ACAD
1000
AcDbSavedByObjectVersion
1070
     0
  0
VISUALSTYLE
  5
B33
102
{ACAD_XDICTIONARY
360
1D88
102
}
102
{ACAD_REACTORS
330
B23
102
}
330
B23
100
AcDbVisualStyle
  2
ColorChange
 70
    16
 71
     2
 72
     2
 73
     3
 90
        0
 40
-0.6
 41
-30.0
 62
     5
 63
     8
 74
     1
 91
        4
 64
     7
 65
   257
 75
     1
175
     1
 42
1.0
 92
        8
 66
     8
 43
1.0
 76
     1
 77
     6
 78
     2
 67
     7
 79
     5
170
     0
171
     0
290
     0
174
     0
 93
        1
 44
0.0
173
     0
291
     1
 45
0.0
1001
ACAD
1000
AcDbSavedByObjectVersion
1070
     0
  0
VISUALSTYLE
  5
B2C
102
{ACAD_XDICTIONARY
360
1D7A
102
}
102
{ACAD_REACTORS
330
B23
102
}
330
B23
100
AcDbVisualStyle
  2
Conceptual
 70
     9
 71
     3
 72
     2
 73
     0
 90
        0
 40
-0.6
 41
-30.0
 62
     5
 63
     7
 74
     2
 91
        2
 64
     7
 65
   257
 75
     1
175
     1
 42
179.0
 92
        8
 66
     7
 43
1.0
 76
     1
 77
     6
 78
     2
 67
     7
 79
     3
170
     0
171
     0
290
     0
174
     0
 93
        1
 44
0.0
173
     0
291
     0
 45
0.0
1001
ACAD
1000
AcDbSavedByObjectVersion
1070
     0
  0
VISUALSTYLE
  5
B2E
102
{ACAD_XDICTIONARY
360
1D7E
102
}
102
{ACAD_REACTORS
330
B23
102
}
330
B23
100
AcDbVisualStyle
  2
Dim
 70
    11
 71
     2
 72
     2
 73
     0
 90
        0
 40
-0.6
 41
-30.0
 62
     5
 63
     7
 74
     1
 91
        4
 64
     7
 65
   257
 75
     1
175
     1
 42
1.0
 92
        8
 66
     7
 43
1.0
 76
     1
 77
     6
 78
     2
 67
     7
 79
     5
170
     0
171
     0
290
     0
174
     0
 93
        1
 44
-50.0
173
     0
291
     1
 45
0.0
1001
ACAD
1000
AcDbSavedByObjectVersion
1070
     0
  0
VISUALSTYLE
  5
B3B
102
{ACAD_XDICTIONARY
360
1D98
102
}
102
{ACAD_REACTORS
330
B23
102
}
330
B23
100
AcDbVisualStyle
  2
EdgeColorOff
 70
    22
 71
     2
 72
     2
 73
     0
 90
        0
 40
-0.6
 41
-30.0
 62
     5
 63
     7
 74
     1
 91
        4
 64
     7
 65
   257
 75
     1
175
     1
 42
1.0
 92
        8
 66
     7
 43
1.0
 76
     1
 77
     6
 78
     2
 67
     7
 79
     5
170
     0
171
     0
290
     0
174
     0
 93
        1
 44
0.0
173
     0
291
     1
 45
0.0
1001
ACAD
1000
AcDbSavedByObjectVersion
1070
     0
  0
VISUALSTYLE
  5
B32
102
{ACAD_XDICTIONARY
360
1D86
102
}
102
{ACAD_REACTORS
330
B23
102
}
330
B23
100
AcDbVisualStyle
  2
Facepattern
 70
    15
 71
     2
 72
     2
 73
     0
 90
        0
 40
-0.6
 41
-30.0
 62
     5
 63
     7
 74
     1
 91
        4
 64
     7
 65
   257
 75
     1
175
     1
 42
1.0
 92
        8
 66
     7
 43
1.0
 76
     1
 77
     6
 78
     2
 67
     7
 79
     5
170
     0
171
     0
290
     0
174
     0
 93
        1
 44
0.0
173
     0
291
     1
 45
0.0
1001
ACAD
1000
AcDbSavedByObjectVersion
1070
     0
  0
VISUALSTYLE
  5
B24
102
{ACAD_XDICTIONARY
360
1D6A
102
}
102
{ACAD_REACTORS
330
B23
102
}
330
B23
100
AcDbVisualStyle
  2
Flat
 70
     0
 71
     2
 72
     1
 73
     1
 90
        2
 40
-0.6
 41
30.0
 62
     5
 63
     7
 74
     0
 91
        0
 64
     7
 65
   257
 75
     1
175
     1
 42
1.0
 92
        8
 66
     7
 43
1.0
 76
     1
 77
     6
 78
     2
 67
     7
 79
     5
170
     0
171
     0
290
     0
174
     0
 93
       13
 44
0.0
173
     0
291
     1
 45
0.0
1001
ACAD
1000
AcDbSavedByObjectVersion
1070
     0
  0
VISUALSTYLE
  5
B25
102
{ACAD_XDICTIONARY
360
1D6C
102
}
102
{ACAD_REACTORS
330
B23
102
}
330
B23
100
AcDbVisualStyle
  2
FlatWithEdges
 70
     1
 71
     2
 72
     1
 73
     1
 90
        2
 40
-0.6
 41
30.0
 62
     5
 63
     7
 74
     1
 91
        0
 64
     7
 65
   257
 75
     1
175
     1
 42
1.0
 92
        0
 66
   257
 43
1.0
 76
     1
 77
     6
 78
     2
 67
     7
 79
     5
170
     0
171
     0
290
     0
174
     0
 93
       13
 44
0.0
173
     0
291
     1
 45
0.0
1001
ACAD
1000
AcDbSavedByObjectVersion
1070
     0
  0
VISUALSTYLE
  5
B26
102
{ACAD_XDICTIONARY
360
1D6E
102
}
102
{ACAD_REACTORS
330
B23
102
}
330
B23
100
AcDbVisualStyle
  2
Gouraud
 70
     2
 71
     2
 72
     2
 73
     1
 90
        2
 40
-0.6
 41
30.0
 62
     5
 63
     7
 74
     0
 91
        0
 64
     7
 65
   257
 75
     1
175
     1
 42
1.0
 92
        0
 66
     7
 43
1.0
 76
     1
 77
     6
 78
     2
 67
     7
 79
     5
170
     0
171
     0
290
     0
174
     0
 93
       13
 44
0.0
173
     0
291
     1
 45
0.0
1001
ACAD
1000
AcDbSavedByObjectVersion
1070
     0
  0
VISUALSTYLE
  5
B27
102
{ACAD_XDICTIONARY
360
1D70
102
}
102
{ACAD_REACTORS
330
B23
102
}
330
B23
100
AcDbVisualStyle
  2
GouraudWithEdges
 70
     3
 71
     2
 72
     2
 73
     1
 90
        2
 40
-0.6
 41
30.0
 62
     5
 63
     7
 74
     1
 91
        0
 64
     7
 65
   257
 75
     1
175
     1
 42
1.0
 92
        0
 66
   257
 43
1.0
 76
     1
 77
     6
 78
     2
 67
     7
 79
     5
170
     0
171
     0
290
     0
174
     0
 93
       13
 44
0.0
173
     0
291
     1
 45
0.0
1001
ACAD
1000
AcDbSavedByObjectVersion
1070
     0
  0
VISUALSTYLE
  5
B2B
102
{ACAD_XDICTIONARY
360
1D78
102
}
102
{ACAD_REACTORS
330
B23
102
}
330
B23
100
AcDbVisualStyle
  2
Hidden
 70
     6
 71
     1
 72
     2
 73
     2
 90
        0
 40
-0.6
 41
-30.0
 62
     5
 63
     7
 74
     2
 91
        2
 64
     7
 65
   257
 75
     2
175
     1
 42
40.0
 92
        0
 66
   257
 43
1.0
 76
     1
 77
     6
 78
     2
 67
     7
 79
     3
170
     0
171
     0
290
     0
174
     0
 93
        1
 44
0.0
173
     0
291
     0
 45
0.0
1001
ACAD
1000
AcDbSavedByObjectVersion
1070
     0
  0
VISUALSTYLE
  5
B39
102
{ACAD_XDICTIONARY
360
1D94
102
}
102
{ACAD_REACTORS
330
B23
102
}
330
B23
100
AcDbVisualStyle
  2
JitterOff
 70
    20
 71
     2
 72
     2
 73
     0
 90
        0
 40
-0.6
 41
-30.0
 62
     5
 63
     7
 74
     1
 91
        4
 64
     7
 65
   257
 75
     1
175
     1
 42
1.0
 92
       10
 66
     7
 43
1.0
 76
     1
 77
     6
 78
     2
 67
     7
 79
     5
170
     0
171
     0
290
     0
174
     0
 93
        1
 44
0.0
173
     0
291
     1
 45
0.0
1001
ACAD
1000
AcDbSavedByObjectVersion
1070
     0
  0
VISUALSTYLE
  5
B31
102
{ACAD_XDICTIONARY
360
1D84
102
}
102
{ACAD_REACTORS
330
B23
102
}
330
B23
100
AcDbVisualStyle
  2
Linepattern
 70
    14
 71
     2
 72
     2
 73
     0
 90
        0
 40
-0.6
 41
-30.0
 62
     5
 63
     7
 74
     1
 91
        4
 64
     7
 65
   257
 75
     7
175
     7
 42
1.0
 92
        8
 66
     7
 43
1.0
 76
     1
 77
     6
 78
     2
 67
     7
 79
     5
170
     0
171
     0
290
     0
174
     0
 93
        1
 44
0.0
173
     0
291
     1
 45
0.0
1001
ACAD
1000
AcDbSavedByObjectVersion
1070
     0
  0
VISUALSTYLE
  5
B3A
102
{ACAD_XDICTIONARY
360
1D96
102
}
102
{ACAD_REACTORS
330
B23
102
}
330
B23
100
AcDbVisualStyle
  2
OverhangOff
 70
    21
 71
     2
 72
     2
 73
     0
 90
        0
 40
-0.6
 41
-30.0
 62
     5
 63
     7
 74
     1
 91
        4
 64
     7
 65
   257
 75
     1
175
     1
 42
1.0
 92
        9
 66
     7
 43
1.0
 76
     1
 77
     6
 78
     2
 67
     7
 79
     5
170
     0
171
     0
290
     0
174
     0
 93
        1
 44
0.0
173
     0
291
     1
 45
0.0
1001
ACAD
1000
AcDbSavedByObjectVersion
1070
     0
  0
VISUALSTYLE
  5
B2D
102
{ACAD_XDICTIONARY
360
1D7C
102
}
102
{ACAD_REACTORS
330
B23
102
}
330
B23
100
AcDbVisualStyle
  2
Realistic
 70
     8
 71
     2
 72
     2
 73
     0
 90
        2
 40
-0.6
 41
30.0
 62
     5
 63
     7
 74
     0
 91
        0
 64
     7
 65
   257
 75
     1
175
     1
 42
1.0
 92
        8
 66
   257
 43
1.0
 76
     1
 77
     6
 78
     2
 67
     7
 79
     3
170
     0
171
     0
290
     0
174
     0
 93
       13
 44
0.0
173
     0
291
     0
 45
0.0
1001
ACAD
1000
AcDbSavedByObjectVersion
1070
     0
  0
VISUALSTYLE
  5
B38
102
{ACAD_XDICTIONARY
360
1D92
102
}
102
{ACAD_REACTORS
330
B23
102
}
330
B23
100
AcDbVisualStyle
  2
Shaded
 70
    27
 71
     2
 72
     2
 73
     1
 90
        2
 40
-0.6
 41
30.0
 62
     5
 63
     7
 74
     0
 91
        4
 64
     7
 65
   257
 75
     1
175
     1
 42
1.0
 92
        8
 66
   257
 43
1.0
 76
     1
 77
     6
 78
     2
 67
     8
 79
     3
170
     0
171
     0
290
     0
174
     0
 93
        5
 44
0.0
173
     0
291
     0
 45
0.0
1001
ACAD
1000
AcDbSavedByObjectVersion
1070
     0
  0
VISUALSTYLE
  5
B37
102
{ACAD_XDICTIONARY
360
1D90
102
}
102
{ACAD_REACTORS
330
B23
102
}
330
B23
100
AcDbVisualStyle
  2
Shaded with edges
 70
    26
 71
     2
 72
     2
 73
     1
 90
        2
 40
-0.6
 41
30.0
 62
     5
 63
     7
 74
     1
 91
       10
 64
     7
 65
   257
 75
     2
175
     1
 42
1.0
 92
        8
 66
   257
 43
1.0
 76
     1
 77
     6
 78
     2
 67
     7
 79
     3
170
     0
171
     0
290
     0
174
     0
 93
        5
 44
0.0
173
     0
291
     0
 45
0.0
1001
ACAD
1000
AcDbSavedByObjectVersion
1070
     0
  0
VISUALSTYLE
  5
B34
102
{ACAD_XDICTIONARY
360
1D8A
102
}
102
{ACAD_REACTORS
330
B23
102
}
330
B23
100
AcDbVisualStyle
  2
Shades of Gray
 70
    23
 71
     2
 72
     2
 73
     3
 90
        0
 40
-0.6
 41
-30.0
 62
     5
 63
     7
 74
     2
 91
        2
 64
     7
 65
     7
 75
     1
175
     1
 42
40.0
 92
        8
 66
     7
 43
1.0
 76
     1
 77
     6
 78
     2
 67
     7
 79
     3
170
     0
171
     0
290
     0
174
     0
 93
        1
 44
0.0
173
     0
291
     0
 45
0.0
1001
ACAD
1000
AcDbSavedByObjectVersion
1070
     0
  0
VISUALSTYLE
  5
B35
102
{ACAD_XDICTIONARY
360
1D8C
102
}
102
{ACAD_REACTORS
330
B23
102
}
330
B23
100
AcDbVisualStyle
  2
Sketchy
 70
    24
 71
     1
 72
     2
 73
     2
 90
        0
 40
-0.6
 41
-30.0
 62
     5
 63
     7
 74
     2
 91
        2
 64
     7
 65
     7
 75
     1
175
     1
 42
40.0
 92
       11
 66
     7
 43
1.0
 76
     1
 77
     6
 78
     2
 67
     7
 79
     6
170
     0
171
     0
290
     0
174
     0
 93
        1
 44
0.0
173
     0
291
     0
 45
0.0
1001
ACAD
1000
AcDbSavedByObjectVersion
1070
     0
  0
VISUALSTYLE
  5
B30
102
{ACAD_XDICTIONARY
360
1D82
102
}
102
{ACAD_REACTORS
330
B23
102
}
330
B23
100
AcDbVisualStyle
  2
Thicken
 70
    13
 71
     2
 72
     2
 73
     0
 90
        0
 40
-0.6
 41
-30.0
 62
     5
 63
     7
 74
     1
 91
        4
 64
     7
 65
   257
 75
     1
175
     1
 42
1.0
 92
       12
 66
     7
 43
1.0
 76
     1
 77
     6
 78
     2
 67
     7
 79
     5
170
     0
171
     0
290
     0
174
     0
 93
        1
 44
0.0
173
     0
291
     1
 45
0.0
1001
ACAD
1000
AcDbSavedByObjectVersion
1070
     0
  0
VISUALSTYLE
  5
B2A
102
{ACAD_XDICTIONARY
360
1D76
102
}
102
{ACAD_REACTORS
330
B23
102
}
330
B23
100
AcDbVisualStyle
  2
Wireframe
 70
     5
 71
     0
 72
     2
 73
     0
 90
        0
 40
-0.6
 41
-30.0
 62
     5
 63
     7
 74
     1
 91
        4
 64
     7
 65
   257
 75
     1
175
     1
 42
1.0
 92
        0
 66
   257
 43
1.0
 76
     1
 77
     6
 78
     2
 67
     7
 79
     3
170
     0
171
     0
290
     0
174
     0
 93
        1
 44
0.0
173
     0
291
     0
 45
0.0
1001
ACAD
1000
AcDbSavedByObjectVersion
1070
     0
  0
VISUALSTYLE
  5
B36
102
{ACAD_XDICTIONARY
360
1D8E
102
}
102
{ACAD_REACTORS
330
B23
102
}
330
B23
100
AcDbVisualStyle
  2
X-Ray
 70
    25
 71
     2
 72
     2
 73
     1
 90
        1
 40
0.5
 41
-30.0
 62
     5
 63
     7
 74
     1
 91
        0
 64
     7
 65
   257
 75
     1
175
     1
 42
1.0
 92
        8
 66
     7
 43
1.0
 76
     1
 77
     6
 78
     2
 67
     7
 79
     3
170
     0
171
     0
290
     0
174
     0
 93
       13
 44
0.0
173
     0
291
     0
 45
0.0
1001
ACAD
1000
AcDbSavedByObjectVersion
1070
     0
  0
DICTIONARYVAR
  5
B6A
102
{ACAD_REACTORS
330
B66
102
}
330
B66
100
DictionaryVariables
280
     0
  1
1:1
  0
DICTIONARYVAR
  5
B68
102
{ACAD_REACTORS
330
B66
102
}
330
B66
100
DictionaryVariables
280
     0
  1
STANDARD
  0
DICTIONARYVAR
  5
B67
102
{ACAD_REACTORS
330
B66
102
}
330
B66
100
DictionaryVariables
280
     0
  1
STANDARD
  0
DICTIONARYVAR
  5
1D5C
102
{ACAD_REACTORS
330
B66
102
}
330
B66
100
DictionaryVariables
280
     0
  1
1
  0
DICTIONARYVAR
  5
1D5A
102
{ACAD_REACTORS
330
B66
102
}
330
B66
100
DictionaryVariables
280
     0
  1
0
  0
DICTIONARYVAR
  5
B6C
102
{ACAD_REACTORS
330
B66
102
}
330
B66
100
DictionaryVariables
280
     0
  1
1
  0
DICTIONARYVAR
  5
B6D
102
{ACAD_REACTORS
330
B66
102
}
330
B66
100
DictionaryVariables
280
     0
  1
15
  0
DICTIONARYVAR
  5
B6B
102
{ACAD_REACTORS
330
B66
102
}
330
B66
100
DictionaryVariables
280
     0
  1
0
  0
DICTIONARYVAR
  5
B69
102
{ACAD_REACTORS
330
B66
102
}
330
B66
100
DictionaryVariables
280
     0
  1
0
  0
DICTIONARYVAR
  5
1D59
102
{ACAD_REACTORS
330
B66
102
}
330
B66
100
DictionaryVariables
280
     0
  1
127
  0
DICTIONARYVAR
  5
1D5B
102
{ACAD_REACTORS
330
B66
102
}
330
B66
100
DictionaryVariables
280
     0
  1
0
  0
DICTIONARY
  5
1D62
330
1E
100
AcDbDictionary
280
     1
281
     1
  3
ACAD_XREC_ROUNDTRIP
360
1D63
  0
DICTIONARY
  5
1D65
330
26
100
AcDbDictionary
280
     1
281
     1
  3
ACAD_XREC_ROUNDTRIP
360
1D66
  0
DICTIONARY
  5
1517
330
22
100
AcDbDictionary
280
     1
281
     1
  3
ACAD_XREC_ROUNDTRIP
360
1D64
  3
ADSK_XREC_LAYOUTTHUMBNAIL
360
1518
  0
DICTIONARY
  5
B14
330
B13
100
AcDbDictionary
280
     1
281
     1
  3
ACAD_XREC_ROUNDTRIP
360
1D68
  3
BUMPTILE
360
B16
  3
DIFFUSETILE
360
B15
  3
OPACITYTILE
360
B19
  3
REFLECTIONTILE
360
B18
  3
REFRACTIONTILE
360
B1A
  3
SPECULARTILE
360
B17
  0
DICTIONARY
  5
B0C
330
B0B
100
AcDbDictionary
280
     1
281
     1
  3
ACAD_XREC_ROUNDTRIP
360
1D67
  3
BUMPTILE
360
B0E
  3
DIFFUSETILE
360
B0D
  3
OPACITYTILE
360
B11
  3
REFLECTIONTILE
360
B10
  3
REFRACTIONTILE
360
B12
  3
SPECULARTILE
360
B0F
  0
DICTIONARY
  5
B1C
330
B1B
100
AcDbDictionary
280
     1
281
     1
  3
ACAD_XREC_ROUNDTRIP
360
1D69
  3
BUMPTILE
360
B1E
  3
DIFFUSETILE
360
B1D
  3
OPACITYTILE
360
B21
  3
REFLECTIONTILE
360
B20
  3
REFRACTIONTILE
360
B22
  3
SPECULARTILE
360
B1F
  0
DICTIONARY
  5
1D5E
330
B51
100
AcDbDictionary
280
     1
281
     1
  3
ACAD_XREC_ROUNDTRIP
360
1D5F
  0
DICTIONARY
  5
1602
330
B3D
100
AcDbDictionary
280
     1
281
     1
  3
ACAD_ROUNDTRIP_2008_TABLESTYLE_CELLSTYLEMAP
360
1D5D
  3
ACAD_XREC_ROUNDTRIP
360
1D9A
  0
DICTIONARY
  5
1D74
330
B29
100
AcDbDictionary
280
     1
281
     1
  3
ACAD_XREC_ROUNDTRIP
360
1D75
  0
DICTIONARY
  5
1D72
330
B28
100
AcDbDictionary
280
     1
281
     1
  3
ACAD_XREC_ROUNDTRIP
360
1D73
  0
DICTIONARY
  5
1D80
330
B2F
100
AcDbDictionary
280
     1
281
     1
  3
ACAD_XREC_ROUNDTRIP
360
1D81
  0
DICTIONARY
  5
1D88
330
B33
100
AcDbDictionary
280
     1
281
     1
  3
ACAD_XREC_ROUNDTRIP
360
1D89
  0
DICTIONARY
  5
1D7A
330
B2C
100
AcDbDictionary
280
     1
281
     1
  3
ACAD_XREC_ROUNDTRIP
360
1D7B
  0
DICTIONARY
  5
1D7E
330
B2E
100
AcDbDictionary
280
     1
281
     1
  3
ACAD_XREC_ROUNDTRIP
360
1D7F
  0
DICTIONARY
  5
1D98
330
B3B
100
AcDbDictionary
280
     1
281
     1
  3
ACAD_XREC_ROUNDTRIP
360
1D99
  0
DICTIONARY
  5
1D86
330
B32
100
AcDbDictionary
280
     1
281
     1
  3
ACAD_XREC_ROUNDTRIP
360
1D87
  0
DICTIONARY
  5
1D6A
330
B24
100
AcDbDictionary
280
     1
281
     1
  3
ACAD_XREC_ROUNDTRIP
360
1D6B
  0
DICTIONARY
  5
1D6C
330
B25
100
AcDbDictionary
280
     1
281
     1
  3
ACAD_XREC_ROUNDTRIP
360
1D6D
  0
DICTIONARY
  5
1D6E
330
B26
100
AcDbDictionary
280
     1
281
     1
  3
ACAD_XREC_ROUNDTRIP
360
1D6F
  0
DICTIONARY
  5
1D70
330
B27
100
AcDbDictionary
280
     1
281
     1
  3
ACAD_XREC_ROUNDTRIP
360
1D71
  0
DICTIONARY
  5
1D78
330
B2B
100
AcDbDictionary
280
     1
281
     1
  3
ACAD_XREC_ROUNDTRIP
360
1D79
  0
DICTIONARY
  5
1D94
330
B39
100
AcDbDictionary
280
     1
281
     1
  3
ACAD_XREC_ROUNDTRIP
360
1D95
  0
DICTIONARY
  5
1D84
330
B31
100
AcDbDictionary
280
     1
281
     1
  3
ACAD_XREC_ROUNDTRIP
360
1D85
  0
DICTIONARY
  5
1D96
330
B3A
100
AcDbDictionary
280
     1
281
     1
  3
ACAD_XREC_ROUNDTRIP
360
1D97
  0
DICTIONARY
  5
1D7C
330
B2D
100
AcDbDictionary
280
     1
281
     1
  3
ACAD_XREC_ROUNDTRIP
360
1D7D
  0
DICTIONARY
  5
1D92
330
B38
100
AcDbDictionary
280
     1
281
     1
  3
ACAD_XREC_ROUNDTRIP
360
1D93
  0
DICTIONARY
  5
1D90
330
B37
100
AcDbDictionary
280
     1
281
     1
  3
ACAD_XREC_ROUNDTRIP
360
1D91
  0
DICTIONARY
  5
1D8A
330
B34
100
AcDbDictionary
280
     1
281
     1
  3
ACAD_XREC_ROUNDTRIP
360
1D8B
  0
DICTIONARY
  5
1D8C
330
B35
100
AcDbDictionary
280
     1
281
     1
  3
ACAD_XREC_ROUNDTRIP
360
1D8D
  0
DICTIONARY
  5
1D82
330
B30
100
AcDbDictionary
280
     1
281
     1
  3
ACAD_XREC_ROUNDTRIP
360
1D83
  0
DICTIONARY
  5
1D76
330
B2A
100
AcDbDictionary
280
     1
281
     1
  3
ACAD_XREC_ROUNDTRIP
360
1D77
  0
DICTIONARY
  5
1D8E
330
B36
100
AcDbDictionary
280
     1
281
     1
  3
ACAD_XREC_ROUNDTRIP
360
1D8F
  0
XRECORD
  5
1D63
102
{ACAD_REACTORS
330
1D62
102
}
330
1D62
100
AcDbXrecord
280
     1
102
SHADEPLOT
 70
     0
102
SHADEPLOTRESLEVEL
 70
     2
102
SHADEPLOTCUSTOMDPI
 70
   300
  0
XRECORD
  5
1D66
102
{ACAD_REACTORS
330
1D65
102
}
330
1D65
100
AcDbXrecord
280
     1
102
SHADEPLOT
 70
     0
102
SHADEPLOTRESLEVEL
 70
     2
102
SHADEPLOTCUSTOMDPI
 70
   300
  0
XRECORD
  5
1D64
102
{ACAD_REACTORS
330
1517
102
}
330
1517
100
AcDbXrecord
280
     1
102
SHADEPLOT
 70
     0
102
SHADEPLOTRESLEVEL
 70
     2
102
SHADEPLOTCUSTOMDPI
 70
   300
  0
XRECORD
  5
1518
102
{ACAD_REACTORS
330
1517
102
}
330
1517
100
AcDbXrecord
280
     1
310
2800000000010000A5000000010008000000000000A50000000000000000000000010000000000003028210000000000C8C8C8000000000000000000000000000000000000000000000000000000000000000000330000006600000099000000CC000000FF00000000330000333300006633000099330000CC330000FF3300
310
0000660000336600006666000099660000CC660000FF66000000990000339900006699000099990000CC990000FF99000000CC000033CC000066CC000099CC0000CCCC0000FFCC000000FF000033FF000066FF000099FF0000CCFF0000FFFF000000003300330033006600330099003300CC003300FF003300003333003333
310
33006633330099333300CC333300FF33330000663300336633006666330099663300CC663300FF66330000993300339933006699330099993300CC993300FF99330000CC330033CC330066CC330099CC3300CCCC3300FFCC330000FF330033FF330066FF330099FF3300CCFF3300FFFF330000006600330066006600660099
310
006600CC006600FF00660000336600333366006633660099336600CC336600FF33660000666600336666006666660099666600CC666600FF66660000996600339966006699660099996600CC996600FF99660000CC660033CC660066CC660099CC6600CCCC6600FFCC660000FF660033FF660066FF660099FF6600CCFF6600
310
FFFF660000009900330099006600990099009900CC009900FF00990000339900333399006633990099339900CC339900FF33990000669900336699006666990099669900CC669900FF66990000999900339999006699990099999900CC999900FF99990000CC990033CC990066CC990099CC9900CCCC9900FFCC990000FF99
310
0033FF990066FF990099FF9900CCFF9900FFFF99000000CC003300CC006600CC009900CC00CC00CC00FF00CC000033CC003333CC006633CC009933CC00CC33CC00FF33CC000066CC003366CC006666CC009966CC00CC66CC00FF66CC000099CC003399CC006699CC009999CC00CC99CC00FF99CC0000CCCC0033CCCC0066CC
310
CC0099CCCC00CCCCCC00FFCCCC0000FFCC0033FFCC0066FFCC0099FFCC00CCFFCC00FFFFCC000000FF003300FF006600FF009900FF00CC00FF00FF00FF000033FF003333FF006633FF009933FF00CC33FF00FF33FF000066FF003366FF006666FF009966FF00CC66FF00FF66FF000099FF003399FF006699FF009999FF00CC
310
99FF00FF99FF0000CCFF0033CCFF0066CCFF0099CCFF00CCCCFF00FFCCFF0000FFFF0033FFFF0066FFFF0099FFFF00CCFFFF00FFFFFF00000000000D0D0D001A1A1A00282828003535350043434300505050005D5D5D006B6B6B00787878008686860093939300A1A1A100AEAEAE00BBBBBB00C9C9C900D6D6D600E4E4E400
310
F1F1F100FFFFFF000000000000000000000000000000000000000000000000000000000000000000000000000000000000000000000000000000000000000000000000000000000000000000000000000000000000000000000000000000000000000000000000000000000000000000000000000000000000000000000000
310
00000000000000000000000000000000000000000000000000000000000000000000000000000000000000000000000000000000000000000000000000000000000000000000000000000000000000000000000000000000000000000000000000000000000000000000000000000000000000000000000000000000000000
310
00000000000000000000000000000000000000000000000000000000000000000000000000000000000000000000000000000000000000000000000000000000000000000000000000000000000000000000000000000000000000000000000000000000000000000000000000000000000000000000000000000000000000
310
00000000000000000000000000000000000000000000000000000000000000000000000000000000000000000000000000000000000000000000000000000000000000000000000000000000000000000000000000000000000000000000000000000000000000000000000000000000000000000000000000000000000000
310
00000000000000000000000000000000000000000000000000000000000000000000000000000000000000000000000000000000000000000000000000000000000000000000000000000000000000000000000000000000000000000000000000000000000000000000000000000000000000000000000000000000000000
310
00000000000000000000000000000000000000000000000000000000000000000000000000000000000000000000000000000000000000000000000000000000000000000000000000000000000000000000000000000000000000000000000000000000000000000000000000000000000000000000000000000000000000
310
00000000000000000000000000000000000000000000000000000000000000000000000000000000000000000000000000000000000000000000000000000000000000000000000000000000000000000000000000000000000000000000000000000000000000000000000000000000000000000000000000000000000000
310
00000000000000000000000000000000000000000000000000000000000000000000000000000000000000000000000000000000000000000000000000000000000000000000000000000000000000000000000000000000000000000000000000000000000000000000000000000000000000000000000000000000000000
310
00000000000000000000000000000000000000000000000000000000000000000000000000000000000000000000000000000000000000000000000000000000000000000000000000000000000000000000000000000000000000000000000000000000000000000000000000000000000000000000000000000000000000
310
00000000000000000000000000000000000000000000000000000000000000000000000000000000000000000000000000000000000000000000000000000000000000000000000000000000000000000000000000000000000000000000000000000000000000000000000000000000000000000000000000000000000000
310
00000000000000000000000000000000000000000000000000000000000000000000000000000000000000000000000000000000000000000000000000000000000000000000000000000000000000000000000000000000000000000000000000000000000000000000000000000000000000000000000000000000000000
310
00000000000000000000000000000000000000000000000000000000000000000000000000000000000000000000000000000000000000000000000000000000000000000000000000000000000000000000000000000000000000000000000000000000000000000000000000000000000000000000000000000000000000
310
00000000000000000000000000000000000000000000000000000000000000000000000000000000000000000000000000000000000000000000000000000000000000000000000000000000000000000000000000000000000000000000000000000000000000000000000000000000000000000000000000000000000000
310
00000000000000000000000000000000000000000000000000000000000000000000000000000000000000000000000000000000000000000000000000000000000000000000000000000000000000000000000000000000000000000000000000000000000000000000000000000000000000000000000000000000000000
310
00000000000000000000000000000000000000000000000000000000000000000000000000000000000000000000000000000000000000000000000000000000000000000000000000000000000000000000000000000000000000000000000000000000000000000000000000000000000000000000000000000000000000
310
00000000000000000000000000000000000000000000000000000000000000000000000000000000000000000000000000000000000000000000000000000000000000000000000000000000000000000000000000000000000000000000000000000000000000000000000000000000000000000000000000000000000000
310
00000000000000000000000000000000000000000000000000000000000000000000000000000000000000000000000000000000000000000000000000000000000000000000000000000000000000000000000000000000000000000000000000000000000000000000000000000000000000000000000000000000000000
310
00000000000000000000000000000000000000000000000000000000000000000000000000000000000000000000000000000000000000000000000000000000000000000000000000000000000000000000000000000000000000000000000000000000000000000000000000000000000000000000000000000000000000
310
00000000000000000000000000000000000000000000000000000000000000000000000000000000000000000000000000000000000000000000000000000000000000000000000000000000000000000000000000000000000000000000000000000000000000000000000000000000000000000000000000000000000000
310
00000000000000000000000000000000000000000000000000000000000000000000000000000000000000000000000000000000000000000000000000000000000000000000000000000000000000000000000000000000000000000000000000000000000000000000000000000000000000000000000000000000000000
310
00000000000000000000000000000000000000000000000000000000000000000000000000000000000000000000000000000000000000000000000000000000000000000000000000000000000000000000000000000000000000000000000000000000000000000000000000000000000000000000000000000000000000
310
00000000000000000000000000000000000000000000000000000000000000000000000000000000000000000000000000000000000000000000000000000000000000000000000000000000000000000000000000000000000000000000000000000000000000000000000000000000000000000000000000000000000000
310
00000000000000000000000000000000000000000000000000000000000000000000000000000000000000000000000000000000000000000000000000000000000000000000000000000000000000000000000000000000000000000000000000000000000000000000000000000000000000000000000000000000000000
310
00000000000000000000000000000000000000000000000000000000000000000000000000000000000000000000000000000000000000000000000000000000000000000000000000000000000000000000000000000000000000000000000000000000000000000000000000000000000000000000000000000000000000
310
00000000000000000000000000000000000000000000000000000000000000000000000000000000000000000000000000000000000000000000000000000000000000000000000000000000000000000000000000000000000000000000000000000000000000000000000000000000000000000000000000000000000000
310
00000000000000000000000000000000000000000000000000000000000000000000000000000000000000000000000000000000000000000000000000000000000000000000000000000000000000000000000000000000000000000000000000000000000000000000000000000000000000000000000000000000000000
310
00000000000000000000000000000000000000000000000000000000000000000000000000000000000000000000000000000000000000000000000000000000000000000000000000000000000000000000000000000000000000000000000000000000000000000000000000000000000000000000000000000000000000
310
00000000000000000000000000000000000000000000000000000000000000000000000000000000000000000000000000000000000000000000000000000000000000000000000000000000000000000000000000000000000000000000000000000000000000000000000000000000000000000000000000000000000000
310
00000000000000000000000000000000000000000000000000000000000000000000000000000000000000000000000000000000000000000000000000000000000000000000000000000000000000000000000000000000000000000000000000000000000000000000000000000000000000000000000000000000000000
310
00000000000000000000000000000000000000000000000000000000000000000000000000000000000000000000000000000000000000000000000000000000000000000000000000000000000000000000000000000000000000000000000000000000000000000000000000000000000000000000000000000000000000
310
00000000000000000000000000000000000000000000000000000000000000000000000000000000000000000000000000000000000000000000000000000000000000000000000000000000000000000000000000000000000000000000000000000000000000000000000000000000000000000000000000000000000000
310
00000000000000000000000000000000000000000000000000000000000000000000000000000000000000000000000000000000000000000000000000000000000000000000000000000000000000000000000000000000000000000000000000000000000000000000000000000000000000000000000000000000000000
310
00000000000000000000000000000000000000000000000000000000000000000000000000000000000000000000000000000000000000000000000000000000000000000000000000000000000000000000000000000000000000000000000000000000000000000000000000000000000000000000000000000000000000
310
00000000000000000000000000000000000000000000000000000000000000000000000000000000000000000000000000000000000000000000000000000000000000000000000000000000000000000000000000000000000000000000000000000000000000000000000000000000000000000000000000000000000000
310
00000000000000000000000000000000000000000000000000000000000000000000000000000000000000000000000000000000000000000000000000000000000000000000000000000000000000000000000000000000000000000000000000000000000000000000000000000000000000000000000000000000000000
310
00000000000000000000000000000000000000000000000000000000000000000000000000000000000000000000000000000000000000000000000000000000000000000000000000000000000000000000000000000000000000000000000000000000000000000000000000000000000000000000000000000000000000
310
00000000000000000000000000000000000000000000000000000000000000000000000000000000000000000000000000000000000000000000000000000000000000000000000000000000000000000000000000000000000000000000000000000000000000000000000000000000000000000000000000000000000000
310
00000000000000000000000000000000000000000000000000000000000000000000000000000000000000000000000000000000000000000000000000000000000000000000000000000000000000000000000000000000000000000000000000000000000000000000000000000000000000000000000000000000000000
310
00000000000000000000000000000000000000000000000000000000000000000000000000000000000000000000000000000000000000000000000000000000000000000000000000000000000000000000000000000000000000000000000000000000000000000000000000000000000000000000000000000000000000
310
00000000000000000000000000000000000000000000000000000000000000000000000000000000000000000000000000000000000000000000000000000000000000000000000000000000000000000000000000000000000000000000000000000000000000000000000000000000000000000000000000000000000000
310
00000000000000000000000000000000000000000000000000000000000000000000000000000000000000000000000000000000000000000000000000000000000000000000000000000000000000000000000000000000000000000000000000000000000000000000000000000000000000000000000000000000000000
310
00000000000000000000000000000000000000000000000000000000000000000000000000000000000000000000000000000000000000000000000000000000000000000000000000000000000000000000000000000000000000000000000000000000000000000000000000000000000000000000000000000000000000
310
00000000000000000000000000000000000000000000000000000000000000000000000000000000000000000000000000000000000000000000000000000000000000000000000000000000000000000000000000000000000000000000000000000000000000000000000000000000000000000000000000000000000000
310
00000000000000000000000000000000000000000000000000000000000000000000000000000000000000000000000000000000000000000000000000000000000000000000000000000000000000000000000000000000000000000000000000000000000000000000000000000000000000000000000000000000000000
310
00000000000000000000000000000000000000000000000000000000000000000000000000000000000000000000000000000000000000000000000000000000000000000000000000000000000000000000000000000000000000000000000000000000000000000000000000000000000000000000000000000000000000
310
00000000000000000000000000000000000000000000000000000000000000000000000000000000000000000000000000000000000000000000000000000000000000000000000000000000000000000000000000000000000000000000000000000000000000000000000000000000000000000000000000000000000000
310
00000000000000000000000000000000000000000000000000000000000000000000000000000000000000000000000000000000000000000000000000000000000000000000000000000000000000000000000000000000000000000000000000000000000000000000000000000000000000000000000000000000000000
310
00000000000000000000000000000000000000000000000000000000000000000000000000000000000000000000000000000000000000000000000000000000000000000000000000000000000000000000000000000000000000000000000000000000000000000000000000000000000000000000000000000000000000
310
00000000000000000000000000000000000000000000000000000000000000000000000000000000000000000000000000000000000000000000000000000000000000000000000000000000000000000000000000000000000000000000000000000000000000000000000000000000000000000000000000000000000000
310
00000000000000000000000000000000000000000000000000000000000000000000000000000000000000000000000000000000000000000000000000000000000000000000000000000000000000000000000000000000000000000000000000000000000000000000000000000000000000000000000000000000000000
310
00000000000000000000000000000000000000000000000000000000000000000000000000000000000000000000000000000000000000000000000000000000000000000000000000000000000000000000000000000000000000000000000000000000000000000000000000000000000000000000000000000000000000
310
00000000000000000000000000000000000000000000000000000000000000000000000000000000000000000000000000000000000000000000000000000000000000000000000000000000000000000000000000000000000000000000000000000000000000000000000000000000000000000000000000000000000000
310
00000000000000000000000000000000000000000000000000000000000000000000000000000000000000000000000000000000000000000000000000000000000000000000000000000000000000000000000000000000000000000000000000000000000000000000000000000000000000000000000000000000000000
310
00000000000000000000000000000000000000000000000000000000000000000000000000000000000000000000000000000000000000000000000000000000000000000000000000000000000000000000000000000000000000000000000000000000000000000000000000000000000000000000000000000000000000
310
00000000000000000000000000000000000000000000000000000000000000000000000000000000000000000000000000000000000000000000000000000000000000000000000000000000000000000000000000000000000000000000000000000000000000000000000000000000000000000000000000000000000000
310
00000000000000000000000000000000000000000000000000000000000000000000000000000000000000000000000000000000000000000000000000000000000000000000000000000000000000000000000000000000000000000000000000000000000000000000000000000000000000000000000000000000000000
310
00000000000000000000000000000000000000000000000000000000000000000000000000000000000000000000000000000000000000000000000000000000000000000000000000000000000000000000000000000000000000000000000000000000000000000000000000000000000000000000000000000000000000
310
00000000000000000000000000000000000000000000000000000000000000000000000000000000000000000000000000000000000000000000000000000000000000000000000000000000000000000000000000000000000000000000000000000000000000000000000000000000000000000000000000000000000000
310
00000000000000000000000000000000000000000000000000000000000000000000000000000000000000000000000000000000000000000000000000000000000000000000000000000000000000000000000000000000000000000000000000000000000000000000000000000000000000000000000000000000000000
310
00000000000000000000000000000000000000000000000000000000000000000000000000000000000000000000000000000000000000000000000000000000000000000000000000000000000000000000000000000000000000000000000000000000000000000000000000000000000000000000000000000000000000
310
00000000000000000000000000000000000000000000000000000000000000000000000000000000000000000000000000000000000000000000000000000000000000000000000000000000000000000000000000000000000000000000000000000000000000000000000000000000000000000000000000000000000000
310
00000000000000000000000000000000000000000000000000000000000000000000000000000000000000000000000000000000000000000000000000000000000000000000000000000000000000000000000000000000000000000000000000000000000000000000000000000000000000000000000000000000000000
310
00000000000000000000000000000000000000000000000000000000000000000000000000000000000000000000000000000000000000000000000000000000000000000000000000000000000000000000000000000000000000000000000000000000000000000000000000000000000000000000000000000000000000
310
00000000000000000000000000000000000000000000000000000000000000000000000000000000000000000000000000000000000000000000000000000000000000000000000000000000000000000000000000000000000000000000000000000000000000000000000000000000000000000000000000000000000000
310
00000000000000000000000000000000000000000000000000000000000000000000000000000000000000000000000000000000000000000000000000000000000000000000000000000000000000000000000000000000000000000000000000000000000000000000000000000000000000000000000000000000000000
310
00000000000000000000000000000000000000000000000000000000000000000000000000000000000000000000000000000000000000000000000000000000000000000000000000000000000000000000000000000000000000000000000000000000000000000000000000000000000000000000000000000000000000
310
00000000000000000000000000000000000000000000000000000000000000000000000000000000000000000000000000000000000000000000000000000000000000000000000000000000000000000000000000000000000000000000000000000000000000000000000000000000000000000000000000000000000000
310
00000000000000000000000000000000000000000000000000000000000000000000000000000000000000000000000000000000000000000000000000000000000000000000000000000000000000000000000000000000000000000000000000000000000000000000000000000000000000000000000000000000000000
310
00000000000000000000000000000000000000000000000000000000000000000000000000000000000000000000000000000000000000000000000000000000000000000000000000000000000000000000000000000000000000000000000000000000000000000000000000000000000000000000000000000000000000
310
00000000000000000000000000000000000000000000000000000000000000000000000000000000000000000000000000000000000000000000000000000000000000000000000000000000000000000000000000000000000000000000000000000000000000000000000000000000000000000000000000000000000000
310
00000000000000000000000000000000000000000000000000000000000000000000000000000000000000000000000000000000000000000000000000000000000000000000000000000000000000000000000000000000000000000000000000000000000000000000000000000000000000000000000000000000000000
310
00000000000000000000000000000000000000000000000000000000000000000000000000000000000000000000000000000000000000000000000000000000000000000000000000000000000000000000000000000000000000000000000000000000000000000000000000000000000000000000000000000000000000
310
00000000000000000000000000000000000000000000000000000000000000000000000000000000000000000000000000000000000000000000000000000000000000000000000000000000000000000000000000000000000000000000000000000000000000000000000000000000000000000000000000000000000000
310
00000000000000000000000000000000000000000000000000000000000000000000000000000000000000000000000000000000000000000000000000000000000000000000000000000000000000000000000000000000000000000000000000000000000000000000000000000000000000000000000000000000000000
310
00000000000000000000000000000000000000000000000000000000000000000000000000000000000000000000000000000000000000000000000000000000000000000000000000000000000000000000000000000000000000000000000000000000000000000000000000000000000000000000000000000000000000
310
00000000000000000000000000000000000000000000000000000000000000000000000000000000000000000000000000000000000000000000000000000000000000000000000000000000000000000000000000000000000000000000000000000000000000000000000000000000000000000000000000000000000000
310
00000000000000000000000000000000000000000000000000000000000000000000000000000000000000000000000000000000000000000000000000000000000000000000000000000000000000000000000000000000000000000000000000000000000000000000000000000000000000000000000000000000000000
310
00000000000000000000000000000000000000000000000000000000000000000000000000000000000000000000000000000000000000000000000000000000000000000000000000000000000000000000000000000000000000000000000000000000000000000000000000000000000000000000000000000000000000
310
00000000000000000000000000000000000000000000000000000000000000000000000000000000000000000000000000000000000000000000000000000000000000000000000000000000000000000000000000000000000000000000000000000000000000000000000000000000000000000000000000000000000000
310
00000000000000000000000000000000000000000000000000000000000000000000000000000000000000000000000000000000000000000000000000000000000000000000000000000000000000000000000000000000000000000000000000000000000000000000000000000000000000000000000000000000000000
310
00000000000000000000000000000000000000000000000000000000000000000000000000000000000000000000000000000000000000000000000000000000000000000000000000000000000000000000000000000000000000000000000000000000000000000000000000000000000000000000000000000000000000
310
00000000000000000000000000000000000000000000000000000000000000000000000000000000000000000000000000000000000000000000000000000000000000000000000000000000000000000000000000000000000000000000000000000000000000000000000000000000000000000000000000000000000000
310
00000000000000000000000000000000000000000000000000000000000000000000000000000000000000000000000000000000000000000000000000000000000000000000000000000000000000000000000000000000000000000000000000000000000000000000000000000000000000000000000000000000000000
310
00000000000000000000000000000000000000000000000000000000000000000000000000000000000000000000000000000000000000000000000000000000000000000000000000000000000000000000000000000000000000000000000000000000000000000000000000000000000000000000000000000000000000
310
00000000000000000000000000000000000000000000000000000000000000000000000000000000000000000000000000000000000000000000000000000000000000000000000000000000000000000000000000000000000000000000000000000000000000000000000000000000000000000000000000000000000000
310
00000000000000000000000000000000000000000000000000000000000000000000000000000000000000000000000000000000000000000000000000000000000000000000000000000000000000000000000000000000000000000000000000000000000000000000000000000000000000000000000000000000000000
310
00000000000000000000000000000000000000000000000000000000000000000000000000000000000000000000000000000000000000000000000000000000000000000000000000000000000000000000000000000000000000000000000000000000000000000000000000000000000000000000000000000000000000
310
00000000000000F0F0F0F0F0F0F0F0F0F0F0F0F0F0F0F0F0F0F0F0F0F0F0F0F0F0F0F0F0F0F0F0F0F0F0F0F0F0F0F0F0F0F0F0F0F0F0F0F0F0F0F0F0F0F0F0F0F0F0F0F0F0F0F0F0F0F0F0F0F0F0F0F0F0F0F0F0F0F0F0F0F0F0F0F0F0F0F0F0F0F0F0F0F0F0F0F0F0F0F0F0F0F0F0F0F0F0F0F0F0F0F0F0F0F0F0F0F0F0F0
310
F0F0F0F0F0F0F0F0F0F0F0F0F0F0F0F0F0F0F0F0F0F0F0F0F0F0F0F0F0F0F0F0F0F0F0F0F0F0F0F0F0F0F0F0F0F0F0F0F0F0F0F0F0F0F0F0F0F0F0F0F0F0F0F0F0F0F0F0F0F0F0F0F0F0F0F0F0F0F0F0F0F0F0F0F0F0F0F0F0F0F0F0F0F0F0F0F0F0F0F0F0F0F0F0F0F0F0F0F0F0F0F0F0F0F0F0F0F0F0F0F0F0F0F0F0F0F0
310
F0F0F0F0F0F0F0F0F028282828282828282828282828282828282828282828282828282828282828282828282828282828282828282828282828282828282828282828282828282828282828282828282828282828282828282828282828282828282828282828282828282828282828282828282828282828282828282828
310
2828282828282828282828282828282828282828282828282828DCDCDCDCDCDCDCDCDCDC282828DCDCDCDCDCDCDC28DCDC282828DCDCDCDCDCDCDCDCDCDC2828282828282828282828282828282828DCDCDCDCDCDCDCDCDCDC2828282828282828282828282828282828282828282828282828282828282828282828282828
310
28282828282828282828280000000000000000000000000000000000000000000000000000000000000000000000000000000000000000000000000000000000000000000000000000000000000000000000000000000000000000000000000000000000000000000000000000000000000000000000000000000000000000
310
00000000000000000000000000000000000000000000000000280000DCDCDCDCDCDC00DCDCDC00DC00DCDCDCDC00DCDCDCDCDC00DC0000DCDCDCDCDCDC00DCDCDC00DC000000000000000000000000DC00DCDCDCDCDCDCDC00DCDCDC0028DCDCDC00DC0000DCDCDCDCDCDCDC0000DCDCDCDCDCDC0000DCDCDCDCDCDCDC00DC
310
DCDCDC00000000000000000000000000000000000000000000000000000000000000000000000000000000000000000000000000000000000000000000000000000000000000000000000000000000000000000000000000000000000000000000000000000000000000000000000000000000000000000000000000000000
310
00000000000000000000000000000000000000000000000000000028DCDCDCDCDCDCDCDCDCDCDCDCDCDCDCDCDCDCDCDCDCDCDCDCDCDCDCDCDCDCDCDCDCDCDCDCDCDCDCDCDCDCDCDCDCDCDCDCDCDCDCDCDCDCDCDCDCDCDCDCDCDCDCDCDCDCDCDCDCDCDC00DC0000DCDCDCDCDCDCDCDCDCDCDCDCDCDCDCDCDCDCDCDCDC00DCDC
310
DCDCDCDCDC0000000000000000000000000000000000000000000000000000000000000000000000000000000000000000000000000000000000000000000000000000000000000000000000000000000000000000000000000000000000000000000000000000000000000000000000000000000000000000000000000000
310
000000000000000000000000000000000000000000000000000000000028DCDCDC00000000000000000000DCDCDCDC000000000000000000DCDCDCDC00000000000000000000DCDCDCDC000000000000000000DCDCDCDC000000000000000000002800DCDC00DC0000DC00DCDCDC00DC0000DCDCDC00DCDC00DCDCDCDCDCDC
310
DCDCDCDCDCDCDC000000000000000000000000000000000000000000000000000000000000000000000000000000000000000000000000000000000000000000000000000000000000000000000000000000000000000000000000000000000000000000000000000000000000000000000000000000000000000000000000
310
0000000000000000000000000000000000000000000000000000000000000028DCDCDC000000DCDCDCDC000000DCDCDCDC0000DCDCDCDCDC0000DCDCDCDC0000DCDCDCDCDC000000DCDCDCDC000000000000000000DCDCDCDC000000DCDCDCDC0000002800DCDC00DC0000DC00DCDCDCDCDC0000DCDCDC00DCDC0000DCDCDC
310
DCDCDCDC00DCDCDCDC00000000000000000000000000000000000000000000000000000000000000000000000000000000000000000000000000000000000000000000000000000000000000000000000000000000000000000000000000000000000000000000000000000000000000000000000000000000000000000000
310
00000000000000000000000000000000000000000000000000000000000000000028DCDCDC000000DCDCDCDCE20000DCDCDCDC0000DCDCDCDCDC0000DCDCDCDC0000DCDCDCDCDC000000DCDCDCDC000000DCDC00000000DCDCDCDC0000DCDCDCDCDC0000002800DCDC00DC0000000000000000000000000000000000000000
310
00000000000000000000000000000000000000000000000000000000000000000000000000000000000000000000000000000000000000000000000000000000000000000000000000000000000000000000000000000000000000000000000000000000000000000000000000000000000000000000000000000000000000
310
000000000000000000000000000000000000000000000000000000000000000000000028DCDCDC000000DCDCDCDC000000DCDCDCDC0000DCDCDCDCDC0000DCDCDCDC0000DCDCDCDCDC000000DCDCDCDC000000000000000000DCDCDCDC000000DCDCDCDC000000DCDCDCDCDCDCDCDCDCDCDCDCDCDCDCDCDCDCDCDCDCDCDCDC
310
DCDCDCDCDCDCDCDCDCDCDCDCDCDCDCDCDCDCDCDCDCDCDC0000000000000000000000000000000000000000000000000000000000000000000000000000000000000000000000000000000000000000000000000000000000000000000000000000000000000000000000000000000000000000000000000000000000000000
310
0000000000000000000000000000000000000000000000000000000000000000000000000028DCDCDC00000000000000000000DCDCDCDC000000000000000000DCDCDCDC00000000000000000000DCDCDCDC000000000000000000DCDCDCDC000000000000000000002800DCDC00DC00000000000000000000000000000000
310
00000000000000000000000000000000000000000000000000000000000000000000000000000000000000000000000000000000000000000000000000000000000000000000000000000000000000000000000000000000000000000000000000000000000000000000000000000000000000000000000000000000000000
310
00000000000000000000000000000000000000000000000000000000000000000000000000000028DCDCDCDCDCDCDCDCDCDCDCDCDCDCDCDCDCDCDCDCDCDCDCDCDCDCDCDCDCDCDCDCDCDCDCDCDCDCDCDCDCDCDCDCDCDCDCDCDCDCDCDCDC2DDCDCDCDCDCDCDCDCDCDCDCDCDC2DDCDCDC00DC0000000000000000000000000000
310
00000000000000000000000000000000000000000000000000000000000000000000000000000000000000000000000000000000000000000000000000000000000000000000000000000000000000000000000000000000000000000000000000000000000000000000000000000000000000000000000000000000000000
310
00000000000000000000000000000000000000000000000000000000000000000000000000000000002800000000000000000000000000DC000000000000000000000000000000000000000000000000000000000000000000000000000000DC2D00000000000000000000002D2800DCDC00DC0000DCDCDCDCDC00DC00DCDC
310
DCDCDC00000000000000000000000000000000000000000000000000000000000000000000000000000000000000000000000000000000000000000000000000000000000000000000000000000000000000000000000000000000000000000000000000000000000000000000000000000000000000000000000000000000
310
000000000000000000000000000000000000000000000000000000000000000000000000000000000000002800000000000000000000000000DC000000000000000000000000000000000000000000000000000000000000000000000000000000DC002D0000000000000000002D002800000000DC0000DCDCDCDCDCDCDC00
310
DCDCDCDCDC0000000000000000000000000000000000000000000000000000000000000000000000000000000000000000000000000000000000000000000000000000000000000000000000000000000000000000000000000000000000000000000000000000000000000000000000000000000000000000000000000000
310
0000000000000000000000000000000000000000000000000000000000000000000000000000000000000000002800000000DC00280000DCDC0000DC000000000000000000000000000000000000000000000000000000000000000000000000000000DCDCDC2DDCDCDCDCDCDCDC2DDCDC2800DCDC00DC0000DCDCDCDCDCDC
310
DCDCDCDCDCDCDC000000000000000000000000000000000000000000000000000000000000000000000000000000000000000000000000000000000000000000000000000000000000000000000000000000000000000000000000000000000000000000000000000000000000000000000000000000000000000000000000
310
000000000000000000000000000000000000000000000000000000000000000000000000000000000000000000000028000000DCDC00280000DCDC0000DC000000000000000000000000000000000000000000000000000000000000000000000000000000DC0000002D00000000002D0000002800DCDC00DC0000DCDC0000
310
DC00DC00DCDC00000000000000000000000000000000000000000000000000000000000000000000000000000000000000000000000000000000000000000000000000000000000000000000000000000000000000000000000000000000000000000000000000000000000000000000000000000000000000000000000000
310
000000000000000000000000000000000000000000000000000000000000000000000000000000000000000000000000002800000000DC00000000DCDC0000DC000000000000000000000000000000000000000000000000000000000000000000000000000000DC000000002D0000002D000000002800DCDC00DC00000000
310
00000000000000000000000000000000000000000000000000000000000000000000000000000000000000000000000000000000000000000000000000000000000000000000000000000000000000000000000000000000000000000000000000000000000000000000000000000000000000000000000000000000000000
310
00000000000000000000000000000000000000000000000000000000000000000000000000000000000000000000000000000028DCDCDCDCDCDCDCDCDCDCDCDCDCDC000000000000000000000000000000000000000000000000000000000000000000000000000000DC00000000002D2D2D0000000000DCDCDCDCDCDCDCDC
310
DCDCDCDCDCDCDCDCDCDCDCDCDCDCDCDCDCDCDCDCDCDCDCDCDCDCDCDCDCDCDCDCDCDCDCDCDCDCDC00000000000000000000000000000000000000000000000000000000000000000000000000000000000000000000000000000000000000000000000000000000000000000000000000000000000000000000000000000000
310
000000000000000000000000000000000000000000000000000000000000000000000000000000000000000000000000000000000028000000DCDCDC0000DCDCDC0000DC000000000000000000000000000000000000000000000000000000000000000000000000000000DC00000000002D002D000000000028DCDCDC00DC
310
0000DCDCDCDCDCDC000000DCDCDCDCDC00000000DCDC00000000DCDCDCDCDCDC0000000000000000000000000000000000000000000000000000000000000000000000000000000000000000000000000000000000000000000000000000000000000000000000000000000000000000000000000000000000000000000000
310
0000000000000000000000000000000000000000000000000000000000000000000000000000000000000000000000000000000000000028000000DCDC000000DCDCDC0000DC000000000000000000000000000000000000000000000000000000000000000000000000000000DC000000002D0000002D000000002800DCDC
310
00DC0000DCDCDCDC00DCDCDCDCDCDCDCDCDCDC0000DCDCDCDCDC00DCDCDCDCDCDCDC000000000000000000000000000000000000000000000000000000000000000000000000000000000000006363636363BEBEBEBEBEBEBEBE63636363636363BE63BEBEBEBEBEBE63636363000000000000000000000000000000000000
310
00000000000000000000000000000000000000000000000000000000000000000000000000000000000000000000000000000000000000000028DCDCDCDCDCDCDCDCDCDCDCDCDCDCDCDCDCDCDCDCDCDCDCDCDCDCDCDCDCDCDCDCDCDCDCDCDCDCDCDCDCDCDCDCDCDCDCDCDCDCDCDCDCDC0000002D00000000002D00000028DC
310
DCDC00DC0000DC00DC00DCDC000000DCDCDCDCDC00000000DCDC00DC00DCDCDCDCDCDCDCDC0000000000000000000000000000000000000000000000000000000000000000000000000000000000006300000000BEBEBE00BEBEBE0000000063000000BEBE00BEBEBEBE000000006300000000000000000000000000000000
310
00000000000000000000000000000000000000000000000000000000000000000000000000000000000000000000000000000000000000000000002800000000DCDCDCDCDCDCDCDCDC0000DCDCDCDCDCDCDC00000000DC28282800282828DCDCDCDCDCDCDCDCDCDC00DCDCDCDCDCDCDCDCDCDCDC2DDCDCDCDCDCDCDC2DDCDC
310
2800DCDC00DC0000DC00DCDCDCDC000000DCDCDCDCDCDCDC0000DCDCDCDC0000DCDCDCDCDCDCDC0000000000000000000000000000000000000000000000000000000000000000000000000000000000006300000000BEBEBEBE00BEBEBE00000063000000BEBE00BE00BEBEBE000000630000000000000000000000000000
310
000000000000000000000000000000000000000000000000000000000000000000000000000000000000000000000000000000000000000000000000002800000000DCDCDCDCDCDCDCDCDCDCDCDCDCDCDCDCDCDC00000000DC282828DCDCDCDCDCDCDCDCDCDCDCDCDCDC00DCDCDCDCDCDCDCDCDC002D00DCDCDC00DCDCDC00
310
2D0028DCDCDC00DC0000000000000000000000000000000000000000000000000000000000000000000000000000000000000000000000000000000000000000000000000000000000000000000000000000006300000000BEBEBEBEBEBEBEBE00000063000000BEBEBEBEBEBEBEBE00000063000000000000000000000000
310
0000000000000000000000000000000000000000000000000000000000000000000000000000000000000000000000000000000000000000000000000000002800000000DCDC00DCDCDC00DCDC000000DCDCDCDCDCDC00000000DC0028000000282800DCDC0000DCDCDCDC0000DCDCDCDC00000000DC2D0000DCDC0000DCDC
310
DC00002D2800DCDC00DC000000000000000000000000000000000000000000000000000000000000000000000000000000000000000000000000000000000000000000000000000000000000000000000000000000636363636363636363636363636363636363636363636363636363636363636300000000000000000000
310
00000000000000000000000000000000000000000000000000000000000000000000000000000000000000000000000000000000000000000000000000000000002828282828282828282828282828282828282828282828282828282828282828282828282828282828282828282828282828282828282D28282828282828
310
2828282828282D28282828282828282828282828282828282828282828282828282828282828282828282828282828282828282828000000000000000000000000000000000000000000000000000000000000000000006300BEBEBEBEBEBEBEBEBEBEBEBE0000630000BEBEBEBEBEBE00BEBE000000630000000000000000
310
00000000000000000000000000000000000000000000000000000000000000000000000000000000000000000000000000000000000000000000000000000000000000000000000000000000000000000000000000000000000000000000000000000000000000000000000000000000000000000000000000000000000000
310
00000000000000000000000000000000000000000000000000000000000000000000000000000000000000000000000000000000000000000000000000000000000000000000000000000000000000000000000000000000006300BEBEBE00BEBEBEBEBEBEBEBE000063000000BEBEBEBEBEBEBEBE00000063000000000000
310
00000000000000000000000000000000000000000000000000000000000000000000000000000000000000000000000000000000000000000000000000000000000000000000000000000000000000000000000000000000000000000000000000000000000000000000000000000000000000000000000000000000000000
310
000000000000000000000000000000000000000000000000000000000000000000000000000000000000000000000000000000000000000000000000000000000000000000000000000000000000000000000000000000000000006300BEBEBEBEBEBEBEBEBEBEBEBE0000630000BEBEBEBEBEBEBEBEBE0000006300000000
310
00000000000000000000000000000000000000000000000000000000000000000000000000000000000000000000000000000000000000000000000000000000000000000000000000000000000000000000000000000000000000000000000000000000000000000000000000000000000000000000000000000000000000
310
00000000000000000000000000000000000000000000000000000000000000000000000000000000000000000000000000000000000000000000000000000000000000000000000000000000000000000000000000000000000000000063636363636363636363636363636363636363636363636363636363636363630000
310
00000000000000000000000000000000000000000000000000000000000000000000000000000000000000000000000000000000000000000000000000000000000000000000000000000000000000000000000000000000000000000000000000000000000000000000000000000000000000000000000000000000000000
310
000000000000000000000000000000000000000000000000000000000000000000000000000000000000000000000000000000000000000000000000000000000000000000000000000000000000000000000000000000000000000000000063000000000000000000BEBEBEBEBEBEBEBEBE00BEBE00000000000000000063
310
00000000000000000000000000000000000000000000000000000000000000000000000000000000000000000000000000000000000000000000000000000000000000000000000000000000000000000000000000000000000000000000000000000000000000000000000000000000000000000000000000000000000000
310
0000000000000000000000000000000000000000000000000000000000000000000000000000000000000000000000000000000000000000000000000000000000000000000000000000000000000000000000000000000000000000000000000063000000000000000000BEBEBEBEBEBEBEBEBEBEBEBEBE00000000000000
310
00630000000000000000000000000000000000000000000000000000000000000000000000000000000000000000000000000000000000000000000000000000000000000000000000000000000000000000000000000000000000000000000000000000000000000000000000000000000000000000000000000000000000
310
00000000000000000000000000000000000000000000000000000000000000000000000000000000000000000000000000000000000000000000000000000000000000000000000000000000000000000000000000000000000000000000000000000063000000000000000000BEBEBEBEBEBE00BEBE00BEBE000000000000
310
00000063000000000000000000000000000000000000000000000000000000000000000000000000000000000000000000000000000000000000000000000000000000000000000000000000000000000000000000000000000000000000000000000000000000000000000000000000000000000000000000000000000000
310
00000000000000000000000000000000000000000000000000000000000000000000000000000000000000000000000000000000000000000000000000000000000000000000000000000000000000000000000000000000000000000000000000000000006363636363636363636363636363636363636363636363636363
310
63636363636300000000000000000000000000000000000000000000000000000000000000000000000000000000000000000000000000000000000000000000000000000000000000000000000000000000000000000000000000000000000000000000000000000000000000000000000000000000000000000000000000
310
00000000000000000000000000000000000000000000000000000000000000000000000000000000000000000000000000000000000000000000000000000000000000000000000000000000000000000000000000000000000000000000000000000000000000000000000000000000000000000000000000000000000000
310
00000000000000000000000000000000000000000000000000000000000000000000000000000000000000000000000000000000000000000000000000000000000000000000000000000000000000000000000000000000000000000000000000000000000000000000000000000000000000000000000000000000000000
310
00000000000000000000000000000000000000000000000000000000000000000000000000000000000000000000000000000000000000000000000000000000000000000000000000000000000000000000000000000000000000000000000000000000000000000000000000000000000000000000000000000000000000
310
00000000000000000000000000000000000000000000000000000000000000000000000000000000000000000000000000000000000000000000000000000000000000000000000000000000000000000000000000000000000000000000000000000000000000000000000000000000000000000000000000000000000000
310
00000000000000000000000000000000000000000000000000000000000000000000000000000000000000000000000000000000000000000000000000000000000000000000000000000000000000000000000000000000000000000000000000000000000000000000000000000000000000000000000000000000000000
310
00000000000000000000000000000000000000000000000000000000000000000000000000000000000000000000000000000000000000000000000000000000000000000000000000000000000000000000000000000000000000000000000000000000000000000000000000000000000000000000000000000000000000
310
00000000000000000000000000000000000000000000000000000000000000000000000000000000000000000000000000000000000000000000000000000000000000000000000000000000000000000000000000000000000000000000000000000000000000000000000000000000000000000000000000000000000000
310
00000000000000000000000000000000000000000000000000000000000000000000000000000000000000000000000000000000000000000000000000000000000000000000000000000000000000000000000000000000000000000000000000000000000000000000000000000000000000000000000000000000000000
310
00000000000000000000000000000000000000000000000000000000000000000000000000000000000000000000000000000000000000000000000000000000000000000000000000000000000000000000000000000000000000000000000000000000000000000000000000000000000000000000000000000000000000
310
00000000000000000000000000000000000000000000000000000000000000000000000000000000000000000000000000000000000000000000000000000000000000000000000000000000000000000000000000000000000000000000000000000000000000000000000000000000000000000000000000000000000000
310
00000000000000000000000000000000000000000000000000000000000000000000000000000000000000000000000000000000000000000000000000000000000000000000000000000000000000000000000000000000000000000000000000000000000000000000000000000000000000000000000000000000000000
310
00000000000000000000000000000000000000000000000000000000000000000000000000000000000000000000000000000000000000000000000000000000000000000000000000000000000000000000000000000000000000000000000000000000000000000000000000000000000000000000000000000000000000
310
00000000000000000000000000000000000000000000000000000000000000000000000000000000000000000000000000000000000000000000000000000000000000000000000000000000000000000000000000000000000000000000000000000000000000000000000000000000000000000000000000000000000000
310
000000000000000000000000000000000000000000000000000000000000000000000000000000000000000000000000000000000000000000000000000000000000000000000000000000000000000000000000000000000000000000000000000000000000000000000000000000C3000000000000000000000000000000
310
00000000000000000000000000000000000000000000000000000000000000000000000000000000000000000000000000000000000000000000000000000000000000000000000000000000000000000000000000000000000000000000000000000000000000000000000000000000000000000000000000000000000000
310
0000000000000000000000000000000000000000000000000000000000000000000000000000000000000000000000000000000000000000000000000000000000000000C3C3C3C3C30000C3C3C300C3C3C3C3C3C3C3C3C3000000C3C3C3C3C3C3C3C300C300C3C3C300C3C3C3C300C3C3C300C3C3C3C3C3C300C3C3C30000
310
00000000000000000000000000000000000000000000000000000000000000000000000000000000000000000000000000000000000000000000000000000000000000000000000000000000000000000000000000000000000000000000000000000000000000000000000000000000000000000000000000000000000000
310
00000000000000000000000000000000000000000000000000000000000000000000000000000000000000000000000000000000000000000000000000000000000000000000C3C3C3C3C30000C3000000C3C3C3C3C3C3C3C3C30000C3C300C3C3C3C3C3C30000C300C3C300C3C3C3C300C3C300C300C3C3C3C3C300C3C3C3
310
00000000000000000000000000000000000000000000000000000000000000000000000000000000000000000000000000000000000000000000000000000000000000000000000000000000000000000000000000000000000000000000000000000000000000000000000000000000000000000000000000000000000000
310
000000000000000000000000000000000000000000000000000000000000000000000000000000000000000000000000000000000000000000000000000000000000000000000000C3C3C3C3C30000C3000000C3C3C3C3C3C3C3C3C300C3C3C3C300C3C3C3C30000C3C300C3C300C3C3C3C300C3C300C3C3C3C300C3C3C3C3
310
C300000000000000000000000000000000000000000000000000000000000000000000DC00000000005E5E5E5E5E5E5E5E5E0000000000000000000000000000000000000000000000000000000000000000000000000000000000000000000000000000000000000000000000000000000000000000000000000000000000
310
000000000000000000000000000000000000000000000000000000000000000000000000000000000000000000000000000000000000000000000000000000000000000000000000000000000000000000000000000000000000000000000000000000000000000000000000000000000000000000000000C3000000000000
310
000000000000000000000000000000000000000000000000000000000000000000000000DCDC0000005E5EF5F5F5F5F5F5F5F5F5000000000000000000000000000000000000000000000000000000000000000000000000000000000000000000000000000000000000000000000000000000000000000000000000000000
310
00000000000000000000000000000000000000000000000000000000000000000000000000000000000000000000000000000000000000000000000000000000000000000000000000000000000000000000000000000000000000000000000000000000000000000000000000000000000000000000000000000000000000
310
000000000000000000000000000000000000000000000000000000000000000000000000000000DC0000005E00F50000CA00000000F500000000000000000000000000000000000000000000000000000000000000000000000000000000000000000000000000000000000000000000000000000000000000000000000000
310
00000000000000000000000000000000000000000000000000000000000000000000000000000000000000000000000000000000000000000000000000000000000000000000000000000000000000000000000000000000000000000000000000000000000000000000000000000000000000000000000000000000000000
310
000000000000000000000000000000000000000000000000000000000000000000000000000000DCDCF5DCDCDCDCDCDCF5F5CAF5F5F500F50000000000000000000000000000000000000000000000000000000000000000000000000000000000000000000000000000000000000000000000000000000000000000000000
310
00000000000000000000000000000000000000000000000000000000000000000000000000000000000000000000000000000000000000000000000000000000000000000000000000000000000000000000000000000000000000000000000000000000000000000000000000000000000000000000000000000000000000
310
00000000000000000000000000000000000000000000000000000000000000000000000000000000DCDCDCDC00005EF5CAF5CACACACACACAF5F5000000000000000000000000000000000000000000000000000000000000000000000000000000000000000000000000000000000000000000000000000000000000000000
310
00000000000000000000000000000000000000000000000000000000000000000000000000000000000000000000000000000000000000000000000000000000000000000000000000000000000000000000000000000000000000000000000000000000000000000000000000000000000000000000000000000000000000
310
00000000000000000000000000000000000000000000000000000000000000000000000000000000000000DCDCDCDCDCDCDCDCF5F5F5CAF5F5F5F5F500000000000000000000000000000000000000000000000000000000000000000000000000000000000000000000000000000000000000000000000000000000000000
310
00000000000000000000000000000000000000000000000000000000000000000000000000000000000000000000000000000000000000000000000000000000000000000000000000000000000000000000000000000000000000000000000000000000000000000000000000000000000000000000000000000000000000
310
0000000000000000000000000000000000000000000000000000000000000000000000000000000000000000000000DC00005EF500DC0000CA000000DCF50000000000000000000000000000000000000000000000000000000000000000000000000000000000000000000000000000000000000000000000000000000000
310
00000000000000000000000000000000000000000000000000000000000000000000000000000000000000000000000000000000000000000000000000000000000000000000000000000000000000000000000000000000000000000000000000000000000000000000000000000000000000000000000000000000000000
310
000000000000000000000000000000000000000000000000000000000000000000000000000000000000000000000000DCDC00005EF5F5DCF5F5F5F5F5F5DC00000000000000000000000000000000000000000000000000000000000000000000000000000000000000000000000000000000000000000000000000000000
310
00000000000000000000000000000000000000000000000000000000000000000000000000000000000000000000000000000000000000000000000000000000000000000000000000000000000000000000000000000000000000000000000000000000000000000000000000000000000000000000000000000000000000
310
000000000000000000000000000000000000000000000000000000000000000000000000000000000000000000000000000000DC0000000000DC000000000000DC0000000000000000000000000000000000000000000000000000000000000000000000000000000000000000000000000000000000000000000000000000
310
00000000000000000000000000000000000000000000000000000000000000000000000000000000000000000000000000000000000000000000000000000000000000000000000000000000000000000000000000000000000000000000000000000000000000000000000000000000000000000000000000000000000000
310
0000000000000000000000000000000000000000000000000000000000000000000000000000000000000000000000000000000000000000000000DC000000000000DC000000000000000000000000000000000000000000000000000000000000000000000000000000000000000000000000000000000000000000000000
310
00000000000000000000000000000000000000000000000000000000000000000000000000000000000000000000000000000000000000000000000000000000000000000000000000000000000000000000000000000000000000000000000000000000000000000000000000000000000000000000000000000000000000
310
00000000000000000000000000000000000000000000000000000000000000000000000000000000000000000000000000000000000000000000000000DC000000000000DC00000000000000000000000000000000000000000000000000000000000000000000000000000000000000000000000000000000000000000000
310
00000000000000000000000000000000000000000000000000000000000000000000000000000000000000000000000000000000000000000000000000000000000000000000000000000000000000000000000000000000000000000000000000000000000000000000000000000000000000000000000000000000000000
310
000000000000000000000000000000000000000000000000000000000000000000000000000000000000000000000000000000000000000000000000000000DC000000000000DC0000000000000000000000000000000000000000000000000000000000000000000000000000000000000000000000000000000000000000
310
00000000000000000000000000000000000000000000000000000000000000000000000000000000000000000000000000000000000000000000000000000000000000000000000000000000000000000000000000000000000000000000000000000000000000000000000000000000000000000000000000000000000000
310
0000000000000000000000000000000000000000000000000000000000000000000000000000000000000000000000000000000000000000000000000000000000DCDCDCDCDCDCDCF5000000000000000000000000000000000000000000000000000000000000000000000000000000000000000000000000000000000000
310
00000000000000000000000000000000000000000000000000000000000000000000000000000000000000000000000000000000000000000000000000000000000000000000000000000000000000000000000000000000000000000000000000000000000000000000000000000000000000000000000000000000000000
310
00000000000000000000000000000000000000000000000000000000000000000000000000000000000000000000000000000000000000000000000000000000000000DC00DCDCDC0000DC00000000000000000000000000000000000000000000000000000000000000000000000000000000000000000000000000000000
310
00000000000000000000000000000000000000000000000000000000000000000000000000000000000000000000000000000000000000000000000000000000000000000000000000000000000000000000000000000000000000000000000000000000000000000000000000000000000000000000000000000000000000
310
0000000000000000000000000000000000000000000000000000000000000000000000000000000000000000000000000000000000000000000000000000000000000000000000DCDCDC0000000000000000000000000000000000000000000000000000000000000000000000000000000000000000000000000000000000
310
00000000000000000000000000000000000000000000000000000000000000000000000000000000000000000000000000000000000000000000000000000000000000000000000000000000000000000000000000000000000000000000000000000000000000000000000000000000000000000000000000000000000000
310
00000000000000000000000000000000000000000000000000000000000000000000000000000000000000000000000000000000000000000000000000000000000000000000000000000000000000000000000000000000000000000000000000000000000000000000000000000000000000000000000000000000000000
310
00000000000000000000000000000000000000000000000000000000000000000000000000000000000000000000000000000000000000000000000000000000000000000000000000000000000000000000000000000000000000000000000000000000000000000000000000000000000000000000000000000000000000
310
00000000000000000000000000000000000000000000000000000000000000000000000000000000000000000000000000000000000000000000000000000000000000000000000000000000000000000000000000000000000000000000000000000000000000000000000000000000000000000000000000000000000000
310
00000000000000000000000000000000000000000000000000000000000000000000000000000000000000000000000000000000000000000000000000000000000000000000000000000000000000000000000000000000000000000000000000000000000000000000000000000000000000000000000000000000000000
310
00000000000000000000000000000000000000000000000000000000000000000000000000000000000000000000000000000000000000000000000000000000000000000000000000000000000000000000000000000000000000000000000000000000000000000000000000000000000000000000000000000000000000
310
00000000000000000000000000000000000000000000000000000000000000000000000000000000000000000000000000000000000000000000000000000000000000000000000000000000000000000000000000000000000000000000000000000000000000000000000000000000000000000000000000000000000000
310
00000000000000000000000000000000000000000000000000000000000000000000000000000000000000000000000000000000000000000000000000000000000000000000000000000000000000000000000000000000000000000000000000000000000000000000000000000000000000000000000000000000000000
310
00000000000000000000000000000000000000000000000000000000000000000000000000000000000000000000000000000000000000000000000000000000000000000000000000000000000000000000000000000000000000000000000000000000000000000000000000000000000000000000000000000000000000
310
00000000000000000000000000000000000000000000000000000000000000000000000000000000000000000000000000000000000000000000000000000000000000000000000000000000000000000000000000000000000000000000000000000000000000000000000000000000000000000000000000000000000000
310
00000000000000000000000000000000000000000000000000000000000000000000000000000000000000000000000000000000000000000000000000000000000000000000000000000000000000000000000000000000000000000000000000000000000000000000000000000000000000000000000000000000000000
310
00000000000000000000000000000000000000000000000000000000000000000000000000000000000000000000000000000000000000000000000000000000000000000000000000000000000000000000000000000000000000000000000000000000000000000000000000000000000000000000000000000000000000
310
00000000000000000000000000000000000000000000000000000000000000000000000000000000000000000000000000000000000000000000000000000000000000000000000000000000000000000000000000000000000000000000000000000000000000000000000000000000000000000000000000000000000000
310
00000000000000000000000000000000000000000000000000000000000000000000000000000000000000000000000000000000000000000000000000000000000000000000000000000000000000000000000000000000000000000000000000000000000000000000000000000000000000000000000000000000000000
310
00000000000000000000000000000000000000000000000000000000000000000000000000000000000000000000000000000000000000000000000000000000000000000000000000000000000000000000000000000000000000000000000000000000000000000000000000000000000000000000000000000000000000
310
00000000000000000000000000000000000000000000000000000000000000000000000000000000000000000000000000000000000000000000000000000000000000000000000000000000000000000000000000000000000000000000000000000000000000000000000000000000000000000000000000000000000000
310
00000000000000000000000000000000000000000000000000000000000000000000000000000000000000000000000000000000000000000000000000000000000000000000000000000000000000000000000000000000000000000000000000000000000000000000000000000000000000000000000000000000000000
310
00000000000000000000000000000000000000000000000000000000000000000000000000000000000000000000000000000000000000000000000000000000000000000000000000000000000000000000000000000000000000000000000000000000000000000000000000000000000000000000000000000000000000
310
00000000000000000000000000000000000000000000000000000000000000000000000000000000000000000000000000000000000000000000000000000000000000000000000000000000000000000000000000000000000000000000000000000000000000000000000000000000000000000000000000000000000000
310
00000000000000000000000000000000000000000000000000000000000000000000000000000000000000000000000000000000000000000000000000000000000000000000000000000000000000000000000000000000000000000000000000000000000000000000000000000000000000000000000000000000000000
310
00000000000000000000000000000000000000000000000000000000000000000000000000000000000000000000000000000000000000000000000000000000000000000000000000000000000000000000000000000000000000000000000000000000000000000000000000000000000000000000000000000000000000
310
00000000000000000000000000000000000000000000000000000000000000000000000000000000000000000000000000000000000000DC00000000000000000000000000000000000000000000000000000000000000000000000000000000000000DC000000000000000000000000000000000000000000000000000000
310
00000000000000000000000000000000000000000000000000000000000000000000000000000000000000000000000000000000000000000000000000000000000000000000000000000000000000000000000000000000000000000000000000000000000000000000000000000000000000000000000000000000000000
310
000000000000000000000000000000000000000000000000000000000000000000000000000000000000000000000000000000000000000000DCDC0000000000000000000000000000000000000000000000000000000000000000000000000000000000DCDC00000000000000000000000000000000000000000000000000
310
00000000000000000000000000000000000000000000000000000000000000000000000000000000000000000000000000000000000000000000000000000000000000000000000000000000000000000000000000000000000000000000000000000000000000000000000000000000000000000000000000000000000000
310
0000000000000000000000000000000000000000000000000000000000000000000000000000000000000000000000000000000000000000000000DCDCDCDCDCDCDCDCDCDCDCDCDCDCDCDCDCDCDCDCDCDCDCDCDCDCDCDCDCDCDCDCDCDCDCDCDCDCDCDCDCDCDCDCF50000000000000000000000000000000000000000000000
310
00000000000000000000000000000000000000000000000000000000000000000000000000000000000000000000000000000000000000000000000000000000000000000000000000000000000000000000000000000000000000000000000000000000000000000000000000000000000000000000000000000000000000
310
00000000000000000000000000000000000000000000000000000000000000000000000000000000000000000000000000000000000000000000000000DC0000000000000000000000000000000000000000DCDCDCDC00000000000000000000000000000000000000DC000000000000000000000000000000000000000000
310
00000000000000000000000000000000000000000000000000000000000000000000000000000000000000000000000000000000000000000000000000000000000000000000000000000000000000000000000000000000000000000000000000000000000000000000000000000000000000000000000000000000000000
310
000000000000000000000000000000000000000000000000000000000000000000000000000000000000000000000000000000000000000000000000000000DC00000000000000000000000000000000000000DCDCDCDC0000000000000000000000000000000000000000DC00000000000000000000000000000000000000
310
00000000000000000000000000000000000000000000000000000000000000000000000000000000000000000000000000000000000000000000000000000000000000000000000000000000000000000000000000000000000000000000000000000000000000000000000000000000000000000000000000000000000000
310
0000000000000000000000000000000000000000000000000000000000000000000000000000000000000000000000000000000000000000000000000000000000DC00000000DC00000000000000000000000000000000DC00000000000000000000000000000000DC00000000DC0000000000000000000000000000000000
310
00000000000000000000000000000000000000000000000000000000000000000000000000000000000000000000000000000000000000000000000000000000000000000000000000000000000000000000000000000000000000000000000000000000000000000000000000000000000000000000000000000000000000
310
00000000000000000000000000000000000000000000000000000000000000000000000000000000000000000000000000000000000000000000000000000000000000DC00000000DCDC0000000000000000000000000000DCDCDC0000000000000000000000000000DCDC00000000DC000000000000000000000000000000
310
0000000000000000000000000000000000000000000000000000000000000000000000000000000000000000000000000000000000000000000000000000000000000000000000DC000000000000000000000000000000000000000000000000000000000000000000DC000000000000000000000000000000000000000000
310
000000000000000000000000000000000000000000000000000000000000000000000000000000000000000000000000000000000000000000000000000000000000000000DC00000000F5DCDCDCDCDCDCDCDCDCDCDCDCDCDCDCDCF5DCDCDCDCDCDCDCDCDCDCDCDCDCDCDCDCDC00000000DC00000000000000000000000000
310
00000000000000000000000000000000000000000000000000000000000000000000000000000000000000000000000000000000000000000000000000000000000000000000000000DCDCDCDCDCDCDCDCDCDCDCDCDCDCDCDCDCDCDCDCDCDCDCDCDCDCDCDCDCDCDCDCDCDCF500000000000000000000000000000000000000
310
0000000000000000000000000000000000000000000000000000000000000000000000000000000000000000000000000000000000000000000000000000000000000000000000DC00000000DC000000000000DCDCDC00000000000000DC00000000000000DCDCDC000000000000DC00000000DC0000000000000000000000
310
000000000000000000000000000000000000000000000000000000000000000000000000000000000000000000000000000000000000000000000000000000000000000000000000000000DC000000000000000000000000000000DCDCDCDC0000000000000000000000000000DC0000000000000000000000000000000000
310
00000000000000000000000000000000000000000000000000000000000000000000000000000000000000000000000000000000000000000000000000000000000000000000000000DC00000000DC000000000000DCDCDC00000000000000DC00000000000000DCDCDC000000000000DC00000000DC000000000000000000
310
0000000000000000000000000000000000000000000000000000000000000000000000000000000000000000000000000000000000000000000000000000000000000000000000000000000000DC000000000000000000000000000000DCDCDCDC0000000000000000000000000000DC000000000000000000000000000000
310
000000000000000000000000000000000000000000000000000000000000000000000000000000000000000000000000000000000000000000000000000000000000000000000000000000DC00000000DC00000000000000000000000000000000DC00000000000000000000000000000000DC00000000DC00000000000000
310
00000000000000000000000000000000000000000000000000000000000000000000000000000000000000000000000000000000000000000000000000000000000000000000000000000000000000DC0000DC00000000000000000000000000DC00000000000000000000000000DC0000DC00000000000000000000DC0000
310
0000000000000000000000000000000000000000000000000000000000000000000000000000000000000000000000000000000000000000BEBEBEBEBEBEBEBEBEBE0000000000000000000000DC00000000DC00000000DC0000000000000000000000DC0000000000000000000000DC00000000DC00000000DC0000000000
310
000000000000000000000000000000000000000000000000000000000000000000000000000000000000000000000000000000000000000000000000000000000000000000000000000000000000000000DC0000DC00DC00000000000000000000DCDCDC0000000000000000000000DCDCDC00DC0000000000000000DC00DC
310
000000000000000000000000000000000000000000000000000000000000000000000000000000000000000000000000000000000000000000000000BEBEBEBEBEBE0000BE00000000000000000000F5DCDCDCDCDCDCDCDCDCDC0000000000000000000000DC0000000000000000000000F5DCDCDCDCDCDCDCDCDCDC000000
310
0000000000000000000000000000000000000000000000000000000000000000000000000000000000000000000000000000000000000000000000000000000000000000000000000000000000000000000000DC0000F5DCDCDCDCDCDCDCDCDCDCDCDCDCF5DCDCDCDCDCDCDCDCDCDCDCDCDCF5DCDCDCDCDCDCDCDCDCDCDCDC
310
DCDC000000000000000000000000000000000000000000000000000000000000000000000000000000000000000000000000000000000000000000000000BEBEBEBEBEBE0000BE00000000000000000000DC0000DCDCDCDCDC0000DC0000000000000000000000DC0000000000000000000000DC000000DCDCDCDC0000DC00
310
00000000000000000000000000000000000000000000000000000000000000000000000000000000000000000000000000000000000000000000000000000000000000000000000000000000000000000000000000DC0000DC0000000000DCDCDC0000000000DC0000000000DCDCDC0000000000DC0000DC0000DCDCDC0000
310
000000DC000000000000000000000000000000000000000000000000000000000000000000000000000000000000000000000000000000000000000000000000000000000000000000BE000000000000000000DC0000DCDCDCDC000000DC0000000000000000000000DC0000000000000000000000DC0000DCDCDCDCDC0000
310
DC0000000000000000000000000000000000000000000000000000000000000000000000000000000000000000000000000000000000000000000000000000000000000000000000000000000000000000000000000000DC0000DC000000000000DCDC0000000000DC000000000000DCDC0000000000DC0000DC0000DCDCDC
310
0000000000DC00000000000000000000000000000000000000000000000000000000000000000000000000000000000000000000000000000000000000000000000000000000000000000000BE0000000000000000DC00000000DC00000000DC0000000000000000000000DC0000000000000000000000DC00000000DC0000
310
0000DC0000000000000000000000000000000000000000000000000000000000000000000000000000000000000000000000000000000000000000000000000000000000000000000000000000000000000000000000000000DC0000DC0000DC00000000000000000000DC00000000000000000000DC0000DC0000DC000000
310
00000000000000DC0000000000000000000000000000000000000000000000000000000000000000000000000000000000000000000000000000000000000000000000000000000000000000000000BECA000000000000DC00000000DC00000000DC0000000000000000000000DC0000000000000000000000DC00000000DC
310
00000000DC0000000000000000000000000000000000000000000000000000000000000000000000000000000000000000000000000000000000000000000000000000000000000000000000000000000000000000000000000000DCDCDCDCDCDCF500000000000000000000DC00000000000000000000DCDCDCDCDCDCF500
310
000000000000000000DC0000000000000000000000000000000000000000000000000000000000000000000000000000000000000000000000000000000000000000000000000000000000000000000000BEBEF50000000000DC00000000DC00000000DC0000000000000000000000F50000000000000000000000DC000000
310
00DC00000000DC0000000000000000000000000000000000000000000000000000000000000000000000000000000000000000000000000000000000000000000000000000000000000000000000000000000000000000000000000000DCDCDCDC0000DC00000000000000000000F500000000000000000000DC0000DCDCDC
310
DC00000000000000000000DC00000000000000000000000000000000000000000000000000000000000000000000000000000000000000000000000000000000000000000000000000000000000000000000CAF5BEF5CA00000000DC00000000DC00000000DC0000000000000000000000CA0000000000000000000000DC00
310
000000DC00000000DC0000000000000000DC0000000000000000000000000000000000000000000000000000000000000000000000000000000000000000000000000000000000000000000000000000000000000000000000000000000000DCDCDCDC0000DC000000000000000000000000000000000000000000DC0000DC
310
DCDCDC00000000000000000000DC0000000000000000000000000000000000000000000000000000000000000000000000000000000000000000000000000000000000000000000000000000000000000000000000F5F5F50000000000DC00000000F500000000DC0000000000000000000000CA0000000000000000000000
310
DC00000000F500000000DC0000000000000000DC0000000000000000000000000000000000000000000000000000000000000000000000000000000000000000000000000000000000000000000000000000000000000000000000000000000000DC0000DC0000DC00000000000000000000CA00000000000000000000DC00
310
00DC0000DC00000000000000000000DC0000000000000000000000000000000000000000000000000000000000000000000000000000000000000000000000000000000000000000000000000000000000000000000000F5CAF50000000000DC00000000CA00000000DC0000000000000000000000CA000000000000000000
310
0000DC00000000CA00000000DC0000000000000000DC0000000000000000000000000000000000000000000000000000000000000000000000000000000000000000000000000000000000000000000000000000000000000000000000000000000000DC0000CA0000DC00000000000000000000CA00000000000000000000
310
DC0000CA0000DC00000000000000000000DC0000000000000000000000000000000000000000000000000000000000000000000000000000000000000000000000000000000000000000000000000000000000000000000000F500F50000000000F5F5F5F5F5F5F5F5F5F5F5F5F5F5F5F5F5F5F5F5F5F5CAF5F5F5F5F5F5F5
310
F5F5F5F5F5F5F5F5F5F5F5F5F5F5F5DCDCDCDCDCDCDCDCDCDCDCDCDCDCDCDCDCDCF5DCDC0000000000000000000000000000000000000000000000000000000000000000000000000000000000000000000000000000000000000000000000000000000000F5F5F5CAF5F5F5F5F5F5F5F5F5F5F5F5F5F5F5F5F5F5F5F5F5F5
310
F5F5F5F5CACACAF5F500000000000000000000DC0000000000000000000000000000000000000000000000000000000000000000000000000000000000000000000000000000000000000000000000000000000000000000000000F5F5F50000000000F5F5F5F5F5F5F5F5F5F5F5F5F5F5F5F5F5F5F5F5F5F5F5F5F5F5F5F5
310
F5F5F5F5F5F5F5F5F5F5F5F5F5F5F5F5F5DCDCDCDCDCDCDCDCDCDC000000DCDC000000DCDC000000000000000000000000000000000000000000000000000000000000000000000000000000000000000000000000000000000000000000000000000000000000F5F5F5CAF5F5F5F5F5F5F5F5F5F5F5F5F5F5F5F5F5F5F5F5
310
F5F5F5F5F5F5CACACAF5F500000000000000000000DC000000000000000000000000000000000000000000000000000000000000000000000000000000000000000000000000000000000000000000000000000000000000000000000000F5F5000000000000F5000000CA00000000000000F50000F5F5F5F50000CA0000F5
310
F5F5F50000F500000000000000CA000000F5000000000000000000DC00000000DC00000000DC000000000000000000000000000000000000000000000000000000000000000000000000000000000000000000000000000000F5F5F5F5F5F5F5F5F5F5F5F5F5F5F5F5F5F5F5CA00000000F50000000000000000CA00000000
310
00000000F500000000CAF5F5F5F5F5F5F5F5F500000000DC000000000000000000000000000000000000000000000000000000000000000000000000000000000000000000000000000000000000000000000000000000000000000000000000F5F500000000000000F50000000000000000000000F5F5F500F5000000CA00
310
0000F500F5F5F50000000000000000000000F500000000000000000000DC00000000DC00000000DC000000000000000000000000000000000000000000000000000000000000000000000000000000000000000000000000000000F500F500000000000000000000000000F5F5F5F5F5F5F50000F500000000000000CA0000
310
000000000000F500F5F5F5F5F5F5F5F5000000F5F500000000DC000000000000000000000000000000000000000000000000000000000000000000000000000000000000000000000000000000000000000000000000000000000000000000000000F5F500000000000000F5000000000000000000F5F5F500F5F500000000
310
CA00000000F5F500F5F5F5000000000000000000F50000000000000000DCDCDC00000000DC00000000DC000000000000000000000000000000000000000000000000000000000000000000000000000000000000000000000000000000F500F500000000000000000000000000F5F5F5F5F5F5F5F5F5F500000000000000CA
310
0000000000000000F5F5F5F5F5F5F5F5F5F5000000F5F500000000DC000000000000000000000000000000000000000000000000000000000000000000000000000000000000000000000000000000000000000000000000000000000000000000000000F5F50000000000000000F5000000000000F5F5F500F5F500000000
310
F5F5F5F5F500000000F5F500F5F500000000000000F5000000000000000000DCDCDC00000000DC00000000DC000000000000000000000000000000000000000000000000000000000000000000000000000000000000000000000000000000F500F500000000000000000000000000F5F5F5F5F5F5F5F500F5000000000000
310
00CA00000000000000F50000F5F5F5F5F5F5F5F5000000F5F500000000DC000000000000000000000000000000000000000000000000000000000000000000000000000000000000000000000000000000000000000000000000000000000000000000000000F5F5000000000000000000F500000000F50000F5F5000000F5
310
F5F5F500CA00F5F5F5F5000000F5F500F5F500000000F500000000000000000000DCDCDC00000000DC00000000DC000000000000000000000000000000000000000000000000000000000000000000000000000000000000000000000000000000F500F50000000000000000000000000000F5F5F5F5F5F5000000F5000000
310
000000CA00000000000000F5000000F5F5F5F5F5F500000000F5F500000000DC000000000000000000000000000000000000000000000000000000000000000000000000000000000000000000000000000000000000000000000000000000000000000000000000F5F500000000000000000000F5F5F5F5F5F5CA000000F5
310
F5F5F500F500CA00F5F5F5F5F5F5000000CAF5F5F5F5F5F50000000000000000000000DCDCDC00000000DC00000000DC000000000000000000000000000000000000000000000000000000000000000000000000000000000000000000000000000000F500F500000000000000000000000000F5F5F5F5F5F5F5F50000F500
310
0000000000CA000000000000F5000000F5F5F5F5F5F5F5F5000000F5F500000000DC000000000000000000000000000000000000000000000000000000000000000000000000000000000000000000000000000000000000000000000000000000000000000000000000CACA000000000000000000000000F5F5CACAF500F5
310
F5F5F500F500F500CA00F500F500F5F5F5F500F5CACAF5F5000000000000000000000000000000000000DCDCDC00000000DC000000000000000000000000000000000000000000000000000000000000000000000000000000000000000000000000000000F500F500000000000000000000000000F5F5F5F5F5F5F5F50000
310
00F5F5F5F5F5F5F5F5F5F5F5F5F500000000F5F5F5F5F5F5F5F5000000F5F5F5CA0000DC000000000000000000000000000000000000000000000000000000000000000000000000000000000000000000000000000000000000000000000000000000000000000000000000CACA000000000000000000000000F5F5CACA00
310
F5F5F5000000F500F500CA00F500F5000000F5F5F5F5CACAF500F50000000000000000000000000000000000DCDCDC00000000DC00000000000000000000000000000000000000000000000000000000000000000000000000000000000000000000000000CACAF5CACACACA00000000000000000000000000000000000000
310
000000000000000000CA0000000000000000000000000000000000000000CACAF5F5F5CA00DC000000000000000000000000000000000000000000000000000000000000000000000000000000000000000000000000000000000000000000000000000000000000000000000000F5F50000000000000000000000F500CAF5
310
00F5F5000000F5F50000F500CA00F50000F5F5000000F5F500F5CA00F50000000000000000000000000000000000DCDCDC00000000DC000000000000000000000000000000000000000000000000000000000000000000000000000000000000000000000000000000F500F500000000000000000000000000F5F5F5F5F5F5
310
F5F5000000000000000000CA00000000000000000000F5F5F5F5F5F5F5F5000000F5F5F5F50000DC000000000000000000000000000000000000000000000000000000000000000000000000000000000000000000000000000000000000000000000000000000000000000000000000F5CACACACA00000000000000F50000
310
0000F5000000F5F5F5F5F500F500CA00F500F5F500F5F50000F5F500000000F5000000000000000000000000000000DCDCDCDC00000000DC000000000000000000000000000000000000000000000000000000000000000000000000000000000000000000000000000000F500F500000000000000000000000000F5000000
310
000000F5000000000000000000CA00000000000000000000F5000000000000F5000000F5F500000000DC000000000000000000000000000000000000000000000000000000000000DC0000DC0000000000000000000000000000000000000000000000000000000000000000000000000000F5F5F5F5F500000000000000F5
310
F50000F5000000F500F50000F50000F5CAF50000F500F5F500F50000F5F50000F5F50000000000000000000000000000000000DCDC00000000DC000000000000000000000000000000000000000000000000000000000000000000000000000000000000000000000000000000F500F50000000000000000000000F5F5F5F5
310
F5F5F5F5F5F5000000000000000000CA00000000000000000000F5F5F5F5F5F5F5F5000000F5F500000000DC000000000000000000000000000000000000000000000000000000DCDCDCF5DCDCDCDCDCDCDCDCDCDCDCDC0000000000000000000000000000000000000000000000000000000000F5F5F5F5F5000000000000
310
F500F50000F5000000F5F5000000F50000F5F5F500F500000000F5F5000000F5F500F500F500000000000000000000000000000000DCDC00000000DC000000000000000000000000000000000000000000000000000000000000000000000000000000000000000000000000000000F500F5000000000000000000F5F5F5F5
310
F500F5F500000000000000000000000000CA000000000000000000000000000000000000000000F5F500000000DC000000000000000000000000000000000000000000000000000000000000DC0000DC000000DCDCDCDCDCDC0000000000000000000000000000000000000000000000000000000000F5F5F5F5F500000000
310
0000F5F50000F5000000F5F500000000F5F5F5F5F5F5F5F5F500000000F5F5000000F50000F5F50000000000000000000000000000000000DC00000000DC0000000000000000000000000000000000000000000000000000000000000000000000000000000000000000000000000000F5F500F5000000000000000000F5F5
310
F5F5F500F5F500000000000000000000000000CA00000000000000000000F5F5F5F5F5F5F5F5000000F5F500000000DC000000000000000000000000000000000000000000000000000000000000DC0000DC000000DCDCDCDCDCDC0000000000000000000000000000000000000000000000000000000000F5F5F5F5F50000
310
0000F5F5F5F50000F50000F500F50000F5F500F5F5F5F5F5F5F500F5F50000F500F50000F5F500F5F5F500000000000000000000000000000000DC00000000DC0000000000000000000000000000000000000000000000000000000000000000000000000000000000000000000000000000F5F500F5000000000000000000
310
00F5F5F5F5F5F50000000000000000000000000000CA00000000000000000000F5000000000000F5000000F5F5F5F5F500DC000000000000000000000000000000000000000000000000000000000000DC0000DC0000000000000000000000000000000000000000000000000000000000000000000000000000F5F5F5F500
310
F5000000F5F5F50000F5000000F5F50000F500F5F5F5F500CA00F5F5F5F5F5F50000F5F5000000F50000F5F500000000000000000000000000000000DC00000000DC0000000000000000000000000000000000000000000000000000000000000000000000000000000000000000000000000000F5F500F500000000000000
310
000000F5F5F5F5F5F5F500000000000000000000000000CA00000000000000000000F5F5F5F5F5F5F5F5000000F5F50000F5F5DC00000000DC00000000000000000000000000000000000000000000000000DC0000DC000000000000000000000000000000000000000000000000000000000000000000000000000000F5F5
310
F5F5F5F5F5F5F5F5F50000F50000F500F500F5F500F5F5000000CA000000F5F500F5F500F500F500F5F50000F5F500000000000000000000000000000000DC00000000DC0000000000000000000000000000000000000000000000000000000000000000000000000000000000000000000000000000F5F500F50000000000
310
00000000F5F5F5F5F5F500F500000000000000000000000000CA000000000000000000000000000000000000000000F5F50000F5F5DC000000DCDC000000000000DC000000000000000000000000000000000000DCCA00DC000000000000000000000000000000000000000000000000000000000000000000000000000000
310
F5F500F5F5F5F5F5F5F50000F5F5F5F5000000F5F500F5F500000000F500000000F5F500F5F5000000F5F5F5000000F500000000000000000000000000000000DC00000000DC0000000000000000000000000000000000000000000000000000000000000000000000000000000000000000000000000000F5F500F5000000
310
000000000000F500F5F5F5F500F500000000000000000000000000CA000000000000000000000000000000000000000000F5F50000F5F5DC00DCDCDCDCDC000000DCDCDC000000000000000000000000000000000000DCF500DC00000000000000000000000000000000000000000000000000000000000000000000000000
310
000000F5BE0000F5F5F5F5000000F5F5F5F5F5F5F500F500F5F50000F5F5F5F5F50000F5F500F500F5F5F5F5F5F5F5000000F5000000000000000000000000000000DC0000DCDCDC0000000000000000000000000000000000000000000000000000000000000000000000000000000000000000000000000000F5F500F500
310
0000000000000000F500F5F5F50000F500000000000000000000000000CA000000000000000000000000000000000000000000F5F50000F5F5F5F50000DCDCDC00DCF500DCDCDC0000000000000000000000000000000000DCCAF5DC000000000000DC00000000000000000000000000000000000000000000000000000000
310
0000000000BEBEF5F5F5F5F5F5000000F50000000000F500F500F5000000F5F5CAF500F50000F5F5F5F5000000000000F5000000F5000000000000000000000000000000DCDC00DC00DC0000000000000000000000000000000000000000000000000000000000000000000000000000000000000000000000000000F5F500
310
F500000000000000000000F500F5F50000F500000000000000000000000000CA000000000000000000000000000000000000000000F5F50000F5F5F5F5F5F5DCDCF5F5DCDC00DCDC0000000000000000000000000000000000CAF5CACAF5CA00000000DCDC0000000000000000000000000000000000000000000000000000
310
00000000000000BE0000CACACAF5F5CACACAF5CACACACACACACAF5F5F5CACAF5F5CACACAF5F5CACAF5F5F5CACACACACACACAF5CACACAF5CACACAF5DCDCDCDCDCDCDCDCDCDCDCDCDCDCDCDCDC0000000000000000000000000000000000000000000000000000000000000000000000000000000000000000000000000000F5
310
F500F500000000000000000000F500000000F50000000000000000000000000000CA000000000000000000000000000000000000000000F5F50000F5F5F5000000000000F5F500000000000000000000000000000000000000000000F5CA00F5000000000000DC000000000000000000000000000000000000000000000000
310
000000000000000000BE0000000000F5DC000000F50000000000F500F5F5F5000000F5F5CAF500F50000F5F5F5F5000000000000F5000000DC0000000000000000000000000000000000000000DC0000000000000000000000000000000000000000000000000000000000000000000000000000000000000000000000CACA
310
CACACACACACACACACACACACACACACACAF5F5F5F5CACACACACACACACACACACACACACACACACACACACACACACACACACACACACACACACACACACACACAF5F5CACAF5F5F5CACACACACACAF5F5CACACACA000000000000000000000000000000000000F5F5DCF5DCDCDCDCDCDCF5DC000000000000000000000000000000000000000000
310
00000000000000000000BE000000000000F5DC000000F5F5F5F5F5F5F500F500F5F50000F5F5F5F5F50000F5F500F500F5F5F5F5F5F5F5000000DC0000000000000000000000000000000000000000DC0000000000000000000000000000000000000000000000000000000000000000000000000000000000000000000000
310
000000F5F500F5000000000000000000000000000000000000000000000000000000000000CA000000000000000000000000000000000000000000F5F50000F5F5F5F5F5F5F5F5F5F5F50000000000000000000000000000000000000000000000CA00000000000000DCDC0000000000000000000000000000000000000000
310
000000000000000000000000BE00000000000000DCF50000F5F5000000000000F500F5F5000000F5F5F5000000F5F500F5000000000000F5000000F5DC0000000000000000000000000000000000000000DC000000000000000000000000000000000000000000000000000000000000000000000000000000000000000000
310
0000000000F5F500F5000000000000000000000000000000000000000000000000000000000000CA000000000000000000000000000000000000000000F5F50000F5F5F5F5000000000000DC0000000000000000000000000000000000000000000000000000000000000000DC000000000000000000000000000000000000
310
00000000000000000000000000BE0000000000000000DCF5F50000F5F5F5F50000F5F5F500F5F5000000CA000000F500F5F5F5F50000F5F5F5F50000F5F5DC0000000000000000000000000000000000000000DC00000000000000000000000000000000000000000000000000000000000000000000000000000000000000
310
00000000000000F5F500F5000000000000000000000000000000000000000000000000000000000000CA000000000000000000000000000000000000000000F5F50000F5F5DCDC000000000000DC000000000000000000000000000000000000000000000000000000000000DC00DC00000000000000000000000000000000
310
000000000000000000000000000000BE0000000000000000DCF5F50000F5000000F5F50000F500F500F5F500CA00F5F500F500F50000F500F50000F50000F5F5DC0000000000000000000000000000000000000000DC0000000000000000000000000000000000000000000000000000000000000000000000000000000000
310
000000000000000000F5F500F5000000000000000000000000000000000000000000000000000000000000CA000000000000000000000000000000000000000000F5F50000F5F5DCDC000000000000DC0000000000000000000000000000000000000000000000000000000000DCDCDCDC000000000000000000BE0000BEBE
310
BEBEBEBEBEBEBEBEBEBEBEBEBEBEBE00BE000000000000000000DCF500F50000F50000F5F5000000F500F5F5F5F5F5F5F5F5F500F5000000F5F50000F5F500F500F5DC0000000000000000000000000000000000000000DC000000000000000000000000000000000000000000000000000000000000000000000000000000
310
0000000000000000000000F5F500F5000000000000000000000000000000000000000000000000000000000000CA000000000000000000000000000000000000000000F5F50000F5F5DCDC000000000000DC000000000000000000000000000000000000000000000000000000000000000000000000000000000000BEBEBE
310
BEBEBEBEBEBEBEBEBEBEBEBEBEBEBEBEBE00BE000000000000000000DC00F5F50000F5000000F5F5000000F5F50000F5F5F50000F5F5000000F500F50000F50000F5F500DC0000000000000000000000000000000000000000DC00000000000000000000000000000000000000000000000000000000000000000000000000
310
00000000000000000000000000F5F500F5000000000000000000000000000000000000000000000000000000000000CA000000000000000000000000000000000000000000F5F5F5F5F5F5DCDC000000000000DC0000000000000000000000000000000000000000000000000000000000000000000000000000000000BEBE
310
BEBEBEBEBEBEBEBEBEBEBEBEBEBEBEBEBEBEBEBE00000000000000000000DC00F5F5000000F50000F500F5000000F5F5F5F5F5F5F5F5F5000000F500F50000F5F50000F5F500DC0000000000000000000000000000000000000000DC0000000000000000000000000000000000000000000000000000000000000000000000
310
000000000000000000000000000000F5F500F5000000000000000000000000000000000000000000000000000000000000CA000000000000000000000000000000000000000000F5F5000000DCDCDC000000000000DC0000000000000000000000000000000000000000000000000000000000000000000000000000000000
310
0000BEBEBEBEBEBEBEBEBEBEBEBEBE0000000000000000000000000000000000DC0000F5F50000F5000000F500F50000F5000000CA000000F500F5F500F50000F5F50000F5F5F500DC0000000000000000000000000000000000000000DC000000000000000000000000000000000000000000000000000000000000000000
310
0000000000000000000000000000000000DCF500F500000000000000000000000000000000000000CACACA0000CACACA0000CACACA0000CACACA0000CACACA00000000000000000000F5F5000000DCDCDC000000000000DC000000000000000000000000000000000000000000000000000000000000000000000000000000
310
00000000BEBEBEBEBEBEBEBE0000BEBEBE0000000000000000000000000000000000DC0000F5F5000000F5000000F500F5F5F500F5F5CAF5F500F5F50000F50000F5F5000000F5F5F500DC0000000000000000000000000000000000000000DC00000000000000000000000000000000000000000000000000000000000000
310
00000000000000000000000000000000000000DCF500F500000000000000000000000000000000000000CA00000000000000000000CA00000000000000000000CA00000000000000000000F5F5000000DCDCDC000000000000DC00000000000000000000000000000000000000000000000000000000000000000000000000
310
000000000000000000000000000000000000000000000000000000000000000000000000DC000000F500CAF500F5000000F5F5000000F500CA00F5000000F5F5000000F500F5CA00F5F50000DC0000000000000000000000000000000000000000DC0000000000000000000000000000000000000000000000000000000000
310
000000000000000000000000000000000000000000DCF500F500000000000000000000000000000000000000CA00000000000000000000CA00000000000000000000CA00000000000000000000F5F5000000DCDCDC000000000000DC0000000000000000000000000000000000000000000000000000000000000000000000
310
0000000000000000000000000000000000000000000000000000000000000000000000000000DC00000000F5F5CACA00F500000000F5F500F500CA00F500F5F500000000F500F5F5F500F5F50000DC0000000000000000000000000000000000000000DC000000000000000000000000000000000000000000000000000000
310
0000000000000000000000000000000000000000000000DCF500F500000000000000000000000000000000000000CA00000000000000000000CA00000000000000000000CA00000000000000000000F5F5F50000DCDCDC000000000000DC000000000000000000000000000000000000000000000000000000000000000000
310
00000000000000000000000000000000000000000000000000000000000000000000000000000000DC00000000F5F5CACAF500F500000000F500F500CA00F500F500000000F500F5F5F5F5F5F5000000DC0000000000000000000000000000000000000000DC00000000000000000000000000000000000000000000000000
310
000000000000000000000000000000000000000000000000CACAF5CACACACA0000000000000000000000000000000000CA00000000000000000000CA00000000000000000000CA000000000000000000CACAF5F5F5CADCDCDC000000000000DC00000000000000000000000000000000000000000000000000000000000000
310
000000000000000000000000000000000000000000000000000000000000000000000000000000000000DC0000000000F5F5F5CA0000F5F50000F500F500CA00F5F5000000F5F50000CAF5F5F5F500000000DC0000000000000000000000000000000000000000DC0000000000000000000000000000000000000000
  0
XRECORD
  5
1D68
102
{ACAD_REACTORS
330
B14
102
}
330
B14
100
AcDbXrecord
280
     1
102
MATERIAL
148
0.0
149
0.0
149
0.0
 93
        0
 94
      127
282
     0
 72
     0
 77
     0
171
     0
175
     0
179
     0
273
     0
  0
XRECORD
  5
B16
102
{ACAD_REACTORS
330
B14
102
}
330
B14
100
AcDbXrecord
280
     1
270
     1
271
     1
  0
XRECORD
  5
B15
102
{ACAD_REACTORS
330
B14
102
}
330
B14
100
AcDbXrecord
280
     1
270
     1
271
     1
  0
XRECORD
  5
B19
102
{ACAD_REACTORS
330
B14
102
}
330
B14
100
AcDbXrecord
280
     1
270
     1
271
     1
  0
XRECORD
  5
B18
102
{ACAD_REACTORS
330
B14
102
}
330
B14
100
AcDbXrecord
280
     1
270
     1
271
     1
  0
XRECORD
  5
B1A
102
{ACAD_REACTORS
330
B14
102
}
330
B14
100
AcDbXrecord
280
     1
270
     1
271
     1
  0
XRECORD
  5
B17
102
{ACAD_REACTORS
330
B14
102
}
330
B14
100
AcDbXrecord
280
     1
270
     1
271
     1
  0
XRECORD
  5
1D67
102
{ACAD_REACTORS
330
B0C
102
}
330
B0C
100
AcDbXrecord
280
     1
102
MATERIAL
148
0.0
149
0.0
149
0.0
 93
        0
 94
      127
282
     0
 72
     0
 77
     0
171
     0
175
     0
179
     0
273
     0
  0
XRECORD
  5
B0E
102
{ACAD_REACTORS
330
B0C
102
}
330
B0C
100
AcDbXrecord
280
     1
270
     1
271
     1
  0
XRECORD
  5
B0D
102
{ACAD_REACTORS
330
B0C
102
}
330
B0C
100
AcDbXrecord
280
     1
270
     1
271
     1
  0
XRECORD
  5
B11
102
{ACAD_REACTORS
330
B0C
102
}
330
B0C
100
AcDbXrecord
280
     1
270
     1
271
     1
  0
XRECORD
  5
B10
102
{ACAD_REACTORS
330
B0C
102
}
330
B0C
100
AcDbXrecord
280
     1
270
     1
271
     1
  0
XRECORD
  5
B12
102
{ACAD_REACTORS
330
B0C
102
}
330
B0C
100
AcDbXrecord
280
     1
270
     1
271
     1
  0
XRECORD
  5
B0F
102
{ACAD_REACTORS
330
B0C
102
}
330
B0C
100
AcDbXrecord
280
     1
270
     1
271
     1
  0
XRECORD
  5
1D69
102
{ACAD_REACTORS
330
B1C
102
}
330
B1C
100
AcDbXrecord
280
     1
102
MATERIAL
148
0.0
149
0.0
149
0.0
 93
        0
 94
      127
282
     0
 72
     0
 77
     0
171
     0
175
     0
179
     0
273
     0
  0
XRECORD
  5
B1E
102
{ACAD_REACTORS
330
B1C
102
}
330
B1C
100
AcDbXrecord
280
     1
270
     1
271
     1
  0
XRECORD
  5
B1D
102
{ACAD_REACTORS
330
B1C
102
}
330
B1C
100
AcDbXrecord
280
     1
270
     1
271
     1
  0
XRECORD
  5
B21
102
{ACAD_REACTORS
330
B1C
102
}
330
B1C
100
AcDbXrecord
280
     1
270
     1
271
     1
  0
XRECORD
  5
B20
102
{ACAD_REACTORS
330
B1C
102
}
330
B1C
100
AcDbXrecord
280
     1
270
     1
271
     1
  0
XRECORD
  5
B22
102
{ACAD_REACTORS
330
B1C
102
}
330
B1C
100
AcDbXrecord
280
     1
270
     1
271
     1
  0
XRECORD
  5
B1F
102
{ACAD_REACTORS
330
B1C
102
}
330
B1C
100
AcDbXrecord
280
     1
270
     1
271
     1
  0
XRECORD
  5
1D5F
102
{ACAD_REACTORS
330
1D5E
102
}
330
1D5E
100
AcDbXrecord
280
     1
102
ACAD_ROUNDTRIP_2012_MLEADER_STYLE
298
     1
  0
CELLSTYLEMAP
  5
1D5D
102
{ACAD_REACTORS
330
1602
102
}
330
1602
100
AcDbCellStyleMap
 90
        3
300
CELLSTYLE
  1
TABLEFORMAT_BEGIN
 90
        5
170
     1
 91
        0
 92
    32768
 62
   257
 93
        1
300
CONTENTFORMAT
  1
CONTENTFORMAT_BEGIN
 90
        0
 91
        0
 92
      512
 93
        0
300

 40
0.0
140
1.0
 94
        5
 62
     0
340
11
144
6.0
309
CONTENTFORMAT_END
171
     1
301
MARGIN
  1
CELLMARGIN_BEGIN
 40
1.5
 40
1.5
 40
1.5
 40
1.5
 40
0.18
 40
0.18
309
CELLMARGIN_END
 94
        6
 95
        1
302
GRIDFORMAT
  1
GRIDFORMAT_BEGIN
 90
        0
 91
        1
 62
     0
 92
       -2
340
0
 93
        0
 40
1.125
309
GRIDFORMAT_END
 95
        2
302
GRIDFORMAT
  1
GRIDFORMAT_BEGIN
 90
        0
 91
        1
 62
     0
 92
       -2
340
0
 93
        0
 40
1.125
309
GRIDFORMAT_END
 95
        4
302
GRIDFORMAT
  1
GRIDFORMAT_BEGIN
 90
        0
 91
        1
 62
     0
 92
       -2
340
0
 93
        0
 40
1.125
309
GRIDFORMAT_END
 95
        8
302
GRIDFORMAT
  1
GRIDFORMAT_BEGIN
 90
        0
 91
        1
 62
     0
 92
       -2
340
0
 93
        0
 40
1.125
309
GRIDFORMAT_END
 95
       16
302
GRIDFORMAT
  1
GRIDFORMAT_BEGIN
 90
        0
 91
        1
 62
     0
 92
       -2
340
0
 93
        0
 40
1.125
309
GRIDFORMAT_END
 95
       32
302
GRIDFORMAT
  1
GRIDFORMAT_BEGIN
 90
        0
 91
        1
 62
     0
 92
       -2
340
0
 93
        0
 40
1.125
309
GRIDFORMAT_END
309
TABLEFORMAT_END
  1
CELLSTYLE_BEGIN
 90
        1
 91
        1
300
_TITLE
309
CELLSTYLE_END
300
CELLSTYLE
  1
TABLEFORMAT_BEGIN
 90
        5
170
     1
 91
        0
 92
        0
 62
   257
 93
        1
300
CONTENTFORMAT
  1
CONTENTFORMAT_BEGIN
 90
        0
 91
        0
 92
      512
 93
        0
300

 40
0.0
140
1.0
 94
        5
 62
     0
340
11
144
4.5
309
CONTENTFORMAT_END
171
     1
301
MARGIN
  1
CELLMARGIN_BEGIN
 40
1.5
 40
1.5
 40
1.5
 40
1.5
 40
0.18
 40
0.18
309
CELLMARGIN_END
 94
        6
 95
        1
302
GRIDFORMAT
  1
GRIDFORMAT_BEGIN
 90
        0
 91
        1
 62
     0
 92
       -2
340
0
 93
        0
 40
1.125
309
GRIDFORMAT_END
 95
        2
302
GRIDFORMAT
  1
GRIDFORMAT_BEGIN
 90
        0
 91
        1
 62
     0
 92
       -2
340
0
 93
        0
 40
1.125
309
GRIDFORMAT_END
 95
        4
302
GRIDFORMAT
  1
GRIDFORMAT_BEGIN
 90
        0
 91
        1
 62
     0
 92
       -2
340
0
 93
        0
 40
1.125
309
GRIDFORMAT_END
 95
        8
302
GRIDFORMAT
  1
GRIDFORMAT_BEGIN
 90
        0
 91
        1
 62
     0
 92
       -2
340
0
 93
        0
 40
1.125
309
GRIDFORMAT_END
 95
       16
302
GRIDFORMAT
  1
GRIDFORMAT_BEGIN
 90
        0
 91
        1
 62
     0
 92
       -2
340
0
 93
        0
 40
1.125
309
GRIDFORMAT_END
 95
       32
302
GRIDFORMAT
  1
GRIDFORMAT_BEGIN
 90
        0
 91
        1
 62
     0
 92
       -2
340
0
 93
        0
 40
1.125
309
GRIDFORMAT_END
309
TABLEFORMAT_END
  1
CELLSTYLE_BEGIN
 90
        2
 91
        1
300
_HEADER
309
CELLSTYLE_END
300
CELLSTYLE
  1
TABLEFORMAT_BEGIN
 90
        5
170
     1
 91
        0
 92
        0
 62
   257
 93
        1
300
CONTENTFORMAT
  1
CONTENTFORMAT_BEGIN
 90
        0
 91
        0
 92
      512
 93
        0
300

 40
0.0
140
1.0
 94
        2
 62
     0
340
11
144
4.5
309
CONTENTFORMAT_END
171
     1
301
MARGIN
  1
CELLMARGIN_BEGIN
 40
1.5
 40
1.5
 40
1.5
 40
1.5
 40
0.18
 40
0.18
309
CELLMARGIN_END
 94
        6
 95
        1
302
GRIDFORMAT
  1
GRIDFORMAT_BEGIN
 90
        0
 91
        1
 62
     0
 92
       -2
340
0
 93
        0
 40
1.125
309
GRIDFORMAT_END
 95
        2
302
GRIDFORMAT
  1
GRIDFORMAT_BEGIN
 90
        0
 91
        1
 62
     0
 92
       -2
340
0
 93
        0
 40
1.125
309
GRIDFORMAT_END
 95
        4
302
GRIDFORMAT
  1
GRIDFORMAT_BEGIN
 90
        0
 91
        1
 62
     0
 92
       -2
340
0
 93
        0
 40
1.125
309
GRIDFORMAT_END
 95
        8
302
GRIDFORMAT
  1
GRIDFORMAT_BEGIN
 90
        0
 91
        1
 62
     0
 92
       -2
340
0
 93
        0
 40
1.125
309
GRIDFORMAT_END
 95
       16
302
GRIDFORMAT
  1
GRIDFORMAT_BEGIN
 90
        0
 91
        1
 62
     0
 92
       -2
340
0
 93
        0
 40
1.125
309
GRIDFORMAT_END
 95
       32
302
GRIDFORMAT
  1
GRIDFORMAT_BEGIN
 90
        0
 91
        1
 62
     0
 92
       -2
340
0
 93
        0
 40
1.125
309
GRIDFORMAT_END
309
TABLEFORMAT_END
  1
CELLSTYLE_BEGIN
 90
        3
 91
        2
300
_DATA
309
CELLSTYLE_END
  0
XRECORD
  5
1D9A
102
{ACAD_REACTORS
330
1602
102
}
330
1602
100
AcDbXrecord
280
     1
102
ACAD_ROUNDTRIP_PRE2007_TABLESTYLE
 90
      512
 91
        0
  1

 92
      512
 93
        0
  2

 94
      512
 95
        0
  3

  0
XRECORD
  5
1D75
102
{ACAD_REACTORS
330
1D74
102
}
330
1D74
100
AcDbXrecord
280
     1
102
RTVSPropertyOp0
 70
     1
102
RTVSPropertyOp1
 70
     1
102
RTVSPropertyOp2
 70
     1
102
RTVSPropertyOp3
 70
     1
102
RTVSPropertyOp4
 70
     1
102
RTVSPropertyOp5
 70
     1
102
RTVSPropertyOp6
 70
     1
102
RTVSPropertyOp7
 70
     1
102
RTVSPropertyOp8
 70
     1
102
RTVSPropertyOp9
 70
     1
102
RTVSPropertyOp10
 70
     1
102
RTVSPropertyOp11
 70
     1
102
RTVSPropertyOp12
 70
     1
102
RTVSPropertyOp13
 70
     1
102
RTVSPropertyOp14
 70
     1
102
RTVSPropertyOp15
 70
     1
102
RTVSPropertyOp16
 70
     1
102
RTVSPropertyOp17
 70
     1
102
RTVSPropertyOp18
 70
     1
102
RTVSPropertyOp19
 70
     1
102
RTVSPropertyOp20
 70
     1
102
RTVSPropertyOp21
 70
     1
102
RTVSPropertyOp22
 70
     1
102
RTVSPropertyOp23
 70
     1
102
RTVSPropertyOp24
 70
     1
102
RTVSPropertyOp25
 70
     1
102
RTVSPropertyOp26
 70
     1
102
RTVSPropertyOp27
 70
     1
102
RTVSPropertyOp28
 70
     1
102
RTVSPropertyOp29
 70
     1
102
RTVSPropertyOp30
 70
     1
102
RTVSPropertyOp31
 70
     1
102
RTVSPropertyOp32
 70
     1
  0
XRECORD
  5
1D73
102
{ACAD_REACTORS
330
1D72
102
}
330
1D72
100
AcDbXrecord
280
     1
102
RTVSPropertyOp0
 70
     1
102
RTVSPropertyOp1
 70
     1
102
RTVSPropertyOp2
 70
     1
102
RTVSPropertyOp3
 70
     1
102
RTVSPropertyOp4
 70
     1
102
RTVSPropertyOp5
 70
     1
102
RTVSPropertyOp6
 70
     1
102
RTVSPropertyOp7
 70
     1
102
RTVSPropertyOp8
 70
     1
102
RTVSPropertyOp9
 70
     1
102
RTVSPropertyOp10
 70
     1
102
RTVSPropertyOp11
 70
     1
102
RTVSPropertyOp12
 70
     1
102
RTVSPropertyOp13
 70
     1
102
RTVSPropertyOp14
 70
     1
102
RTVSPropertyOp15
 70
     1
102
RTVSPropertyOp16
 70
     1
102
RTVSPropertyOp17
 70
     1
102
RTVSPropertyOp18
 70
     1
102
RTVSPropertyOp19
 70
     1
102
RTVSPropertyOp20
 70
     1
102
RTVSPropertyOp21
 70
     1
102
RTVSPropertyOp22
 70
     1
102
RTVSPropertyOp23
 70
     1
102
RTVSPropertyOp24
 70
     1
102
RTVSPropertyOp25
 70
     1
102
RTVSPropertyOp26
 70
     1
102
RTVSPropertyOp27
 70
     1
102
RTVSPropertyOp28
 70
     1
102
RTVSPropertyOp29
 70
     1
102
RTVSPropertyOp30
 70
     1
102
RTVSPropertyOp31
 70
     1
102
RTVSPropertyOp32
 70
     1
  0
XRECORD
  5
1D81
102
{ACAD_REACTORS
330
1D80
102
}
330
1D80
100
AcDbXrecord
280
     1
102
RTVSPropertyOp0
 70
     1
102
RTVSPropertyOp1
 70
     1
102
RTVSPropertyOp2
 70
     1
102
RTVSPropertyOp3
 70
     1
102
RTVSPropertyOp4
 70
     1
102
RTVSPropertyOp5
 70
     1
102
RTVSPropertyOp6
 70
     1
102
RTVSPropertyOp7
 70
     1
102
RTVSPropertyOp8
 70
     1
102
RTVSPropertyOp9
 70
     1
102
RTVSPropertyOp10
 70
     1
102
RTVSPropertyOp11
 70
     1
102
RTVSPropertyOp12
 70
     1
102
RTVSPropertyOp13
 70
     1
102
RTVSPropertyOp14
 70
     1
102
RTVSPropertyOp15
 70
     1
102
RTVSPropertyOp16
 70
     1
102
RTVSPropertyOp17
 70
     1
102
RTVSPropertyOp18
 70
     1
102
RTVSPropertyOp19
 70
     1
102
RTVSPropertyOp20
 70
     1
102
RTVSPropertyOp21
 70
     1
102
RTVSPropertyOp22
 70
     1
102
RTVSPropertyOp23
 70
     1
102
RTVSPropertyOp24
 70
     1
102
RTVSPropertyOp25
 70
     1
102
RTVSPropertyOp26
 70
     1
102
RTVSPropertyOp27
 70
     1
102
RTVSPropertyOp28
 70
     1
102
RTVSPropertyOp29
 70
     1
102
RTVSPropertyOp30
 70
     1
102
RTVSPropertyOp31
 70
     1
102
RTVSPropertyOp32
 70
     1
  0
XRECORD
  5
1D89
102
{ACAD_REACTORS
330
1D88
102
}
330
1D88
100
AcDbXrecord
280
     1
102
RTVSPropertyOp0
 70
     1
102
RTVSPropertyOp1
 70
     1
102
RTVSPropertyOp2
 70
     1
102
RTVSPropertyOp3
 70
     1
102
RTVSPropertyOp4
 70
     1
102
RTVSPropertyOp5
 70
     1
102
RTVSPropertyOp6
 70
     1
102
RTVSPropertyOp7
 70
     1
102
RTVSPropertyOp8
 70
     1
102
RTVSPropertyOp9
 70
     1
102
RTVSPropertyOp10
 70
     1
102
RTVSPropertyOp11
 70
     1
102
RTVSPropertyOp12
 70
     1
102
RTVSPropertyOp13
 70
     1
102
RTVSPropertyOp14
 70
     1
102
RTVSPropertyOp15
 70
     1
102
RTVSPropertyOp16
 70
     1
102
RTVSPropertyOp17
 70
     1
102
RTVSPropertyOp18
 70
     1
102
RTVSPropertyOp19
 70
     1
102
RTVSPropertyOp20
 70
     1
102
RTVSPropertyOp21
 70
     1
102
RTVSPropertyOp22
 70
     1
102
RTVSPropertyOp23
 70
     1
102
RTVSPropertyOp24
 70
     1
102
RTVSPropertyOp25
 70
     1
102
RTVSPropertyOp26
 70
     1
102
RTVSPropertyOp27
 70
     1
102
RTVSPropertyOp28
 70
     1
102
RTVSPropertyOp29
 70
     1
102
RTVSPropertyOp30
 70
     1
102
RTVSPropertyOp31
 70
     1
102
RTVSPropertyOp32
 70
     1
  0
XRECORD
  5
1D7B
102
{ACAD_REACTORS
330
1D7A
102
}
330
1D7A
100
AcDbXrecord
280
     1
102
RTVSPropertyOp0
 70
     1
102
RTVSPropertyOp1
 70
     1
102
RTVSPropertyOp2
 70
     1
102
RTVSPropertyOp3
 70
     1
102
RTVSPropertyOp4
 70
     1
102
RTVSPropertyOp5
 70
     1
102
RTVSPropertyOp6
 70
     1
102
RTVSPropertyOp7
 70
     1
102
RTVSPropertyOp8
 70
     1
102
RTVSPropertyOp9
 70
     1
102
RTVSPropertyOp10
 70
     1
102
RTVSPropertyOp11
 70
     1
102
RTVSPropertyOp12
 70
     1
102
RTVSPropertyOp13
 70
     1
102
RTVSPropertyOp14
 70
     1
102
RTVSPropertyOp15
 70
     1
102
RTVSPropertyOp16
 70
     1
102
RTVSPropertyOp17
 70
     1
102
RTVSPropertyOp18
 70
     1
102
RTVSPropertyOp19
 70
     1
102
RTVSPropertyOp20
 70
     1
102
RTVSPropertyOp21
 70
     1
102
RTVSPropertyOp22
 70
     1
102
RTVSPropertyOp23
 70
     1
102
RTVSPropertyOp24
 70
     1
102
RTVSPropertyOp25
 70
     1
102
RTVSPropertyOp26
 70
     1
102
RTVSPropertyOp27
 70
     1
102
RTVSPropertyOp28
 70
     1
102
RTVSPropertyOp29
 70
     1
102
RTVSPropertyOp30
 70
     1
102
RTVSPropertyOp31
 70
     1
102
RTVSPropertyOp32
 70
     1
  0
XRECORD
  5
1D7F
102
{ACAD_REACTORS
330
1D7E
102
}
330
1D7E
100
AcDbXrecord
280
     1
102
RTVSPropertyOp0
 70
     1
102
RTVSPropertyOp1
 70
     1
102
RTVSPropertyOp2
 70
     1
102
RTVSPropertyOp3
 70
     1
102
RTVSPropertyOp4
 70
     1
102
RTVSPropertyOp5
 70
     1
102
RTVSPropertyOp6
 70
     1
102
RTVSPropertyOp7
 70
     1
102
RTVSPropertyOp8
 70
     1
102
RTVSPropertyOp9
 70
     1
102
RTVSPropertyOp10
 70
     1
102
RTVSPropertyOp11
 70
     1
102
RTVSPropertyOp12
 70
     1
102
RTVSPropertyOp13
 70
     1
102
RTVSPropertyOp14
 70
     1
102
RTVSPropertyOp15
 70
     1
102
RTVSPropertyOp16
 70
     1
102
RTVSPropertyOp17
 70
     1
102
RTVSPropertyOp18
 70
     1
102
RTVSPropertyOp19
 70
     1
102
RTVSPropertyOp20
 70
     1
102
RTVSPropertyOp21
 70
     1
102
RTVSPropertyOp22
 70
     1
102
RTVSPropertyOp23
 70
     1
102
RTVSPropertyOp24
 70
     1
102
RTVSPropertyOp25
 70
     1
102
RTVSPropertyOp26
 70
     1
102
RTVSPropertyOp27
 70
     1
102
RTVSPropertyOp28
 70
     1
102
RTVSPropertyOp29
 70
     1
102
RTVSPropertyOp30
 70
     1
102
RTVSPropertyOp31
 70
     1
102
RTVSPropertyOp32
 70
     1
  0
XRECORD
  5
1D99
102
{ACAD_REACTORS
330
1D98
102
}
330
1D98
100
AcDbXrecord
280
     1
102
RTVSPropertyOp0
 70
     0
102
RTVSPropertyOp1
 70
     0
102
RTVSPropertyOp2
 70
     0
102
RTVSPropertyOp3
 70
     0
102
RTVSPropertyOp4
 70
     0
102
RTVSPropertyOp5
 70
     0
102
RTVSPropertyOp6
 70
     0
102
RTVSPropertyOp7
 70
     0
102
RTVSPropertyOp8
 70
     0
102
RTVSPropertyOp9
 70
     0
102
RTVSPropertyOp10
 70
     0
102
RTVSPropertyOp11
 70
     0
102
RTVSPropertyOp12
 70
     0
102
RTVSPropertyOp13
 70
     0
102
RTVSPropertyOp14
 70
     2
102
RTVSPropertyOp15
 70
     0
102
RTVSPropertyOp16
 70
     0
102
RTVSPropertyOp17
 70
     0
102
RTVSPropertyOp18
 70
     0
102
RTVSPropertyOp19
 70
     0
102
RTVSPropertyOp20
 70
     0
102
RTVSPropertyOp21
 70
     0
102
RTVSPropertyOp22
 70
     0
102
RTVSPropertyOp23
 70
     0
102
RTVSPropertyOp24
 70
     0
102
RTVSPropertyOp25
 70
     0
102
RTVSPropertyOp26
 70
     0
102
RTVSPropertyOp27
 70
     0
102
RTVSPropertyOp28
 70
     1
102
RTVSPropertyOp29
 70
     1
102
RTVSPropertyOp30
 70
     1
102
RTVSPropertyOp31
 70
     1
102
RTVSPropertyOp32
 70
     1
  0
XRECORD
  5
1D87
102
{ACAD_REACTORS
330
1D86
102
}
330
1D86
100
AcDbXrecord
280
     1
102
RTVSPropertyOp0
 70
     1
102
RTVSPropertyOp1
 70
     1
102
RTVSPropertyOp2
 70
     1
102
RTVSPropertyOp3
 70
     1
102
RTVSPropertyOp4
 70
     1
102
RTVSPropertyOp5
 70
     1
102
RTVSPropertyOp6
 70
     1
102
RTVSPropertyOp7
 70
     1
102
RTVSPropertyOp8
 70
     1
102
RTVSPropertyOp9
 70
     1
102
RTVSPropertyOp10
 70
     1
102
RTVSPropertyOp11
 70
     1
102
RTVSPropertyOp12
 70
     1
102
RTVSPropertyOp13
 70
     1
102
RTVSPropertyOp14
 70
     1
102
RTVSPropertyOp15
 70
     1
102
RTVSPropertyOp16
 70
     1
102
RTVSPropertyOp17
 70
     1
102
RTVSPropertyOp18
 70
     1
102
RTVSPropertyOp19
 70
     1
102
RTVSPropertyOp20
 70
     1
102
RTVSPropertyOp21
 70
     1
102
RTVSPropertyOp22
 70
     1
102
RTVSPropertyOp23
 70
     1
102
RTVSPropertyOp24
 70
     1
102
RTVSPropertyOp25
 70
     1
102
RTVSPropertyOp26
 70
     1
102
RTVSPropertyOp27
 70
     1
102
RTVSPropertyOp28
 70
     1
102
RTVSPropertyOp29
 70
     1
102
RTVSPropertyOp30
 70
     1
102
RTVSPropertyOp31
 70
     1
102
RTVSPropertyOp32
 70
     1
  0
XRECORD
  5
1D6B
102
{ACAD_REACTORS
330
1D6A
102
}
330
1D6A
100
AcDbXrecord
280
     1
102
RTVSPropertyOp0
 70
     1
102
RTVSPropertyOp1
 70
     1
102
RTVSPropertyOp2
 70
     1
102
RTVSPropertyOp3
 70
     1
102
RTVSPropertyOp4
 70
     1
102
RTVSPropertyOp5
 70
     1
102
RTVSPropertyOp6
 70
     1
102
RTVSPropertyOp7
 70
     1
102
RTVSPropertyOp8
 70
     1
102
RTVSPropertyOp9
 70
     1
102
RTVSPropertyOp10
 70
     1
102
RTVSPropertyOp11
 70
     1
102
RTVSPropertyOp12
 70
     1
102
RTVSPropertyOp13
 70
     1
102
RTVSPropertyOp14
 70
     1
102
RTVSPropertyOp15
 70
     1
102
RTVSPropertyOp16
 70
     1
102
RTVSPropertyOp17
 70
     1
102
RTVSPropertyOp18
 70
     1
102
RTVSPropertyOp19
 70
     1
102
RTVSPropertyOp20
 70
     1
102
RTVSPropertyOp21
 70
     1
102
RTVSPropertyOp22
 70
     1
102
RTVSPropertyOp23
 70
     1
102
RTVSPropertyOp24
 70
     1
102
RTVSPropertyOp25
 70
     1
102
RTVSPropertyOp26
 70
     1
102
RTVSPropertyOp27
 70
     1
102
RTVSPropertyOp28
 70
     1
102
RTVSPropertyOp29
 70
     1
102
RTVSPropertyOp30
 70
     1
102
RTVSPropertyOp31
 70
     1
102
RTVSPropertyOp32
 70
     1
  0
XRECORD
  5
1D6D
102
{ACAD_REACTORS
330
1D6C
102
}
330
1D6C
100
AcDbXrecord
280
     1
102
RTVSPropertyOp0
 70
     1
102
RTVSPropertyOp1
 70
     1
102
RTVSPropertyOp2
 70
     1
102
RTVSPropertyOp3
 70
     1
102
RTVSPropertyOp4
 70
     1
102
RTVSPropertyOp5
 70
     1
102
RTVSPropertyOp6
 70
     1
102
RTVSPropertyOp7
 70
     1
102
RTVSPropertyOp8
 70
     1
102
RTVSPropertyOp9
 70
     1
102
RTVSPropertyOp10
 70
     1
102
RTVSPropertyOp11
 70
     1
102
RTVSPropertyOp12
 70
     1
102
RTVSPropertyOp13
 70
     1
102
RTVSPropertyOp14
 70
     1
102
RTVSPropertyOp15
 70
     1
102
RTVSPropertyOp16
 70
     1
102
RTVSPropertyOp17
 70
     1
102
RTVSPropertyOp18
 70
     1
102
RTVSPropertyOp19
 70
     1
102
RTVSPropertyOp20
 70
     1
102
RTVSPropertyOp21
 70
     1
102
RTVSPropertyOp22
 70
     1
102
RTVSPropertyOp23
 70
     1
102
RTVSPropertyOp24
 70
     1
102
RTVSPropertyOp25
 70
     1
102
RTVSPropertyOp26
 70
     1
102
RTVSPropertyOp27
 70
     1
102
RTVSPropertyOp28
 70
     1
102
RTVSPropertyOp29
 70
     1
102
RTVSPropertyOp30
 70
     1
102
RTVSPropertyOp31
 70
     1
102
RTVSPropertyOp32
 70
     1
  0
XRECORD
  5
1D6F
102
{ACAD_REACTORS
330
1D6E
102
}
330
1D6E
100
AcDbXrecord
280
     1
102
RTVSPropertyOp0
 70
     1
102
RTVSPropertyOp1
 70
     1
102
RTVSPropertyOp2
 70
     1
102
RTVSPropertyOp3
 70
     1
102
RTVSPropertyOp4
 70
     1
102
RTVSPropertyOp5
 70
     1
102
RTVSPropertyOp6
 70
     1
102
RTVSPropertyOp7
 70
     1
102
RTVSPropertyOp8
 70
     1
102
RTVSPropertyOp9
 70
     1
102
RTVSPropertyOp10
 70
     1
102
RTVSPropertyOp11
 70
     1
102
RTVSPropertyOp12
 70
     1
102
RTVSPropertyOp13
 70
     1
102
RTVSPropertyOp14
 70
     1
102
RTVSPropertyOp15
 70
     1
102
RTVSPropertyOp16
 70
     1
102
RTVSPropertyOp17
 70
     1
102
RTVSPropertyOp18
 70
     1
102
RTVSPropertyOp19
 70
     1
102
RTVSPropertyOp20
 70
     1
102
RTVSPropertyOp21
 70
     1
102
RTVSPropertyOp22
 70
     1
102
RTVSPropertyOp23
 70
     1
102
RTVSPropertyOp24
 70
     1
102
RTVSPropertyOp25
 70
     1
102
RTVSPropertyOp26
 70
     1
102
RTVSPropertyOp27
 70
     1
102
RTVSPropertyOp28
 70
     1
102
RTVSPropertyOp29
 70
     1
102
RTVSPropertyOp30
 70
     1
102
RTVSPropertyOp31
 70
     1
102
RTVSPropertyOp32
 70
     1
  0
XRECORD
  5
1D71
102
{ACAD_REACTORS
330
1D70
102
}
330
1D70
100
AcDbXrecord
280
     1
102
RTVSPropertyOp0
 70
     1
102
RTVSPropertyOp1
 70
     1
102
RTVSPropertyOp2
 70
     1
102
RTVSPropertyOp3
 70
     1
102
RTVSPropertyOp4
 70
     1
102
RTVSPropertyOp5
 70
     1
102
RTVSPropertyOp6
 70
     1
102
RTVSPropertyOp7
 70
     1
102
RTVSPropertyOp8
 70
     1
102
RTVSPropertyOp9
 70
     1
102
RTVSPropertyOp10
 70
     1
102
RTVSPropertyOp11
 70
     1
102
RTVSPropertyOp12
 70
     1
102
RTVSPropertyOp13
 70
     1
102
RTVSPropertyOp14
 70
     1
102
RTVSPropertyOp15
 70
     1
102
RTVSPropertyOp16
 70
     1
102
RTVSPropertyOp17
 70
     1
102
RTVSPropertyOp18
 70
     1
102
RTVSPropertyOp19
 70
     1
102
RTVSPropertyOp20
 70
     1
102
RTVSPropertyOp21
 70
     1
102
RTVSPropertyOp22
 70
     1
102
RTVSPropertyOp23
 70
     1
102
RTVSPropertyOp24
 70
     1
102
RTVSPropertyOp25
 70
     1
102
RTVSPropertyOp26
 70
     1
102
RTVSPropertyOp27
 70
     1
102
RTVSPropertyOp28
 70
     1
102
RTVSPropertyOp29
 70
     1
102
RTVSPropertyOp30
 70
     1
102
RTVSPropertyOp31
 70
     1
102
RTVSPropertyOp32
 70
     1
  0
XRECORD
  5
1D79
102
{ACAD_REACTORS
330
1D78
102
}
330
1D78
100
AcDbXrecord
280
     1
102
RTVSPropertyOp0
 70
     1
102
RTVSPropertyOp1
 70
     1
102
RTVSPropertyOp2
 70
     1
102
RTVSPropertyOp3
 70
     1
102
RTVSPropertyOp4
 70
     1
102
RTVSPropertyOp5
 70
     1
102
RTVSPropertyOp6
 70
     1
102
RTVSPropertyOp7
 70
     1
102
RTVSPropertyOp8
 70
     1
102
RTVSPropertyOp9
 70
     1
102
RTVSPropertyOp10
 70
     1
102
RTVSPropertyOp11
 70
     1
102
RTVSPropertyOp12
 70
     1
102
RTVSPropertyOp13
 70
     1
102
RTVSPropertyOp14
 70
     1
102
RTVSPropertyOp15
 70
     1
102
RTVSPropertyOp16
 70
     1
102
RTVSPropertyOp17
 70
     1
102
RTVSPropertyOp18
 70
     1
102
RTVSPropertyOp19
 70
     1
102
RTVSPropertyOp20
 70
     1
102
RTVSPropertyOp21
 70
     1
102
RTVSPropertyOp22
 70
     1
102
RTVSPropertyOp23
 70
     1
102
RTVSPropertyOp24
 70
     1
102
RTVSPropertyOp25
 70
     1
102
RTVSPropertyOp26
 70
     1
102
RTVSPropertyOp27
 70
     1
102
RTVSPropertyOp28
 70
     1
102
RTVSPropertyOp29
 70
     1
102
RTVSPropertyOp30
 70
     1
102
RTVSPropertyOp31
 70
     1
102
RTVSPropertyOp32
 70
     1
  0
XRECORD
  5
1D95
102
{ACAD_REACTORS
330
1D94
102
}
330
1D94
100
AcDbXrecord
280
     1
102
RTVSPropertyOp0
 70
     0
102
RTVSPropertyOp1
 70
     0
102
RTVSPropertyOp2
 70
     0
102
RTVSPropertyOp3
 70
     0
102
RTVSPropertyOp4
 70
     0
102
RTVSPropertyOp5
 70
     0
102
RTVSPropertyOp6
 70
     0
102
RTVSPropertyOp7
 70
     0
102
RTVSPropertyOp8
 70
     0
102
RTVSPropertyOp9
 70
     0
102
RTVSPropertyOp10
 70
     0
102
RTVSPropertyOp11
 70
     0
102
RTVSPropertyOp12
 70
     0
102
RTVSPropertyOp13
 70
     0
102
RTVSPropertyOp14
 70
     2
102
RTVSPropertyOp15
 70
     0
102
RTVSPropertyOp16
 70
     0
102
RTVSPropertyOp17
 70
     0
102
RTVSPropertyOp18
 70
     0
102
RTVSPropertyOp19
 70
     0
102
RTVSPropertyOp20
 70
     0
102
RTVSPropertyOp21
 70
     0
102
RTVSPropertyOp22
 70
     0
102
RTVSPropertyOp23
 70
     0
102
RTVSPropertyOp24
 70
     0
102
RTVSPropertyOp25
 70
     0
102
RTVSPropertyOp26
 70
     0
102
RTVSPropertyOp27
 70
     0
102
RTVSPropertyOp28
 70
     1
102
RTVSPropertyOp29
 70
     1
102
RTVSPropertyOp30
 70
     1
102
RTVSPropertyOp31
 70
     1
102
RTVSPropertyOp32
 70
     1
  0
XRECORD
  5
1D85
102
{ACAD_REACTORS
330
1D84
102
}
330
1D84
100
AcDbXrecord
280
     1
102
RTVSPropertyOp0
 70
     1
102
RTVSPropertyOp1
 70
     1
102
RTVSPropertyOp2
 70
     1
102
RTVSPropertyOp3
 70
     1
102
RTVSPropertyOp4
 70
     1
102
RTVSPropertyOp5
 70
     1
102
RTVSPropertyOp6
 70
     1
102
RTVSPropertyOp7
 70
     1
102
RTVSPropertyOp8
 70
     1
102
RTVSPropertyOp9
 70
     1
102
RTVSPropertyOp10
 70
     1
102
RTVSPropertyOp11
 70
     1
102
RTVSPropertyOp12
 70
     1
102
RTVSPropertyOp13
 70
     1
102
RTVSPropertyOp14
 70
     1
102
RTVSPropertyOp15
 70
     1
102
RTVSPropertyOp16
 70
     1
102
RTVSPropertyOp17
 70
     1
102
RTVSPropertyOp18
 70
     1
102
RTVSPropertyOp19
 70
     1
102
RTVSPropertyOp20
 70
     1
102
RTVSPropertyOp21
 70
     1
102
RTVSPropertyOp22
 70
     1
102
RTVSPropertyOp23
 70
     1
102
RTVSPropertyOp24
 70
     1
102
RTVSPropertyOp25
 70
     1
102
RTVSPropertyOp26
 70
     1
102
RTVSPropertyOp27
 70
     1
102
RTVSPropertyOp28
 70
     1
102
RTVSPropertyOp29
 70
     1
102
RTVSPropertyOp30
 70
     1
102
RTVSPropertyOp31
 70
     1
102
RTVSPropertyOp32
 70
     1
  0
XRECORD
  5
1D97
102
{ACAD_REACTORS
330
1D96
102
}
330
1D96
100
AcDbXrecord
280
     1
102
RTVSPropertyOp0
 70
     0
102
RTVSPropertyOp1
 70
     0
102
RTVSPropertyOp2
 70
     0
102
RTVSPropertyOp3
 70
     0
102
RTVSPropertyOp4
 70
     0
102
RTVSPropertyOp5
 70
     0
102
RTVSPropertyOp6
 70
     0
102
RTVSPropertyOp7
 70
     0
102
RTVSPropertyOp8
 70
     0
102
RTVSPropertyOp9
 70
     0
102
RTVSPropertyOp10
 70
     0
102
RTVSPropertyOp11
 70
     0
102
RTVSPropertyOp12
 70
     0
102
RTVSPropertyOp13
 70
     0
102
RTVSPropertyOp14
 70
     2
102
RTVSPropertyOp15
 70
     0
102
RTVSPropertyOp16
 70
     0
102
RTVSPropertyOp17
 70
     0
102
RTVSPropertyOp18
 70
     0
102
RTVSPropertyOp19
 70
     0
102
RTVSPropertyOp20
 70
     0
102
RTVSPropertyOp21
 70
     0
102
RTVSPropertyOp22
 70
     0
102
RTVSPropertyOp23
 70
     0
102
RTVSPropertyOp24
 70
     0
102
RTVSPropertyOp25
 70
     0
102
RTVSPropertyOp26
 70
     0
102
RTVSPropertyOp27
 70
     0
102
RTVSPropertyOp28
 70
     1
102
RTVSPropertyOp29
 70
     1
102
RTVSPropertyOp30
 70
     1
102
RTVSPropertyOp31
 70
     1
102
RTVSPropertyOp32
 70
     1
  0
XRECORD
  5
1D7D
102
{ACAD_REACTORS
330
1D7C
102
}
330
1D7C
100
AcDbXrecord
280
     1
102
RTVSPropertyOp0
 70
     1
102
RTVSPropertyOp1
 70
     1
102
RTVSPropertyOp2
 70
     1
102
RTVSPropertyOp3
 70
     1
102
RTVSPropertyOp4
 70
     1
102
RTVSPropertyOp5
 70
     1
102
RTVSPropertyOp6
 70
     1
102
RTVSPropertyOp7
 70
     1
102
RTVSPropertyOp8
 70
     1
102
RTVSPropertyOp9
 70
     1
102
RTVSPropertyOp10
 70
     1
102
RTVSPropertyOp11
 70
     1
102
RTVSPropertyOp12
 70
     1
102
RTVSPropertyOp13
 70
     1
102
RTVSPropertyOp14
 70
     1
102
RTVSPropertyOp15
 70
     1
102
RTVSPropertyOp16
 70
     1
102
RTVSPropertyOp17
 70
     1
102
RTVSPropertyOp18
 70
     1
102
RTVSPropertyOp19
 70
     1
102
RTVSPropertyOp20
 70
     1
102
RTVSPropertyOp21
 70
     1
102
RTVSPropertyOp22
 70
     1
102
RTVSPropertyOp23
 70
     1
102
RTVSPropertyOp24
 70
     1
102
RTVSPropertyOp25
 70
     1
102
RTVSPropertyOp26
 70
     1
102
RTVSPropertyOp27
 70
     1
102
RTVSPropertyOp28
 70
     1
102
RTVSPropertyOp29
 70
     1
102
RTVSPropertyOp30
 70
     1
102
RTVSPropertyOp31
 70
     1
102
RTVSPropertyOp32
 70
     1
  0
XRECORD
  5
1D93
102
{ACAD_REACTORS
330
1D92
102
}
330
1D92
100
AcDbXrecord
280
     1
102
RTVSPropertyOp0
 70
     1
102
RTVSPropertyOp1
 70
     1
102
RTVSPropertyOp2
 70
     1
102
RTVSPropertyOp3
 70
     1
102
RTVSPropertyOp4
 70
     1
102
RTVSPropertyOp5
 70
     1
102
RTVSPropertyOp6
 70
     1
102
RTVSPropertyOp7
 70
     1
102
RTVSPropertyOp8
 70
     1
102
RTVSPropertyOp9
 70
     1
102
RTVSPropertyOp10
 70
     1
102
RTVSPropertyOp11
 70
     1
102
RTVSPropertyOp12
 70
     1
102
RTVSPropertyOp13
 70
     1
102
RTVSPropertyOp14
 70
     1
102
RTVSPropertyOp15
 70
     1
102
RTVSPropertyOp16
 70
     1
102
RTVSPropertyOp17
 70
     1
102
RTVSPropertyOp18
 70
     1
102
RTVSPropertyOp19
 70
     1
102
RTVSPropertyOp20
 70
     1
102
RTVSPropertyOp21
 70
     1
102
RTVSPropertyOp22
 70
     1
102
RTVSPropertyOp23
 70
     1
102
RTVSPropertyOp24
 70
     1
102
RTVSPropertyOp25
 70
     1
102
RTVSPropertyOp26
 70
     1
102
RTVSPropertyOp27
 70
     1
102
RTVSPropertyOp28
 70
     1
102
RTVSPropertyOp29
 70
     1
102
RTVSPropertyOp30
 70
     1
102
RTVSPropertyOp31
 70
     1
102
RTVSPropertyOp32
 70
     1
  0
XRECORD
  5
1D91
102
{ACAD_REACTORS
330
1D90
102
}
330
1D90
100
AcDbXrecord
280
     1
102
RTVSPropertyOp0
 70
     1
102
RTVSPropertyOp1
 70
     1
102
RTVSPropertyOp2
 70
     1
102
RTVSPropertyOp3
 70
     1
102
RTVSPropertyOp4
 70
     1
102
RTVSPropertyOp5
 70
     1
102
RTVSPropertyOp6
 70
     1
102
RTVSPropertyOp7
 70
     1
102
RTVSPropertyOp8
 70
     1
102
RTVSPropertyOp9
 70
     1
102
RTVSPropertyOp10
 70
     1
102
RTVSPropertyOp11
 70
     1
102
RTVSPropertyOp12
 70
     1
102
RTVSPropertyOp13
 70
     1
102
RTVSPropertyOp14
 70
     1
102
RTVSPropertyOp15
 70
     1
102
RTVSPropertyOp16
 70
     1
102
RTVSPropertyOp17
 70
     1
102
RTVSPropertyOp18
 70
     1
102
RTVSPropertyOp19
 70
     1
102
RTVSPropertyOp20
 70
     1
102
RTVSPropertyOp21
 70
     1
102
RTVSPropertyOp22
 70
     1
102
RTVSPropertyOp23
 70
     1
102
RTVSPropertyOp24
 70
     1
102
RTVSPropertyOp25
 70
     1
102
RTVSPropertyOp26
 70
     1
102
RTVSPropertyOp27
 70
     1
102
RTVSPropertyOp28
 70
     1
102
RTVSPropertyOp29
 70
     1
102
RTVSPropertyOp30
 70
     1
102
RTVSPropertyOp31
 70
     1
102
RTVSPropertyOp32
 70
     1
  0
XRECORD
  5
1D8B
102
{ACAD_REACTORS
330
1D8A
102
}
330
1D8A
100
AcDbXrecord
280
     1
102
RTVSPropertyOp0
 70
     1
102
RTVSPropertyOp1
 70
     1
102
RTVSPropertyOp2
 70
     1
102
RTVSPropertyOp3
 70
     1
102
RTVSPropertyOp4
 70
     1
102
RTVSPropertyOp5
 70
     1
102
RTVSPropertyOp6
 70
     1
102
RTVSPropertyOp7
 70
     1
102
RTVSPropertyOp8
 70
     1
102
RTVSPropertyOp9
 70
     1
102
RTVSPropertyOp10
 70
     1
102
RTVSPropertyOp11
 70
     1
102
RTVSPropertyOp12
 70
     1
102
RTVSPropertyOp13
 70
     1
102
RTVSPropertyOp14
 70
     1
102
RTVSPropertyOp15
 70
     1
102
RTVSPropertyOp16
 70
     1
102
RTVSPropertyOp17
 70
     1
102
RTVSPropertyOp18
 70
     1
102
RTVSPropertyOp19
 70
     1
102
RTVSPropertyOp20
 70
     1
102
RTVSPropertyOp21
 70
     1
102
RTVSPropertyOp22
 70
     1
102
RTVSPropertyOp23
 70
     1
102
RTVSPropertyOp24
 70
     1
102
RTVSPropertyOp25
 70
     1
102
RTVSPropertyOp26
 70
     1
102
RTVSPropertyOp27
 70
     1
102
RTVSPropertyOp28
 70
     1
102
RTVSPropertyOp29
 70
     1
102
RTVSPropertyOp30
 70
     1
102
RTVSPropertyOp31
 70
     1
102
RTVSPropertyOp32
 70
     1
  0
XRECORD
  5
1D8D
102
{ACAD_REACTORS
330
1D8C
102
}
330
1D8C
100
AcDbXrecord
280
     1
102
RTVSPropertyOp0
 70
     1
102
RTVSPropertyOp1
 70
     1
102
RTVSPropertyOp2
 70
     1
102
RTVSPropertyOp3
 70
     1
102
RTVSPropertyOp4
 70
     1
102
RTVSPropertyOp5
 70
     1
102
RTVSPropertyOp6
 70
     1
102
RTVSPropertyOp7
 70
     1
102
RTVSPropertyOp8
 70
     1
102
RTVSPropertyOp9
 70
     1
102
RTVSPropertyOp10
 70
     1
102
RTVSPropertyOp11
 70
     1
102
RTVSPropertyOp12
 70
     1
102
RTVSPropertyOp13
 70
     1
102
RTVSPropertyOp14
 70
     1
102
RTVSPropertyOp15
 70
     1
102
RTVSPropertyOp16
 70
     1
102
RTVSPropertyOp17
 70
     1
102
RTVSPropertyOp18
 70
     1
102
RTVSPropertyOp19
 70
     1
102
RTVSPropertyOp20
 70
     1
102
RTVSPropertyOp21
 70
     1
102
RTVSPropertyOp22
 70
     1
102
RTVSPropertyOp23
 70
     1
102
RTVSPropertyOp24
 70
     1
102
RTVSPropertyOp25
 70
     1
102
RTVSPropertyOp26
 70
     1
102
RTVSPropertyOp27
 70
     1
102
RTVSPropertyOp28
 70
     1
102
RTVSPropertyOp29
 70
     1
102
RTVSPropertyOp30
 70
     1
102
RTVSPropertyOp31
 70
     1
102
RTVSPropertyOp32
 70
     1
  0
XRECORD
  5
1D83
102
{ACAD_REACTORS
330
1D82
102
}
330
1D82
100
AcDbXrecord
280
     1
102
RTVSPropertyOp0
 70
     1
102
RTVSPropertyOp1
 70
     1
102
RTVSPropertyOp2
 70
     1
102
RTVSPropertyOp3
 70
     1
102
RTVSPropertyOp4
 70
     1
102
RTVSPropertyOp5
 70
     1
102
RTVSPropertyOp6
 70
     1
102
RTVSPropertyOp7
 70
     1
102
RTVSPropertyOp8
 70
     1
102
RTVSPropertyOp9
 70
     1
102
RTVSPropertyOp10
 70
     1
102
RTVSPropertyOp11
 70
     1
102
RTVSPropertyOp12
 70
     1
102
RTVSPropertyOp13
 70
     1
102
RTVSPropertyOp14
 70
     1
102
RTVSPropertyOp15
 70
     1
102
RTVSPropertyOp16
 70
     1
102
RTVSPropertyOp17
 70
     1
102
RTVSPropertyOp18
 70
     1
102
RTVSPropertyOp19
 70
     1
102
RTVSPropertyOp20
 70
     1
102
RTVSPropertyOp21
 70
     1
102
RTVSPropertyOp22
 70
     1
102
RTVSPropertyOp23
 70
     1
102
RTVSPropertyOp24
 70
     1
102
RTVSPropertyOp25
 70
     1
102
RTVSPropertyOp26
 70
     1
102
RTVSPropertyOp27
 70
     1
102
RTVSPropertyOp28
 70
     1
102
RTVSPropertyOp29
 70
     1
102
RTVSPropertyOp30
 70
     1
102
RTVSPropertyOp31
 70
     1
102
RTVSPropertyOp32
 70
     1
  0
XRECORD
  5
1D77
102
{ACAD_REACTORS
330
1D76
102
}
330
1D76
100
AcDbXrecord
280
     1
102
RTVSPropertyOp0
 70
     1
102
RTVSPropertyOp1
 70
     1
102
RTVSPropertyOp2
 70
     1
102
RTVSPropertyOp3
 70
     1
102
RTVSPropertyOp4
 70
     1
102
RTVSPropertyOp5
 70
     1
102
RTVSPropertyOp6
 70
     1
102
RTVSPropertyOp7
 70
     1
102
RTVSPropertyOp8
 70
     1
102
RTVSPropertyOp9
 70
     1
102
RTVSPropertyOp10
 70
     1
102
RTVSPropertyOp11
 70
     1
102
RTVSPropertyOp12
 70
     1
102
RTVSPropertyOp13
 70
     1
102
RTVSPropertyOp14
 70
     1
102
RTVSPropertyOp15
 70
     1
102
RTVSPropertyOp16
 70
     1
102
RTVSPropertyOp17
 70
     1
102
RTVSPropertyOp18
 70
     1
102
RTVSPropertyOp19
 70
     1
102
RTVSPropertyOp20
 70
     1
102
RTVSPropertyOp21
 70
     1
102
RTVSPropertyOp22
 70
     1
102
RTVSPropertyOp23
 70
     1
102
RTVSPropertyOp24
 70
     1
102
RTVSPropertyOp25
 70
     1
102
RTVSPropertyOp26
 70
     1
102
RTVSPropertyOp27
 70
     1
102
RTVSPropertyOp28
 70
     1
102
RTVSPropertyOp29
 70
     1
102
RTVSPropertyOp30
 70
     1
102
RTVSPropertyOp31
 70
     1
102
RTVSPropertyOp32
 70
     1
  0
XRECORD
  5
1D8F
102
{ACAD_REACTORS
330
1D8E
102
}
330
1D8E
100
AcDbXrecord
280
     1
102
RTVSPropertyOp0
 70
     1
102
RTVSPropertyOp1
 70
     1
102
RTVSPropertyOp2
 70
     1
102
RTVSPropertyOp3
 70
     1
102
RTVSPropertyOp4
 70
     1
102
RTVSPropertyOp5
 70
     1
102
RTVSPropertyOp6
 70
     1
102
RTVSPropertyOp7
 70
     1
102
RTVSPropertyOp8
 70
     1
102
RTVSPropertyOp9
 70
     1
102
RTVSPropertyOp10
 70
     1
102
RTVSPropertyOp11
 70
     1
102
RTVSPropertyOp12
 70
     1
102
RTVSPropertyOp13
 70
     1
102
RTVSPropertyOp14
 70
     1
102
RTVSPropertyOp15
 70
     1
102
RTVSPropertyOp16
 70
     1
102
RTVSPropertyOp17
 70
     1
102
RTVSPropertyOp18
 70
     1
102
RTVSPropertyOp19
 70
     1
102
RTVSPropertyOp20
 70
     1
102
RTVSPropertyOp21
 70
     1
102
RTVSPropertyOp22
 70
     1
102
RTVSPropertyOp23
 70
     1
102
RTVSPropertyOp24
 70
     1
102
RTVSPropertyOp25
 70
     1
102
RTVSPropertyOp26
 70
     1
102
RTVSPropertyOp27
 70
     1
102
RTVSPropertyOp28
 70
     1
102
RTVSPropertyOp29
 70
     1
102
RTVSPropertyOp30
 70
     1
102
RTVSPropertyOp31
 70
     1
102
RTVSPropertyOp32
 70
     1
  0
ENDSEC
  0
EOF
