  0
SECTION
  2
HEADER
  9
$ACADVER
  1
AC1015
  9
$ACADMAINTVER
 70
    14
  9
$DWGCODEPAGE
  3
ANSI_932
  9
$INSBASE
 10
0.0
 20
0.0
 30
0.0
  9
$EXTMIN
 10
-312.5870510463619
 20
-166.0705567863124
 30
-0.0000000349181948
  9
$EXTMAX
 10
237.2053468855381
 20
116.7332984544843
 30
0.0000000814935747
  9
$LIMMIN
 10
0.0
 20
0.0
  9
$LIMMAX
 10
420.0
 20
297.0
  9
$ORTHOMODE
 70
     0
  9
$REGENMODE
 70
     1
  9
$FILLMODE
 70
     1
  9
$QTEXTMODE
 70
     0
  9
$MIRRTEXT
 70
     1
  9
$LTSCALE
 40
1.0
  9
$ATTMODE
 70
     1
  9
$TEXTSIZE
 40
2.5
  9
$TRACEWID
 40
1.0
  9
$TEXTSTYLE
  7
Standard
  9
$CLAYER
  8
0
  9
$CELTYPE
  6
ByLayer
  9
$CECOLOR
 62
   256
  9
$CELTSCALE
 40
1.0
  9
$DISPSILH
 70
     0
  9
$DIMSCALE
 40
1.0
  9
$DIMASZ
 40
2.5
  9
$DIMEXO
 40
0.625
  9
$DIMDLI
 40
3.75
  9
$DIMRND
 40
0.0
  9
$DIMDLE
 40
0.0
  9
$DIMEXE
 40
1.25
  9
$DIMTP
 40
0.0
  9
$DIMTM
 40
0.0
  9
$DIMTXT
 40
2.5
  9
$DIMCEN
 40
2.5
  9
$DIMTSZ
 40
0.0
  9
$DIMTOL
 70
     0
  9
$DIMLIM
 70
     0
  9
$DIMTIH
 70
     0
  9
$DIMTOH
 70
     0
  9
$DIMSE1
 70
     0
  9
$DIMSE2
 70
     0
  9
$DIMTAD
 70
     1
  9
$DIMZIN
 70
     8
  9
$DIMBLK
  1

  9
$DIMASO
 70
     1
  9
$DIMSHO
 70
     1
  9
$DIMPOST
  1

  9
$DIMAPOST
  1

  9
$DIMALT
 70
     0
  9
$DIMALTD
 70
     3
  9
$DIMALTF
 40
0.03937007874016
  9
$DIMLFAC
 40
1.0
  9
$DIMTOFL
 70
     1
  9
$DIMTVP
 40
0.0
  9
$DIMTIX
 70
     0
  9
$DIMSOXD
 70
     0
  9
$DIMSAH
 70
     0
  9
$DIMBLK1
  1

  9
$DIMBLK2
  1

  9
$DIMSTYLE
  2
ISO-25
  9
$DIMCLRD
 70
     0
  9
$DIMCLRE
 70
     0
  9
$DIMCLRT
 70
     0
  9
$DIMTFAC
 40
1.0
  9
$DIMGAP
 40
0.625
  9
$DIMJUST
 70
     0
  9
$DIMSD1
 70
     0
  9
$DIMSD2
 70
     0
  9
$DIMTOLJ
 70
     0
  9
$DIMTZIN
 70
     8
  9
$DIMALTZ
 70
     0
  9
$DIMALTTZ
 70
     0
  9
$DIMUPT
 70
     0
  9
$DIMDEC
 70
     2
  9
$DIMTDEC
 70
     2
  9
$DIMALTU
 70
     2
  9
$DIMALTTD
 70
     3
  9
$DIMTXSTY
  7
Standard
  9
$DIMAUNIT
 70
     0
  9
$DIMADEC
 70
     0
  9
$DIMALTRND
 40
0.0
  9
$DIMAZIN
 70
     0
  9
$DIMDSEP
 70
    44
  9
$DIMATFIT
 70
     3
  9
$DIMFRAC
 70
     0
  9
$DIMLDRBLK
  1

  9
$DIMLUNIT
 70
     2
  9
$DIMLWD
 70
    -2
  9
$DIMLWE
 70
    -2
  9
$DIMTMOVE
 70
     0
  9
$LUNITS
 70
     2
  9
$LUPREC
 70
     4
  9
$SKETCHINC
 40
1.0
  9
$FILLETRAD
 40
10.0
  9
$AUNITS
 70
     0
  9
$AUPREC
 70
     0
  9
$MENU
  1
.
  9
$ELEVATION
 40
0.0
  9
$PELEVATION
 40
0.0
  9
$THICKNESS
 40
0.0
  9
$LIMCHECK
 70
     0
  9
$CHAMFERA
 40
10.0
  9
$CHAMFERB
 40
10.0
  9
$CHAMFERC
 40
20.0
  9
$CHAMFERD
 40
0.0
  9
$SKPOLY
 70
     0
  9
$TDCREATE
 40
2456037.839147314
  9
$TDUCREATE
 40
2456037.464147315
  9
$TDUPDATE
 40
2456044.420596782
  9
$TDUUPDATE
 40
2456044.045596782
  9
$TDINDWG
 40
0.0030848495
  9
$TDUSRTIMER
 40
0.0030848495
  9
$USRTIMER
 70
     1
  9
$ANGBASE
 50
0.0
  9
$ANGDIR
 70
     0
  9
$PDMODE
 70
     0
  9
$PDSIZE
 40
0.0
  9
$PLINEWID
 40
0.0
  9
$SPLFRAME
 70
     0
  9
$SPLINETYPE
 70
     6
  9
$SPLINESEGS
 70
     8
  9
$HANDSEED
  5
103A
  9
$SURFTAB1
 70
     6
  9
$SURFTAB2
 70
     6
  9
$SURFTYPE
 70
     6
  9
$SURFU
 70
     6
  9
$SURFV
 70
     6
  9
$UCSBASE
  2

  9
$UCSNAME
  2

  9
$UCSORG
 10
0.0
 20
0.0
 30
0.0
  9
$UCSXDIR
 10
1.0
 20
0.0
 30
0.0
  9
$UCSYDIR
 10
0.0
 20
1.0
 30
0.0
  9
$UCSORTHOREF
  2

  9
$UCSORTHOVIEW
 70
     0
  9
$UCSORGTOP
 10
0.0
 20
0.0
 30
0.0
  9
$UCSORGBOTTOM
 10
0.0
 20
0.0
 30
0.0
  9
$UCSORGLEFT
 10
0.0
 20
0.0
 30
0.0
  9
$UCSORGRIGHT
 10
0.0
 20
0.0
 30
0.0
  9
$UCSORGFRONT
 10
0.0
 20
0.0
 30
0.0
  9
$UCSORGBACK
 10
0.0
 20
0.0
 30
0.0
  9
$PUCSBASE
  2

  9
$PUCSNAME
  2

  9
$PUCSORG
 10
0.0
 20
0.0
 30
0.0
  9
$PUCSXDIR
 10
1.0
 20
0.0
 30
0.0
  9
$PUCSYDIR
 10
0.0
 20
1.0
 30
0.0
  9
$PUCSORTHOREF
  2

  9
$PUCSORTHOVIEW
 70
     0
  9
$PUCSORGTOP
 10
0.0
 20
0.0
 30
0.0
  9
$PUCSORGBOTTOM
 10
0.0
 20
0.0
 30
0.0
  9
$PUCSORGLEFT
 10
0.0
 20
0.0
 30
0.0
  9
$PUCSORGRIGHT
 10
0.0
 20
0.0
 30
0.0
  9
$PUCSORGFRONT
 10
0.0
 20
0.0
 30
0.0
  9
$PUCSORGBACK
 10
0.0
 20
0.0
 30
0.0
  9
$USERI1
 70
     0
  9
$USERI2
 70
     0
  9
$USERI3
 70
     0
  9
$USERI4
 70
     0
  9
$USERI5
 70
     0
  9
$USERR1
 40
0.0
  9
$USERR2
 40
0.0
  9
$USERR3
 40
0.0
  9
$USERR4
 40
0.0
  9
$USERR5
 40
0.0
  9
$WORLDVIEW
 70
     1
  9
$SHADEDGE
 70
     3
  9
$SHADEDIF
 70
    70
  9
$TILEMODE
 70
     1
  9
$MAXACTVP
 70
    64
  9
$PINSBASE
 10
0.0
 20
0.0
 30
0.0
  9
$PLIMCHECK
 70
     0
  9
$PEXTMIN
 10
26.66076962115562
 20
20.31135699206657
 30
-0.0015258207003583
  9
$PEXTMAX
 10
240.039213369355
 20
182.8886381005154
 30
0.0000000349246037
  9
$PLIMMIN
 10
-6.350006103515625
 20
-6.349999904632567
  9
$PLIMMAX
 10
273.0499877929687
 20
209.5499939918517
  9
$UNITMODE
 70
     0
  9
$VISRETAIN
 70
     1
  9
$PLINEGEN
 70
     0
  9
$PSLTSCALE
 70
     1
  9
$TREEDEPTH
 70
  3020
  9
$CMLSTYLE
  2
Standard
  9
$CMLJUST
 70
     0
  9
$CMLSCALE
 40
20.0
  9
$PROXYGRAPHICS
 70
     1
  9
$MEASUREMENT
 70
     1
  9
$CELWEIGHT
370
    -1
  9
$ENDCAPS
280
     0
  9
$JOINSTYLE
280
     0
  9
$LWDISPLAY
290
     0
  9
$INSUNITS
 70
     4
  9
$HYPERLINKBASE
  1

  9
$STYLESHEET
  1

  9
$XEDIT
290
     1
  9
$CEPSNTYPE
380
     0
  9
$PSTYLEMODE
290
     1
  9
$FINGERPRINTGUID
  2
{FDEAD578-A652-11D2-9A35-0060089B3A3F}
  9
$VERSIONGUID
  2
{1A5FE9DA-8C7C-4D84-ABC4-E5768AD7ED40}
  9
$EXTNAMES
290
     1
  9
$PSVPSCALE
 40
0.0
  9
$OLESTARTUP
290
     0
  0
ENDSEC
  0
SECTION
  2
CLASSES
  0
CLASS
  1
ACDBDICTIONARYWDFLT
  2
AcDbDictionaryWithDefault
  3
AutoCAD 2000
 90
        0
280
     0
281
     0
  0
CLASS
  1
ACDBPLACEHOLDER
  2
AcDbPlaceHolder
  3
AutoCAD 2000
 90
        0
280
     0
281
     0
  0
CLASS
  1
LAYOUT
  2
AcDbLayout
  3
AutoCAD 2000
 90
        0
280
     0
281
     0
  0
CLASS
  1
DICTIONARYVAR
  2
AcDbDictionaryVar
  3
AutoCAD 2000
 90
        0
280
     0
281
     0
  0
ENDSEC
  0
SECTION
  2
TABLES
  0
TABLE
  2
VPORT
  5
8
330
0
100
AcDbSymbolTable
 70
     2
  0
VPORT
  5
1039
330
8
100
AcDbSymbolTableRecord
100
AcDbViewportTableRecord
  2
*Active
 70
     0
 10
0.0
 20
0.0
 11
1.0
 21
1.0
 12
-37.6908520804119
 22
-24.66862916591401
 13
0.0
 23
0.0
 14
10.0
 24
10.0
 15
10.0
 25
10.0
 16
0.0
 26
0.0
 36
1.0
 17
0.0
 27
0.0
 37
0.0
 40
284.8858468131217
 41
1.97051597051597
 42
50.0
 43
0.0
 44
0.0
 50
0.0
 51
0.0
 71
     0
 72
   100
 73
     1
 74
     3
 75
     0
 76
     0
 77
     0
 78
     0
281
     0
 65
     1
110
0.0
120
0.0
130
0.0
111
1.0
121
0.0
131
0.0
112
0.0
122
1.0
132
0.0
 79
     0
146
0.0
  0
ENDTAB
  0
TABLE
  2
LTYPE
  5
5
330
0
100
AcDbSymbolTable
 70
     4
  0
LTYPE
  5
14
330
5
100
AcDbSymbolTableRecord
100
AcDbLinetypeTableRecord
  2
ByBlock
 70
     0
  3

 72
    65
 73
     0
 40
0.0
  0
LTYPE
  5
15
330
5
100
AcDbSymbolTableRecord
100
AcDbLinetypeTableRecord
  2
ByLayer
 70
     0
  3

 72
    65
 73
     0
 40
0.0
  0
LTYPE
  5
16
330
5
100
AcDbSymbolTableRecord
100
AcDbLinetypeTableRecord
  2
Continuous
 70
     0
  3
Solid line
 72
    65
 73
     0
 40
0.0
  0
LTYPE
  5
86
330
5
100
AcDbSymbolTableRecord
100
AcDbLinetypeTableRecord
  2
DASHED
 70
     0
  3
Dashed
 72
    65
 73
     2
 40
15.0
 49
7.0
 74
     0
 49
-8.0
 74
     0
  0
LTYPE
  5
87
330
5
100
AcDbSymbolTableRecord
100
AcDbLinetypeTableRecord
  2
DASH_CENTER
 70
     0
  3
Dash_Center
 72
    65
 73
     4
 40
14.0
 49
11.0
 74
     0
 49
-1.0
 74
     0
 49
1.0
 74
     0
 49
-1.0
 74
     0
  0
LTYPE
  5
88
330
5
100
AcDbSymbolTableRecord
100
AcDbLinetypeTableRecord
  2
PHANTOM
 70
     0
  3
Phantom
 72
    65
 73
     6
 40
13.0
 49
10.0
 74
     0
 49
-1.0
 74
     0
 49
0.0
 74
     0
 49
-1.0
 74
     0
 49
0.0
 74
     0
 49
-1.0
 74
     0
  0
ENDTAB
  0
TABLE
  2
LAYER
  5
2
330
0
100
AcDbSymbolTable
 70
     1
  0
LAYER
  5
10
330
2
100
AcDbSymbolTableRecord
100
AcDbLayerTableRecord
  2
0
 70
     0
 62
     7
  6
Continuous
370
    -3
390
F
  0
ENDTAB
  0
TABLE
  2
STYLE
  5
3
330
0
100
AcDbSymbolTable
 70
    22
  0
STYLE
  5
11
330
3
100
AcDbSymbolTableRecord
100
AcDbTextStyleTableRecord
  2
Standard
 70
     0
 40
0.0
 41
1.0
 50
0.0
 71
     0
 42
2.5
  3
txt
  4

  0
STYLE
  5
89
330
3
100
AcDbSymbolTableRecord
100
AcDbTextStyleTableRecord
  2
CONVERTER_1
 70
     0
 40
0.0
 41
0.89
 50
0.0
 71
     0
 42
0.2
  3
txt.shx
  4
bigfont.shx
  0
STYLE
  5
8A
330
3
100
AcDbSymbolTableRecord
100
AcDbTextStyleTableRecord
  2
CONVERTER_2
 70
     0
 40
0.0
 41
0.7565
 50
0.0
 71
     0
 42
0.2
  3
txt.shx
  4
bigfont.shx
  0
STYLE
  5
8B
330
3
100
AcDbSymbolTableRecord
100
AcDbTextStyleTableRecord
  2
CONVERTER_3
 70
     0
 40
0.0
 41
0.7565
 50
0.0
 71
     0
 42
0.2
  3
txt.shx
  4

  0
STYLE
  5
8C
330
3
100
AcDbSymbolTableRecord
100
AcDbTextStyleTableRecord
  2
CONVERTER_4
 70
     0
 40
0.0
 41
1.0
 50
0.0
 71
     0
 42
0.2
  3
monotxt.shx
  4

  0
STYLE
  5
8D
330
3
100
AcDbSymbolTableRecord
100
AcDbTextStyleTableRecord
  2
CONVERTER_5
 70
     0
 40
0.0
 41
0.7120000000000001
 50
0.0
 71
     0
 42
0.2
  3
txt.shx
  4

  0
STYLE
  5
8E
330
3
100
AcDbSymbolTableRecord
100
AcDbTextStyleTableRecord
  2
CONVERTER_6
 70
     0
 40
0.0
 41
1.008666666666669
 50
0.0
 71
     0
 42
0.2
  3
txt.shx
  4
bigfont.shx
  0
STYLE
  5
8F
330
3
100
AcDbSymbolTableRecord
100
AcDbTextStyleTableRecord
  2
CONVERTER_7
 70
     0
 40
0.0
 41
0.9761290322580599
 50
0.0
 71
     0
 42
0.2
  3
txt.shx
  4
bigfont.shx
  0
STYLE
  5
90
330
3
100
AcDbSymbolTableRecord
100
AcDbTextStyleTableRecord
  2
CONVERTER_8
 70
     0
 40
0.0
 41
0.7400000000000002
 50
0.0
 71
     0
 42
0.2
  3
txt.shx
  4

  0
STYLE
  5
91
330
3
100
AcDbSymbolTableRecord
100
AcDbTextStyleTableRecord
  2
CONVERTER_9
 70
     0
 40
0.0
 41
1.0235
 50
0.0
 71
     0
 42
0.2
  3
txt.shx
  4

  0
STYLE
  5
92
330
3
100
AcDbSymbolTableRecord
100
AcDbTextStyleTableRecord
  2
CONVERTER_10
 70
     0
 40
0.0
 41
0.8009999999999999
 50
0.0
 71
     0
 42
0.2
  3
txt.shx
  4

  0
STYLE
  5
93
330
3
100
AcDbSymbolTableRecord
100
AcDbTextStyleTableRecord
  2
CONVERTER_11
 70
     0
 40
0.0
 41
0.8009999999999999
 50
0.0
 71
     0
 42
0.2
  3
txt.shx
  4
bigfont.shx
  0
STYLE
  5
94
330
3
100
AcDbSymbolTableRecord
100
AcDbTextStyleTableRecord
  2
CONVERTER_12
 70
     0
 40
0.0
 41
0.7758974358974399
 50
0.0
 71
     0
 42
0.2
  3
txt.shx
  4
bigfont.shx
  0
STYLE
  5
95
330
3
100
AcDbSymbolTableRecord
100
AcDbTextStyleTableRecord
  2
CONVERTER_13
 70
     0
 40
0.0
 41
0.534
 50
0.0
 71
     0
 42
0.2
  3
txt.shx
  4

  0
STYLE
  5
96
330
3
100
AcDbSymbolTableRecord
100
AcDbTextStyleTableRecord
  2
CONVERTER_14
 70
     0
 40
0.0
 41
0.89
 50
0.0
 71
     0
 42
0.2
  3
txt.shx
  4

  0
STYLE
  5
97
330
3
100
AcDbSymbolTableRecord
100
AcDbTextStyleTableRecord
  2
CONVERTER_15
 70
     0
 40
0.0
 41
1.87368421052632
 50
0.0
 71
     0
 42
0.2
  3
txt.shx
  4

  0
STYLE
  5
98
330
3
100
AcDbSymbolTableRecord
100
AcDbTextStyleTableRecord
  2
CONVERTER_16
 70
     0
 40
0.0
 41
0.7120000000000001
 50
0.0
 71
     0
 42
0.2
  3
txt.shx
  4
bigfont.shx
  0
STYLE
  5
99
330
3
100
AcDbSymbolTableRecord
100
AcDbTextStyleTableRecord
  2
CONVERTER_17
 70
     0
 40
0.0
 41
1.080714285714289
 50
0.0
 71
     0
 42
0.2
  3
txt.shx
  4
bigfont.shx
  0
STYLE
  5
9A
330
3
100
AcDbSymbolTableRecord
100
AcDbTextStyleTableRecord
  2
CONVERTER_18
 70
     0
 40
0.0
 41
0.945625
 50
0.0
 71
     0
 42
0.2
  3
txt.shx
  4
bigfont.shx
  0
STYLE
  5
9B
330
3
100
AcDbSymbolTableRecord
100
AcDbTextStyleTableRecord
  2
CONVERTER_19
 70
     0
 40
0.0
 41
0.73514
 50
0.0
 71
     0
 42
0.2
  3
txt.shx
  4

  0
STYLE
  5
9C
330
3
100
AcDbSymbolTableRecord
100
AcDbTextStyleTableRecord
  2
CONVERTER_21
 70
     0
 40
0.0
 41
1.62688172043011
 50
0.0
 71
     0
 42
0.2
  3
txt.shx
  4
bigfont.shx
  0
STYLE
  5
9D
330
3
100
AcDbSymbolTableRecord
100
AcDbTextStyleTableRecord
  2
CONVERTER_22
 70
     0
 40
0.0
 41
1.68111111111111
 50
0.0
 71
     0
 42
0.2
  3
txt.shx
  4
bigfont.shx
  0
ENDTAB
  0
TABLE
  2
VIEW
  5
6
330
0
100
AcDbSymbolTable
 70
     0
  0
ENDTAB
  0
TABLE
  2
UCS
  5
7
330
0
100
AcDbSymbolTable
 70
     0
  0
ENDTAB
  0
TABLE
  2
APPID
  5
9
330
0
100
AcDbSymbolTable
 70
     1
  0
APPID
  5
12
330
9
100
AcDbSymbolTableRecord
100
AcDbRegAppTableRecord
  2
ACAD
 70
     0
  0
ENDTAB
  0
TABLE
  2
DIMSTYLE
  5
A
330
0
100
AcDbSymbolTable
 70
     2
100
AcDbDimStyleTable
 71
     0
  0
DIMSTYLE
105
27
330
A
100
AcDbSymbolTableRecord
100
AcDbDimStyleTableRecord
  2
ISO-25
 70
     0
 41
2.5
 42
0.625
 43
3.75
 44
1.25
 73
     0
 74
     0
 77
     1
 78
     8
140
2.5
141
2.5
143
0.03937007874016
147
0.625
171
     3
172
     1
271
     2
272
     2
274
     3
278
    44
283
     0
284
     8
340
11
  0
DIMSTYLE
105
9E
330
A
100
AcDbSymbolTableRecord
100
AcDbDimStyleTableRecord
  2
Standard
 70
     0
340
11
  0
ENDTAB
  0
TABLE
  2
BLOCK_RECORD
  5
1
330
0
100
AcDbSymbolTable
 70
     1
  0
BLOCK_RECORD
  5
1F
330
1
100
AcDbSymbolTableRecord
100
AcDbBlockTableRecord
  2
*Model_Space
340
22
  0
BLOCK_RECORD
  5
55
330
1
100
AcDbSymbolTableRecord
100
AcDbBlockTableRecord
  2
*Paper_Space
340
56
  0
BLOCK_RECORD
  5
50
330
1
100
AcDbSymbolTableRecord
100
AcDbBlockTableRecord
  2
*Paper_Space0
340
51
  0
ENDTAB
  0
ENDSEC
  0
SECTION
  2
BLOCKS
  0
BLOCK
  5
20
330
1F
100
AcDbEntity
  8
0
100
AcDbBlockBegin
  2
*Model_Space
 70
     0
 10
0.0
 20
0.0
 30
0.0
  3
*Model_Space
  1

  0
ENDBLK
  5
21
330
1F
100
AcDbEntity
  8
0
100
AcDbBlockEnd
  0
BLOCK
  5
57
330
55
100
AcDbEntity
 67
     1
  8
0
100
AcDbBlockBegin
  2
*Paper_Space
 70
     0
 10
0.0
 20
0.0
 30
0.0
  3
*Paper_Space
  1

  0
ENDBLK
  5
58
330
55
100
AcDbEntity
 67
     1
  8
0
100
AcDbBlockEnd
  0
BLOCK
  5
52
330
50
100
AcDbEntity
  8
0
100
AcDbBlockBegin
  2
*Paper_Space0
 70
     0
 10
0.0
 20
0.0
 30
0.0
  3
*Paper_Space0
  1

  0
VIEWPORT
  5
6B
330
50
100
AcDbEntity
  8
0
100
AcDbViewport
 10
133.3499908447265
 20
101.5999970436096
 30
0.0
 40
381.3957395593833
 41
218.2856291881582
 69
     0
 12
133.3499908447265
 22
101.5999970436096
 13
0.0
 23
0.0
 14
10.0
 24
10.0
 15
10.0
 25
10.0
 16
0.0
 26
0.0
 36
1.0
 17
0.0
 27
0.0
 37
0.0
 42
50.0
 43
0.0
 44
0.0
 45
218.2856291881582
 50
0.0
 51
0.0
 72
   100
 90
    32800
  1

281
     0
 71
     1
 74
     0
110
0.0
120
0.0
130
0.0
111
1.0
121
0.0
131
0.0
112
0.0
122
1.0
132
0.0
 79
     0
146
0.0
  0
VIEWPORT
  5
6D
330
50
100
AcDbEntity
  8
0
100
AcDbViewport
 10
133.3499939441679
 20
101.5999939441679
 30
0.0
 40
213.3599903106689
 41
162.5599903106689
 69
     0
 12
210.0
 22
148.5
 13
0.0
 23
0.0
 14
10.0
 24
10.0
 15
10.0
 25
10.0
 16
0.0
 26
0.0
 36
1.0
 17
0.0
 27
0.0
 37
0.0
 42
50.0
 43
0.0
 44
0.0
 45
324.0677920111345
 50
0.0
 51
0.0
 72
   100
 90
    32864
  1

281
     0
 71
     1
 74
     0
110
0.0
120
0.0
130
0.0
111
1.0
121
0.0
131
0.0
112
0.0
122
1.0
132
0.0
 79
     0
146
0.0
  0
ENDBLK
  5
53
330
50
100
AcDbEntity
  8
0
100
AcDbBlockEnd
  0
ENDSEC
  0
SECTION
  2
ENTITIES
  0
ARC
  5
86D
330
1F
100
AcDbEntity
  8
0
  6
Continuous
 62
     7
100
AcDbCircle
 10
-177.2602
 20
0.4025999999999998
 30
0.0
 40
2.0
100
AcDbArc
 50
180.0
 51
270.0
  0
ARC
  5
86E
330
1F
100
AcDbEntity
  8
0
  6
Continuous
 62
     7
100
AcDbCircle
 10
-251.2599999999999
 20
0.4025999999999998
 30
0.0
 40
2.0
100
AcDbArc
 50
180.0
 51
270.0
  0
ARC
  5
86F
330
1F
100
AcDbEntity
  8
0
  6
Continuous
 62
     7
100
AcDbCircle
 10
-156.2602
 20
1.602499999999999
 30
0.0
 40
2.0
100
AcDbArc
 50
270.0
 51
0.0
  0
ARC
  5
870
330
1F
100
AcDbEntity
  8
0
  6
Continuous
 62
     7
100
AcDbCircle
 10
-177.2602
 20
1.602499999999999
 30
0.0
 40
2.0
100
AcDbArc
 50
180.0
 51
270.0
  0
ARC
  5
871
330
1F
100
AcDbEntity
  8
0
  6
Continuous
 62
     7
100
AcDbCircle
 10
-230.2599999999999
 20
1.602499999999999
 30
0.0
 40
2.0
100
AcDbArc
 50
270.0
 51
0.0
  0
ARC
  5
872
330
1F
100
AcDbEntity
  8
0
  6
Continuous
 62
     7
100
AcDbCircle
 10
-156.2602
 20
0.4025999999999998
 30
0.0
 40
2.0
100
AcDbArc
 50
270.0
 51
0.0
  0
ARC
  5
873
330
1F
100
AcDbEntity
  8
0
  6
Continuous
 62
     7
100
AcDbCircle
 10
-230.2599999999999
 20
0.4025999999999998
 30
0.0
 40
2.0
100
AcDbArc
 50
270.0
 51
0.0
  0
ARC
  5
874
330
1F
100
AcDbEntity
  8
0
  6
Continuous
 62
     7
100
AcDbCircle
 10
-251.2599999999999
 20
1.602499999999999
 30
0.0
 40
2.0
100
AcDbArc
 50
180.0
 51
270.0
  0
LINE
  5
875
330
1F
100
AcDbEntity
  8
0
  6
Continuous
 62
     7
100
AcDbLine
 10
-292.7592999999999
 20
101.252
 30
0.0
 11
-292.7592999999999
 21
-29.948
 31
0.0
  0
LINE
  5
876
330
1F
100
AcDbEntity
  8
0
  6
Continuous
 62
     7
100
AcDbLine
 10
-295.0591
 20
-29.948
 30
0.0
 11
-295.0591
 21
101.252
 31
0.0
  0
LINE
  5
877
330
1F
100
AcDbEntity
  8
0
  6
Continuous
 62
     7
100
AcDbLine
 10
-137.9594999999999
 20
101.252
 30
0.0
 11
-137.9594999999999
 21
-29.948
 31
0.0
  0
LINE
  5
87A
330
1F
100
AcDbEntity
  8
0
  6
Continuous
 62
     7
100
AcDbLine
 10
-130.8594999999999
 20
13.6521
 30
0.0
 11
-130.8594999999999
 21
-5.481699999999996
 31
0.0
  0
LINE
  5
87B
330
1F
100
AcDbEntity
  8
0
  6
Continuous
 62
     7
100
AcDbLine
 10
-134.0595
 20
13.6521
 30
0.0
 11
-134.0595
 21
-5.481699999999996
 31
0.0
  0
LINE
  5
87C
330
1F
100
AcDbEntity
  8
0
  6
Continuous
 62
     7
100
AcDbLine
 10
-140.2594999999999
 20
-29.948
 30
0.0
 11
-140.2594999999999
 21
101.252
 31
0.0
  0
LINE
  5
87D
330
1F
100
AcDbEntity
  8
0
  6
Continuous
 62
     7
100
AcDbLine
 10
-302.1589
 20
13.6521
 30
0.0
 11
-302.1589
 21
-28.6479
 31
0.0
  0
LINE
  5
87E
330
1F
100
AcDbEntity
  8
0
  6
Continuous
 62
     7
100
AcDbLine
 10
-298.959
 20
13.6521
 30
0.0
 11
-298.959
 21
-28.6479
 31
0.0
  0
LINE
  5
87F
330
1F
100
AcDbEntity
  8
0
  6
DASH_CENTER
 62
    30
100
AcDbLine
 10
-213.2594999999999
 20
112.5194999999999
 30
0.0
 11
-213.2594999999999
 21
-42.06030000000001
 31
0.0
  0
LINE
  5
881
330
1F
100
AcDbEntity
  8
0
  6
Continuous
 62
     7
100
AcDbLine
 10
-295.0591
 20
-29.948
 30
0.0
 11
-137.9594999999999
 21
-29.948
 31
0.0
  0
LINE
  5
882
330
1F
100
AcDbEntity
  8
0
  6
Continuous
 62
     7
100
AcDbLine
 10
-271.2594999999999
 20
-34.8479
 30
0.0
 11
-295.959
 21
-34.8479
 31
0.0
  0
LINE
  5
883
330
1F
100
AcDbEntity
  8
0
  6
Continuous
 62
     7
100
AcDbLine
 10
-295.9587
 20
-31.64789999999999
 30
0.0
 11
-245.2594999999999
 21
-31.64789999999999
 31
0.0
  0
ARC
  5
8A8
330
1F
100
AcDbEntity
  8
0
  6
Continuous
 62
     7
100
AcDbCircle
 10
-295.9590000004031
 20
-28.64789999959679
 30
0.0
 40
6.200000000403256
100
AcDbArc
 50
180.000924129202
 51
270.0000000037257
  0
ARC
  5
8A9
330
1F
100
AcDbEntity
  8
0
  6
Continuous
 62
     7
100
AcDbCircle
 10
-295.9590000008333
 20
-28.64789999916666
 30
0.0
 40
3.000000000833312
100
AcDbArc
 50
180.0019098752323
 51
270.0000000159163
  0
LINE
  5
8AA
330
1F
100
AcDbEntity
  8
0
  6
DASH_CENTER
 62
    30
100
AcDbLine
 10
-287.2986
 20
-7.481699999999996
 30
0.0
 11
-304.3242
 21
-7.481699999999996
 31
0.0
  0
ARC
  5
8AB
330
1F
100
AcDbEntity
  8
0
  6
Continuous
 62
     7
100
AcDbCircle
 10
-296.3589265608043
 20
-9.562971015217328
 30
0.0
 40
1.299973439518823
100
AcDbArc
 50
180.0012774920369
 51
265.001181793105
  0
ARC
  5
8AC
330
1F
100
AcDbEntity
  8
0
  6
Continuous
 62
     7
100
AcDbCircle
 10
-296.358876750911
 20
-5.400374627205579
 30
0.0
 40
1.300023249336623
100
AcDbArc
 50
95.00082984247455
 51
180.0011182523355
  0
LINE
  5
8AD
330
1F
100
AcDbEntity
  8
0
  6
Continuous
 62
     7
100
AcDbLine
 10
-297.6589
 20
-5.400399999999997
 30
0.0
 11
-297.6589
 21
-9.562999999999997
 31
0.0
  0
LINE
  5
8AE
330
1F
100
AcDbEntity
  8
0
  6
Continuous
 62
     7
100
AcDbLine
 10
-295.0588
 20
-10.98169999999999
 30
0.0
 11
-296.4722
 21
-10.8579
 31
0.0
  0
LINE
  5
8AF
330
1F
100
AcDbEntity
  8
0
  6
Continuous
 62
     7
100
AcDbLine
 10
-295.0588
 20
-3.981699999999996
 30
0.0
 11
-296.4722
 21
-4.105200000000002
 31
0.0
  0
LINE
  5
8BD
330
1F
100
AcDbEntity
  8
0
  6
Continuous
 62
     7
100
AcDbLine
 10
-155.2594999999999
 20
-34.8479
 30
0.0
 11
-137.0594
 21
-34.8479
 31
0.0
  0
LINE
  5
8BE
330
1F
100
AcDbEntity
  8
0
  6
Continuous
 62
     7
100
AcDbLine
 10
-137.0595
 20
-31.64789999999999
 30
0.0
 11
-245.2594999999999
 21
-31.64789999999999
 31
0.0
  0
LINE
  5
8D3
330
1F
100
AcDbEntity
  8
0
  6
Continuous
 62
     7
100
AcDbLine
 10
-181.2594999999999
 20
-34.8479
 30
0.0
 11
-245.2594999999999
 21
-34.8479
 31
0.0
  0
LINE
  5
8EC
330
1F
100
AcDbEntity
  8
0
  6
Continuous
 62
     7
100
AcDbLine
 10
-230.2599999999999
 20
-7.5974
 30
0.0
 11
-251.2599999999999
 21
-7.5974
 31
0.0
  0
LINE
  5
8ED
330
1F
100
AcDbEntity
  8
0
  6
Continuous
 62
     7
100
AcDbLine
 10
-230.2599999999999
 20
-1.597399999999999
 30
0.0
 11
-251.2599999999999
 21
-1.597399999999999
 31
0.0
  0
LINE
  5
8EE
330
1F
100
AcDbEntity
  8
0
  6
Continuous
 62
     7
100
AcDbLine
 10
-230.2599999999999
 20
-0.3975000000000008
 30
0.0
 11
-251.2599999999999
 21
-0.3975000000000008
 31
0.0
  0
LINE
  5
8EF
330
1F
100
AcDbEntity
  8
0
  6
Continuous
 62
     7
100
AcDbLine
 10
-230.2599999999999
 20
-11.59739999999999
 30
0.0
 11
-251.2598
 21
-11.59739999999999
 31
0.0
  0
LINE
  5
8F0
330
1F
100
AcDbEntity
  8
0
  6
Continuous
 62
     7
100
AcDbLine
 10
-230.2599999999999
 20
-13.0974
 30
0.0
 11
-251.2598
 21
-13.0974
 31
0.0
  0
LINE
  5
8F1
330
1F
100
AcDbEntity
  8
0
  6
Continuous
 62
     7
100
AcDbLine
 10
-245.2594999999999
 20
-35.3479
 30
0.0
 11
-271.2594999999999
 21
-35.3479
 31
0.0
  0
LINE
  5
8F2
330
1F
100
AcDbEntity
  8
0
  6
Continuous
 62
     7
100
AcDbLine
 10
-245.2594999999999
 20
-32.1479
 30
0.0
 11
-271.2594999999999
 21
-32.1479
 31
0.0
  0
LINE
  5
8F3
330
1F
100
AcDbEntity
  8
0
  6
Continuous
 62
     7
100
AcDbLine
 10
-271.2594999999999
 20
-32.1479
 30
0.0
 11
-271.2594999999999
 21
-35.3479
 31
0.0
  0
LINE
  5
8F4
330
1F
100
AcDbEntity
  8
0
  6
DASH_CENTER
 62
    30
100
AcDbLine
 10
-258.2594999999999
 20
-27.9612
 30
0.0
 11
-258.2594999999999
 21
-42.24779999999999
 31
0.0
  0
LINE
  5
8F5
330
1F
100
AcDbEntity
  8
0
  6
Continuous
 62
     7
100
AcDbLine
 10
-245.2594999999999
 20
-35.3479
 30
0.0
 11
-245.2594999999999
 21
-34.8479
 31
0.0
  0
LINE
  5
8F6
330
1F
100
AcDbEntity
  8
0
  6
Continuous
 62
     7
100
AcDbLine
 10
-245.2594999999999
 20
-32.1479
 30
0.0
 11
-245.2594999999999
 21
-31.64789999999999
 31
0.0
  0
ARC
  5
8F7
330
1F
100
AcDbEntity
  8
0
  6
Continuous
 62
     7
100
AcDbCircle
 10
-251.2598
 20
-11.0974
 30
0.0
 40
2.0
100
AcDbArc
 50
180.0
 51
270.0
  0
ARC
  5
8F8
330
1F
100
AcDbEntity
  8
0
  6
Continuous
 62
     7
100
AcDbCircle
 10
-251.2598
 20
-9.5974
 30
0.0
 40
2.0
100
AcDbArc
 50
180.0
 51
270.0
  0
ARC
  5
8F9
330
1F
100
AcDbEntity
  8
0
  6
Continuous
 62
     7
100
AcDbCircle
 10
-251.2598
 20
-9.5974
 30
0.0
 40
2.0
100
AcDbArc
 50
90.0
 51
180.0
  0
LINE
  5
8FA
330
1F
100
AcDbEntity
  8
0
  6
Continuous
 62
     7
100
AcDbLine
 10
-253.2598
 20
-9.5974
 30
0.0
 11
-253.2598
 21
-11.0974
 31
0.0
  0
ARC
  5
8FB
330
1F
100
AcDbEntity
  8
0
  6
Continuous
 62
     7
100
AcDbCircle
 10
-230.2599999999999
 20
-9.5974
 30
0.0
 40
2.0
100
AcDbArc
 50
270.0
 51
0.0
  0
ARC
  5
8FC
330
1F
100
AcDbEntity
  8
0
  6
Continuous
 62
     7
100
AcDbCircle
 10
-230.2599999999999
 20
-11.0974
 30
0.0
 40
2.0
100
AcDbArc
 50
270.0
 51
0.0
  0
ARC
  5
8FD
330
1F
100
AcDbEntity
  8
0
  6
Continuous
 62
     7
100
AcDbCircle
 10
-230.2599999999999
 20
-9.5974
 30
0.0
 40
2.0
100
AcDbArc
 50
0.0
 51
90.0
  0
LINE
  5
8FE
330
1F
100
AcDbEntity
  8
0
  6
Continuous
 62
     7
100
AcDbLine
 10
-228.2599999999999
 20
-11.0974
 30
0.0
 11
-228.2599999999999
 21
-9.5974
 31
0.0
  0
ARC
  5
916
330
1F
100
AcDbEntity
  8
0
  6
Continuous
 62
     7
100
AcDbCircle
 10
-177.2602
 20
-9.5974
 30
0.0
 40
2.0
100
AcDbArc
 50
90.0
 51
180.0
  0
ARC
  5
917
330
1F
100
AcDbEntity
  8
0
  6
Continuous
 62
     7
100
AcDbCircle
 10
-177.2602
 20
-9.5974
 30
0.0
 40
2.0
100
AcDbArc
 50
180.0
 51
270.0
  0
ARC
  5
918
330
1F
100
AcDbEntity
  8
0
  6
Continuous
 62
     7
100
AcDbCircle
 10
-177.2602
 20
-11.0974
 30
0.0
 40
2.0
100
AcDbArc
 50
180.0
 51
270.0
  0
LINE
  5
919
330
1F
100
AcDbEntity
  8
0
  6
Continuous
 62
     7
100
AcDbLine
 10
-155.2594999999999
 20
-32.1479
 30
0.0
 11
-181.2594999999999
 21
-32.1479
 31
0.0
  0
LINE
  5
91A
330
1F
100
AcDbEntity
  8
0
  6
Continuous
 62
     7
100
AcDbLine
 10
-155.2594999999999
 20
-35.3479
 30
0.0
 11
-181.2594999999999
 21
-35.3479
 31
0.0
  0
LINE
  5
91B
330
1F
100
AcDbEntity
  8
0
  6
Continuous
 62
     7
100
AcDbLine
 10
-181.2594999999999
 20
-35.3479
 30
0.0
 11
-181.2594999999999
 21
-34.8479
 31
0.0
  0
LINE
  5
91C
330
1F
100
AcDbEntity
  8
0
  6
Continuous
 62
     7
100
AcDbLine
 10
-181.2594999999999
 20
-32.1479
 30
0.0
 11
-181.2594999999999
 21
-31.64789999999999
 31
0.0
  0
LINE
  5
91D
330
1F
100
AcDbEntity
  8
0
  6
Continuous
 62
     7
100
AcDbLine
 10
-179.2602
 20
-9.5974
 30
0.0
 11
-179.2602
 21
-11.0974
 31
0.0
  0
LINE
  5
91E
330
1F
100
AcDbEntity
  8
0
  6
DASH_CENTER
 62
    30
100
AcDbLine
 10
-168.2594999999999
 20
-27.88749999999999
 30
0.0
 11
-168.2594999999999
 21
-42.395
 31
0.0
  0
LINE
  5
91F
330
1F
100
AcDbEntity
  8
0
  6
Continuous
 62
     7
100
AcDbLine
 10
-155.2594999999999
 20
-32.1479
 30
0.0
 11
-155.2594999999999
 21
-35.3479
 31
0.0
  0
LINE
  5
920
330
1F
100
AcDbEntity
  8
0
  6
Continuous
 62
     7
100
AcDbLine
 10
-156.2602
 20
-7.5974
 30
0.0
 11
-177.2602
 21
-7.5974
 31
0.0
  0
LINE
  5
921
330
1F
100
AcDbEntity
  8
0
  6
Continuous
 62
     7
100
AcDbLine
 10
-156.2602
 20
-13.0974
 30
0.0
 11
-177.2602
 21
-13.0974
 31
0.0
  0
LINE
  5
922
330
1F
100
AcDbEntity
  8
0
  6
Continuous
 62
     7
100
AcDbLine
 10
-156.2602
 20
-11.59739999999999
 30
0.0
 11
-177.2602
 21
-11.59739999999999
 31
0.0
  0
LINE
  5
923
330
1F
100
AcDbEntity
  8
0
  6
Continuous
 62
     7
100
AcDbLine
 10
-156.2602
 20
-0.3975000000000008
 30
0.0
 11
-177.2602
 21
-0.3975000000000008
 31
0.0
  0
LINE
  5
924
330
1F
100
AcDbEntity
  8
0
  6
Continuous
 62
     7
100
AcDbLine
 10
-156.2602
 20
-1.597399999999999
 30
0.0
 11
-177.2602
 21
-1.597399999999999
 31
0.0
  0
ARC
  5
925
330
1F
100
AcDbEntity
  8
0
  6
Continuous
 62
     7
100
AcDbCircle
 10
-156.2602
 20
-9.5974
 30
0.0
 40
2.0
100
AcDbArc
 50
270.0
 51
0.0
  0
ARC
  5
926
330
1F
100
AcDbEntity
  8
0
  6
Continuous
 62
     7
100
AcDbCircle
 10
-156.2602
 20
-11.0974
 30
0.0
 40
2.0
100
AcDbArc
 50
270.0
 51
0.0
  0
ARC
  5
927
330
1F
100
AcDbEntity
  8
0
  6
Continuous
 62
     7
100
AcDbCircle
 10
-156.2602
 20
-9.5974
 30
0.0
 40
2.0
100
AcDbArc
 50
0.0
 51
90.0
  0
LINE
  5
928
330
1F
100
AcDbEntity
  8
0
  6
Continuous
 62
     7
100
AcDbLine
 10
-154.2602
 20
-11.0974
 30
0.0
 11
-154.2602
 21
-9.5974
 31
0.0
  0
LINE
  5
92D
330
1F
100
AcDbEntity
  8
0
  6
Continuous
 62
     7
100
AcDbLine
 10
-130.8594999999999
 20
-28.6479
 30
0.0
 11
-130.8594999999999
 21
-9.481699999999996
 31
0.0
  0
LINE
  5
92E
330
1F
100
AcDbEntity
  8
0
  6
Continuous
 62
     7
100
AcDbLine
 10
-134.0595
 20
-9.481699999999996
 30
0.0
 11
-134.0595
 21
-28.6479
 31
0.0
  0
ARC
  5
92F
330
1F
100
AcDbEntity
  8
0
  6
Continuous
 62
     7
100
AcDbCircle
 10
-137.0594
 20
-28.6479
 30
0.0
 40
6.200000000806455
100
AcDbArc
 50
269.9990758745245
 51
359.9990758745241
  0
ARC
  5
930
330
1F
100
AcDbEntity
  8
0
  6
Continuous
 62
     7
100
AcDbCircle
 10
-137.0594
 20
-28.6479
 30
0.0
 40
3.000000001666666
100
AcDbArc
 50
269.9980901406841
 51
359.9980901406836
  0
LINE
  5
931
330
1F
100
AcDbEntity
  8
0
  6
DASH_CENTER
 62
    30
100
AcDbLine
 10
-125.4909999999999
 20
-7.481699999999996
 30
0.0
 11
-144.1298999999998
 21
-7.481699999999996
 31
0.0
  0
LINE
  5
932
330
1F
100
AcDbEntity
  8
0
  6
Continuous
 62
    30
100
AcDbLine
 10
-130.0591
 20
-5.831499999999997
 30
0.0
 11
-134.7594999999999
 21
-5.831499999999997
 31
0.0
  0
LINE
  5
933
330
1F
100
AcDbEntity
  8
0
  6
Continuous
 62
    30
100
AcDbLine
 10
-130.0591
 20
-9.131599999999997
 30
0.0
 11
-134.7594999999999
 21
-9.131599999999997
 31
0.0
  0
LINE
  5
934
330
1F
100
AcDbEntity
  8
0
  6
Continuous
 62
     7
100
AcDbLine
 10
-134.7594999999999
 20
-5.481699999999996
 30
0.0
 11
-130.4090999999999
 21
-5.481699999999996
 31
0.0
  0
LINE
  5
935
330
1F
100
AcDbEntity
  8
0
  6
Continuous
 62
     7
100
AcDbLine
 10
-130.4090999999999
 20
-9.481699999999996
 30
0.0
 11
-134.7594999999999
 21
-9.481699999999996
 31
0.0
  0
LINE
  5
936
330
1F
100
AcDbEntity
  8
0
  6
Continuous
 62
     7
100
AcDbLine
 10
-134.7594999999999
 20
-10.9814
 30
0.0
 11
-135.0770999999999
 21
-11.53149999999999
 31
0.0
  0
LINE
  5
937
330
1F
100
AcDbEntity
  8
0
  6
Continuous
 62
     7
100
AcDbLine
 10
-137.9594999999999
 20
-10.9814
 30
0.0
 11
-137.6419999999999
 21
-11.53149999999999
 31
0.0
  0
LINE
  5
938
330
1F
100
AcDbEntity
  8
0
  6
Continuous
 62
     7
100
AcDbLine
 10
-135.0770999999999
 20
-11.53149999999999
 30
0.0
 11
-137.6419999999999
 21
-11.53149999999999
 31
0.0
  0
ARC
  5
939
330
1F
100
AcDbEntity
  8
0
  6
Continuous
 62
     7
100
AcDbCircle
 10
-141.3477642598065
 20
-11.52308147143111
 30
0.0
 40
6.588261696440949
100
AcDbArc
 50
4.420379507664716
 51
17.86285958685659
  0
ARC
  5
93A
330
1F
100
AcDbEntity
  8
0
  6
Continuous
 62
     7
100
AcDbCircle
 10
-141.3477895813054
 20
-3.440147095407708
 30
0.0
 40
6.588277034786293
100
AcDbArc
 50
342.1374444196877
 51
355.5807522366351
  0
ARC
  5
93B
330
1F
100
AcDbEntity
  8
0
  6
Continuous
 62
     7
100
AcDbCircle
 10
-141.3477999986351
 20
-7.481344837185162
 30
0.0
 40
6.588287642624372
100
AcDbArc
 50
342.1374535162648
 51
17.85971104158694
  0
LINE
  5
93C
330
1F
100
AcDbEntity
  8
0
  6
Continuous
 62
     7
100
AcDbLine
 10
-135.0770999999999
 20
-9.5022
 30
0.0
 11
-137.9594999999999
 21
-9.5022
 31
0.0
  0
LINE
  5
93D
330
1F
100
AcDbEntity
  8
0
  6
Continuous
 62
     7
100
AcDbLine
 10
-137.6419999999999
 20
-3.431600000000003
 30
0.0
 11
-135.0770999999999
 21
-3.431600000000003
 31
0.0
  0
LINE
  5
93E
330
1F
100
AcDbEntity
  8
0
  6
Continuous
 62
     7
100
AcDbLine
 10
-134.7594999999999
 20
-3.981699999999996
 30
0.0
 11
-134.7594999999999
 21
-10.9814
 31
0.0
  0
LINE
  5
93F
330
1F
100
AcDbEntity
  8
0
  6
Continuous
 62
     7
100
AcDbLine
 10
-135.0769999999999
 20
-5.460900000000002
 30
0.0
 11
-137.9594999999999
 21
-5.460900000000002
 31
0.0
  0
LINE
  5
940
330
1F
100
AcDbEntity
  8
0
  6
Continuous
 62
     7
100
AcDbLine
 10
-134.7594999999999
 20
-3.981699999999996
 30
0.0
 11
-135.0770999999999
 21
-3.431600000000003
 31
0.0
  0
LINE
  5
941
330
1F
100
AcDbEntity
  8
0
  6
Continuous
 62
     7
100
AcDbLine
 10
-137.9594999999999
 20
-3.981699999999996
 30
0.0
 11
-137.6419999999999
 21
-3.431600000000003
 31
0.0
  0
LINE
  5
942
330
1F
100
AcDbEntity
  8
0
  6
Continuous
 62
     7
100
AcDbLine
 10
-130.4090999999999
 20
-9.481699999999996
 30
0.0
 11
-130.4090999999999
 21
-5.481699999999996
 31
0.0
  0
LINE
  5
943
330
1F
100
AcDbEntity
  8
0
  6
Continuous
 62
     7
100
AcDbLine
 10
-130.0591
 20
-5.831499999999997
 30
0.0
 11
-130.0591
 21
-9.131599999999997
 31
0.0
  0
LINE
  5
944
330
1F
100
AcDbEntity
  8
0
  6
Continuous
 62
     7
100
AcDbLine
 10
-130.0591
 20
-9.131599999999997
 30
0.0
 11
-130.4090999999999
 21
-9.481699999999996
 31
0.0
  0
LINE
  5
945
330
1F
100
AcDbEntity
  8
0
  6
Continuous
 62
     7
100
AcDbLine
 10
-130.0591
 20
-5.831499999999997
 30
0.0
 11
-130.4090999999999
 21
-5.481699999999996
 31
0.0
  0
LINE
  5
94A
330
1F
100
AcDbEntity
  8
0
  6
Continuous
 62
     7
100
AcDbLine
 10
-295.0591
 20
101.252
 30
0.0
 11
-137.9594999999999
 21
101.252
 31
0.0
  0
LINE
  5
94B
330
1F
100
AcDbEntity
  8
0
  6
DASH_CENTER
 62
    30
100
AcDbLine
 10
-257.259
 20
35.65209999999999
 30
0.0
 11
-312.5351999999999
 21
35.65209999999999
 31
0.0
  0
LINE
  5
94F
330
1F
100
AcDbEntity
  8
0
  6
Continuous
 62
     7
100
AcDbLine
 10
-305.5588
 20
4.652099999999999
 30
0.0
 11
-305.5588
 21
77.9961
 31
0.0
  0
LINE
  5
950
330
1F
100
AcDbEntity
  8
0
  6
Continuous
 62
     7
100
AcDbLine
 10
-307.959
 20
64.6521
 30
0.0
 11
-307.959
 21
6.651900000000001
 31
0.0
  0
LINE
  5
951
330
1F
100
AcDbEntity
  8
0
  6
Continuous
 62
     7
100
AcDbLine
 10
-295.5588
 20
75.3293
 30
0.0
 11
-295.5588
 21
35.65209999999999
 31
0.0
  0
LINE
  5
952
330
1F
100
AcDbEntity
  8
0
  6
Continuous
 62
     7
100
AcDbLine
 10
-305.959
 20
4.652099999999999
 30
0.0
 11
-307.959
 21
6.651900000000001
 31
0.0
  0
LINE
  5
953
330
1F
100
AcDbEntity
  8
0
  6
Continuous
 62
     7
100
AcDbLine
 10
-302.1589
 20
37.65209999999999
 30
0.0
 11
-302.1589
 21
18.6521
 31
0.0
  0
LINE
  5
954
330
1F
100
AcDbEntity
  8
0
  6
Continuous
 62
     7
100
AcDbLine
 10
-298.959
 20
18.6521
 30
0.0
 11
-298.959
 21
37.65209999999999
 31
0.0
  0
LINE
  5
955
330
1F
100
AcDbEntity
  8
0
  6
Continuous
 62
     7
100
AcDbLine
 10
-302.5590999999999
 20
37.65209999999999
 30
0.0
 11
-302.5590999999999
 21
20.65209999999998
 31
0.0
  0
LINE
  5
956
330
1F
100
AcDbEntity
  8
0
  6
Continuous
 62
     7
100
AcDbLine
 10
-298.5590999999999
 20
37.65209999999999
 30
0.0
 11
-298.5590999999999
 21
20.65209999999998
 31
0.0
  0
LINE
  5
957
330
1F
100
AcDbEntity
  8
0
  6
Continuous
 62
     7
100
AcDbLine
 10
-295.5586
 20
35.65209999999999
 30
0.0
 11
-295.5591
 21
4.652099999999999
 31
0.0
  0
LINE
  5
958
330
1F
100
AcDbEntity
  8
0
  6
Continuous
 62
     7
100
AcDbLine
 10
-302.5588
 20
4.652099999999999
 30
0.0
 11
-302.5588
 21
13.6521
 31
0.0
  0
LINE
  5
959
330
1F
100
AcDbEntity
  8
0
  6
Continuous
 62
     7
100
AcDbLine
 10
-298.5588
 20
4.652099999999999
 30
0.0
 11
-298.5588
 21
13.6521
 31
0.0
  0
LINE
  5
95A
330
1F
100
AcDbEntity
  8
0
  6
Continuous
 62
     7
100
AcDbLine
 10
-298.959
 20
4.652099999999999
 30
0.0
 11
-295.0588
 21
4.652099999999999
 31
0.0
  0
LINE
  5
95B
330
1F
100
AcDbEntity
  8
0
  6
Continuous
 62
     7
100
AcDbLine
 10
-305.959
 20
4.652099999999999
 30
0.0
 11
-302.1589
 21
4.652099999999999
 31
0.0
  0
LINE
  5
95C
330
1F
100
AcDbEntity
  8
0
  6
Continuous
 62
     7
100
AcDbLine
 10
-295.5588
 20
13.6521
 30
0.0
 11
-305.5588
 21
13.6521
 31
0.0
  0
LINE
  5
95D
330
1F
100
AcDbEntity
  8
0
  6
Continuous
 62
     7
100
AcDbLine
 10
-302.5590999999999
 20
20.65209999999998
 30
0.0
 11
-302.1589
 21
20.65209999999998
 31
0.0
  0
LINE
  5
95E
330
1F
100
AcDbEntity
  8
0
  6
Continuous
 62
     7
100
AcDbLine
 10
-298.959
 20
18.6521
 30
0.0
 11
-302.1589
 21
18.6521
 31
0.0
  0
LINE
  5
95F
330
1F
100
AcDbEntity
  8
0
  6
Continuous
 62
     7
100
AcDbLine
 10
-298.959
 20
20.65209999999998
 30
0.0
 11
-298.5590999999999
 21
20.65209999999998
 31
0.0
  0
LINE
  5
960
330
1F
100
AcDbEntity
  8
0
  6
Continuous
 62
     7
100
AcDbLine
 10
-302.5590999999999
 20
37.65209999999999
 30
0.0
 11
-298.5590999999999
 21
37.65209999999999
 31
0.0
  0
LINE
  5
961
330
1F
100
AcDbEntity
  8
0
  6
Continuous
 62
     7
100
AcDbLine
 10
-307.959
 20
64.6521
 30
0.0
 11
-305.959
 21
66.6521
 31
0.0
  0
LINE
  5
962
330
1F
100
AcDbEntity
  8
0
  6
DASH_CENTER
 62
    30
100
AcDbLine
 10
-306.4741
 20
72.99630000000002
 30
0.0
 11
-294.5692999999998
 21
72.99630000000002
 31
0.0
  0
LINE
  5
963
330
1F
100
AcDbEntity
  8
0
  6
DASH_CENTER
 62
    30
100
AcDbLine
 10
-300.5590999999999
 20
66.9575
 30
0.0
 11
-300.5590999999999
 21
79.3528
 31
0.0
  0
LINE
  5
964
330
1F
100
AcDbEntity
  8
0
  6
Continuous
 62
     7
100
AcDbLine
 10
-305.959
 20
66.6521
 30
0.0
 11
-305.5588
 21
66.6521
 31
0.0
  0
LINE
  5
965
330
1F
100
AcDbEntity
  8
0
  6
DASH_CENTER
 62
    30
100
AcDbLine
 10
-303.5136999999998
 20
78.7856
 30
0.0
 11
-288.9202
 21
78.7856
 31
0.0
  0
LINE
  5
966
330
1F
100
AcDbEntity
  8
0
  6
Continuous
 62
     7
100
AcDbLine
 10
-297.6589
 20
76.7043
 30
0.0
 11
-297.6589
 21
80.8669
 31
0.0
  0
CIRCLE
  5
967
330
1F
100
AcDbEntity
  8
0
  6
Continuous
 62
     7
100
AcDbCircle
 10
-300.5590999999999
 20
72.99630000000002
 30
0.0
 40
2.5
  0
LINE
  5
968
330
1F
100
AcDbEntity
  8
0
  6
Continuous
 62
     7
100
AcDbLine
 10
-305.5588
 20
68.25199999999999
 30
0.0
 11
-295.5588
 21
68.25199999999999
 31
0.0
  0
LINE
  5
969
330
1F
100
AcDbEntity
  8
0
  6
Continuous
 62
     7
100
AcDbLine
 10
-297.6589
 20
77.9961
 30
0.0
 11
-305.5588
 21
77.9961
 31
0.0
  0
LINE
  5
96A
330
1F
100
AcDbEntity
  8
0
  6
Continuous
 62
     7
100
AcDbLine
 10
-304.5590999999999
 20
76.99630000000002
 30
0.0
 11
-297.6589
 21
76.99630000000002
 31
0.0
  0
LINE
  5
96B
330
1F
100
AcDbEntity
  8
0
  6
Continuous
 62
     7
100
AcDbLine
 10
-304.5590999999999
 20
68.99630000000001
 30
0.0
 11
-296.5590999999999
 21
68.99630000000001
 31
0.0
  0
CIRCLE
  5
96C
330
1F
100
AcDbEntity
  8
0
  6
Continuous
 62
    30
100
AcDbCircle
 10
-300.5590999999999
 20
72.99630000000002
 30
0.0
 40
2.100000000000023
  0
LINE
  5
96D
330
1F
100
AcDbEntity
  8
0
  6
Continuous
 62
     7
100
AcDbLine
 10
-304.5590999999999
 20
76.99630000000002
 30
0.0
 11
-304.5590999999999
 21
68.99630000000001
 31
0.0
  0
ARC
  5
96E
330
1F
100
AcDbEntity
  8
0
  6
Continuous
 62
     7
100
AcDbCircle
 10
-296.3589265608043
 20
76.70432898478269
 30
0.0
 40
1.299973439518823
100
AcDbArc
 50
180.0012774920369
 51
265.001181793105
  0
LINE
  5
96F
330
1F
100
AcDbEntity
  8
0
  6
Continuous
 62
     7
100
AcDbLine
 10
-295.0588
 20
75.2856
 30
0.0
 11
-296.4722
 21
75.40919999999998
 31
0.0
  0
LINE
  5
970
330
1F
100
AcDbEntity
  8
0
  6
Continuous
 62
     7
100
AcDbLine
 10
-296.5590999999999
 20
75.41970000000002
 30
0.0
 11
-296.5590999999999
 21
68.99630000000001
 31
0.0
  0
ARC
  5
971
330
1F
100
AcDbEntity
  8
0
  6
Continuous
 62
     7
100
AcDbCircle
 10
-296.358876750911
 20
80.86692537279445
 30
0.0
 40
1.300023249336623
100
AcDbArc
 50
95.00082984247455
 51
180.0011182523355
  0
LINE
  5
972
330
1F
100
AcDbEntity
  8
0
  6
Continuous
 62
     7
100
AcDbLine
 10
-295.0588
 20
82.28559999999998
 30
0.0
 11
-296.4722
 21
82.1619
 31
0.0
  0
LINE
  5
D03
330
1F
100
AcDbEntity
  8
0
  6
DASH_CENTER
 62
    30
100
AcDbLine
 10
-82.02689999999998
 20
35.65209999999999
 30
0.0
 11
-251.2589999999999
 21
35.65209999999999
 31
0.0
  0
LINE
  5
D04
330
1F
100
AcDbEntity
  8
0
  6
DASHED
 62
    30
100
AcDbLine
 10
-181.7593
 20
93.97209999999999
 30
0.0
 11
-181.7593999999999
 21
65.68789999999999
 31
0.0
  0
LINE
  5
D05
330
1F
100
AcDbEntity
  8
0
  6
DASHED
 62
    30
100
AcDbLine
 10
-244.7594999999999
 20
65.68789999999999
 30
0.0
 11
-244.7594999999999
 21
93.97209999999999
 31
0.0
  0
LINE
  5
D06
330
1F
100
AcDbEntity
  8
0
  6
DASHED
 62
    30
100
AcDbLine
 10
-244.7594999999999
 20
65.68789999999999
 30
0.0
 11
-181.7593999999999
 21
65.68789999999999
 31
0.0
  0
ARC
  5
D07
330
1F
100
AcDbEntity
  8
0
  6
Continuous
 62
     7
100
AcDbCircle
 10
-254.2593
 20
35.65209999999999
 30
0.0
 40
13.50004395918769
100
AcDbArc
 50
302.5213924638281
 51
237.4809751373502
  0
LINE
  5
D08
330
1F
100
AcDbEntity
  8
0
  6
Continuous
 62
     7
100
AcDbLine
 10
-230.2599999999999
 20
5.402599999999998
 30
0.0
 11
-251.2599999999999
 21
5.402599999999998
 31
0.0
  0
LINE
  5
D09
330
1F
100
AcDbEntity
  8
0
  6
Continuous
 62
     7
100
AcDbLine
 10
-257.259
 20
35.65209999999999
 30
0.0
 11
-263.3907838631642
 21
19.25786034681823
 31
0.0
  0
LINE
  5
D0A
330
1F
100
AcDbEntity
  8
0
  6
Continuous
 62
     7
100
AcDbLine
 10
-257.259
 20
16.02260347417178
 30
0.0
 11
-257.259
 21
22.48961585338088
 31
0.0
  0
LINE
  5
D0B
330
1F
100
AcDbEntity
  8
0
  6
Continuous
 62
     7
100
AcDbLine
 10
-254.259
 20
35.65209999999999
 30
0.0
 11
-254.259
 21
16.02260347417178
 31
0.0
  0
LINE
  5
D0C
330
1F
100
AcDbEntity
  8
0
  6
Continuous
 62
     7
100
AcDbLine
 10
-251.2589999999999
 20
16.02260347417178
 30
0.0
 11
-251.2589999999999
 21
22.48971733385631
 31
0.0
  0
LINE
  5
D0D
330
1F
100
AcDbEntity
  8
0
  6
Continuous
 62
     7
100
AcDbLine
 10
-247.9371073741894
 20
18.20690305261348
 30
0.0
 11
-249.7082566806394
 21
22.94233516168362
 31
0.0
  0
LINE
  5
D0E
330
1F
100
AcDbEntity
  8
0
  6
Continuous
 62
     7
100
AcDbLine
 10
-245.1272161368356
 20
19.25786034681823
 30
0.0
 11
-247.0014810617388
 21
24.26898745731569
 31
0.0
  0
LINE
  5
D0F
330
1F
100
AcDbEntity
  8
0
  6
Continuous
 62
     7
100
AcDbLine
 10
-258.8098021319822
 20
22.94217791735826
 30
0.0
 11
-260.5808926258104
 21
18.20690305261348
 31
0.0
  0
ARC
  5
D10
330
1F
100
AcDbEntity
  8
0
  6
Continuous
 62
    30
100
AcDbCircle
 10
-263.1433889113627
 20
17.77840242655721
 30
0.0
 40
1.499999999999995
100
AcDbArc
 50
39.49316618507668
 51
99.49316618507715
  0
ARC
  5
D11
330
1F
100
AcDbEntity
  8
0
  6
Continuous
 62
    30
100
AcDbCircle
 10
-260.8282875776119
 20
19.6863609728745
 30
0.0
 40
1.499999999999998
100
AcDbArc
 50
219.4931661850763
 51
279.4931661850771
  0
ARC
  5
D12
330
1F
100
AcDbEntity
  8
0
  6
Continuous
 62
    30
100
AcDbCircle
 10
-262.2332331962886
 20
20.21183961997687
 30
0.0
 40
1.499999999999998
100
AcDbArc
 50
219.4931661850763
 51
279.4931661850771
  0
ARC
  5
D13
330
1F
100
AcDbEntity
  8
0
  6
Continuous
 62
     7
100
AcDbCircle
 10
-251.2599999999999
 20
3.402599999999998
 30
0.0
 40
2.0
100
AcDbArc
 50
90.0
 51
180.0
  0
LINE
  5
D14
330
1F
100
AcDbEntity
  8
0
  6
Continuous
 62
     7
100
AcDbLine
 10
-253.2599999999999
 20
3.402599999999998
 30
0.0
 11
-253.2599999999999
 21
0.4025999999999998
 31
0.0
  0
ARC
  5
D15
330
1F
100
AcDbEntity
  8
0
  6
Continuous
 62
    30
100
AcDbCircle
 10
-256.509
 20
14.72356536849514
 30
0.0
 40
1.500000000000014
100
AcDbArc
 50
60.00000000000006
 51
119.9999999999999
  0
ARC
  5
D16
330
1F
100
AcDbEntity
  8
0
  6
Continuous
 62
    30
100
AcDbCircle
 10
-255.0089999999999
 20
17.32164157984848
 30
0.0
 40
1.500000000000022
100
AcDbArc
 50
239.9999999999999
 51
299.9999999999999
  0
ARC
  5
D17
330
1F
100
AcDbEntity
  8
0
  6
Continuous
 62
    30
100
AcDbCircle
 10
-256.509
 20
17.32164157984846
 30
0.0
 40
1.500000000000003
100
AcDbArc
 50
239.9999999999999
 51
299.9999999999999
  0
ARC
  5
D18
330
1F
100
AcDbEntity
  8
0
  6
Continuous
 62
    30
100
AcDbCircle
 10
-253.5089999999999
 20
14.72356536849514
 30
0.0
 40
1.5
100
AcDbArc
 50
60.00000000000006
 51
119.9999999999999
  0
ARC
  5
D19
330
1F
100
AcDbEntity
  8
0
  6
Continuous
 62
    30
100
AcDbCircle
 10
-252.0089999999999
 20
17.32164157984848
 30
0.0
 40
1.500000000000022
100
AcDbArc
 50
239.9999999999999
 51
299.9999999999999
  0
ARC
  5
D1A
330
1F
100
AcDbEntity
  8
0
  6
Continuous
 62
    30
100
AcDbCircle
 10
-253.5089999999999
 20
17.32164157984846
 30
0.0
 40
1.500000000000003
100
AcDbArc
 50
239.9999999999999
 51
299.9999999999999
  0
ARC
  5
D1B
330
1F
100
AcDbEntity
  8
0
  6
Continuous
 62
    30
100
AcDbCircle
 10
-245.3746110886372
 20
17.77840242655721
 30
0.0
 40
1.499999999999976
100
AcDbArc
 50
80.50683381492287
 51
140.5068338149215
  0
ARC
  5
D1C
330
1F
100
AcDbEntity
  8
0
  6
Continuous
 62
    30
100
AcDbCircle
 10
-247.689712422388
 20
19.6863609728745
 30
0.0
 40
1.499999999999976
100
AcDbArc
 50
260.5068338149228
 51
320.5068338149233
  0
ARC
  5
D1D
330
1F
100
AcDbEntity
  8
0
  6
Continuous
 62
    30
100
AcDbCircle
 10
-246.284766803711
 20
20.21183961997687
 30
0.0
 40
1.499999999999974
100
AcDbArc
 50
260.5068338149228
 51
320.5068338149233
  0
ARC
  5
D1E
330
1F
100
AcDbEntity
  8
0
  6
Continuous
 62
     7
100
AcDbCircle
 10
-254.2593
 20
35.65209999999999
 30
0.0
 40
13.49996996292952
100
AcDbArc
 50
250.3012339739677
 51
257.1616884290249
  0
LINE
  5
D1F
330
1F
100
AcDbEntity
  8
0
  6
Continuous
 62
     7
100
AcDbLine
 10
-257.259
 20
27.088478956949
 30
0.0
 11
-258.8098021319822
 21
22.94217791735826
 31
0.0
  0
LINE
  5
D20
330
1F
100
AcDbEntity
  8
0
  6
Continuous
 62
     7
100
AcDbLine
 10
-257.259
 20
27.088478956949
 30
0.0
 11
-257.259
 21
35.65209999999999
 31
0.0
  0
LINE
  5
D21
330
1F
100
AcDbEntity
  8
0
  6
Continuous
 62
     7
100
AcDbLine
 10
-247.0014810617388
 20
24.26898745731569
 30
0.0
 11
-251.2589999999999
 21
35.65209999999999
 31
0.0
  0
LINE
  5
D22
330
1F
100
AcDbEntity
  8
0
  6
Continuous
 62
     7
100
AcDbLine
 10
-251.2589999999999
 20
22.48971733385631
 30
0.0
 11
-251.2589999999999
 21
35.65209999999999
 31
0.0
  0
ARC
  5
D23
330
1F
100
AcDbEntity
  8
0
  6
Continuous
 62
     7
100
AcDbCircle
 10
-254.2593
 20
35.65209999999999
 30
0.0
 40
13.50000435333263
100
AcDbArc
 50
282.8408900907692
 51
289.7011534301863
  0
LINE
  5
D24
330
1F
100
AcDbEntity
  8
0
  6
Continuous
 62
     7
100
AcDbLine
 10
-249.7082566806394
 20
22.94233516168362
 30
0.0
 11
-251.2589999999999
 21
27.088478956949
 31
0.0
  0
LINE
  5
D25
330
1F
100
AcDbEntity
  8
0
  6
Continuous
 62
     7
100
AcDbLine
 10
-257.259
 20
22.48961585338088
 30
0.0
 11
-257.259
 21
27.088478956949
 31
0.0
  0
ARC
  5
D26
330
1F
100
AcDbEntity
  8
0
  6
Continuous
 62
     7
100
AcDbCircle
 10
-255.7589999999999
 20
35.65209999999996
 30
0.0
 40
1.5
100
AcDbArc
 50
0.0000000000012213
 51
179.9999999999986
  0
ARC
  5
D27
330
1F
100
AcDbEntity
  8
0
  6
Continuous
 62
     7
100
AcDbCircle
 10
-252.759
 20
35.65209999999999
 30
0.0
 40
1.5
100
AcDbArc
 50
0.0
 51
180.0
  0
ARC
  5
D28
330
1F
100
AcDbEntity
  8
0
  6
Continuous
 62
     7
100
AcDbCircle
 10
-254.259
 20
35.65209999999999
 30
0.0
 40
3.0
100
AcDbArc
 50
0.0
 51
180.0
  0
LINE
  5
D29
330
1F
100
AcDbEntity
  8
0
  6
DASH_CENTER
 62
    30
100
AcDbLine
 10
-254.259
 20
35.65209999999999
 30
0.0
 11
-257.259
 21
35.65209999999999
 31
0.0
  0
LINE
  5
D2A
330
1F
100
AcDbEntity
  8
0
  6
DASH_CENTER
 62
    30
100
AcDbLine
 10
-251.2589999999999
 20
35.65209999999999
 30
0.0
 11
-254.259
 21
35.65209999999999
 31
0.0
  0
ARC
  5
D2B
330
1F
100
AcDbEntity
  8
0
  6
Continuous
 62
     7
100
AcDbCircle
 10
-230.2599999999999
 20
3.402599999999998
 30
0.0
 40
2.0
100
AcDbArc
 50
0.0
 51
90.0
  0
LINE
  5
D2C
330
1F
100
AcDbEntity
  8
0
  6
Continuous
 62
     7
100
AcDbLine
 10
-228.2599999999999
 20
3.402599999999998
 30
0.0
 11
-228.2599999999999
 21
0.4025999999999998
 31
0.0
  0
ARC
  5
D2D
330
1F
100
AcDbEntity
  8
0
  6
Continuous
 62
     7
100
AcDbCircle
 10
-177.2602
 20
15.40259999999999
 30
0.0
 40
2.0
100
AcDbArc
 50
180.0
 51
270.0
  0
ARC
  5
D2E
330
1F
100
AcDbEntity
  8
0
  6
Continuous
 62
     7
100
AcDbCircle
 10
-177.2602
 20
3.402599999999998
 30
0.0
 40
2.0
100
AcDbArc
 50
90.0
 51
180.0
  0
ARC
  5
D2F
330
1F
100
AcDbEntity
  8
0
  6
Continuous
 62
     7
100
AcDbCircle
 10
-177.2602
 20
18.40259999999998
 30
0.0
 40
2.0
100
AcDbArc
 50
90.0
 51
180.0
  0
ARC
  5
D30
330
1F
100
AcDbEntity
  8
0
  6
Continuous
 62
     7
100
AcDbCircle
 10
-177.2602
 20
14.4026
 30
0.0
 40
2.0
100
AcDbArc
 50
180.0
 51
270.0
  0
ARC
  5
D31
330
1F
100
AcDbEntity
  8
0
  6
Continuous
 62
     7
100
AcDbCircle
 10
-177.2602
 20
30.40259999999999
 30
0.0
 40
2.0
100
AcDbArc
 50
180.0
 51
270.0
  0
ARC
  5
D32
330
1F
100
AcDbEntity
  8
0
  6
Continuous
 62
     7
100
AcDbCircle
 10
-177.2602
 20
34.4026
 30
0.0
 40
2.0
100
AcDbArc
 50
90.0
 51
180.0
  0
LINE
  5
D33
330
1F
100
AcDbEntity
  8
0
  6
Continuous
 62
     7
100
AcDbLine
 10
-179.2602
 20
3.402599999999998
 30
0.0
 11
-179.2602
 21
0.4025999999999998
 31
0.0
  0
LINE
  5
D34
330
1F
100
AcDbEntity
  8
0
  6
Continuous
 62
     7
100
AcDbLine
 10
-179.2602
 20
18.40259999999998
 30
0.0
 11
-179.2602
 21
14.4026
 31
0.0
  0
LINE
  5
D35
330
1F
100
AcDbEntity
  8
0
  6
Continuous
 62
     7
100
AcDbLine
 10
-179.2602
 20
34.4026
 30
0.0
 11
-179.2602
 21
30.40259999999999
 31
0.0
  0
LINE
  5
D36
330
1F
100
AcDbEntity
  8
0
  6
Continuous
 62
     7
100
AcDbLine
 10
-177.2602
 20
20.40259999999999
 30
0.0
 11
-156.2602
 21
20.40259999999999
 31
0.0
  0
LINE
  5
D37
330
1F
100
AcDbEntity
  8
0
  6
Continuous
 62
     7
100
AcDbLine
 10
-156.2602
 20
12.4026
 30
0.0
 11
-177.2602
 21
12.4026
 31
0.0
  0
LINE
  5
D38
330
1F
100
AcDbEntity
  8
0
  6
Continuous
 62
     7
100
AcDbLine
 10
-156.2602
 20
13.4026
 30
0.0
 11
-177.2602
 21
13.4026
 31
0.0
  0
LINE
  5
D39
330
1F
100
AcDbEntity
  8
0
  6
Continuous
 62
     7
100
AcDbLine
 10
-156.2602
 20
5.402599999999998
 30
0.0
 11
-177.2602
 21
5.402599999999998
 31
0.0
  0
ARC
  5
D3A
330
1F
100
AcDbEntity
  8
0
  6
Continuous
 62
     7
100
AcDbCircle
 10
-156.2602
 20
3.402599999999998
 30
0.0
 40
2.0
100
AcDbArc
 50
0.0
 51
90.0
  0
LINE
  5
D3B
330
1F
100
AcDbEntity
  8
0
  6
Continuous
 62
     7
100
AcDbLine
 10
-154.2602
 20
3.402599999999998
 30
0.0
 11
-154.2602
 21
0.4025999999999998
 31
0.0
  0
ARC
  5
D3C
330
1F
100
AcDbEntity
  8
0
  6
Continuous
 62
     7
100
AcDbCircle
 10
-156.2602
 20
15.40259999999999
 30
0.0
 40
2.0
100
AcDbArc
 50
270.0
 51
0.0
  0
ARC
  5
D3D
330
1F
100
AcDbEntity
  8
0
  6
Continuous
 62
     7
100
AcDbCircle
 10
-156.2602
 20
14.4026
 30
0.0
 40
2.0
100
AcDbArc
 50
270.0
 51
0.0
  0
ARC
  5
D3E
330
1F
100
AcDbEntity
  8
0
  6
Continuous
 62
     7
100
AcDbCircle
 10
-156.2602
 20
18.40259999999998
 30
0.0
 40
2.0
100
AcDbArc
 50
0.0
 51
90.0
  0
LINE
  5
D3F
330
1F
100
AcDbEntity
  8
0
  6
Continuous
 62
     7
100
AcDbLine
 10
-154.2602
 20
18.40259999999998
 30
0.0
 11
-154.2602
 21
14.4026
 31
0.0
  0
LINE
  5
D40
330
1F
100
AcDbEntity
  8
0
  6
Continuous
 62
     7
100
AcDbLine
 10
-177.2602
 20
28.4026
 30
0.0
 11
-156.2602
 21
28.4026
 31
0.0
  0
LINE
  5
D41
330
1F
100
AcDbEntity
  8
0
  6
Continuous
 62
     7
100
AcDbLine
 10
-177.2602
 20
36.4026
 30
0.0
 11
-156.2602
 21
36.4026
 31
0.0
  0
LINE
  5
D42
330
1F
100
AcDbEntity
  8
0
  6
Continuous
 62
     7
100
AcDbLine
 10
-177.2602
 20
36.4026
 30
0.0
 11
-156.2602
 21
36.4026
 31
0.0
  0
LINE
  5
D43
330
1F
100
AcDbEntity
  8
0
  6
Continuous
 62
     7
100
AcDbLine
 10
-154.2602
 20
34.40229999999999
 30
0.0
 11
-154.2602
 21
30.40259999999999
 31
0.0
  0
ARC
  5
D44
330
1F
100
AcDbEntity
  8
0
  6
Continuous
 62
     7
100
AcDbCircle
 10
-156.2602
 20
30.40259999999999
 30
0.0
 40
2.0
100
AcDbArc
 50
270.0
 51
0.0
  0
ARC
  5
D45
330
1F
100
AcDbEntity
  8
0
  6
Continuous
 62
     7
100
AcDbCircle
 10
-156.2602
 20
34.40229999999999
 30
0.0
 40
2.0
100
AcDbArc
 50
0.0
 51
90.0
  0
LINE
  5
D4C
330
1F
100
AcDbEntity
  8
0
  6
DASHED
 62
    30
100
AcDbLine
 10
-244.7594999999999
 20
93.97209999999999
 30
0.0
 11
-181.7593
 21
93.97209999999999
 31
0.0
  0
LINE
  5
D60
330
1F
100
AcDbEntity
  8
0
  6
Continuous
 62
     7
100
AcDbLine
 10
-137.4595
 20
4.652099999999999
 30
0.0
 11
-137.4595
 21
74.73560000000002
 31
0.0
  0
LINE
  5
D61
330
1F
100
AcDbEntity
  8
0
  6
Continuous
 62
     7
100
AcDbLine
 10
-127.4595
 20
4.652099999999999
 30
0.0
 11
-127.4595
 21
77.9961
 31
0.0
  0
LINE
  5
D62
330
1F
100
AcDbEntity
  8
0
  6
Continuous
 62
     7
100
AcDbLine
 10
-125.0594999999999
 20
64.6521
 30
0.0
 11
-125.0594999999999
 21
6.651900000000001
 31
0.0
  0
LINE
  5
D65
330
1F
100
AcDbEntity
  8
0
  6
Continuous
 62
     7
100
AcDbLine
 10
-94.2595
 20
28.6521
 30
0.0
 11
-122.6594999999999
 21
28.6521
 31
0.0
  0
LINE
  5
D66
330
1F
100
AcDbEntity
  8
0
  6
Continuous
 62
     7
100
AcDbLine
 10
-120.2594999999998
 20
41.65209999999997
 30
0.0
 11
-94.2595
 21
41.6521
 31
0.0
  0
LINE
  5
D67
330
1F
100
AcDbEntity
  8
0
  6
Continuous
 62
     7
100
AcDbLine
 10
-134.4594999999999
 20
37.65209999999999
 30
0.0
 11
-134.4594999999999
 21
20.65209999999998
 31
0.0
  0
LINE
  5
D68
330
1F
100
AcDbEntity
  8
0
  6
Continuous
 62
     7
100
AcDbLine
 10
-130.4594999999999
 20
37.65209999999999
 30
0.0
 11
-130.4594999999999
 21
20.65209999999998
 31
0.0
  0
LINE
  5
D69
330
1F
100
AcDbEntity
  8
0
  6
Continuous
 62
     7
100
AcDbLine
 10
-134.0595
 20
18.6521
 30
0.0
 11
-134.0595
 21
37.65209999999999
 31
0.0
  0
LINE
  5
D6A
330
1F
100
AcDbEntity
  8
0
  6
Continuous
 62
     7
100
AcDbLine
 10
-130.8594999999999
 20
37.65209999999999
 30
0.0
 11
-130.8594999999999
 21
18.6521
 31
0.0
  0
LINE
  5
D6B
330
1F
100
AcDbEntity
  8
0
  6
Continuous
 62
     7
100
AcDbLine
 10
-130.4594999999999
 20
20.65209999999998
 30
0.0
 11
-130.8594999999999
 21
20.65209999999998
 31
0.0
  0
LINE
  5
D6C
330
1F
100
AcDbEntity
  8
0
  6
Continuous
 62
     7
100
AcDbLine
 10
-137.4595
 20
13.6521
 30
0.0
 11
-127.4595
 21
13.6521
 31
0.0
  0
LINE
  5
D6D
330
1F
100
AcDbEntity
  8
0
  6
Continuous
 62
     7
100
AcDbLine
 10
-127.0594999999999
 20
4.652099999999999
 30
0.0
 11
-130.8594999999999
 21
4.652099999999999
 31
0.0
  0
LINE
  5
D6E
330
1F
100
AcDbEntity
  8
0
  6
Continuous
 62
     7
100
AcDbLine
 10
-134.4594999999999
 20
4.652099999999999
 30
0.0
 11
-134.4594999999999
 21
13.6521
 31
0.0
  0
LINE
  5
D6F
330
1F
100
AcDbEntity
  8
0
  6
Continuous
 62
     7
100
AcDbLine
 10
-134.0595
 20
4.652099999999999
 30
0.0
 11
-137.9594999999999
 21
4.652099999999999
 31
0.0
  0
LINE
  5
D70
330
1F
100
AcDbEntity
  8
0
  6
Continuous
 62
     7
100
AcDbLine
 10
-134.0595
 20
20.65209999999998
 30
0.0
 11
-134.4594999999999
 21
20.65209999999998
 31
0.0
  0
LINE
  5
D71
330
1F
100
AcDbEntity
  8
0
  6
Continuous
 62
     7
100
AcDbLine
 10
-134.0595
 20
18.6521
 30
0.0
 11
-130.8594999999999
 21
18.6521
 31
0.0
  0
LINE
  5
D72
330
1F
100
AcDbEntity
  8
0
  6
Continuous
 62
     7
100
AcDbLine
 10
-130.4594999999999
 20
4.652099999999999
 30
0.0
 11
-130.4594999999999
 21
13.6521
 31
0.0
  0
LINE
  5
D73
330
1F
100
AcDbEntity
  8
0
  6
Continuous
 62
     7
100
AcDbLine
 10
-127.0594999999999
 20
4.652099999999999
 30
0.0
 11
-125.0594999999999
 21
6.651900000000001
 31
0.0
  0
LINE
  5
D74
330
1F
100
AcDbEntity
  8
0
  6
Continuous
 62
     7
100
AcDbLine
 10
-130.4594999999999
 20
37.65209999999999
 30
0.0
 11
-134.4594999999999
 21
37.65209999999999
 31
0.0
  0
LINE
  5
D75
330
1F
100
AcDbEntity
  8
0
  6
Continuous
 62
     7
100
AcDbLine
 10
-123.2594999999998
 20
43.15209999999999
 30
0.0
 11
-123.2594999999998
 21
28.1521
 31
0.0
  0
ARC
  5
D78
330
1F
100
AcDbEntity
  8
0
  6
Continuous
 62
     7
100
AcDbCircle
 10
-122.6594332942765
 20
28.05197645972205
 30
0.0
 40
0.6000235439858479
100
AcDbArc
 50
90.00636967743412
 51
160.5170614409803
  0
LINE
  5
D79
330
1F
100
AcDbEntity
  8
0
  6
Continuous
 62
     7
100
AcDbLine
 10
-125.0594999999999
 20
28.1521
 30
0.0
 11
-123.2594999999998
 21
28.1521
 31
0.0
  0
LINE
  5
D7A
330
1F
100
AcDbEntity
  8
0
  6
Continuous
 62
     7
100
AcDbLine
 10
-120.2594999999998
 20
42.65209999999998
 30
0.0
 11
-122.6594999999999
 21
42.65209999999998
 31
0.0
  0
ARC
  5
D7B
330
1F
100
AcDbEntity
  8
0
  6
Continuous
 62
     7
100
AcDbCircle
 10
-122.65945281162
 20
43.25203735182822
 30
0.0
 40
0.6000373536837249
100
AcDbArc
 50
199.4636147997987
 51
269.9954941221704
  0
LINE
  5
D7C
330
1F
100
AcDbEntity
  8
0
  6
Continuous
 62
     7
100
AcDbLine
 10
-125.0594999999999
 20
43.15209999999999
 30
0.0
 11
-123.2594999999998
 21
43.15209999999999
 31
0.0
  0
LINE
  5
D7D
330
1F
100
AcDbEntity
  8
0
  6
Continuous
 62
     7
100
AcDbLine
 10
-120.2594999999998
 20
41.65209999999997
 30
0.0
 11
-120.2594999999998
 21
42.65209999999998
 31
0.0
  0
LINE
  5
D7F
330
1F
100
AcDbEntity
  8
0
  6
Continuous
 62
     7
100
AcDbLine
 10
-93.2595
 20
41.6521
 30
0.0
 11
-93.2595
 21
29.6521
 31
0.0
  0
LINE
  5
D80
330
1F
100
AcDbEntity
  8
0
  6
Continuous
 62
     7
100
AcDbLine
 10
-94.2595
 20
41.6521
 30
0.0
 11
-94.2595
 21
28.6521
 31
0.0
  0
LINE
  5
D83
330
1F
100
AcDbEntity
  8
0
  6
Continuous
 62
     7
100
AcDbLine
 10
-93.2595
 20
29.6521
 30
0.0
 11
-94.2595
 21
28.6521
 31
0.0
  0
LINE
  5
D85
330
1F
100
AcDbEntity
  8
0
  6
Continuous
 62
     7
100
AcDbLine
 10
-94.2595
 20
41.6521
 30
0.0
 11
-93.2595
 21
41.6521
 31
0.0
  0
LINE
  5
D86
330
1F
100
AcDbEntity
  8
0
  6
DASH_CENTER
 62
    30
100
AcDbLine
 10
-132.4594999999999
 20
66.9575
 30
0.0
 11
-132.4594999999999
 21
79.3528
 31
0.0
  0
LINE
  5
D87
330
1F
100
AcDbEntity
  8
0
  6
Continuous
 62
     7
100
AcDbLine
 10
-125.0594999999999
 20
64.6521
 30
0.0
 11
-127.0594999999999
 21
66.6521
 31
0.0
  0
LINE
  5
D88
330
1F
100
AcDbEntity
  8
0
  6
Continuous
 62
     7
100
AcDbLine
 10
-127.0594999999999
 20
66.6521
 30
0.0
 11
-127.4595
 21
66.6521
 31
0.0
  0
CIRCLE
  5
D89
330
1F
100
AcDbEntity
  8
0
  6
Continuous
 62
    30
100
AcDbCircle
 10
-132.4594999999999
 20
72.99630000000002
 30
0.0
 40
2.099999999999992
  0
CIRCLE
  5
D8A
330
1F
100
AcDbEntity
  8
0
  6
Continuous
 62
     7
100
AcDbCircle
 10
-132.4594999999999
 20
72.99630000000002
 30
0.0
 40
2.5
  0
LINE
  5
D8B
330
1F
100
AcDbEntity
  8
0
  6
DASH_CENTER
 62
    30
100
AcDbLine
 10
-126.3012999999999
 20
78.7856
 30
0.0
 11
-144.5351
 21
78.7856
 31
0.0
  0
LINE
  5
D8C
330
1F
100
AcDbEntity
  8
0
  6
Continuous
 62
    30
100
AcDbLine
 10
-130.4090999999999
 20
77.13549999999997
 30
0.0
 11
-134.7594999999999
 21
77.13549999999997
 31
0.0
  0
LINE
  5
D8D
330
1F
100
AcDbEntity
  8
0
  6
Continuous
 62
    30
100
AcDbLine
 10
-130.0591
 20
80.43550000000001
 30
0.0
 11
-134.7594999999999
 21
80.43550000000001
 31
0.0
  0
LINE
  5
D8E
330
1F
100
AcDbEntity
  8
0
  6
Continuous
 62
     7
100
AcDbLine
 10
-134.7594999999999
 20
76.7856
 30
0.0
 11
-130.4090999999999
 21
76.7856
 31
0.0
  0
LINE
  5
D8F
330
1F
100
AcDbEntity
  8
0
  6
Continuous
 62
     7
100
AcDbLine
 10
-130.3944999999999
 20
80.78560000000001
 30
0.0
 11
-134.7594999999999
 21
80.78560000000001
 31
0.0
  0
LINE
  5
D90
330
1F
100
AcDbEntity
  8
0
  6
DASH_CENTER
 62
    30
100
AcDbLine
 10
-138.3744999999999
 20
72.99630000000002
 30
0.0
 11
-126.4696999999999
 21
72.99630000000002
 31
0.0
  0
LINE
  5
D91
330
1F
100
AcDbEntity
  8
0
  6
Continuous
 62
     7
100
AcDbLine
 10
-127.4595
 20
68.25199999999999
 30
0.0
 11
-137.4595
 21
68.25199999999999
 31
0.0
  0
LINE
  5
D92
330
1F
100
AcDbEntity
  8
0
  6
Continuous
 62
     7
100
AcDbLine
 10
-136.4595
 20
68.99630000000001
 30
0.0
 11
-128.4594999999999
 21
68.99630000000001
 31
0.0
  0
ARC
  5
D93
330
1F
100
AcDbEntity
  8
0
  6
Continuous
 62
     7
100
AcDbCircle
 10
-141.3477999973979
 20
78.78529484102442
 30
0.0
 40
6.588302977166549
100
AcDbArc
 50
342.1398750480698
 51
17.86296032392064
  0
LINE
  5
D94
330
1F
100
AcDbEntity
  8
0
  6
Continuous
 62
     7
100
AcDbLine
 10
-134.7594999999999
 20
75.2856
 30
0.0
 11
-134.7594999999999
 21
82.2854
 31
0.0
  0
ARC
  5
D95
330
1F
100
AcDbEntity
  8
0
  6
Continuous
 62
     7
100
AcDbCircle
 10
-141.3477895813054
 20
74.74404709540768
 30
0.0
 40
6.588277034786296
100
AcDbArc
 50
4.419247763364873
 51
17.86255558031228
  0
LINE
  5
D96
330
1F
100
AcDbEntity
  8
0
  6
Continuous
 62
     7
100
AcDbLine
 10
-137.6419999999999
 20
74.73560000000002
 30
0.0
 11
-135.0770999999999
 21
74.73560000000002
 31
0.0
  0
LINE
  5
D97
330
1F
100
AcDbEntity
  8
0
  6
Continuous
 62
     7
100
AcDbLine
 10
-135.0769999999999
 20
76.7649
 30
0.0
 11
-137.9594999999999
 21
76.7649
 31
0.0
  0
LINE
  5
D98
330
1F
100
AcDbEntity
  8
0
  6
Continuous
 62
     7
100
AcDbLine
 10
-134.7594999999999
 20
75.2856
 30
0.0
 11
-135.0770999999999
 21
74.73560000000002
 31
0.0
  0
LINE
  5
D99
330
1F
100
AcDbEntity
  8
0
  6
Continuous
 62
     7
100
AcDbLine
 10
-137.9594999999999
 20
75.2856
 30
0.0
 11
-137.6419999999999
 21
74.73560000000002
 31
0.0
  0
LINE
  5
D9A
330
1F
100
AcDbEntity
  8
0
  6
Continuous
 62
     7
100
AcDbLine
 10
-136.4595
 20
74.73560000000002
 30
0.0
 11
-136.4595
 21
68.99630000000001
 31
0.0
  0
ARC
  5
D9B
330
1F
100
AcDbEntity
  8
0
  6
Continuous
 62
     7
100
AcDbCircle
 10
-141.3477895813054
 20
82.82695290459228
 30
0.0
 40
6.588277034786298
100
AcDbArc
 50
342.1374444196877
 51
355.5807522366351
  0
LINE
  5
D9C
330
1F
100
AcDbEntity
  8
0
  6
Continuous
 62
     7
100
AcDbLine
 10
-135.0770999999999
 20
80.80620000000001
 30
0.0
 11
-137.9594999999999
 21
80.80620000000001
 31
0.0
  0
LINE
  5
D9D
330
1F
100
AcDbEntity
  8
0
  6
Continuous
 62
     7
100
AcDbLine
 10
-134.7594999999999
 20
82.2854
 30
0.0
 11
-135.0770999999999
 21
82.83540000000002
 31
0.0
  0
LINE
  5
D9E
330
1F
100
AcDbEntity
  8
0
  6
Continuous
 62
     7
100
AcDbLine
 10
-135.0770999999999
 20
82.83540000000002
 30
0.0
 11
-137.6419999999999
 21
82.83540000000002
 31
0.0
  0
LINE
  5
D9F
330
1F
100
AcDbEntity
  8
0
  6
Continuous
 62
     7
100
AcDbLine
 10
-137.9594999999999
 20
82.2854
 30
0.0
 11
-137.6419999999999
 21
82.83540000000002
 31
0.0
  0
LINE
  5
DA0
330
1F
100
AcDbEntity
  8
0
  6
Continuous
 62
     7
100
AcDbLine
 10
-130.4090999999999
 20
80.78560000000001
 30
0.0
 11
-130.4090999999999
 21
76.7856
 31
0.0
  0
LINE
  5
DA1
330
1F
100
AcDbEntity
  8
0
  6
Continuous
 62
     7
100
AcDbLine
 10
-130.0591
 20
77.13549999999997
 30
0.0
 11
-130.0591
 21
80.43550000000001
 31
0.0
  0
LINE
  5
DA2
330
1F
100
AcDbEntity
  8
0
  6
Continuous
 62
     7
100
AcDbLine
 10
-130.0591
 20
77.9961
 30
0.0
 11
-127.4595
 21
77.9961
 31
0.0
  0
LINE
  5
DA3
330
1F
100
AcDbEntity
  8
0
  6
Continuous
 62
     7
100
AcDbLine
 10
-130.0591
 20
77.13549999999997
 30
0.0
 11
-130.4090999999999
 21
76.7856
 31
0.0
  0
LINE
  5
DA4
330
1F
100
AcDbEntity
  8
0
  6
Continuous
 62
     7
100
AcDbLine
 10
-128.4594999999999
 20
76.99630000000002
 30
0.0
 11
-130.1982999999999
 21
76.99630000000002
 31
0.0
  0
LINE
  5
DA5
330
1F
100
AcDbEntity
  8
0
  6
Continuous
 62
     7
100
AcDbLine
 10
-128.4594999999999
 20
76.99630000000002
 30
0.0
 11
-128.4594999999999
 21
68.99630000000001
 31
0.0
  0
LINE
  5
DA6
330
1F
100
AcDbEntity
  8
0
  6
Continuous
 62
     7
100
AcDbLine
 10
-130.0591
 20
80.43550000000001
 30
0.0
 11
-130.4090999999999
 21
80.78560000000001
 31
0.0
  0
LINE
  5
DAA
330
1F
100
AcDbEntity
  8
0
  6
DASH_CENTER
 62
    30
100
AcDbLine
 10
-37.20509999999999
 20
49.8599016941852
 30
0.0
 11
-37.20509999999999
 21
42.65205477771107
 31
0.0
  0
LINE
  5
DAE
330
1F
100
AcDbEntity
  8
0
  6
DASH_CENTER
 62
    30
100
AcDbLine
 10
-52.30769999999998
 20
35.65209999999999
 30
0.0
 11
-22.3666
 21
35.65209999999999
 31
0.0
  0
LINE
  5
DB7
330
1F
100
AcDbEntity
  8
0
  6
DASH_CENTER
 62
    30
100
AcDbLine
 10
-37.20509999999999
 20
42.65205477771107
 30
0.0
 11
-37.20509999999999
 21
21.3906
 31
0.0
  0
ARC
  5
DC0
330
1F
100
AcDbEntity
  8
0
  6
Continuous
 62
     7
100
AcDbCircle
 10
-37.20509999999999
 20
35.65209999999999
 30
0.0
 40
6.999954777711066
100
AcDbArc
 50
121.0021031584315
 51
58.99789684156829
  0
ARC
  5
DC1
330
1F
100
AcDbEntity
  8
0
  6
Continuous
 62
     7
100
AcDbCircle
 10
-37.20509999999999
 20
35.65209999999999
 30
0.0
 40
6.999954777711072
100
AcDbArc
 50
58.99789684156829
 51
121.0021031584315
  0
LINE
  5
DC2
330
1F
100
AcDbEntity
  8
0
  6
Continuous
 62
     7
100
AcDbLine
 10
-33.59963652216527
 20
41.6521
 30
0.0
 11
-40.81056347783472
 21
41.6521
 31
0.0
  0
ARC
  5
DEA
330
1F
100
AcDbEntity
  8
0
  6
Continuous
 62
     7
100
AcDbCircle
 10
156.0930083229719
 20
35.65212019192801
 30
0.0
 40
65.59997980807252
100
AcDbArc
 50
90.00000726938052
 51
225.1977617136216
  0
ARC
  5
DEB
330
1F
100
AcDbEntity
  8
0
  6
Continuous
 62
     7
100
AcDbCircle
 10
156.0928963230164
 20
35.65211250360302
 30
0.0
 40
53.99998966768261
100
AcDbArc
 50
310.6637572345301
 51
82.11071227184119
  0
ARC
  5
DEC
330
1F
100
AcDbEntity
  8
0
  6
Continuous
 62
     7
100
AcDbCircle
 10
156.0929786083269
 20
35.65223028651176
 30
0.0
 40
49.99997414071178
100
AcDbArc
 50
313.8480949208896
 51
343.9425689234504
  0
ARC
  5
DED
330
1F
100
AcDbEntity
  8
0
  6
Continuous
 62
     7
100
AcDbCircle
 10
156.0931903162817
 20
35.65211605004634
 30
0.0
 40
50.00000877849572
100
AcDbArc
 50
196.0572834320895
 51
226.1516747936045
  0
ARC
  5
DEE
330
1F
100
AcDbEntity
  8
0
  6
Continuous
 62
     7
100
AcDbCircle
 10
156.0930088916117
 20
35.6520709253054
 30
0.0
 40
65.60002907475785
100
AcDbArc
 50
304.0093983558096
 51
89.99992042494254
  0
ARC
  5
DEF
330
1F
100
AcDbEntity
  8
0
  6
Continuous
 62
     7
100
AcDbCircle
 10
156.0931935932858
 20
35.6520782140117
 30
0.0
 40
54.00002224864804
100
AcDbArc
 50
97.88927213647369
 51
229.336146689557
  0
LINE
  5
DF0
330
1F
100
AcDbEntity
  8
0
  6
Continuous
 62
     7
100
AcDbLine
 10
117.5929999999999
 20
-34.8479
 30
0.0
 11
123.5929999999999
 21
18.6521
 31
0.0
  0
LINE
  5
DF1
330
1F
100
AcDbEntity
  8
0
  6
Continuous
 62
     7
100
AcDbLine
 10
188.5929999999999
 20
18.6514
 30
0.0
 11
194.5929999999999
 21
-34.8479
 31
0.0
  0
LINE
  5
DF2
330
1F
100
AcDbEntity
  8
0
  6
DASH_CENTER
 62
    30
100
AcDbLine
 10
156.0929999999999
 20
-63.42819999999999
 30
0.0
 11
156.0929999999999
 21
115.2262999999999
 31
0.0
  0
LINE
  5
DF3
330
1F
100
AcDbEntity
  8
0
  6
Continuous
 62
     7
100
AcDbLine
 10
54.2004
 20
-13.1257
 30
0.0
 11
54.2004
 21
4.913059909854157
 31
0.0
  0
LINE
  5
DF4
330
1F
100
AcDbEntity
  8
0
  6
Continuous
 62
     7
100
AcDbLine
 10
57.40039999999999
 20
-13.1257
 30
0.0
 11
57.40039999999999
 21
4.913059909854157
 31
0.0
  0
CIRCLE
  5
E57
330
1F
100
AcDbEntity
  8
0
  6
Continuous
 62
     7
100
AcDbCircle
 10
112.9598
 20
-7.481399999999999
 30
0.0
 40
3.499943732404851
  0
ARC
  5
E58
330
1F
100
AcDbEntity
  8
0
  6
DASH_CENTER
 62
    30
100
AcDbCircle
 10
156.0931047838274
 20
35.65169540413745
 30
0.0
 40
61.00006367366517
100
AcDbArc
 50
219.7389759677089
 51
230.3136382256798
  0
LINE
  5
E59
330
1F
100
AcDbEntity
  8
0
  6
Continuous
 62
     7
100
AcDbLine
 10
109.0478
 20
-6.433300000000002
 30
0.0
 11
110.1021
 21
-10.33939999999999
 31
0.0
  0
LINE
  5
E5A
330
1F
100
AcDbEntity
  8
0
  6
Continuous
 62
     7
100
AcDbLine
 10
111.9137999999999
 20
-3.577899999999998
 30
0.0
 11
109.0478
 21
-6.433300000000002
 31
0.0
  0
LINE
  5
E5B
330
1F
100
AcDbEntity
  8
0
  6
Continuous
 62
     7
100
AcDbLine
 10
117.8957999999999
 20
-32.1479
 30
0.0
 11
81.09300000000002
 21
-32.1479
 31
0.0
  0
LINE
  5
E5C
330
1F
100
AcDbEntity
  8
0
  6
Continuous
 62
     7
100
AcDbLine
 10
81.09300000000002
 20
-35.3479
 30
0.0
 11
120.0929999999999
 21
-35.3479
 31
0.0
  0
LINE
  5
E5D
330
1F
100
AcDbEntity
  8
0
  6
Continuous
 62
     7
100
AcDbLine
 10
81.09300000000002
 20
-31.64789999999999
 30
0.0
 11
117.9518999999999
 21
-31.64789999999999
 31
0.0
  0
LINE
  5
E5E
330
1F
100
AcDbEntity
  8
0
  6
DASH_CENTER
 62
    30
100
AcDbLine
 10
117.2112999999999
 20
-3.229999999999995
 30
0.0
 11
105.8033
 21
-14.6379
 31
0.0
  0
CIRCLE
  5
E71
330
1F
100
AcDbEntity
  8
0
  6
Continuous
 62
     7
100
AcDbCircle
 10
55.70049999999998
 20
-24.22550000000018
 30
0.0
 40
2.150000000000006
  0
ARC
  5
E72
330
1F
100
AcDbEntity
  8
0
  6
Continuous
 62
     7
100
AcDbCircle
 10
55.70054999999996
 20
-24.22550000000018
 30
0.0
 40
3.29996680021193
100
AcDbArc
 50
168.1508663061854
 51
11.84913369381453
  0
LINE
  5
E73
330
1F
100
AcDbEntity
  8
0
  6
Continuous
 62
     7
100
AcDbLine
 10
57.75029999999998
 20
-17.92570000000018
 30
0.0
 11
58.9299999999999
 21
-23.54800000000018
 31
0.0
  0
LINE
  5
E74
330
1F
100
AcDbEntity
  8
0
  6
Continuous
 62
     7
100
AcDbLine
 10
53.65050000000002
 20
-17.92570000000018
 30
0.0
 11
52.47079999999988
 21
-23.54800000000018
 31
0.0
  0
LINE
  5
E75
330
1F
100
AcDbEntity
  8
0
  6
DASH_CENTER
 62
    30
100
AcDbLine
 10
55.70049999999998
 20
-19.4389374671061
 30
0.0
 11
55.70049999999998
 21
-29.77126804260209
 31
0.0
  0
LINE
  5
E77
330
1F
100
AcDbEntity
  8
0
  6
DASH_CENTER
 62
    30
100
AcDbLine
 10
50.2947309306527
 20
-24.22550000000018
 30
0.0
 11
61.352743586702
 21
-24.22550000000018
 31
0.0
  0
LINE
  5
E78
330
1F
100
AcDbEntity
  8
0
  6
Continuous
 62
     7
100
AcDbLine
 10
57.75029999999998
 20
-13.1257
 30
0.0
 11
53.65050000000002
 21
-13.1257
 31
0.0
  0
LINE
  5
E79
330
1F
100
AcDbEntity
  8
0
  6
Continuous
 62
     7
100
AcDbLine
 10
53.65050000000002
 20
-17.92570000000018
 30
0.0
 11
57.75029999999998
 21
-17.92570000000018
 31
0.0
  0
LINE
  5
E7A
330
1F
100
AcDbEntity
  8
0
  6
Continuous
 62
     7
100
AcDbLine
 10
57.75029999999998
 20
-13.1257
 30
0.0
 11
57.75029999999998
 21
-17.92570000000018
 31
0.0
  0
LINE
  5
E7B
330
1F
100
AcDbEntity
  8
0
  6
Continuous
 62
     7
100
AcDbLine
 10
53.65050000000002
 20
-13.1257
 30
0.0
 11
53.65050000000002
 21
-17.92570000000018
 31
0.0
  0
LINE
  5
E7C
330
1F
100
AcDbEntity
  8
0
  6
Continuous
 62
     7
100
AcDbLine
 10
81.09300000000002
 20
-31.64789999999999
 30
0.0
 11
81.09300000000002
 21
-35.3479
 31
0.0
  0
LINE
  5
E7E
330
1F
100
AcDbEntity
  8
0
  6
DASH_CENTER
 62
    30
100
AcDbLine
 10
100.0929999999998
 20
-26.30789999999999
 30
0.0
 11
100.0929999999998
 21
-38.66480000000001
 31
0.0
  0
SPLINE
  5
E83
330
1F
100
AcDbEntity
  8
0
  6
Continuous
 62
    54
100
AcDbSpline
210
0.0
220
0.0
230
1.0
 70
     8
 71
     3
 72
   133
 73
   129
 74
   127
 42
0.0000000001
 43
0.0000000001
 44
0.00000001
 40
0.0
 40
0.0
 40
0.0
 40
0.0
 40
0.7461372537817388
 40
1.492275079250136
 40
2.306784937519942
 40
3.121290984720543
 40
3.901622749873567
 40
4.681968847171366
 40
5.771890458045237
 40
6.861787320655135
 40
7.653398878404557
 40
8.445035259525145
 40
9.236780761620588
 40
9.903030673763861
 40
10.56917527220529
 40
11.23508108763077
 40
11.81380773659795
 40
12.39270612268177
 40
12.97178290016854
 40
13.55084732651536
 40
14.29117227698051
 40
15.03134529419822
 40
15.77171448866998
 40
16.36450728852737
 40
16.95716100216028
 40
17.54948075037994
 40
18.07083177024713
 40
18.59245112654179
 40
19.11433234008181
 40
19.6362310474733
 40
20.35386078798442
 40
21.07123311090542
 40
21.78862674601354
 40
22.42972122760957
 40
23.07081484321446
 40
23.711804460343
 40
24.55937707357389
 40
25.40715306591531
 40
26.25503429296162
 40
27.66152801262785
 40
29.06791664817971
 40
30.3387197760752
 40
31.60931494792718
 40
33.21433658130492
 40
34.82042261205518
 40
35.8394206756556
 40
36.85772440021281
 40
37.87372398047898
 40
38.58219514436434
 40
39.29226242500516
 40
40.00750540149199
 40
40.27616576528109
 40
40.54499090403333
 40
40.81310416125467
 40
41.0799655612161
 40
41.34550069391355
 40
41.61023691643203
 40
41.87543627583962
 40
42.12532288779024
 40
42.37668807432623
 40
42.62873967029093
 40
42.88069230985493
 40
43.13184978344424
 40
43.38169005435946
 40
43.64274423450106
 40
43.90385349872408
 40
44.16583677316586
 40
44.42863583298926
 40
44.69151273838067
 40
44.95323641905938
 40
44.9646338070504
 40
44.97602920550966
 40
44.98746545906162
 40
44.99890235962708
 40
45.55399632526532
 40
46.10925728848637
 40
46.6649725987316
 40
47.22107841188792
 40
47.77723829647562
 40
48.95850029552349
 40
50.13876508380981
 40
51.31882801918783
 40
52.94255261883201
 40
54.56653056279545
 40
56.60738693880627
 40
58.64817886477563
 40
60.69045131584869
 40
62.73275031210221
 40
64.37062045676285
 40
66.00845175780813
 40
66.02794328354789
 40
66.0474347746917
 40
66.06691728120684
 40
66.08639985490059
 40
67.01894852889416
 40
67.95157463523525
 40
68.88415657885989
 40
69.8166885759392
 40
70.45925597915392
 40
71.10180095378392
 40
71.74441337100455
 40
72.3873730582207
 40
73.03118549617821
 40
73.38181300574165
 40
73.73240783300587
 40
74.08267627991136
 40
74.43261307005105
 40
74.78256965319393
 40
75.13332072504988
 40
75.52211385109119
 40
75.91170243249596
 40
76.300787990465
 40
76.68857601239053
 40
77.07490987186516
 40
77.41469867836709
 40
77.75503640066609
 40
78.09634610735852
 40
78.43831932918826
 40
78.78004951927413
 40
79.24687413148015
 40
79.71250803189022
 40
80.17791606276082
 40
80.99928314321624
 40
81.82108468091326
 40
82.62715034787627
 40
83.43310753652025
 40
84.09909980678952
 40
84.76510763472155
 40
84.76510763472155
 40
84.76510763472155
 40
84.76510763472155
 10
231.0929999999999
 20
-163.6025
 30
0.0
 10
230.8491943504123
 20
-163.6516596755057
 30
0.0
 10
230.361582861547
 20
-163.7499790498457
 30
0.0
 10
229.6076270384495
 20
-163.9009827632114
 30
0.0
 10
228.8309147832257
 20
-164.0544013925518
 30
0.0
 10
228.0425353921245
 20
-164.2075527818867
 30
0.0
 10
227.2648205318024
 20
-164.3558621609213
 30
0.0
 10
226.3963543537705
 20
-164.5183387605765
 30
0.0
 10
225.4256734915132
 20
-164.6955871634194
 30
0.0
 10
224.4489286263786
 20
-164.8602937526488
 30
0.0
 10
223.5675768210902
 20
-164.9917100566507
 30
0.0
 10
222.7823511279968
 20
-165.0929534073053
 30
0.0
 10
222.0364946100544
 20
-165.1712970359919
 30
0.0
 10
221.3306101570877
 20
-165.2275224894427
 30
0.0
 10
220.6653065631615
 20
-165.2620209027357
 30
0.0
 10
220.0283611698794
 20
-165.2743671669895
 30
0.0
 10
219.4204959333251
 20
-165.2650085492635
 30
0.0
 10
218.8420623149467
 20
-165.2403935552859
 30
0.0
 10
218.2642159327634
 20
-165.2030935632969
 30
0.0
 10
217.6334586132848
 20
-165.1517509095618
 30
0.0
 10
216.9499876514938
 20
-165.086996826921
 30
0.0
 10
216.2132562645823
 20
-165.0145443931827
 30
0.0
 10
215.5249382222028
 20
-164.9522388848203
 30
0.0
 10
214.8846741671206
 20
-164.9053292421075
 30
0.0
 10
214.2927029941403
 20
-164.8765971539605
 30
0.0
 10
213.7238282461147
 20
-164.8684272861783
 30
0.0
 10
213.178802673182
 20
-164.8829831165478
 30
0.0
 10
212.6580328963365
 20
-164.9140001852798
 30
0.0
 10
212.1381390193044
 20
-164.9591587342486
 30
0.0
 10
211.5544031047112
 20
-165.0225751456877
 30
0.0
 10
210.9073464224049
 20
-165.1053830485053
 30
0.0
 10
210.1967599170618
 20
-165.2044927602415
 30
0.0
 10
209.5114815870537
 20
-165.3003956251774
 30
0.0
 10
208.8504971975949
 20
-165.3862960799676
 30
0.0
 10
208.2136748609802
 20
-165.460106422936
 30
0.0
 10
207.507068183267
 20
-165.5288208047484
 30
0.0
 10
206.730098313916
 20
-165.5834209178055
 30
0.0
 10
205.8832394367527
 20
-165.623193013413
 30
0.0
 10
204.8496594868739
 20
-165.655212554163
 30
0.0
 10
203.629615876384
 20
-165.6788475038426
 30
0.0
 10
202.2685444759141
 20
-165.6993822954883
 30
0.0
 10
200.9528869315619
 20
-165.726646038374
 30
0.0
 10
199.5713549820434
 20
-165.76903262708
 30
0.0
 10
198.0790577780411
 20
-165.8394819791805
 30
0.0
 10
196.6712309437842
 20
-165.9182941820043
 30
0.0
 10
195.4586122813153
 20
-165.9852441993784
 30
0.0
 10
194.4419733460914
 20
-166.0335392579982
 30
0.0
 10
193.5281466214686
 20
-166.0633829783465
 30
0.0
 10
192.7166687405646
 20
-166.0746186915805
 30
0.0
 10
192.0053631168756
 20
-166.0696650588596
 30
0.0
 10
191.4409287502663
 20
-166.0511614221477
 30
0.0
 10
191.0239350755412
 20
-166.0288440933638
 30
0.0
 10
190.7561472805386
 20
-166.0083673907942
 30
0.0
 10
190.4897909003065
 20
-165.978675228538
 30
0.0
 10
190.2261545532297
 20
-165.9366709331999
 30
0.0
 10
189.9665289831751
 20
-165.8792246464718
 30
0.0
 10
189.7122253667257
 20
-165.8031797177339
 30
0.0
 10
189.4701270321713
 20
-165.7074959160157
 30
0.0
 10
189.2420946251132
 20
-165.5915163553933
 30
0.0
 10
189.0289107763693
 20
-165.458231847768
 30
0.0
 10
188.8276243331867
 20
-165.306429120138
 30
0.0
 10
188.640504612649
 20
-165.1375595361381
 30
0.0
 10
188.4698367216292
 20
-164.9530605812832
 30
0.0
 10
188.3152933878564
 20
-164.750953837485
 30
0.0
 10
188.1802388647745
 20
-164.5314136836958
 30
0.0
 10
188.0634998625385
 20
-164.2972366161441
 30
0.0
 10
187.9640218083761
 20
-164.0546936861758
 30
0.0
 10
187.8785713335966
 20
-163.8063193543355
 30
0.0
 10
187.8039519603424
 20
-163.5546261622797
 30
0.0
 10
187.7581623090291
 20
-163.3819118616841
 30
0.0
 10
187.7345939839497
 20
-163.2900482605208
 30
0.0
 10
187.7317880575405
 20
-163.2789889498902
 30
0.0
 10
187.7290306854225
 20
-163.2679038602241
 30
0.0
 10
187.6830491205672
 20
-163.0808159777493
 30
0.0
 10
187.6020574793332
 20
-162.715631098314
 30
0.0
 10
187.5023584560494
 20
-162.1691955093674
 30
0.0
 10
187.4195501655018
 20
-161.6196337580294
 30
0.0
 10
187.349969424463
 20
-161.0679719014106
 30
0.0
 10
187.2674487709683
 20
-160.3079082455584
 30
0.0
 10
187.1785132004486
 20
-159.3393527895008
 30
0.0
 10
187.0897567847398
 20
-158.1621337011493
 30
0.0
 10
187.0031596123502
 20
-156.8369330961368
 30
0.0
 10
186.9133402309905
 20
-155.3637485673644
 30
0.0
 10
186.8040619237444
 20
-153.6042778008364
 30
0.0
 10
186.6704991656872
 20
-151.707076642996
 30
0.0
 10
186.5170781189655
 20
-149.6715433832384
 30
0.0
 10
186.3622085373637
 20
-147.6356377564391
 30
0.0
 10
186.22344968084
 20
-145.7332024262936
 30
0.0
 10
186.1055262256403
 20
-143.9644492762816
 30
0.0
 10
186.042974892036
 20
-142.8678033992873
 30
0.0
 10
186.0149972805659
 20
-142.309565966131
 30
0.0
 10
186.0140059548941
 20
-142.2901026803112
 30
0.0
 10
186.0129799785212
 20
-142.2706441780965
 30
0.0
 10
185.9956708192144
 20
-141.9472692157161
 30
0.0
 10
185.9650367465866
 20
-141.319784253764
 30
0.0
 10
185.9307262016042
 20
-140.3878028476308
 30
0.0
 10
185.9101940687485
 20
-139.4554089383444
 30
0.0
 10
185.906489633915
 20
-138.6194708828344
 30
0.0
 10
185.9159437384676
 20
-137.8802871165772
 30
0.0
 10
185.9359716251227
 20
-137.2379790124259
 30
0.0
 10
185.9705967459917
 20
-136.5961400861634
 30
0.0
 10
186.0226082124618
 20
-135.955029419478
 30
0.0
 10
186.0837909690495
 20
-135.4125595453651
 30
0.0
 10
186.1462456099186
 20
-134.9685518090642
 30
0.0
 10
186.2044378454475
 20
-134.6228621663038
 30
0.0
 10
186.2746052135748
 20
-134.2796066431096
 30
0.0
 10
186.3593611682907
 20
-133.9398372209219
 30
0.0
 10
186.4613286333855
 20
-133.6046121189597
 30
0.0
 10
186.5873208646641
 20
-133.2637502763021
 30
0.0
 10
186.7421847607296
 20
-132.9203165390471
 30
0.0
 10
186.9289040541202
 20
-132.5784302405125
 30
0.0
 10
187.14254922729
 20
-132.2530150675874
 30
0.0
 10
187.3830521670208
 20
-131.9482207441357
 30
0.0
 10
187.6398934727118
 20
-131.6792058375885
 30
0.0
 10
187.9092414530607
 20
-131.4465443169418
 30
0.0
 10
188.1839584311674
 20
-131.2448909012312
 30
0.0
 10
188.4723495995399
 20
-131.0621160466925
 30
0.0
 10
188.7711770443544
 20
-130.8961364165446
 30
0.0
 10
189.1150942200718
 20
-130.7261611933187
 30
0.0
 10
189.5042463361647
 20
-130.555634098711
 30
0.0
 10
189.9369919273032
 20
-130.3827992610536
 30
0.0
 10
190.4820603589136
 20
-130.1727619457052
 30
0.0
 10
191.1348668066628
 20
-129.9121955973159
 30
0.0
 10
191.8891940882667
 20
-129.5998743058458
 30
0.0
 10
192.635551110745
 20
-129.2818559898091
 30
0.0
 10
193.3318672861762
 20
-128.9789607316534
 30
0.0
 10
193.9841007298437
 20
-128.6917913341963
 30
0.0
 10
194.3900986613158
 20
-128.5120644748805
 30
0.0
 10
194.5931
 20
-128.4221999999999
 30
0.0
 11
231.0929999999999
 21
-163.6025
 31
0.0
 11
230.3615511175446
 21
-163.7498205143355
 31
0.0
 11
229.6299122735599
 21
-163.896197618563
 31
0.0
 11
228.8308315271263
 21
-164.0539831375124
 31
0.0
 11
228.0312628943617
 21
-164.209257419092
 31
0.0
 11
227.2647411724909
 21
-164.3554152573893
 31
0.0
 11
226.4977
 21
-164.4988999999999
 31
0.0
 11
225.4252307336137
 21
-164.6931647438123
 31
0.0
 11
224.3502511500102
 21
-164.8728702422145
 31
0.0
 11
223.5672223415023
 21
-164.9891231712794
 31
0.0
 11
222.782021581607
 21
-165.0898600894535
 31
0.0
 11
221.994556258905
 21
-165.172075086505
 31
0.0
 11
221.3303688302795
 21
-165.2244583391989
 31
0.0
 11
220.6650908444615
 21
-165.2584263784403
 31
0.0
 11
219.9993
 21
-165.2708
 31
0.0
 11
219.4206344083428
 21
-165.2623936159085
 31
0.0
 11
218.8422383137047
 21
-165.2382834697835
 31
0.0
 11
218.2643322317641
 21
-165.201480281012
 31
0.0
 11
217.6871366782005
 21
-165.1549947689803
 31
0.0
 11
216.9499820678066
 21
-165.0865541911046
 31
0.0
 11
216.2132271620774
 21
-165.0155027705089
 31
0.0
 11
215.4757484429066
 21
-164.9501446570324
 31
0.0
 11
214.8844731548376
 21
-164.9077555384633
 31
0.0
 11
214.292471461067
 21
-164.879963112018
 31
0.0
 11
213.7001999999998
 21
-164.8724
 31
0.0
 11
213.1790218992124
 21
-164.8858265884602
 31
0.0
 11
212.6582962964044
 21
-164.9163487040316
 31
0.0
 11
212.1383309109551
 21
-164.9610253094355
 31
0.0
 11
211.6194334622429
 21
-165.0169153673925
 31
0.0
 11
210.9074466018431
 21
-165.1067327110533
 31
0.0
 11
210.1967740402949
 21
-165.2045466164094
 31
0.0
 11
209.486125829432
 21
-165.3026931813554
 31
0.0
 11
208.8503145409453
 21
-165.3848280695653
 31
0.0
 11
208.2134277000395
 21
-165.4581504805163
 31
0.0
 11
207.5753999999998
 21
-165.5197
 31
0.0
 11
206.729985110606
 21
-165.5801400502261
 31
0.0
 11
205.8831913492527
 21
-165.620937833371
 31
0.0
 11
205.0357489721148
 21
-165.648214064726
 31
0.0
 11
203.6295673881058
 21
-165.6778440626493
 31
0.0
 11
202.2233768980255
 21
-165.701451272135
 31
0.0
 11
200.9528671172555
 21
-165.7287548846935
 31
0.0
 11
199.6828999999999
 21
-165.7686999999999
 31
0.0
 11
198.079543945294
 21
-165.841801341235
 31
0.0
 11
196.4758257683696
 21
-165.9289813148789
 31
0.0
 11
195.4583115585048
 21
-165.9839530039494
 31
0.0
 11
194.4410979829539
 21
-166.0310594517098
 31
0.0
 11
193.4255999185833
 21
-166.0629785467128
 31
0.0
 11
192.7171882104391
 21
-166.0721568883318
 31
0.0
 11
192.0071424063121
 21
-166.0666342787211
 31
0.0
 11
191.2923
 21
-166.0427
 31
0.0
 11
191.0240516890551
 21
-166.0278260372549
 31
0.0
 11
190.7560501938275
 21
-166.0067985837053
 31
0.0
 11
190.4896496426863
 21
-165.9765419303548
 31
0.0
 11
190.2262041640005
 21
-165.9339803682073
 31
0.0
 11
189.9670678861391
 21
-165.8760381882664
 31
0.0
 11
189.7135949374717
 21
-165.7996396815355
 31
0.0
 11
189.4671394463668
 21
-165.7017091390189
 31
0.0
 11
189.2443431684622
 21
-165.5885493519773
 31
0.0
 11
189.0311790345686
 21
-165.4553370813666
 31
0.0
 11
188.8299534117448
 21
-165.3035534993734
 31
0.0
 11
188.6429726670492
 21
-165.1346797781839
 31
0.0
 11
188.4725431675403
 21
-164.9501970899843
 31
0.0
 11
188.3209712802768
 21
-164.751586606961
 31
0.0
 11
188.1836505006038
 21
-164.529567940089
 31
0.0
 11
188.0665357067935
 21
-164.2961966202356
 31
0.0
 11
187.9664914496265
 21
-164.054067764689
 31
0.0
 11
187.8803822798841
 21
-163.8057764907355
 31
0.0
 11
187.8050727483472
 21
-163.5539179156628
 31
0.0
 11
187.7374274057965
 21
-163.3010871567579
 31
0.0
 11
187.7345987256823
 21
-163.2900463677549
 31
0.0
 11
187.7317999999999
 21
-163.2789999999999
 31
0.0
 11
187.7290359165337
 21
-163.2679028049545
 31
0.0
 11
187.7263027628276
 21
-163.2567972853655
 31
0.0
 11
187.6054988408955
 21
-162.715007913855
 31
0.0
 11
187.5052074995505
 21
-162.1688793721411
 31
0.0
 11
187.421779709968
 21
-161.6194621264051
 31
0.0
 11
187.351566443324
 21
-161.0678066428285
 31
0.0
 11
187.2909186707944
 21
-160.5149633875923
 31
0.0
 11
187.181685584452
 21
-159.3387627061495
 31
0.0
 11
187.0917142165485
 21
-158.1619321647218
 31
0.0
 11
187.0135234181665
 21
-156.9844625343946
 31
0.0
 11
186.9130387803384
 21
-155.3638501770369
 31
0.0
 11
186.8107
 21
-153.7430999999999
 31
0.0
 11
186.6688202593661
 21
-151.7071813163159
 31
0.0
 11
186.5168800122124
 21
-149.6720533482597
 31
0.0
 11
186.3632662203733
 21
-147.6355662828964
 31
0.0
 11
186.215993384897
 21
-145.598584225524
 31
0.0
 11
186.1081392704825
 21
-143.9642690476073
 31
0.0
 11
186.0159734547584
 21
-142.3290330300688
 31
0.0
 11
186.0149946422829
 21
-142.30956609652
 31
0.0
 11
186.014
 21
-142.2900999999999
 31
0.0
 11
186.0129773933713
 21
-142.2706443495151
 31
0.0
 11
186.0119392586194
 21
-142.2511894541424
 31
0.0
 11
185.9668987646145
 21
-141.3197291043426
 31
0.0
 11
185.9330221961079
 21
-140.3877184647438
 31
0.0
 11
185.9129269829605
 21
-139.4553530513973
 31
0.0
 11
185.9092305550331
 21
-138.5228283803545
 31
0.0
 11
185.9179121346988
 21
-137.8803196271287
 31
0.0
 11
185.9384023790261
 21
-137.2381014441562
 31
0.0
 11
185.9734813347475
 21
-136.5964471867576
 31
0.0
 11
186.0259290485955
 21
-135.9556302102549
 31
0.0
 11
186.0985255673026
 21
-135.3159238699698
 31
0.0
 11
186.1478090851908
 21
-134.9687772356132
 31
0.0
 11
186.2064609357479
 21
-134.6231232267901
 31
0.0
 11
186.2770685357407
 21
-134.280045171159
 31
0.0
 11
186.3622193019356
 21
-133.940626396378
 31
0.0
 11
186.4645006511
 21
-133.6059502301054
 31
0.0
 11
186.5865
 21
-133.2770999999999
 31
0.0
 11
186.746499946565
 21
-132.9227553759174
 31
0.0
 11
186.9335107713423
 21
-132.5809861338937
 31
0.0
 11
187.1473861150009
 21
-132.2559555055597
 31
0.0
 11
187.3879796182093
 21
-131.9518267225469
 31
0.0
 11
187.6551449216363
 21
-131.6727630164869
 31
0.0
 11
187.9118849757326
 21
-131.4501849899164
 31
0.0
 11
188.18586946124
 21
-131.2482883155102
 31
0.0
 11
188.473833254118
 21
-131.0650694026087
 31
0.0
 11
188.7725112303265
 21
-130.898524660551
 31
0.0
 11
189.0786382658254
 21
-130.746650498677
 31
0.0
 11
189.5055831710364
 21
-130.5578562546731
 31
0.0
 11
189.9374027101363
 21
-130.3836528824962
 31
0.0
 11
190.3711
 21
-130.2148
 31
0.0
 11
191.1340709188193
 21
-129.910630215601
 31
0.0
 11
191.8934908813353
 21
-129.5965616120497
 31
0.0
 11
192.635184433002
 21
-129.2809153944004
 31
0.0
 11
193.3743876043151
 21
-128.9597524119682
 31
0.0
 11
193.9840060801961
 21
-128.6915901144515
 31
0.0
 11
194.5931
 21
-128.4221999999999
 31
0.0
  0
ARC
  5
E84
330
1F
100
AcDbEntity
  8
0
  6
Continuous
 62
     7
100
AcDbCircle
 10
221.0931999992499
 20
-144.7589999992499
 30
0.0
 40
10.00000000125
100
AcDbArc
 50
359.9994270379077
 51
89.99885408011184
  0
ARC
  5
E85
330
1F
100
AcDbEntity
  8
0
  6
Continuous
 62
     7
100
AcDbCircle
 10
199.5929999999999
 20
-129.7588
 30
0.0
 40
5.000000001
100
AcDbArc
 50
180.0011459155898
 51
270.0011459155907
  0
LINE
  5
E86
330
1F
100
AcDbEntity
  8
0
  6
Continuous
 62
     7
100
AcDbLine
 10
195.0929999999999
 20
-134.7589999999998
 30
0.0
 11
221.0933999999999
 21
-134.7589999999998
 31
0.0
  0
LINE
  5
E87
330
1F
100
AcDbEntity
  8
0
  6
Continuous
 62
     7
100
AcDbLine
 10
195.0929999999999
 20
-160.7589999999999
 30
0.0
 11
228.093
 21
-160.7589999999999
 31
0.0
  0
LINE
  5
E88
330
1F
100
AcDbEntity
  8
0
  6
Continuous
 62
     7
100
AcDbLine
 10
203.093
 20
-152.2589999999999
 30
0.0
 11
221.0929999999999
 21
-152.2589999999999
 31
0.0
  0
LINE
  5
E89
330
1F
100
AcDbEntity
  8
0
  6
Continuous
 62
     7
100
AcDbLine
 10
203.093
 20
-143.2589999999999
 30
0.0
 11
221.0929999999999
 21
-143.2589999999999
 31
0.0
  0
LINE
  5
E8A
330
1F
100
AcDbEntity
  8
0
  6
DASH_CENTER
 62
    30
100
AcDbLine
 10
194.24241186726
 20
-147.759
 30
0.0
 11
228.7385
 21
-147.759
 31
0.0
  0
LINE
  5
E8C
330
1F
100
AcDbEntity
  8
0
  6
Continuous
 62
     7
100
AcDbLine
 10
192.093
 20
-137.7589999999998
 30
0.0
 11
192.093
 21
-157.7589999999998
 31
0.0
  0
ARC
  5
E8D
330
1F
100
AcDbEntity
  8
0
  6
Continuous
 62
     7
100
AcDbCircle
 10
195.0929999991666
 20
-157.7587999991665
 30
0.0
 40
3.000000000833312
100
AcDbArc
 50
180.0019098752326
 51
270.0000000159163
  0
ARC
  5
E99
330
1F
100
AcDbEntity
  8
0
  6
Continuous
 62
     7
100
AcDbCircle
 10
203.093
 20
-147.759
 30
0.0
 40
4.5
100
AcDbArc
 50
90.0
 51
270.0
  0
ARC
  5
E9B
330
1F
100
AcDbEntity
  8
0
  6
Continuous
 62
     7
100
AcDbCircle
 10
195.0929999991666
 20
-137.7588000008333
 30
0.0
 40
3.000000000833325
100
AcDbArc
 50
89.99999998408522
 51
180.0019098434014
  0
LINE
  5
E9C
330
1F
100
AcDbEntity
  8
0
  6
Continuous
 62
     7
100
AcDbLine
 10
231.0929999999999
 20
-144.7589999999999
 30
0.0
 11
231.0929999999999
 21
-163.6025
 31
0.0
  0
LINE
  5
E9D
330
1F
100
AcDbEntity
  8
0
  6
DASH_CENTER
 62
    30
100
AcDbLine
 10
212.0929999999999
 20
-138.1000006941549
 30
0.0
 11
212.0929999999999
 21
-158.130930541964
 31
0.0
  0
ARC
  5
E9E
330
1F
100
AcDbEntity
  8
0
  6
Continuous
 62
     7
100
AcDbCircle
 10
228.0930000008333
 20
-157.7587999991665
 30
0.0
 40
3.000000000833352
100
AcDbArc
 50
269.9999999840836
 51
359.9980901247671
  0
ARC
  5
E9F
330
1F
100
AcDbEntity
  8
0
  6
Continuous
 62
     7
100
AcDbCircle
 10
221.0929999999999
 20
-147.759
 30
0.0
 40
4.5
100
AcDbArc
 50
270.0
 51
90.0
  0
LINE
  5
EA2
330
1F
100
AcDbEntity
  8
0
  6
Continuous
 62
     7
100
AcDbLine
 10
194.5929999999999
 20
-128.4221
 30
0.0
 11
194.5929999999999
 21
-129.7589999999999
 31
0.0
  0
ARC
  5
EAC
330
1F
100
AcDbEntity
  8
0
  6
Continuous
 62
     7
100
AcDbCircle
 10
170.0930050974569
 20
-7.3479159064442
 30
0.0
 40
5.000015906446806
100
AcDbArc
 50
305.537602994837
 51
90.00005841236758
  0
LINE
  5
EAD
330
1F
100
AcDbEntity
  8
0
  6
Continuous
 62
     7
100
AcDbLine
 10
194.5929999999999
 20
-34.8479
 30
0.0
 11
117.5929999999999
 21
-34.8479
 31
0.0
  0
ARC
  5
EBE
330
1F
100
AcDbEntity
  8
0
  6
Continuous
 62
     7
100
AcDbCircle
 10
156.0931377020523
 20
35.65211713282609
 30
0.0
 40
41.00001331128836
100
AcDbArc
 50
248.400261309345
 51
260.8457134018235
  0
ARC
  5
EBF
330
1F
100
AcDbEntity
  8
0
  6
Continuous
 62
     7
100
AcDbCircle
 10
156.0935105514369
 20
35.65199949433475
 30
0.0
 40
50.00000295943448
100
AcDbArc
 50
250.1907270672411
 51
253.9423634737516
  0
ARC
  5
EC0
330
1F
100
AcDbEntity
  8
0
  6
Continuous
 62
     7
100
AcDbCircle
 10
142.0929949025429
 20
-7.347915906444192
 30
0.0
 40
5.000015906446789
100
AcDbArc
 50
89.99994158763241
 51
234.462397005163
  0
LINE
  5
EC1
330
1F
100
AcDbEntity
  8
0
  6
Continuous
 62
     7
100
AcDbLine
 10
139.1868
 20
-11.41669999999999
 30
0.0
 11
153.1868
 21
-21.41669999999999
 31
0.0
  0
LINE
  5
EC2
330
1F
100
AcDbEntity
  8
0
  6
Continuous
 62
     7
100
AcDbLine
 10
120.0929999999999
 20
-34.8479
 30
0.0
 11
120.0929999999999
 21
-35.3479
 31
0.0
  0
ARC
  5
EC3
330
1F
100
AcDbEntity
  8
0
  6
Continuous
 62
     7
100
AcDbCircle
 10
156.0930642428641
 20
35.65204721920884
 30
0.0
 40
65.59996743545752
100
AcDbArc
 50
225.1976821469715
 51
235.9904882605793
  0
LINE
  5
EC4
330
1F
100
AcDbEntity
  8
0
  6
Continuous
 62
     7
100
AcDbLine
 10
114.0058
 20
-11.3853
 30
0.0
 11
116.8717999999999
 21
-8.529800000000001
 31
0.0
  0
LINE
  5
EC5
330
1F
100
AcDbEntity
  8
0
  6
Continuous
 62
     7
100
AcDbLine
 10
110.1021
 20
-10.33939999999999
 30
0.0
 11
114.0058
 21
-11.3853
 31
0.0
  0
CIRCLE
  5
EC6
330
1F
100
AcDbEntity
  8
0
  6
Continuous
 62
     7
100
AcDbCircle
 10
112.9598
 20
-7.481399999999999
 30
0.0
 40
1.649911721880898
  0
CIRCLE
  5
EC7
330
1F
100
AcDbEntity
  8
0
  6
Continuous
 62
    30
100
AcDbCircle
 10
112.9598
 20
-7.481399999999999
 30
0.0
 40
1.999940249107458
  0
LINE
  5
EC8
330
1F
100
AcDbEntity
  8
0
  6
Continuous
 62
     7
100
AcDbLine
 10
116.8717999999999
 20
-8.529800000000001
 30
0.0
 11
115.8174999999999
 21
-4.623800000000001
 31
0.0
  0
LINE
  5
EC9
330
1F
100
AcDbEntity
  8
0
  6
Continuous
 62
     7
100
AcDbLine
 10
115.8174999999999
 20
-4.623800000000001
 30
0.0
 11
111.9137999999999
 21
-3.577899999999998
 31
0.0
  0
ARC
  5
ECA
330
1F
100
AcDbEntity
  8
0
  6
Continuous
 62
     7
100
AcDbCircle
 10
156.092950364124
 20
-17.34788409404335
 30
0.0
 40
5.000015906203027
100
AcDbArc
 50
234.4630241969706
 51
270.0005687834305
  0
ARC
  5
ECB
330
1F
100
AcDbEntity
  8
0
  6
Continuous
 62
     7
100
AcDbCircle
 10
156.0930496358759
 20
-17.34788409404334
 30
0.0
 40
5.00001590620303
100
AcDbArc
 50
269.9994312165693
 51
305.5369758030273
  0
ARC
  5
ECC
330
1F
100
AcDbEntity
  8
0
  6
Continuous
 62
     7
100
AcDbCircle
 10
156.092680671622
 20
35.65208356597702
 30
0.0
 40
53.99998356760513
100
AcDbArc
 50
270.0004449213631
 51
278.5697540275013
  0
ARC
  5
ECD
330
1F
100
AcDbEntity
  8
0
  6
Continuous
 62
     7
100
AcDbCircle
 10
156.0932818097647
 20
35.65209999949161
 30
0.0
 40
53.99999422688214
100
AcDbArc
 50
261.4302879348059
 51
278.5689999935153
  0
LINE
  5
ECE
330
1F
100
AcDbEntity
  8
0
  6
Continuous
 62
     7
100
AcDbLine
 10
170.0929999999999
 20
-2.347900000000001
 30
0.0
 11
156.0929999999999
 21
-2.347900000000001
 31
0.0
  0
ARC
  5
ECF
330
1F
100
AcDbEntity
  8
0
  6
Continuous
 62
     7
100
AcDbCircle
 10
143.0930785802395
 20
-9.514416124384881
 30
0.0
 40
3.000021419803737
100
AcDbArc
 50
253.9431570062184
 51
0.0003079508681124
  0
LINE
  5
ED0
330
1F
100
AcDbEntity
  8
0
  6
Continuous
 62
     7
100
AcDbLine
 10
152.0931
 20
-7.787599999999997
 30
0.0
 11
152.0931
 21
-14.8652
 31
0.0
  0
ARC
  5
ED1
330
1F
100
AcDbEntity
  8
0
  6
Continuous
 62
     7
100
AcDbCircle
 10
149.0931011833341
 20
-14.86519896934293
 30
0.0
 40
2.999998816666031
100
AcDbArc
 50
262.1102633129954
 51
359.9999803158921
  0
LINE
  5
ED2
330
1F
100
AcDbEntity
  8
0
  6
Continuous
 62
     7
100
AcDbLine
 10
142.093
 20
-2.347900000000001
 30
0.0
 11
156.0929999999999
 21
-2.347900000000001
 31
0.0
  0
ARC
  5
ED3
330
1F
100
AcDbEntity
  8
0
  6
Continuous
 62
     7
100
AcDbCircle
 10
143.0930804861936
 20
-6.383773538739418
 30
0.0
 40
3.000019513923035
100
AcDbArc
 50
359.9994946304364
 51
72.81420231151139
  0
LINE
  5
ED4
330
1F
100
AcDbEntity
  8
0
  6
Continuous
 62
     7
100
AcDbLine
 10
146.0930999999999
 20
-6.383799999999999
 30
0.0
 11
146.0930999999999
 21
-9.5144
 31
0.0
  0
ARC
  5
ED5
330
1F
100
AcDbEntity
  8
0
  6
Continuous
 62
     7
100
AcDbCircle
 10
149.0931017433358
 20
-7.787602046698828
 30
0.0
 40
2.99999825666494
100
AcDbArc
 50
0.0000390890911294
 51
80.84730197982644
  0
LINE
  5
ED6
330
1F
100
AcDbEntity
  8
0
  6
Continuous
 62
     7
100
AcDbLine
 10
152.0929999999999
 20
-7.787599999999997
 30
0.0
 11
152.0929999999999
 21
-2.347900000000001
 31
0.0
  0
ARC
  5
ED7
330
1F
100
AcDbEntity
  8
0
  6
Continuous
 62
     7
100
AcDbCircle
 10
169.0930214197603
 20
-9.514416124384887
 30
0.0
 40
3.000021419803732
100
AcDbArc
 50
179.9996920491313
 51
286.0568429937815
  0
LINE
  5
ED8
330
1F
100
AcDbEntity
  8
0
  6
Continuous
 62
     7
100
AcDbLine
 10
160.0929999999999
 20
-7.787599999999997
 30
0.0
 11
160.0929999999999
 21
-14.8652
 31
0.0
  0
LINE
  5
ED9
330
1F
100
AcDbEntity
  8
0
  6
Continuous
 62
     7
100
AcDbLine
 10
172.9992
 20
-11.41669999999999
 30
0.0
 11
158.9992
 21
-21.41669999999999
 31
0.0
  0
ARC
  5
EDA
330
1F
100
AcDbEntity
  8
0
  6
Continuous
 62
     7
100
AcDbCircle
 10
163.0929919541285
 20
-14.86519299202419
 30
0.0
 40
2.999991954136902
100
AcDbArc
 50
180.000133842838
 51
277.8879590554824
  0
ARC
  5
EDB
330
1F
100
AcDbEntity
  8
0
  6
Continuous
 62
     7
100
AcDbCircle
 10
156.0929717607924
 20
35.65212322357236
 30
0.0
 40
50.00001611369053
100
AcDbArc
 50
286.0571763038498
 51
289.8085582551262
  0
ARC
  5
EDC
330
1F
100
AcDbEntity
  8
0
  6
Continuous
 62
     7
100
AcDbCircle
 10
156.0928693294233
 20
35.65209156515301
 30
0.0
 40
40.99998695059531
100
AcDbArc
 50
279.1542825815076
 51
291.5997427073244
  0
ARC
  5
EDD
330
1F
100
AcDbEntity
  8
0
  6
Continuous
 62
     7
100
AcDbCircle
 10
163.0930062108026
 20
-7.787592708147776
 30
0.0
 40
3.000006210811606
100
AcDbArc
 50
99.15476190739036
 51
180.0001392638306
  0
LINE
  5
EDE
330
1F
100
AcDbEntity
  8
0
  6
Continuous
 62
     7
100
AcDbLine
 10
160.0929999999999
 20
-2.347900000000001
 30
0.0
 11
160.0929999999999
 21
-7.787599999999997
 31
0.0
  0
ARC
  5
EDF
330
1F
100
AcDbEntity
  8
0
  6
Continuous
 62
     7
100
AcDbCircle
 10
169.0930195138063
 20
-6.383773538739426
 30
0.0
 40
3.000019513923033
100
AcDbArc
 50
107.1857976884869
 51
180.0005053695629
  0
LINE
  5
EE0
330
1F
100
AcDbEntity
  8
0
  6
Continuous
 62
     7
100
AcDbLine
 10
166.093
 20
-6.383799999999999
 30
0.0
 11
166.093
 21
-9.5144
 31
0.0
  0
LINE
  5
EF6
330
1F
100
AcDbEntity
  8
0
  6
Continuous
 62
     7
100
AcDbLine
 10
231.0929999999999
 20
-35.3479
 30
0.0
 11
192.093
 21
-35.3479
 31
0.0
  0
LINE
  5
EF7
330
1F
100
AcDbEntity
  8
0
  6
Continuous
 62
     7
100
AcDbLine
 10
194.2341
 20
-31.64789999999999
 30
0.0
 11
231.0929999999999
 21
-31.64789999999999
 31
0.0
  0
LINE
  5
EF8
330
1F
100
AcDbEntity
  8
0
  6
DASH_CENTER
 62
    30
100
AcDbLine
 10
194.9747999999999
 20
-3.229999999999995
 30
0.0
 11
206.3827999999999
 21
-14.6379
 31
0.0
  0
LINE
  5
EF9
330
1F
100
AcDbEntity
  8
0
  6
Continuous
 62
     7
100
AcDbLine
 10
194.2902
 20
-32.1479
 30
0.0
 11
231.0929999999999
 21
-32.1479
 31
0.0
  0
LINE
  5
EFA
330
1F
100
AcDbEntity
  8
0
  6
Continuous
 62
     7
100
AcDbLine
 10
192.093
 20
-35.3479
 30
0.0
 11
192.093
 21
-34.8479
 31
0.0
  0
ARC
  5
EFC
330
1F
100
AcDbEntity
  8
0
  6
DASH_CENTER
 62
    30
100
AcDbCircle
 10
156.0932403327327
 20
35.65194029520589
 30
0.0
 40
61.00003174529298
100
AcDbArc
 50
309.6859654298701
 51
320.2606999699256
  0
LINE
  5
EFD
330
1F
100
AcDbEntity
  8
0
  6
Continuous
 62
     7
100
AcDbLine
 10
202.084
 20
-10.33939999999999
 30
0.0
 11
198.1803
 21
-11.3853
 31
0.0
  0
LINE
  5
EFE
330
1F
100
AcDbEntity
  8
0
  6
Continuous
 62
     7
100
AcDbLine
 10
198.1803
 20
-11.3853
 30
0.0
 11
195.3143
 21
-8.529800000000001
 31
0.0
  0
CIRCLE
  5
EFF
330
1F
100
AcDbEntity
  8
0
  6
Continuous
 62
    30
100
AcDbCircle
 10
199.2263
 20
-7.481399999999999
 30
0.0
 40
1.99994024910746
  0
CIRCLE
  5
F00
330
1F
100
AcDbEntity
  8
0
  6
Continuous
 62
     7
100
AcDbCircle
 10
199.2263
 20
-7.481399999999999
 30
0.0
 40
3.499969614153815
  0
LINE
  5
F01
330
1F
100
AcDbEntity
  8
0
  6
Continuous
 62
     7
100
AcDbLine
 10
196.3685
 20
-4.623800000000001
 30
0.0
 11
200.2723
 21
-3.577899999999998
 31
0.0
  0
LINE
  5
F02
330
1F
100
AcDbEntity
  8
0
  6
Continuous
 62
     7
100
AcDbLine
 10
195.3143
 20
-8.529800000000001
 30
0.0
 11
196.3685
 21
-4.623800000000001
 31
0.0
  0
CIRCLE
  5
F03
330
1F
100
AcDbEntity
  8
0
  6
Continuous
 62
     7
100
AcDbCircle
 10
199.2263
 20
-7.481399999999999
 30
0.0
 40
1.64993760488086
  0
LINE
  5
F04
330
1F
100
AcDbEntity
  8
0
  6
Continuous
 62
     7
100
AcDbLine
 10
200.2723
 20
-3.577899999999998
 30
0.0
 11
203.1382999999999
 21
-6.433300000000002
 31
0.0
  0
LINE
  5
F05
330
1F
100
AcDbEntity
  8
0
  6
Continuous
 62
     7
100
AcDbLine
 10
203.1382999999999
 20
-6.433300000000002
 30
0.0
 11
202.084
 21
-10.33939999999999
 31
0.0
  0
LINE
  5
F06
330
1F
100
AcDbEntity
  8
0
  6
DASH_CENTER
 62
    30
100
AcDbLine
 10
212.0929999999999
 20
-26.30789999999999
 30
0.0
 11
212.0929999999999
 21
-38.66480000000001
 31
0.0
  0
LINE
  5
F08
330
1F
100
AcDbEntity
  8
0
  6
Continuous
 62
     7
100
AcDbLine
 10
231.0929999999999
 20
-35.3479
 30
0.0
 11
231.0929999999999
 21
-31.64789999999999
 31
0.0
  0
CIRCLE
  5
F24
330
1F
100
AcDbEntity
  8
0
  6
Continuous
 62
     7
100
AcDbCircle
 10
112.9596999999999
 20
78.7854
 30
0.0
 40
3.499969614153819
  0
ARC
  5
F25
330
1F
100
AcDbEntity
  8
0
  6
Continuous
 62
     7
100
AcDbCircle
 10
156.093120207703
 20
35.65202020747003
 30
0.0
 40
49.99999981532265
100
AcDbArc
 50
106.0572913461262
 51
163.942876090169
  0
ARC
  5
F26
330
1F
100
AcDbEntity
  8
0
  6
Continuous
 62
     7
100
AcDbCircle
 10
110.926783876397
 20
22.65207858053547
 30
0.0
 40
3.000021420637061
100
AcDbArc
 50
90.00160190974794
 51
196.0568429950802
  0
ARC
  5
F27
330
1F
100
AcDbEntity
  8
0
  6
DASH_CENTER
 62
    30
100
AcDbCircle
 10
156.0931402952059
 20
35.65214033273273
 30
0.0
 40
61.00003174529297
100
AcDbArc
 50
129.739300030073
 51
140.314034570129
  0
ARC
  5
F28
330
1F
100
AcDbEntity
  8
0
  6
Continuous
 62
     7
100
AcDbCircle
 10
110.9265942856397
 20
48.65210759080324
 30
0.0
 40
3.000007590808681
100
AcDbArc
 50
163.9447935344701
 51
270.0001091359668
  0
LINE
  5
F29
330
1F
100
AcDbEntity
  8
0
  6
Continuous
 62
     7
100
AcDbLine
 10
109.0475999999999
 20
77.73730000000002
 30
0.0
 11
110.1018999999999
 21
81.6431
 31
0.0
  0
LINE
  5
F2A
330
1F
100
AcDbEntity
  8
0
  6
Continuous
 62
     7
100
AcDbLine
 10
111.9136
 20
74.88160000000002
 30
0.0
 11
109.0475999999999
 21
77.73730000000002
 31
0.0
  0
LINE
  5
F2B
330
1F
100
AcDbEntity
  8
0
  6
Continuous
 62
     7
100
AcDbLine
 10
119.7929999999999
 20
31.6521
 30
0.0
 11
105.5757999999999
 21
31.6521
 31
0.0
  0
LINE
  5
F2C
330
1F
100
AcDbEntity
  8
0
  6
Continuous
 62
     7
100
AcDbLine
 10
112.6534
 20
39.65209999999999
 30
0.0
 11
105.5757
 21
39.65209999999999
 31
0.0
  0
LINE
  5
F2D
330
1F
100
AcDbEntity
  8
0
  6
DASH_CENTER
 62
    30
100
AcDbLine
 10
117.2112
 20
74.5339
 30
0.0
 11
105.8032
 21
85.9421
 31
0.0
  0
LINE
  5
F2E
330
1F
100
AcDbEntity
  8
0
  6
DASH_CENTER
 62
    30
100
AcDbLine
 10
87.993
 20
35.65189999999999
 30
0.0
 11
229.9001
 21
35.65189999999999
 31
0.0
  0
ARC
  5
F35
330
1F
100
AcDbEntity
  8
0
  6
Continuous
 62
     7
100
AcDbCircle
 10
156.0929999999999
 20
35.65209999999999
 30
0.0
 40
68.10001821945424
100
AcDbArc
 50
170.0830676042466
 51
189.9169323957531
  0
ARC
  5
F36
330
1F
100
AcDbEntity
  8
0
  6
Continuous
 62
     7
100
AcDbCircle
 10
78.8004
 20
17.4519
 30
0.0
 40
15.0
100
AcDbArc
 50
90.0
 51
180.0
  0
ARC
  5
F37
330
1F
100
AcDbEntity
  8
0
  6
Continuous
 62
     7
100
AcDbCircle
 10
81.80039999999998
 20
17.4519
 30
0.0
 40
15.0
100
AcDbArc
 50
90.0
 51
180.0
  0
LINE
  5
F38
330
1F
100
AcDbEntity
  8
0
  6
Continuous
 62
     7
100
AcDbLine
 10
75.60039999999998
 20
32.4519
 30
0.0
 11
87.9931
 21
32.4519
 31
0.0
  0
LINE
  5
F39
330
1F
100
AcDbEntity
  8
0
  6
Continuous
 62
     7
100
AcDbLine
 10
87.9931
 20
35.65189999999999
 30
0.0
 11
75.60039999999998
 21
35.65189999999999
 31
0.0
  0
LINE
  5
F3A
330
1F
100
AcDbEntity
  8
0
  6
Continuous
 62
     7
100
AcDbLine
 10
87.9931
 20
38.8521
 30
0.0
 11
75.60039999999998
 21
38.8521
 31
0.0
  0
ARC
  5
F3B
330
1F
100
AcDbEntity
  8
0
  6
Continuous
 62
     7
100
AcDbCircle
 10
75.60039999999998
 20
17.4519
 30
0.0
 40
15.0
100
AcDbArc
 50
90.0
 51
180.0
  0
ARC
  5
F3C
330
1F
100
AcDbEntity
  8
0
  6
Continuous
 62
     7
100
AcDbCircle
 10
75.60039999999998
 20
17.4519
 30
0.0
 40
21.4
100
AcDbArc
 50
90.0
 51
180.0
  0
ARC
  5
F3D
330
1F
100
AcDbEntity
  8
0
  6
Continuous
 62
     7
100
AcDbCircle
 10
75.60039999999998
 20
17.4519
 30
0.0
 40
18.2
100
AcDbArc
 50
90.0
 51
180.0
  0
ARC
  5
F3E
330
1F
100
AcDbEntity
  8
0
  6
Continuous
 62
    30
100
AcDbCircle
 10
61.40039999999999
 20
8.087002099483408
 30
0.0
 40
1.599999999999995
100
AcDbArc
 50
60.00000000000006
 51
119.9999999999999
  0
ARC
  5
F3F
330
1F
100
AcDbEntity
  8
0
  6
Continuous
 62
    30
100
AcDbCircle
 10
61.40039999999999
 20
10.85828339159359
 30
0.0
 40
1.599999999999995
100
AcDbArc
 50
239.9999999999999
 51
299.9999999999999
  0
LINE
  5
F40
330
1F
100
AcDbEntity
  8
0
  6
Continuous
 62
     7
100
AcDbLine
 10
54.2004
 20
9.4726427455385
 30
0.0
 11
54.2004
 21
17.4519
 31
0.0
  0
LINE
  5
F41
330
1F
100
AcDbEntity
  8
0
  6
Continuous
 62
     7
100
AcDbLine
 10
57.40039999999999
 20
9.4726427455385
 30
0.0
 11
57.40039999999999
 21
17.4519
 31
0.0
  0
LINE
  5
F42
330
1F
100
AcDbEntity
  8
0
  6
Continuous
 62
     7
100
AcDbLine
 10
60.6004
 20
9.4726427455385
 30
0.0
 11
60.6004
 21
17.4519
 31
0.0
  0
ARC
  5
F43
330
1F
100
AcDbEntity
  8
0
  6
Continuous
 62
    30
100
AcDbCircle
 10
55.0004
 20
8.087002099483408
 30
0.0
 40
1.599999999999995
100
AcDbArc
 50
60.00000000000006
 51
119.9999999999999
  0
ARC
  5
F44
330
1F
100
AcDbEntity
  8
0
  6
Continuous
 62
    30
100
AcDbCircle
 10
56.60039999999999
 20
10.85828339159361
 30
0.0
 40
1.599999999999999
100
AcDbArc
 50
239.9999999999999
 51
299.9999999999999
  0
ARC
  5
F45
330
1F
100
AcDbEntity
  8
0
  6
Continuous
 62
    30
100
AcDbCircle
 10
55.0004
 20
3.52741926379906
 30
0.0
 40
1.599999999999996
100
AcDbArc
 50
60.00000000000006
 51
119.9999999999999
  0
ARC
  5
F46
330
1F
100
AcDbEntity
  8
0
  6
Continuous
 62
    30
100
AcDbCircle
 10
56.60039999999999
 20
6.298700555909259
 30
0.0
 40
1.599999999999995
100
AcDbArc
 50
239.9999999999999
 51
299.9999999999999
  0
ARC
  5
F47
330
1F
100
AcDbEntity
  8
0
  6
Continuous
 62
    30
100
AcDbCircle
 10
55.0004
 20
10.85828339159359
 30
0.0
 40
1.599999999999995
100
AcDbArc
 50
239.9999999999999
 51
299.9999999999999
  0
ARC
  5
F48
330
1F
100
AcDbEntity
  8
0
  6
Continuous
 62
    30
100
AcDbCircle
 10
56.60040000000001
 20
3.52741926379906
 30
0.0
 40
1.6
100
AcDbArc
 50
60.00000000000006
 51
119.9999999999999
  0
ARC
  5
F49
330
1F
100
AcDbEntity
  8
0
  6
Continuous
 62
    30
100
AcDbCircle
 10
58.2004
 20
8.087002099483408
 30
0.0
 40
1.599999999999993
100
AcDbArc
 50
60.00000000000006
 51
120.0000000000001
  0
ARC
  5
F4A
330
1F
100
AcDbEntity
  8
0
  6
Continuous
 62
    30
100
AcDbCircle
 10
59.80039999999998
 20
10.85828339159361
 30
0.0
 40
1.600000000000004
100
AcDbArc
 50
239.9999999999999
 51
299.9999999999999
  0
ARC
  5
F4B
330
1F
100
AcDbEntity
  8
0
  6
Continuous
 62
    30
100
AcDbCircle
 10
58.2004
 20
10.85828339159359
 30
0.0
 40
1.599999999999999
100
AcDbArc
 50
239.9999999999998
 51
299.9999999999999
  0
LINE
  5
F4C
330
1F
100
AcDbEntity
  8
0
  6
Continuous
 62
     7
100
AcDbLine
 10
63.80040000000001
 20
9.4726427455385
 30
0.0
 11
63.80040000000001
 21
17.4519
 31
0.0
  0
LINE
  5
F4D
330
1F
100
AcDbEntity
  8
0
  6
Continuous
 62
     7
100
AcDbLine
 10
66.80039999999999
 20
9.393552319468991
 30
0.0
 11
66.80039999999999
 21
17.4519
 31
0.0
  0
ARC
  5
F4E
330
1F
100
AcDbEntity
  8
0
  6
Continuous
 62
    30
100
AcDbCircle
 10
63.0004
 20
10.85828339159361
 30
0.0
 40
1.600000000000003
100
AcDbArc
 50
239.9999999999999
 51
299.9999999999999
  0
ARC
  5
F4F
330
1F
100
AcDbEntity
  8
0
  6
Continuous
 62
    30
100
AcDbCircle
 10
64.60040000000001
 20
8.087002099483408
 30
0.0
 40
1.599999999999993
100
AcDbArc
 50
60.00000000000006
 51
120.0000000000001
  0
ARC
  5
F50
330
1F
100
AcDbEntity
  8
0
  6
Continuous
 62
    30
100
AcDbCircle
 10
64.60040000000001
 20
10.85828339159359
 30
0.0
 40
1.599999999999999
100
AcDbArc
 50
239.9999999999998
 51
299.9999999999999
  0
ARC
  5
F51
330
1F
100
AcDbEntity
  8
0
  6
Continuous
 62
    30
100
AcDbCircle
 10
66.2004
 20
10.85828339159361
 30
0.0
 40
1.600000000000003
100
AcDbArc
 50
239.9999999999999
 51
292.0243128370421
  0
ARC
  5
F53
330
1F
100
AcDbEntity
  8
0
  6
Continuous
 62
     7
100
AcDbCircle
 10
90.98061833030399
 20
24.26828753477558
 30
0.0
 40
1.999992252362139
100
AcDbArc
 50
189.9154326880863
 51
281.6505225303486
  0
LINE
  5
F54
330
1F
100
AcDbEntity
  8
0
  6
Continuous
 62
     7
100
AcDbLine
 10
92.0067
 20
22.4377
 30
0.0
 11
91.3845
 21
22.3093
 31
0.0
  0
ARC
  5
F55
330
1F
100
AcDbEntity
  8
0
  6
Continuous
 62
     7
100
AcDbCircle
 10
156.0931401731915
 20
35.65224443332054
 30
0.0
 40
61.25000118253518
100
AcDbArc
 50
194.523160373296
 51
210.4772244229942
  0
ARC
  5
F56
330
1F
100
AcDbEntity
  8
0
  6
Continuous
 62
     7
100
AcDbCircle
 10
156.0932539759836
 20
35.65196968968288
 30
0.0
 40
64.24999600591511
100
AcDbArc
 50
194.8975903814512
 51
210.1021716594474
  0
LINE
  5
F57
330
1F
100
AcDbEntity
  8
0
  6
Continuous
 62
     7
100
AcDbLine
 10
103.306
 20
4.5867
 30
0.0
 11
100.5085
 21
3.427700000000001
 31
0.0
  0
LINE
  5
F58
330
1F
100
AcDbEntity
  8
0
  6
Continuous
 62
     7
100
AcDbLine
 10
96.80039999999999
 20
20.2925
 30
0.0
 11
94.00299999999999
 21
19.1338
 31
0.0
  0
POINT
  5
F59
330
1F
100
AcDbEntity
  8
0
 62
     2
100
AcDbPoint
 10
90.4931
 20
37.9971
 30
0.0
  0
ARC
  5
F5A
330
1F
100
AcDbEntity
  8
0
  6
Continuous
 62
     7
100
AcDbCircle
 10
105.5758010306571
 20
28.65210118333416
 30
0.0
 40
2.999998816666021
100
AcDbArc
 50
90.00001968410831
 51
187.8897366870043
  0
ARC
  5
F5B
330
1F
100
AcDbEntity
  8
0
  6
Continuous
 62
     7
100
AcDbCircle
 10
105.5757070079758
 20
42.65209195412871
 30
0.0
 40
2.999991954136903
100
AcDbArc
 50
172.1120409445183
 51
269.999866157162
  0
ARC
  5
F5C
330
1F
100
AcDbEntity
  8
0
  6
Continuous
 62
     7
100
AcDbCircle
 10
156.0932539759836
 20
35.65223031031711
 30
0.0
 40
64.24999600591511
100
AcDbArc
 50
149.8978283405525
 51
165.1024096185485
  0
LINE
  5
F5D
330
1F
100
AcDbEntity
  8
0
  6
Continuous
 62
     7
100
AcDbLine
 10
103.306
 20
66.7175
 30
0.0
 11
100.5085999999999
 21
67.8762
 31
0.0
  0
ARC
  5
F5E
330
1F
100
AcDbEntity
  8
0
  6
Continuous
 62
     7
100
AcDbCircle
 10
90.98060840939956
 20
47.03560571832086
 30
0.0
 40
2.000000863723959
100
AcDbArc
 50
78.34923814445263
 51
170.0815059783186
  0
LINE
  5
F5F
330
1F
100
AcDbEntity
  8
0
  6
Continuous
 62
     7
100
AcDbLine
 10
91.3845
 20
48.9944
 30
0.0
 11
91.77139999999999
 21
48.9148
 31
0.0
  0
ARC
  5
F60
330
1F
100
AcDbEntity
  8
0
  6
Continuous
 62
     7
100
AcDbCircle
 10
156.0931890706337
 20
35.65207361418864
 30
0.0
 40
61.25001891472511
100
AcDbArc
 50
149.5230220097998
 51
165.4769579951054
  0
LINE
  5
F61
330
1F
100
AcDbEntity
  8
0
  6
Continuous
 62
     7
100
AcDbLine
 10
96.80039999999999
 20
51.01169999999999
 30
0.0
 11
94.0029
 21
52.1704
 31
0.0
  0
ARC
  5
F66
330
1F
100
AcDbEntity
  8
0
  6
Continuous
 62
     7
100
AcDbCircle
 10
149.0930011833341
 20
86.16939896934296
 30
0.0
 40
2.999998816666028
100
AcDbArc
 50
0.0000196841074899
 51
97.88973668700457
  0
ARC
  5
F67
330
1F
100
AcDbEntity
  8
0
  6
Continuous
 62
     7
100
AcDbCircle
 10
163.0930056808144
 20
86.16940494771482
 30
0.0
 40
3.000005680818504
100
AcDbArc
 50
82.10848571733091
 51
180.0000944942132
  0
ARC
  5
F68
330
1F
100
AcDbEntity
  8
0
  6
Continuous
 62
     7
100
AcDbCircle
 10
156.0927555666794
 20
35.65215982680842
 30
0.0
 40
61.25000118253518
100
AcDbArc
 50
59.52277557700591
 51
75.47683962670425
  0
ARC
  5
F69
330
1F
100
AcDbEntity
  8
0
  6
Continuous
 62
     7
100
AcDbCircle
 10
156.0929112239161
 20
35.65209922602557
 30
0.0
 40
54.00000077430439
100
AcDbArc
 50
82.1107298662457
 51
89.99979970235731
  0
ARC
  5
F6A
330
1F
100
AcDbEntity
  8
0
  6
Continuous
 62
     7
100
AcDbCircle
 10
156.09295
 20
35.65214999999999
 30
0.0
 40
66.60004403110406
100
AcDbArc
 50
27.52441662161758
 51
62.47558337838225
  0
ARC
  5
F6B
330
1F
100
AcDbEntity
  8
0
  6
Continuous
 62
     7
100
AcDbCircle
 10
156.0931887760838
 20
35.65209922602557
 30
0.0
 40
54.00000077430438
100
AcDbArc
 50
90.0002002976427
 51
97.88927013375431
  0
ARC
  5
F6C
330
1F
100
AcDbEntity
  8
0
  6
Continuous
 62
     7
100
AcDbCircle
 10
156.0933444333205
 20
35.65215982680846
 30
0.0
 40
61.25000118253514
100
AcDbArc
 50
104.5231603732957
 51
120.477224422994
  0
LINE
  5
F6D
330
1F
100
AcDbEntity
  8
0
  6
Continuous
 62
     7
100
AcDbLine
 10
187.1583
 20
88.4392
 30
0.0
 11
188.3171
 21
91.2368
 31
0.0
  0
LINE
  5
F6E
330
1F
100
AcDbEntity
  8
0
  6
Continuous
 62
     7
100
AcDbLine
 10
125.0277
 20
88.4392
 30
0.0
 11
123.869
 21
91.2368
 31
0.0
  0
CIRCLE
  5
F70
330
1F
100
AcDbEntity
  8
0
  6
Continuous
 62
     7
100
AcDbCircle
 10
156.0929999999999
 20
35.65209999999999
 30
0.0
 40
20.05000000000001
  0
CIRCLE
  5
F71
330
1F
100
AcDbEntity
  8
0
  6
Continuous
 62
     7
100
AcDbCircle
 10
156.0929999999999
 20
35.65209999999999
 30
0.0
 40
31.0
  0
CIRCLE
  5
F72
330
1F
100
AcDbEntity
  8
0
  6
Continuous
 62
     7
100
AcDbCircle
 10
156.0929999999999
 20
35.65209999999999
 30
0.0
 40
32.0
  0
ARC
  5
F73
330
1F
100
AcDbEntity
  8
0
  6
Continuous
 62
     7
100
AcDbCircle
 10
156.0928393775059
 20
35.65216062302559
 30
0.0
 40
49.99999981527651
100
AcDbArc
 50
16.05695647323492
 51
73.94254121787837
  0
ARC
  5
F74
330
1F
100
AcDbEntity
  8
0
  6
Continuous
 62
     7
100
AcDbCircle
 10
156.0928472780974
 20
35.65216022089824
 30
0.0
 40
35.99996555614453
100
AcDbArc
 50
12.24649991095769
 51
70.1561839573106
  0
ARC
  5
F75
330
1F
100
AcDbEntity
  8
0
  6
Continuous
 62
     7
100
AcDbCircle
 10
156.0929872432699
 20
35.6521163977277
 30
0.0
 40
33.59998633146402
100
AcDbArc
 50
2.735009424682055
 51
73.02776605099264
  0
ARC
  5
F76
330
1F
100
AcDbEntity
  8
0
  6
Continuous
 62
     7
100
AcDbCircle
 10
156.092866121311
 20
35.65213928379607
 30
0.0
 40
40.99998577813543
100
AcDbArc
 50
9.153900728883346
 51
72.3956417778992
  0
ARC
  5
F77
330
1F
100
AcDbEntity
  8
0
  6
Continuous
 62
     7
100
AcDbCircle
 10
156.0929999999999
 20
35.65209999999999
 30
0.0
 40
7.749999644516162
100
AcDbArc
 50
359.9985213991678
 51
90.0
  0
ARC
  5
F78
330
1F
100
AcDbEntity
  8
0
  6
Continuous
 62
     7
100
AcDbCircle
 10
156.0929999999999
 20
35.65209999999999
 30
0.0
 40
7.500030347272473
100
AcDbArc
 50
359.9984721187258
 51
90.0
  0
ARC
  5
F79
330
1F
100
AcDbEntity
  8
0
  6
Continuous
 62
     7
100
AcDbCircle
 10
156.0931531454714
 20
35.65204505034087
 30
0.0
 40
35.99999039999574
100
AcDbArc
 50
111.3394866656402
 51
167.7533211035089
  0
ARC
  5
F7A
330
1F
100
AcDbEntity
  8
0
  6
Continuous
 62
     7
100
AcDbCircle
 10
156.0929971888008
 20
35.65209638644969
 30
0.0
 40
33.59997173614852
100
AcDbArc
 50
106.9720355008514
 51
177.2649552235622
  0
ARC
  5
F7B
330
1F
100
AcDbEntity
  8
0
  6
Continuous
 62
     7
100
AcDbCircle
 10
156.0932110600175
 20
35.65211539501714
 30
0.0
 40
40.99996705047018
100
AcDbArc
 50
117.7658409312305
 51
170.8460612396889
  0
ARC
  5
F7C
330
1F
100
AcDbEntity
  8
0
  6
Continuous
 62
     7
100
AcDbCircle
 10
156.093194730639
 20
35.65211984795153
 30
0.0
 40
40.99998835395659
100
AcDbArc
 50
189.1542669461959
 51
200.5822597548746
  0
LINE
  5
F7D
330
1F
100
AcDbEntity
  8
0
  6
Continuous
 62
     7
100
AcDbLine
 10
117.5929999999999
 20
20.65209999999998
 30
0.0
 11
120.2714999999999
 21
34.0442
 31
0.0
  0
LINE
  5
F7E
330
1F
100
AcDbEntity
  8
0
  6
Continuous
 62
     7
100
AcDbLine
 10
122.9882
 20
13.28759999999999
 30
0.0
 11
124.1295
 21
37.179
 31
0.0
  0
LINE
  5
F7F
330
1F
100
AcDbEntity
  8
0
  6
Continuous
 62
     7
100
AcDbLine
 10
123.5929999999999
 20
18.6514
 30
0.0
 11
124.0931
 21
35.65209999999999
 31
0.0
  0
LINE
  5
F80
330
1F
100
AcDbEntity
  8
0
  6
Continuous
 62
     7
100
AcDbLine
 10
121.3899999999999
 20
13.364
 30
0.0
 11
122.5313
 21
37.2554
 31
0.0
  0
ARC
  5
F81
330
1F
100
AcDbEntity
  8
0
  6
Continuous
 62
     7
100
AcDbCircle
 10
119.5929918324519
 20
20.65210541729622
 30
0.0
 40
1.999991832459319
100
AcDbArc
 50
180.0001551947391
 51
292.8895338713031
  0
ARC
  5
F82
330
1F
100
AcDbEntity
  8
0
  6
Continuous
 62
     7
100
AcDbCircle
 10
156.0933850497226
 20
35.6517552463266
 30
0.0
 40
40.99999533977901
100
AcDbArc
 50
204.1615696714166
 51
212.2886119196087
  0
ARC
  5
F83
330
1F
100
AcDbEntity
  8
0
  6
Continuous
 62
     7
100
AcDbCircle
 10
156.0931401459679
 20
35.65218753409724
 30
0.0
 40
40.99999466980153
100
AcDbArc
 50
212.9883201675875
 51
215.7387297830104
  0
ARC
  5
F84
330
1F
100
AcDbEntity
  8
0
  6
Continuous
 62
     7
100
AcDbCircle
 10
122.0929916607662
 20
18.65193857401489
 30
0.0
 40
1.49998820443446
100
AcDbArc
 50
347.199277653107
 51
37.19855586640621
  0
ARC
  5
F85
330
1F
100
AcDbEntity
  8
0
  6
Continuous
 62
     7
100
AcDbCircle
 10
122.0929579711948
 20
18.65186305814673
 30
0.0
 40
1.499947616374939
100
AcDbArc
 50
104.7171535415106
 51
157.9115327286763
  0
LINE
  5
F86
330
1F
100
AcDbEntity
  8
0
  6
Continuous
 62
     7
100
AcDbLine
 10
120.3708
 20
18.8093
 30
0.0
 11
120.7031
 21
19.2161
 31
0.0
  0
LINE
  5
F87
330
1F
100
AcDbEntity
  8
0
  6
Continuous
 62
     7
100
AcDbLine
 10
121.3899999999999
 20
13.364
 30
0.0
 11
122.9882
 21
13.28759999999999
 31
0.0
  0
ARC
  5
F88
330
1F
100
AcDbEntity
  8
0
  6
Continuous
 62
     7
100
AcDbCircle
 10
112.6534072918522
 20
28.65209378919726
 30
0.0
 40
3.000006210811613
100
AcDbArc
 50
9.154761907390655
 51
90.00013926383038
  0
ARC
  5
F89
330
1F
100
AcDbEntity
  8
0
  6
Continuous
 62
     7
100
AcDbCircle
 10
114.0574264612606
 20
22.65208048619366
 30
0.0
 40
3.000019513923038
100
AcDbArc
 50
17.18579768848834
 51
90.00050536956267
  0
LINE
  5
F8A
330
1F
100
AcDbEntity
  8
0
  6
Continuous
 62
     7
100
AcDbLine
 10
114.0573999999999
 20
25.6521
 30
0.0
 11
110.9267
 21
25.6521
 31
0.0
  0
LINE
  5
F8B
330
1F
100
AcDbEntity
  8
0
  6
Continuous
 62
     7
100
AcDbLine
 10
122.732
 20
39.65209999999999
 30
0.0
 11
112.6534
 21
39.65209999999999
 31
0.0
  0
ARC
  5
F8C
330
1F
100
AcDbEntity
  8
0
  6
Continuous
 62
     7
100
AcDbCircle
 10
112.6534072918522
 20
42.65210621080274
 30
0.0
 40
3.000006210811606
100
AcDbArc
 50
269.9998607361695
 51
350.8452380926093
  0
ARC
  5
F8D
330
1F
100
AcDbEntity
  8
0
  6
Continuous
 62
     7
100
AcDbCircle
 10
122.2325807457805
 20
33.65208421530994
 30
0.0
 40
2.000015784782735
100
AcDbArc
 50
89.99944841159456
 51
168.690639591229
  0
ARC
  5
F8E
330
1F
100
AcDbEntity
  8
0
  6
Continuous
 62
     7
100
AcDbCircle
 10
123.8439852463516
 20
42.65212744967064
 30
0.0
 40
3.000034581305497
100
AcDbArc
 50
167.7552337269993
 51
248.7590447764854
  0
LINE
  5
F8F
330
1F
100
AcDbEntity
  8
0
  6
Continuous
 62
     7
100
AcDbLine
 10
122.493
 20
35.65189999999999
 30
0.0
 11
122.2326
 21
35.65209999999999
 31
0.0
  0
CIRCLE
  5
F90
330
1F
100
AcDbEntity
  8
0
  6
Continuous
 62
     7
100
AcDbCircle
 10
156.0929999999999
 20
35.65209999999999
 30
0.0
 40
6.999954777711066
  0
ARC
  5
F91
330
1F
100
AcDbEntity
  8
0
  6
Continuous
 62
     7
100
AcDbCircle
 10
156.0929999999999
 20
35.65209999999999
 30
0.0
 40
7.500030347271633
100
AcDbArc
 50
90.0
 51
359.9984721187258
  0
ARC
  5
F92
330
1F
100
AcDbEntity
  8
0
  6
Continuous
 62
     7
100
AcDbCircle
 10
156.0929999999999
 20
35.65209999999999
 30
0.0
 40
7.749999644515846
100
AcDbArc
 50
90.0
 51
359.9985213991678
  0
LINE
  5
F93
330
1F
100
AcDbEntity
  8
0
  6
Continuous
 62
     7
100
AcDbLine
 10
152.4875365221651
 20
41.65210000000003
 30
0.0
 11
159.6984634778346
 21
41.65210000000003
 31
0.0
  0
LINE
  5
F94
330
1F
100
AcDbEntity
  8
0
  6
Continuous
 62
    30
100
AcDbLine
 10
142.9929999999998
 20
75.0964
 30
0.0
 11
136.9929999999999
 21
75.09669999999998
 31
0.0
  0
LINE
  5
F95
330
1F
100
AcDbEntity
  8
0
  6
DASH_CENTER
 62
    30
100
AcDbLine
 10
171.3384
 20
72.9958
 30
0.0
 11
135.4439
 21
72.99630000000002
 31
0.0
  0
LINE
  5
F96
330
1F
100
AcDbEntity
  8
0
  6
Continuous
 62
     7
100
AcDbLine
 10
142.9929999999998
 20
75.49630000000002
 30
0.0
 11
137.3931
 21
75.49679999999998
 31
0.0
  0
LINE
  5
F97
330
1F
100
AcDbEntity
  8
0
  6
Continuous
 62
    30
100
AcDbLine
 10
142.9929999999998
 20
70.8965
 30
0.0
 11
136.9929999999999
 21
70.89669999999998
 31
0.0
  0
LINE
  5
F98
330
1F
100
AcDbEntity
  8
0
  6
Continuous
 62
     7
100
AcDbLine
 10
137.3931
 20
70.49679999999998
 30
0.0
 11
142.9929999999998
 21
70.49630000000002
 31
0.0
  0
ARC
  5
F99
330
1F
100
AcDbEntity
  8
0
  6
Continuous
 62
     7
100
AcDbCircle
 10
114.0572616880118
 20
48.65187174591129
 30
0.0
 40
2.999971746155931
100
AcDbArc
 50
270.000731711967
 51
342.814875097197
  0
LINE
  5
F9A
330
1F
100
AcDbEntity
  8
0
  6
Continuous
 62
     7
100
AcDbLine
 10
114.0573
 20
45.65209999999999
 30
0.0
 11
110.9265999999999
 21
45.65209999999999
 31
0.0
  0
ARC
  5
F9B
330
1F
100
AcDbEntity
  8
0
  6
Continuous
 62
     7
100
AcDbCircle
 10
125.7614061949174
 20
48.65208011490854
 30
0.0
 40
2.999997860760267
100
AcDbArc
 50
156.800103914021
 51
237.8072558257606
  0
CIRCLE
  5
F9C
330
1F
100
AcDbEntity
  8
0
  6
Continuous
 62
     7
100
AcDbCircle
 10
112.9596999999999
 20
78.7854
 30
0.0
 40
1.650034196615331
  0
CIRCLE
  5
F9D
330
1F
100
AcDbEntity
  8
0
  6
Continuous
 62
    30
100
AcDbCircle
 10
112.9596999999999
 20
78.7854
 30
0.0
 40
2.000062724016423
  0
LINE
  5
F9E
330
1F
100
AcDbEntity
  8
0
  6
Continuous
 62
     7
100
AcDbLine
 10
116.8716
 20
79.83369999999998
 30
0.0
 11
115.8174
 21
75.9277
 31
0.0
  0
LINE
  5
F9F
330
1F
100
AcDbEntity
  8
0
  6
Continuous
 62
     7
100
AcDbLine
 10
115.8174
 20
75.9277
 30
0.0
 11
111.9136
 21
74.88160000000002
 31
0.0
  0
LINE
  5
FA0
330
1F
100
AcDbEntity
  8
0
  6
Continuous
 62
     7
100
AcDbLine
 10
110.1018999999999
 20
81.6431
 30
0.0
 11
114.0057
 21
82.68919999999999
 31
0.0
  0
LINE
  5
FA1
330
1F
100
AcDbEntity
  8
0
  6
Continuous
 62
     7
100
AcDbLine
 10
114.0057
 20
82.68919999999999
 30
0.0
 11
116.8716
 21
79.83369999999998
 31
0.0
  0
LINE
  5
FA2
330
1F
100
AcDbEntity
  8
0
  6
Continuous
 62
    30
100
AcDbLine
 10
137.3931
 20
75.4966
 30
0.0
 11
137.3931
 21
70.4966
 31
0.0
  0
LINE
  5
FA3
330
1F
100
AcDbEntity
  8
0
  6
Continuous
 62
    40
100
AcDbLine
 10
136.9931
 20
75.09669999999998
 30
0.0
 11
137.3931
 21
75.4966
 31
0.0
  0
LINE
  5
FA4
330
1F
100
AcDbEntity
  8
0
  6
Continuous
 62
     7
100
AcDbLine
 10
136.9929999999999
 20
70.89669999999998
 30
0.0
 11
136.9929999999999
 21
75.09669999999998
 31
0.0
  0
LINE
  5
FA5
330
1F
100
AcDbEntity
  8
0
  6
Continuous
 62
    40
100
AcDbLine
 10
136.9931
 20
70.89669999999998
 30
0.0
 11
137.3931
 21
70.4966
 31
0.0
  0
ARC
  5
FA6
330
1F
100
AcDbEntity
  8
0
  6
Continuous
 62
     7
100
AcDbCircle
 10
166.1930099470079
 20
68.74508656443471
 30
0.0
 40
2.600009947042633
100
AcDbArc
 50
179.9997039237535
 51
253.0290187801551
  0
ARC
  5
FA7
330
1F
100
AcDbEntity
  8
0
  6
Continuous
 62
     7
100
AcDbCircle
 10
145.9929273036945
 20
68.74513688453686
 30
0.0
 40
2.599972696567029
100
AcDbArc
 50
286.9795898295748
 51
359.9991871728903
  0
LINE
  5
FA8
330
1F
100
AcDbEntity
  8
0
  6
Continuous
 62
     7
100
AcDbLine
 10
163.5929999999999
 20
75.4954
 30
0.0
 11
148.5929999999999
 21
75.4961
 31
0.0
  0
LINE
  5
FA9
330
1F
100
AcDbEntity
  8
0
  6
Continuous
 62
     7
100
AcDbLine
 10
148.5929999999999
 20
70.4961
 30
0.0
 11
163.5929999999999
 21
70.4954
 31
0.0
  0
LINE
  5
FAA
330
1F
100
AcDbEntity
  8
0
  6
Continuous
 62
    30
100
AcDbLine
 10
163.5929999999999
 20
70.8955
 30
0.0
 11
148.5929999999999
 21
70.89619999999998
 31
0.0
  0
LINE
  5
FAB
330
1F
100
AcDbEntity
  8
0
  6
Continuous
 62
    30
100
AcDbLine
 10
163.5929999999999
 20
75.0955
 30
0.0
 11
148.5929999999999
 21
75.09619999999998
 31
0.0
  0
ARC
  5
FAC
330
1F
100
AcDbEntity
  8
0
  6
Continuous
 62
     7
100
AcDbCircle
 10
149.0929937897875
 20
79.09159270908698
 30
0.0
 40
3.000006211644946
100
AcDbArc
 50
279.1547618934079
 51
359.9982293905298
  0
LINE
  5
FAD
330
1F
100
AcDbEntity
  8
0
  6
Continuous
 62
     7
100
AcDbLine
 10
146.0929999999999
 20
77.68770000000002
 30
0.0
 11
146.0929999999999
 21
80.81839999999997
 31
0.0
  0
LINE
  5
FAE
330
1F
100
AcDbEntity
  8
0
  6
Continuous
 62
     7
100
AcDbLine
 10
152.0929999999999
 20
75.4958
 30
0.0
 11
152.0929999999999
 21
86.16939999999997
 31
0.0
  0
ARC
  5
FAF
330
1F
100
AcDbEntity
  8
0
  6
Continuous
 62
     7
100
AcDbCircle
 10
156.0947352371692
 20
35.65236655386495
 30
0.0
 40
40.99998742740047
100
AcDbArc
 50
99.15655372418672
 51
100.5428979307068
  0
ARC
  5
FB0
330
1F
100
AcDbEntity
  8
0
  6
Continuous
 62
     7
100
AcDbCircle
 10
145.9928941575963
 20
68.74509210668913
 30
0.0
 40
1.000005842434712
100
AcDbArc
 50
286.9839696349755
 51
0.0004522507568248
  0
ARC
  5
FB1
330
1F
100
AcDbEntity
  8
0
  6
Continuous
 62
     7
100
AcDbCircle
 10
143.0930006238889
 20
77.68774082015855
 30
0.0
 40
2.999999376388818
100
AcDbArc
 50
358.2495165881126
 51
359.9992203922364
  0
LINE
  5
FB2
330
1F
100
AcDbEntity
  8
0
  6
Continuous
 62
     7
100
AcDbLine
 10
146.9929999999999
 20
77.9961
 30
0.0
 11
146.9929999999999
 21
68.74509999999999
 31
0.0
  0
LINE
  5
FB3
330
1F
100
AcDbEntity
  8
0
  6
Continuous
 62
     7
100
AcDbLine
 10
148.5929999999999
 20
77.9961
 30
0.0
 11
148.5929999999999
 21
68.74509999999999
 31
0.0
  0
LINE
  5
FB4
330
1F
100
AcDbEntity
  8
0
  6
Continuous
 62
     7
100
AcDbLine
 10
146.9929999999999
 20
77.9961
 30
0.0
 11
148.5929999999999
 21
77.9961
 31
0.0
  0
LINE
  5
FB5
330
1F
100
AcDbEntity
  8
0
  6
Continuous
 62
     7
100
AcDbLine
 10
146.5889999999999
 20
77.5959
 30
0.0
 11
143.3972999999999
 21
77.5959
 31
0.0
  0
LINE
  5
FB6
330
1F
100
AcDbEntity
  8
0
  6
Continuous
 62
     7
100
AcDbLine
 10
146.5889999999999
 20
68.396
 30
0.0
 11
143.3972999999999
 21
68.396
 31
0.0
  0
LINE
  5
FB7
330
1F
100
AcDbEntity
  8
0
  6
Continuous
 62
     7
100
AcDbLine
 10
142.9929999999998
 20
76.896
 30
0.0
 11
142.9929999999998
 21
69.0959
 31
0.0
  0
LINE
  5
FB8
330
1F
100
AcDbEntity
  8
0
  6
Continuous
 62
     7
100
AcDbLine
 10
146.9929999999999
 20
76.896
 30
0.0
 11
146.9929999999999
 21
69.0959
 31
0.0
  0
LINE
  5
FB9
330
1F
100
AcDbEntity
  8
0
  6
Continuous
 62
     7
100
AcDbLine
 10
146.9929999999999
 20
76.896
 30
0.0
 11
146.5889999999999
 21
77.5959
 31
0.0
  0
LINE
  5
FBA
330
1F
100
AcDbEntity
  8
0
  6
Continuous
 62
     7
100
AcDbLine
 10
146.9929999999999
 20
69.0959
 30
0.0
 11
146.5889999999999
 21
68.396
 31
0.0
  0
LINE
  5
FBB
330
1F
100
AcDbEntity
  8
0
  6
Continuous
 62
     7
100
AcDbLine
 10
142.9929999999998
 20
76.896
 30
0.0
 11
143.3972999999999
 21
77.5959
 31
0.0
  0
LINE
  5
FBC
330
1F
100
AcDbEntity
  8
0
  6
Continuous
 62
     7
100
AcDbLine
 10
142.9929999999998
 20
69.0959
 30
0.0
 11
143.3972999999999
 21
68.396
 31
0.0
  0
ARC
  5
FBD
330
1F
100
AcDbEntity
  8
0
  6
Continuous
 62
     7
100
AcDbCircle
 10
149.0930039091869
 20
67.90109321312602
 30
0.0
 40
2.999996090820562
100
AcDbArc
 50
0.0001296199138993
 51
59.88309228490289
  0
LINE
  5
FBE
330
1F
100
AcDbEntity
  8
0
  6
Continuous
 62
     7
100
AcDbLine
 10
152.0929999999999
 20
70.4958
 30
0.0
 11
152.0929999999999
 21
67.4011
 31
0.0
  0
ARC
  5
FBF
330
1F
100
AcDbEntity
  8
0
  6
Continuous
 62
     7
100
AcDbCircle
 10
143.0930266295369
 20
80.81837995449053
 30
0.0
 40
2.999973370529981
100
AcDbArc
 50
0.0003828444287561
 51
106.0580620603985
  0
ARC
  5
FC0
330
1F
100
AcDbEntity
  8
0
  6
Continuous
 62
     7
100
AcDbCircle
 10
163.0930062108026
 20
79.09159270814779
 30
0.0
 40
3.000006210811613
100
AcDbArc
 50
179.9998607361692
 51
260.8452380926095
  0
LINE
  5
FC1
330
1F
100
AcDbEntity
  8
0
  6
Continuous
 62
     7
100
AcDbLine
 10
166.093
 20
77.68770000000002
 30
0.0
 11
166.093
 21
80.81839999999997
 31
0.0
  0
LINE
  5
FC2
330
1F
100
AcDbEntity
  8
0
  6
Continuous
 62
     7
100
AcDbLine
 10
160.0929999999999
 20
75.49559999999998
 30
0.0
 11
160.0929999999999
 21
86.16939999999997
 31
0.0
  0
ARC
  5
FC3
330
1F
100
AcDbEntity
  8
0
  6
Continuous
 62
     7
100
AcDbCircle
 10
166.1929766409589
 20
68.74513155004499
 30
0.0
 40
0.9999766414566627
100
AcDbArc
 50
180.0018077266478
 51
253.0292503423163
  0
LINE
  5
FC4
330
1F
100
AcDbEntity
  8
0
  6
Continuous
 62
     7
100
AcDbLine
 10
165.1929999999999
 20
77.4961
 30
0.0
 11
167.0322999999999
 21
77.3352
 31
0.0
  0
LINE
  5
FC5
330
1F
100
AcDbEntity
  8
0
  6
Continuous
 62
     7
100
AcDbLine
 10
165.1929999999999
 20
68.4961
 30
0.0
 11
167.0322999999999
 21
68.6572
 31
0.0
  0
ARC
  5
FC6
330
1F
100
AcDbEntity
  8
0
  6
Continuous
 62
     7
100
AcDbCircle
 10
163.0929875872935
 20
67.90107844043301
 30
0.0
 40
2.999987587371165
100
AcDbArc
 50
120.1388959212779
 51
179.9995882408975
  0
ARC
  5
FC7
330
1F
100
AcDbEntity
  8
0
  6
Continuous
 62
     7
100
AcDbCircle
 10
156.0938785073253
 20
35.6519301731044
 30
0.0
 40
41.00001830808962
100
AcDbArc
 50
79.46096753998045
 51
80.84701140600676
  0
LINE
  5
FC8
330
1F
100
AcDbEntity
  8
0
  6
Continuous
 62
     7
100
AcDbLine
 10
163.5929999999999
 20
77.9961
 30
0.0
 11
163.5929999999999
 21
68.74509999999999
 31
0.0
  0
LINE
  5
FC9
330
1F
100
AcDbEntity
  8
0
  6
Continuous
 62
     7
100
AcDbLine
 10
165.1929999999999
 20
68.74509999999999
 30
0.0
 11
165.1929999999999
 21
77.9961
 31
0.0
  0
LINE
  5
FCA
330
1F
100
AcDbEntity
  8
0
  6
Continuous
 62
     7
100
AcDbLine
 10
163.5929999999999
 20
77.9961
 30
0.0
 11
165.1929999999999
 21
77.9961
 31
0.0
  0
LINE
  5
FCB
330
1F
100
AcDbEntity
  8
0
  6
Continuous
 62
     7
100
AcDbLine
 10
165.1929999999999
 20
77.4961
 30
0.0
 11
165.1929999999999
 21
68.4961
 31
0.0
  0
LINE
  5
FCC
330
1F
100
AcDbEntity
  8
0
  6
Continuous
 62
     7
100
AcDbLine
 10
160.0929999999999
 20
67.40089999999999
 30
0.0
 11
160.0929999999999
 21
70.49559999999998
 31
0.0
  0
ARC
  5
FCD
330
1F
100
AcDbEntity
  8
0
  6
Continuous
 62
     7
100
AcDbCircle
 10
169.0930007707367
 20
77.68768299366282
 30
0.0
 40
3.000000770784935
100
AcDbArc
 50
179.9996752029681
 51
185.1901271705339
  0
ARC
  5
FCE
330
1F
100
AcDbEntity
  8
0
  6
Continuous
 62
     7
100
AcDbCircle
 10
169.0930551465785
 20
65.98341717762931
 30
0.0
 40
2.999986214412293
100
AcDbArc
 50
66.7994897638685
 51
147.803129515096
  0
ARC
  5
FCF
330
1F
100
AcDbEntity
  8
0
  6
Continuous
 62
     7
100
AcDbCircle
 10
166.8929035218918
 20
70.25100384357661
 30
0.0
 40
1.599996478112634
100
AcDbArc
 50
275.0017109466432
 51
359.9998623617482
  0
ARC
  5
FD0
330
1F
100
AcDbEntity
  8
0
  6
Continuous
 62
     7
100
AcDbCircle
 10
166.8929035218918
 20
75.7414961564234
 30
0.0
 40
1.599996478112628
100
AcDbArc
 50
0.0001376382516352
 51
84.99828905335666
  0
LINE
  5
FD1
330
1F
100
AcDbEntity
  8
0
  6
Continuous
 62
     7
100
AcDbLine
 10
168.493
 20
70.25100000000001
 30
0.0
 11
168.493
 21
75.7415
 31
0.0
  0
ARC
  5
FD2
330
1F
100
AcDbEntity
  8
0
  6
Continuous
 62
     7
100
AcDbCircle
 10
169.093073370463
 20
80.81837995449053
 30
0.0
 40
2.999973370529996
100
AcDbArc
 50
73.94193793959975
 51
179.9996171555711
  0
LINE
  5
FD3
330
1F
100
AcDbEntity
  8
0
  6
Continuous
 62
     7
100
AcDbLine
 10
199.5326999999999
 20
39.65209999999999
 30
0.0
 11
206.6104
 21
39.65209999999999
 31
0.0
  0
LINE
  5
FD4
330
1F
100
AcDbEntity
  8
0
  6
Continuous
 62
     7
100
AcDbLine
 10
192.393
 20
31.6521
 30
0.0
 11
206.6103
 21
31.6521
 31
0.0
  0
ARC
  5
FD5
330
1F
100
AcDbEntity
  8
0
  6
Continuous
 62
     7
100
AcDbCircle
 10
156.0929806054788
 20
35.65240360371078
 30
0.0
 40
40.999959122008
100
AcDbArc
 50
339.4171520547933
 51
350.8453248179106
  0
ARC
  5
FD6
330
1F
100
AcDbEntity
  8
0
  6
Continuous
 62
     7
100
AcDbCircle
 10
201.2593161243849
 20
22.65207858023959
 30
0.0
 40
3.000021419803723
100
AcDbArc
 50
343.9431570062187
 51
90.00030795086894
  0
LINE
  5
FD7
330
1F
100
AcDbEntity
  8
0
  6
Continuous
 62
     7
100
AcDbLine
 10
194.5929999999999
 20
20.65209999999998
 30
0.0
 11
191.9145999999999
 21
34.0442
 31
0.0
  0
LINE
  5
FD8
330
1F
100
AcDbEntity
  8
0
  6
Continuous
 62
     7
100
AcDbLine
 10
189.1977999999999
 20
13.28759999999999
 30
0.0
 11
188.0564999999999
 21
37.179
 31
0.0
  0
LINE
  5
FD9
330
1F
100
AcDbEntity
  8
0
  6
Continuous
 62
     7
100
AcDbLine
 10
188.5929999999999
 20
18.6514
 30
0.0
 11
188.093
 21
35.65209999999999
 31
0.0
  0
LINE
  5
FDA
330
1F
100
AcDbEntity
  8
0
  6
Continuous
 62
     7
100
AcDbLine
 10
190.7959999999999
 20
13.364
 30
0.0
 11
189.6546999999999
 21
37.2554
 31
0.0
  0
ARC
  5
FDB
330
1F
100
AcDbEntity
  8
0
  6
Continuous
 62
     7
100
AcDbCircle
 10
156.0929598540323
 20
35.65218753409743
 30
0.0
 40
40.99999466980153
100
AcDbArc
 50
324.2612702169893
 51
327.0116798324123
  0
LINE
  5
FDC
330
1F
100
AcDbEntity
  8
0
  6
Continuous
 62
     7
100
AcDbLine
 10
190.7959999999999
 20
13.364
 30
0.0
 11
189.1977999999999
 21
13.28759999999999
 31
0.0
  0
ARC
  5
FDD
330
1F
100
AcDbEntity
  8
0
  6
Continuous
 62
     7
100
AcDbCircle
 10
190.0929884226393
 20
18.65184646766676
 30
0.0
 40
1.499948378111791
100
AcDbArc
 50
142.7958722739181
 51
192.797460024845
  0
ARC
  5
FDE
330
1F
100
AcDbEntity
  8
0
  6
Continuous
 62
     7
100
AcDbCircle
 10
192.593027614299
 20
20.65211831641798
 30
0.0
 40
1.999972385784834
100
AcDbArc
 50
247.1127358575285
 51
359.9994752660311
  0
ARC
  5
FDF
330
1F
100
AcDbEntity
  8
0
  6
Continuous
 62
     7
100
AcDbCircle
 10
156.0928187882228
 20
35.65194870235864
 30
0.0
 40
40.99997978286714
100
AcDbArc
 50
327.7108892360014
 51
335.8381242707035
  0
ARC
  5
FE0
330
1F
100
AcDbEntity
  8
0
  6
Continuous
 62
     7
100
AcDbCircle
 10
190.0931197572235
 20
18.6517947480126
 30
0.0
 40
1.499993941514515
100
AcDbArc
 50
22.09056512698829
 51
75.2863809464294
  0
LINE
  5
FE1
330
1F
100
AcDbEntity
  8
0
  6
Continuous
 62
     7
100
AcDbLine
 10
191.8152
 20
18.8093
 30
0.0
 11
191.483
 21
19.2161
 31
0.0
  0
ARC
  5
FE2
330
1F
100
AcDbEntity
  8
0
  6
Continuous
 62
     7
100
AcDbCircle
 10
188.3420791366764
 20
42.65206118096403
 30
0.0
 40
2.99998571880898
100
AcDbArc
 50
291.242047780639
 51
12.2462639157835
  0
ARC
  5
FE3
330
1F
100
AcDbEntity
  8
0
  6
Continuous
 62
     7
100
AcDbCircle
 10
198.1286383119881
 20
22.65212825408869
 30
0.0
 40
2.999971746155936
100
AcDbArc
 50
90.00073171196708
 51
162.8148750971969
  0
ARC
  5
FE4
330
1F
100
AcDbEntity
  8
0
  6
Continuous
 62
     7
100
AcDbCircle
 10
199.5326927081478
 20
28.65209378919725
 30
0.0
 40
3.000006210811613
100
AcDbArc
 50
89.99986073616961
 51
170.8452380926089
  0
LINE
  5
FE5
330
1F
100
AcDbEntity
  8
0
  6
Continuous
 62
     7
100
AcDbLine
 10
198.1286
 20
25.6521
 30
0.0
 11
201.2592999999998
 21
25.6521
 31
0.0
  0
ARC
  5
FE6
330
1F
100
AcDbEntity
  8
0
  6
Continuous
 62
     7
100
AcDbCircle
 10
199.532692709087
 20
42.65210621021245
 30
0.0
 40
3.000006211644958
100
AcDbArc
 50
189.1547618934069
 51
269.9982293905295
  0
LINE
  5
FE7
330
1F
100
AcDbEntity
  8
0
  6
Continuous
 62
     7
100
AcDbLine
 10
189.454
 20
39.65209999999999
 30
0.0
 11
199.5326
 21
39.65209999999999
 31
0.0
  0
ARC
  5
FE8
330
1F
100
AcDbEntity
  8
0
  6
Continuous
 62
     7
100
AcDbCircle
 10
189.9534192542195
 20
33.65208421530992
 30
0.0
 40
2.000015784782758
100
AcDbArc
 50
11.30936040877136
 51
90.00055158840543
  0
LINE
  5
FE9
330
1F
100
AcDbEntity
  8
0
  6
Continuous
 62
     7
100
AcDbLine
 10
189.6929999999999
 20
35.65189999999999
 30
0.0
 11
189.9535
 21
35.65189999999999
 31
0.0
  0
LINE
  5
FEA
330
1F
100
AcDbEntity
  8
0
  6
DASH_CENTER
 62
    40
100
AcDbLine
 10
189.9533999999999
 20
35.65209999999999
 30
0.0
 11
189.6929999999999
 21
35.65189999999999
 31
0.0
  0
ARC
  5
FEB
330
1F
100
AcDbEntity
  8
0
  6
Continuous
 62
     7
100
AcDbCircle
 10
156.0928263542296
 20
35.65192220233821
 30
0.0
 40
61.24995278008767
100
AcDbArc
 50
329.5230986836683
 51
345.4771392754328
  0
ARC
  5
FEC
330
1F
100
AcDbEntity
  8
0
  6
Continuous
 62
     7
100
AcDbCircle
 10
156.0928460240161
 20
35.65196968968284
 30
0.0
 40
64.24999600591512
100
AcDbArc
 50
329.8978283405525
 51
345.1024096185485
  0
LINE
  5
FED
330
1F
100
AcDbEntity
  8
0
  6
Continuous
 62
     7
100
AcDbLine
 10
208.8799999999999
 20
4.5867
 30
0.0
 11
211.6775
 21
3.427700000000001
 31
0.0
  0
LINE
  5
FEE
330
1F
100
AcDbEntity
  8
0
  6
Continuous
 62
     7
100
AcDbLine
 10
215.3857
 20
20.2925
 30
0.0
 11
218.1830999999998
 21
19.1338
 31
0.0
  0
ARC
  5
FEF
330
1F
100
AcDbEntity
  8
0
  6
Continuous
 62
     7
100
AcDbCircle
 10
206.6102989693429
 20
28.65210118333416
 30
0.0
 40
2.999998816666029
100
AcDbArc
 50
352.1102633129955
 51
89.9999803158917
  0
ARC
  5
FF0
330
1F
100
AcDbEntity
  8
0
  6
Continuous
 62
     7
100
AcDbCircle
 10
206.6103929920242
 20
42.65209195412872
 30
0.0
 40
2.999991954136908
100
AcDbArc
 50
270.0001338428379
 51
7.887959055481571
  0
POINT
  5
FF1
330
1F
100
AcDbEntity
  8
0
 62
     2
100
AcDbPoint
 10
221.693
 20
37.9971
 30
0.0
  0
LINE
  5
FF3
330
1F
100
AcDbEntity
  8
0
  6
DASH_CENTER
 62
    30
100
AcDbLine
 10
194.9748999999999
 20
74.5339
 30
0.0
 11
206.3827999999999
 21
85.9421
 31
0.0
  0
ARC
  5
FF4
330
1F
100
AcDbEntity
  8
0
  6
Continuous
 62
     7
100
AcDbCircle
 10
186.4246148523699
 20
48.65214767057267
 30
0.0
 40
3.000043817597814
100
AcDbArc
 50
302.1917166264533
 51
23.19811620908735
  0
ARC
  5
FF5
330
1F
100
AcDbEntity
  8
0
  6
Continuous
 62
     7
100
AcDbCircle
 10
198.1287735387394
 20
48.65191951380634
 30
0.0
 40
3.000019513923048
100
AcDbArc
 50
197.1857976884878
 51
270.0005053695627
  0
ARC
  5
FF6
330
1F
100
AcDbEntity
  8
0
  6
Continuous
 62
     7
100
AcDbCircle
 10
201.25946954336
 20
48.65205954081183
 30
0.0
 40
2.999959540966425
100
AcDbArc
 50
270.0005816868185
 51
16.05642551845263
  0
LINE
  5
FF7
330
1F
100
AcDbEntity
  8
0
  6
Continuous
 62
     7
100
AcDbLine
 10
198.1288
 20
45.65209999999999
 30
0.0
 11
201.2593999999999
 21
45.65209999999999
 31
0.0
  0
CIRCLE
  5
FF8
330
1F
100
AcDbEntity
  8
0
  6
Continuous
 62
    30
100
AcDbCircle
 10
199.2264
 20
78.7854
 30
0.0
 40
2.00003684216066
  0
CIRCLE
  5
FF9
330
1F
100
AcDbEntity
  8
0
  6
Continuous
 62
     7
100
AcDbCircle
 10
199.2264
 20
78.7854
 30
0.0
 40
3.49996961415381
  0
CIRCLE
  5
FFA
330
1F
100
AcDbEntity
  8
0
  6
Continuous
 62
     7
100
AcDbCircle
 10
199.2264
 20
78.7854
 30
0.0
 40
1.650034196615331
  0
ARC
  5
FFB
330
1F
100
AcDbEntity
  8
0
  6
DASH_CENTER
 62
    30
100
AcDbCircle
 10
156.0929597047941
 20
35.65214033273274
 30
0.0
 40
61.00003174529298
100
AcDbArc
 50
39.68596542987097
 51
50.26069996992682
  0
LINE
  5
FFC
330
1F
100
AcDbEntity
  8
0
  6
Continuous
 62
     7
100
AcDbLine
 10
195.3144
 20
79.83369999999998
 30
0.0
 11
196.3687
 21
75.9277
 31
0.0
  0
LINE
  5
FFD
330
1F
100
AcDbEntity
  8
0
  6
Continuous
 62
     7
100
AcDbLine
 10
203.1384
 20
77.73730000000002
 30
0.0
 11
202.0842
 21
81.6431
 31
0.0
  0
LINE
  5
FFE
330
1F
100
AcDbEntity
  8
0
  6
Continuous
 62
     7
100
AcDbLine
 10
196.3687
 20
75.9277
 30
0.0
 11
200.2724
 21
74.88160000000002
 31
0.0
  0
LINE
  5
FFF
330
1F
100
AcDbEntity
  8
0
  6
Continuous
 62
     7
100
AcDbLine
 10
200.2724
 20
74.88160000000002
 30
0.0
 11
203.1384
 21
77.73730000000002
 31
0.0
  0
LINE
  5
1000
330
1F
100
AcDbEntity
  8
0
  6
Continuous
 62
     7
100
AcDbLine
 10
198.1803999999999
 20
82.68919999999999
 30
0.0
 11
195.3144
 21
79.83369999999998
 31
0.0
  0
LINE
  5
1002
330
1F
100
AcDbEntity
  8
0
  6
Continuous
 62
     7
100
AcDbLine
 10
202.0842
 20
81.6431
 30
0.0
 11
198.1803999999999
 21
82.68919999999999
 31
0.0
  0
ARC
  5
1003
330
1F
100
AcDbEntity
  8
0
  6
Continuous
 62
     7
100
AcDbCircle
 10
156.0929185630283
 20
35.65205518490742
 30
0.0
 40
64.24997092880784
100
AcDbArc
 50
14.89775793321297
 51
30.10226206188293
  0
LINE
  5
1004
330
1F
100
AcDbEntity
  8
0
  6
Continuous
 62
     7
100
AcDbLine
 10
208.8801
 20
66.7175
 30
0.0
 11
211.6775
 21
67.8762
 31
0.0
  0
ARC
  5
1005
330
1F
100
AcDbEntity
  8
0
  6
Continuous
 62
     7
100
AcDbCircle
 10
156.0929951823849
 20
35.65187021157789
 30
0.0
 40
61.2499632841779
100
AcDbArc
 50
14.52315540537473
 51
30.47722939091574
  0
LINE
  5
1006
330
1F
100
AcDbEntity
  8
0
  6
Continuous
 62
     7
100
AcDbLine
 10
215.3856
 20
51.01169999999999
 30
0.0
 11
218.1830999999998
 21
52.1704
 31
0.0
  0
LINE
  5
1007
330
1F
100
AcDbEntity
  8
0
  6
Continuous
 62
     7
100
AcDbLine
 10
214.413
 20
65.68789999999999
 30
0.0
 11
215.1548
 21
66.4298
 31
0.0
  0
ARC
  5
1009
330
1F
100
AcDbEntity
  8
0
  6
Continuous
 62
     7
100
AcDbCircle
 10
156.0929405402339
 20
35.65208320767692
 30
0.0
 40
64.25000886080153
100
AcDbArc
 50
59.89774245286925
 51
75.1022375520358
  0
ARC
  5
100B
330
1F
100
AcDbEntity
  8
0
  6
Continuous
 62
     7
100
AcDbCircle
 10
156.0931594597659
 20
35.65208320767693
 30
0.0
 40
64.25000886080153
100
AcDbArc
 50
104.8977624479642
 51
120.1022575471307
  0
LINE
  5
100C
330
1F
100
AcDbEntity
  8
0
  6
Continuous
 62
     7
100
AcDbLine
 10
140.7335999999999
 20
94.94480000000001
 30
0.0
 11
139.5749
 21
97.74219999999999
 31
0.0
  0
LINE
  5
100D
330
1F
100
AcDbEntity
  8
0
  6
Continuous
 62
     7
100
AcDbLine
 10
171.4524
 20
94.94480000000001
 30
0.0
 11
172.6112
 21
97.74219999999999
 31
0.0
  0
POINT
  5
100E
330
1F
100
AcDbEntity
  8
0
 62
     2
100
AcDbPoint
 10
158.4379999999999
 20
101.252
 30
0.0
  0
LINE
  5
1011
330
1F
100
AcDbEntity
  8
0
  6
Continuous
 62
     7
100
AcDbLine
 10
186.1287
 20
93.97209999999999
 30
0.0
 11
186.8705
 21
94.714
 31
0.0
  0
MTEXT
  5
1023
330
1F
100
AcDbEntity
  8
0
100
AcDbMText
 10
-70.72241736178614
 20
-99.04851117048565
 30
0.0
 40
8.0
 41
119.437933510648
 71
     1
 72
     1
  1
AES-DEF 4P 0.1kW
 73
     1
 44
1.0
  0
MTEXT
  5
1026
330
1F
100
AcDbEntity
  8
0
100
AcDbMText
 10
-70.37267228928532
 20
-118.2728641497496
 30
0.0
 40
8.0
 41
133.0
 71
     1
 72
     1
  1
AES-DEF 4P 0.15kW
 73
     1
 44
1.0
  0
MTEXT
  5
1028
330
1F
100
AcDbEntity
  8
0
100
AcDbMText
 10
-70.72241736178614
 20
-137.147683692717
 30
0.0
 40
8.0
 41
127.4
 71
     1
 72
     1
  1
AES-DEF 4P 0.2kW
 73
     1
 44
1.0
  0
VIEWPORT
  5
71
330
55
100
AcDbEntity
 67
     1
  8
0
100
AcDbViewport
 10
133.3499908447265
 20
101.5999970436096
 30
0.0
 40
381.3957395593833
 41
218.2856291881582
 68
     1
 69
     1
 12
133.3499908447265
 22
101.5999970436096
 13
0.0
 23
0.0
 14
10.0
 24
10.0
 15
10.0
 25
10.0
 16
0.0
 26
0.0
 36
1.0
 17
0.0
 27
0.0
 37
0.0
 42
50.0
 43
0.0
 44
0.0
 45
218.2856291881582
 50
0.0
 51
0.0
 72
   100
 90
    32800
  1

281
     0
 71
     1
 74
     0
110
0.0
120
0.0
130
0.0
111
1.0
121
0.0
131
0.0
112
0.0
122
1.0
132
0.0
 79
     0
146
0.0
  0
VIEWPORT
  5
73
330
55
100
AcDbEntity
 67
     1
  8
0
100
AcDbViewport
 10
133.3499939441679
 20
101.5999939441679
 30
0.0
 40
213.3599903106689
 41
162.5599903106689
 68
     2
 69
     2
 12
210.0
 22
148.5
 13
0.0
 23
0.0
 14
10.0
 24
10.0
 15
10.0
 25
10.0
 16
0.0
 26
0.0
 36
1.0
 17
0.0
 27
0.0
 37
0.0
 42
50.0
 43
0.0
 44
0.0
 45
324.0677920111345
 50
0.0
 51
0.0
 72
   100
 90
    32864
  1

281
     0
 71
     1
 74
     0
110
0.0
120
0.0
130
0.0
111
1.0
121
0.0
131
0.0
112
0.0
122
1.0
132
0.0
 79
     0
146
0.0
  0
ENDSEC
  0
SECTION
  2
OBJECTS
  0
DICTIONARY
  5
C
330
0
100
AcDbDictionary
281
     1
  3
ACAD_GROUP
350
D
  3
ACAD_LAYOUT
350
1A
  3
ACAD_MLINESTYLE
350
17
  3
ACAD_PLOTSETTINGS
350
19
  3
ACAD_PLOTSTYLENAME
350
E
  3
AcDbVariableDictionary
350
5E
  0
DICTIONARY
  5
D
102
{ACAD_REACTORS
330
C
102
}
330
C
100
AcDbDictionary
281
     1
  0
DICTIONARY
  5
1A
102
{ACAD_REACTORS
330
C
102
}
330
C
100
AcDbDictionary
281
     1
  3
Model
350
22
  3
ﾚｲｱｳﾄ1
350
51
  3
ﾚｲｱｳﾄ2
350
56
  0
DICTIONARY
  5
17
102
{ACAD_REACTORS
330
C
102
}
330
C
100
AcDbDictionary
281
     1
  3
Standard
350
18
  0
DICTIONARY
  5
19
102
{ACAD_REACTORS
330
C
102
}
330
C
100
AcDbDictionary
281
     1
  0
ACDBDICTIONARYWDFLT
  5
E
102
{ACAD_REACTORS
330
C
102
}
330
C
100
AcDbDictionary
281
     1
  3
Normal
350
F
100
AcDbDictionaryWithDefault
340
F
  0
DICTIONARY
  5
5E
102
{ACAD_REACTORS
330
C
102
}
330
C
100
AcDbDictionary
281
     1
  3
DIMASSOC
350
5F
  3
HIDETEXT
350
63
  0
LAYOUT
  5
22
102
{ACAD_REACTORS
330
1A
102
}
330
1A
100
AcDbPlotSettings
  1

  2
none_device
  4
ANSI_A_(8.50_x_11.00_Inches)
  6

 40
6.349999904632567
 41
19.04999923706053
 42
6.350006103515625
 43
19.04998779296875
 44
215.8999938964842
 45
279.3999938964843
 46
0.0
 47
0.0
 48
0.0
 49
0.0
140
0.0
141
0.0
142
1.0
143
78.436453180766
 70
 11952
 72
     0
 73
     1
 74
     0
  7

 75
     0
147
0.0127491741332998
148
0.0
149
0.0
100
AcDbLayout
  1
Model
 70
     1
 71
     0
 10
0.0
 20
0.0
 11
12.0
 21
9.0
 12
0.0
 22
0.0
 32
0.0
 14
0.0
 24
0.0
 34
0.0
 15
0.0
 25
0.0
 35
0.0
146
0.0
 13
0.0
 23
0.0
 33
0.0
 16
1.0
 26
0.0
 36
0.0
 17
0.0
 27
1.0
 37
0.0
 76
     0
330
1F
  0
LAYOUT
  5
51
102
{ACAD_REACTORS
330
1A
102
}
330
1A
100
AcDbPlotSettings
  1

  2
none_device
  4
Letter_(8.50_x_11.00_Inches)
  6

 40
6.349999904632567
 41
6.349999904632567
 42
6.350006103515625
 43
6.350006103515625
 44
215.8999938964842
 45
279.3999938964843
 46
0.0
 47
0.0
 48
0.0
 49
0.0
140
0.0
141
0.0
142
1.0
143
1.0
 70
   688
 72
     1
 73
     1
 74
     5
  7

 75
    16
147
1.0
148
0.0
149
0.0
100
AcDbLayout
  1
ﾚｲｱｳﾄ1
 70
     1
 71
     1
 10
-6.350006103515625
 20
-6.349999904632567
 11
273.0499877929687
 21
209.5499939918517
 12
0.0
 22
0.0
 32
0.0
 14
26.66076962115562
 24
20.31135699206657
 34
-0.0015258207003583
 15
240.039213369355
 25
182.8886381005154
 35
0.0000000349246037
146
0.0
 13
0.0
 23
0.0
 33
0.0
 16
1.0
 26
0.0
 36
0.0
 17
0.0
 27
1.0
 37
0.0
 76
     0
330
50
331
6B
  0
LAYOUT
  5
56
102
{ACAD_REACTORS
330
1A
102
}
330
1A
100
AcDbPlotSettings
  1

  2
none_device
  4
Letter_(8.50_x_11.00_Inches)
  6

 40
6.349999904632567
 41
6.349999904632567
 42
6.350006103515625
 43
6.350006103515625
 44
215.8999938964842
 45
279.3999938964843
 46
0.0
 47
0.0
 48
0.0
 49
0.0
140
0.0
141
0.0
142
1.0
143
1.0
 70
   688
 72
     1
 73
     1
 74
     5
  7

 75
    16
147
1.0
148
0.0
149
0.0
100
AcDbLayout
  1
ﾚｲｱｳﾄ2
 70
     1
 71
     2
 10
-6.350006103515625
 20
-6.349999904632567
 11
273.0499877929687
 21
209.5499939918517
 12
0.0
 22
0.0
 32
0.0
 14
26.66076962115562
 24
20.31135699206657
 34
-0.0015258207003583
 15
240.039213369355
 25
182.8886381005154
 35
0.0000000349246037
146
0.0
 13
0.0
 23
0.0
 33
0.0
 16
1.0
 26
0.0
 36
0.0
 17
0.0
 27
1.0
 37
0.0
 76
     0
330
55
331
71
  0
MLINESTYLE
  5
18
102
{ACAD_REACTORS
330
17
102
}
330
17
100
AcDbMlineStyle
  2
STANDARD
 70
     0
  3

 62
   256
 51
90.0
 52
90.0
 71
     2
 49
0.5
 62
   256
  6
BYLAYER
 49
-0.5
 62
   256
  6
BYLAYER
  0
ACDBPLACEHOLDER
  5
F
102
{ACAD_REACTORS
330
E
102
}
330
E
  0
DICTIONARYVAR
  5
5F
102
{ACAD_REACTORS
330
5E
102
}
330
5E
100
DictionaryVariables
280
     0
  1
2
  0
DICTIONARYVAR
  5
63
102
{ACAD_REACTORS
330
5E
102
}
330
5E
100
DictionaryVariables
280
     0
  1
1
  0
ENDSEC
  0
EOF
