  0
SECTION
  2
HEADER
  9
$ACADVER
  1
AC1015
  9
$ACADMAINTVER
 70
    14
  9
$DWGCODEPAGE
  3
ANSI_932
  9
$INSBASE
 10
0.0
 20
0.0
 30
0.0
  9
$EXTMIN
 10
-330.7747061107684
 20
-170.5304774041806
 30
-0.0015258207003583
  9
$EXTMAX
 10
302.2020647232461
 20
100.8525883610078
 30
0.0000000349246037
  9
$LIMMIN
 10
0.0
 20
0.0
  9
$LIMMAX
 10
12.0
 20
9.0
  9
$ORTHOMODE
 70
     0
  9
$REGENMODE
 70
     1
  9
$FILLMODE
 70
     1
  9
$QTEXTMODE
 70
     0
  9
$MIRRTEXT
 70
     1
  9
$LTSCALE
 40
1.0
  9
$ATTMODE
 70
     1
  9
$TEXTSIZE
 40
0.2
  9
$TRACEWID
 40
0.05
  9
$TEXTSTYLE
  7
CONVERTER_24
  9
$CLAYER
  8
0
  9
$CELTYPE
  6
ByLayer
  9
$CECOLOR
 62
   256
  9
$CELTSCALE
 40
1.0
  9
$DISPSILH
 70
     0
  9
$DIMSCALE
 40
1.0
  9
$DIMASZ
 40
0.18
  9
$DIMEXO
 40
0.0625
  9
$DIMDLI
 40
0.38
  9
$DIMRND
 40
0.0
  9
$DIMDLE
 40
0.0
  9
$DIMEXE
 40
0.18
  9
$DIMTP
 40
0.0
  9
$DIMTM
 40
0.0
  9
$DIMTXT
 40
0.18
  9
$DIMCEN
 40
0.09
  9
$DIMTSZ
 40
0.0
  9
$DIMTOL
 70
     0
  9
$DIMLIM
 70
     0
  9
$DIMTIH
 70
     1
  9
$DIMTOH
 70
     1
  9
$DIMSE1
 70
     0
  9
$DIMSE2
 70
     0
  9
$DIMTAD
 70
     0
  9
$DIMZIN
 70
     0
  9
$DIMBLK
  1

  9
$DIMASO
 70
     1
  9
$DIMSHO
 70
     1
  9
$DIMPOST
  1

  9
$DIMAPOST
  1

  9
$DIMALT
 70
     0
  9
$DIMALTD
 70
     2
  9
$DIMALTF
 40
25.4
  9
$DIMLFAC
 40
1.0
  9
$DIMTOFL
 70
     0
  9
$DIMTVP
 40
0.0
  9
$DIMTIX
 70
     0
  9
$DIMSOXD
 70
     0
  9
$DIMSAH
 70
     0
  9
$DIMBLK1
  1

  9
$DIMBLK2
  1

  9
$DIMSTYLE
  2
Standard
  9
$DIMCLRD
 70
     0
  9
$DIMCLRE
 70
     0
  9
$DIMCLRT
 70
     0
  9
$DIMTFAC
 40
1.0
  9
$DIMGAP
 40
0.09
  9
$DIMJUST
 70
     0
  9
$DIMSD1
 70
     0
  9
$DIMSD2
 70
     0
  9
$DIMTOLJ
 70
     1
  9
$DIMTZIN
 70
     0
  9
$DIMALTZ
 70
     0
  9
$DIMALTTZ
 70
     0
  9
$DIMUPT
 70
     0
  9
$DIMDEC
 70
     4
  9
$DIMTDEC
 70
     4
  9
$DIMALTU
 70
     2
  9
$DIMALTTD
 70
     2
  9
$DIMTXSTY
  7
Standard
  9
$DIMAUNIT
 70
     0
  9
$DIMADEC
 70
     0
  9
$DIMALTRND
 40
0.0
  9
$DIMAZIN
 70
     0
  9
$DIMDSEP
 70
    46
  9
$DIMATFIT
 70
     3
  9
$DIMFRAC
 70
     0
  9
$DIMLDRBLK
  1

  9
$DIMLUNIT
 70
     2
  9
$DIMLWD
 70
    -2
  9
$DIMLWE
 70
    -2
  9
$DIMTMOVE
 70
     0
  9
$LUNITS
 70
     2
  9
$LUPREC
 70
     4
  9
$SKETCHINC
 40
0.1
  9
$FILLETRAD
 40
0.5
  9
$AUNITS
 70
     0
  9
$AUPREC
 70
     0
  9
$MENU
  1
.
  9
$ELEVATION
 40
0.0
  9
$PELEVATION
 40
0.0
  9
$THICKNESS
 40
0.0
  9
$LIMCHECK
 70
     0
  9
$CHAMFERA
 40
0.5
  9
$CHAMFERB
 40
0.5
  9
$CHAMFERC
 40
1.0
  9
$CHAMFERD
 40
0.0
  9
$SKPOLY
 70
     0
  9
$TDCREATE
 40
2455132.473925058
  9
$TDUCREATE
 40
2455132.098925057
  9
$TDUPDATE
 40
2456044.421014178
  9
$TDUUPDATE
 40
2456044.046014178
  9
$TDINDWG
 40
0.1921990972
  9
$TDUSRTIMER
 40
0.1921987269
  9
$USRTIMER
 70
     1
  9
$ANGBASE
 50
0.0
  9
$ANGDIR
 70
     0
  9
$PDMODE
 70
     0
  9
$PDSIZE
 40
0.0
  9
$PLINEWID
 40
0.0
  9
$SPLFRAME
 70
     0
  9
$SPLINETYPE
 70
     6
  9
$SPLINESEGS
 70
     8
  9
$HANDSEED
  5
1798
  9
$SURFTAB1
 70
     6
  9
$SURFTAB2
 70
     6
  9
$SURFTYPE
 70
     6
  9
$SURFU
 70
     6
  9
$SURFV
 70
     6
  9
$UCSBASE
  2

  9
$UCSNAME
  2

  9
$UCSORG
 10
0.0
 20
0.0
 30
0.0
  9
$UCSXDIR
 10
1.0
 20
0.0
 30
0.0
  9
$UCSYDIR
 10
0.0
 20
1.0
 30
0.0
  9
$UCSORTHOREF
  2

  9
$UCSORTHOVIEW
 70
     0
  9
$UCSORGTOP
 10
0.0
 20
0.0
 30
0.0
  9
$UCSORGBOTTOM
 10
0.0
 20
0.0
 30
0.0
  9
$UCSORGLEFT
 10
0.0
 20
0.0
 30
0.0
  9
$UCSORGRIGHT
 10
0.0
 20
0.0
 30
0.0
  9
$UCSORGFRONT
 10
0.0
 20
0.0
 30
0.0
  9
$UCSORGBACK
 10
0.0
 20
0.0
 30
0.0
  9
$PUCSBASE
  2

  9
$PUCSNAME
  2

  9
$PUCSORG
 10
0.0
 20
0.0
 30
0.0
  9
$PUCSXDIR
 10
1.0
 20
0.0
 30
0.0
  9
$PUCSYDIR
 10
0.0
 20
1.0
 30
0.0
  9
$PUCSORTHOREF
  2

  9
$PUCSORTHOVIEW
 70
     0
  9
$PUCSORGTOP
 10
0.0
 20
0.0
 30
0.0
  9
$PUCSORGBOTTOM
 10
0.0
 20
0.0
 30
0.0
  9
$PUCSORGLEFT
 10
0.0
 20
0.0
 30
0.0
  9
$PUCSORGRIGHT
 10
0.0
 20
0.0
 30
0.0
  9
$PUCSORGFRONT
 10
0.0
 20
0.0
 30
0.0
  9
$PUCSORGBACK
 10
0.0
 20
0.0
 30
0.0
  9
$USERI1
 70
     0
  9
$USERI2
 70
     0
  9
$USERI3
 70
     0
  9
$USERI4
 70
     0
  9
$USERI5
 70
     0
  9
$USERR1
 40
14.0
  9
$USERR2
 40
0.0
  9
$USERR3
 40
0.0
  9
$USERR4
 40
0.0
  9
$USERR5
 40
0.0
  9
$WORLDVIEW
 70
     1
  9
$SHADEDGE
 70
     3
  9
$SHADEDIF
 70
    70
  9
$TILEMODE
 70
     1
  9
$MAXACTVP
 70
    64
  9
$PINSBASE
 10
0.0
 20
0.0
 30
0.0
  9
$PLIMCHECK
 70
     0
  9
$PEXTMIN
 10
1.000000000000000E+20
 20
1.000000000000000E+20
 30
1.000000000000000E+20
  9
$PEXTMAX
 10
-1.000000000000000E+20
 20
-1.000000000000000E+20
 30
-1.000000000000000E+20
  9
$PLIMMIN
 10
0.0
 20
0.0
  9
$PLIMMAX
 10
12.0
 20
9.0
  9
$UNITMODE
 70
     0
  9
$VISRETAIN
 70
     1
  9
$PLINEGEN
 70
     0
  9
$PSLTSCALE
 70
     1
  9
$TREEDEPTH
 70
  3020
  9
$CMLSTYLE
  2
Standard
  9
$CMLJUST
 70
     0
  9
$CMLSCALE
 40
1.0
  9
$PROXYGRAPHICS
 70
     1
  9
$MEASUREMENT
 70
     1
  9
$CELWEIGHT
370
    -1
  9
$ENDCAPS
280
     0
  9
$JOINSTYLE
280
     0
  9
$LWDISPLAY
290
     0
  9
$INSUNITS
 70
     1
  9
$HYPERLINKBASE
  1

  9
$STYLESHEET
  1
P社図面.CTB
  9
$XEDIT
290
     1
  9
$CEPSNTYPE
380
     0
  9
$PSTYLEMODE
290
     1
  9
$FINGERPRINTGUID
  2
{5DF58032-682E-4650-8758-1124762961A0}
  9
$VERSIONGUID
  2
{8C9C9B26-8288-41C8-B597-6BB8197499BB}
  9
$EXTNAMES
290
     1
  9
$PSVPSCALE
 40
0.0
  9
$OLESTARTUP
290
     0
  0
ENDSEC
  0
SECTION
  2
CLASSES
  0
CLASS
  1
ACDBDICTIONARYWDFLT
  2
AcDbDictionaryWithDefault
  3
AutoCAD 2000
 90
        0
280
     0
281
     0
  0
CLASS
  1

  2
exOdDbCircle
  3

 90
    32768
280
     0
281
     1
  0
CLASS
  1

  2
exOdDbSpline
  3

 90
    32768
280
     0
281
     1
  0
CLASS
  1

  2
exOdDbPolyline
  3

 90
    32768
280
     0
281
     1
  0
CLASS
  1
ACDBPLACEHOLDER
  2
AcDbPlaceHolder
  3
AutoCAD 2000
 90
        0
280
     0
281
     0
  0
CLASS
  1
LAYOUT
  2
AcDbLayout
  3
AutoCAD 2000
 90
        0
280
     0
281
     0
  0
CLASS
  1
MATERIAL
  2
AcDbMaterial
  3
ObjectDBX Classes
 90
     1153
280
     0
281
     0
  0
CLASS
  1
VISUALSTYLE
  2
AcDbVisualStyle
  3
ObjectDBX Classes
 90
     4095
280
     0
281
     0
  0
CLASS
  1
TABLESTYLE
  2
AcDbTableStyle
  3
ObjectDBX Classes
 90
     4095
280
     0
281
     0
  0
CLASS
  1
SCALE
  2
AcDbScale
  3
ObjectDBX Classes
 90
     1153
280
     0
281
     0
  0
CLASS
  1
MLEADERSTYLE
  2
AcDbMLeaderStyle
  3
ACDB_MLEADERSTYLE_CLASS
 90
     4095
280
     0
281
     0
  0
CLASS
  1
DICTIONARYVAR
  2
AcDbDictionaryVar
  3
AutoCAD 2000
 90
        0
280
     0
281
     0
  0
CLASS
  1
CELLSTYLEMAP
  2
AcDbCellStyleMap
  3
ObjectDBX Classes
 90
     1152
280
     0
281
     0
  0
ENDSEC
  0
SECTION
  2
TABLES
  0
TABLE
  2
VPORT
  5
8
330
0
100
AcDbSymbolTable
 70
     2
  0
VPORT
  5
1797
330
8
100
AcDbSymbolTableRecord
100
AcDbViewportTableRecord
  2
*Active
 70
     0
 10
0.0
 20
0.0
 11
1.0
 21
1.0
 12
-14.28632069376112
 22
-34.83894452158637
 13
0.0
 23
0.0
 14
0.5
 24
0.5
 15
0.5
 25
0.5
 16
0.0
 26
0.0
 36
1.0
 17
0.0
 27
0.0
 37
0.0
 40
322.423983700403
 41
1.97051597051597
 42
50.0
 43
0.0
 44
0.0
 50
0.0
 51
0.0
 71
     0
 72
   100
 73
     1
 74
     3
 75
     0
 76
     0
 77
     0
 78
     0
281
     0
 65
     1
110
0.0
120
0.0
130
0.0
111
1.0
121
0.0
131
0.0
112
0.0
122
1.0
132
0.0
 79
     0
146
0.0
  0
ENDTAB
  0
TABLE
  2
LTYPE
  5
5
330
0
100
AcDbSymbolTable
 70
     4
  0
LTYPE
  5
14
330
5
100
AcDbSymbolTableRecord
100
AcDbLinetypeTableRecord
  2
ByBlock
 70
     0
  3

 72
    65
 73
     0
 40
0.0
  0
LTYPE
  5
15
330
5
100
AcDbSymbolTableRecord
100
AcDbLinetypeTableRecord
  2
ByLayer
 70
     0
  3

 72
    65
 73
     0
 40
0.0
  0
LTYPE
  5
16
330
5
100
AcDbSymbolTableRecord
100
AcDbLinetypeTableRecord
  2
Continuous
 70
     0
  3
Solid line
 72
    65
 73
     0
 40
0.0
  0
LTYPE
  5
2A
330
5
100
AcDbSymbolTableRecord
100
AcDbLinetypeTableRecord
  2
DASHED
 70
     0
  3
Dashed
 72
    65
 73
     2
 40
15.0
 49
7.0
 74
     0
 49
-8.0
 74
     0
  0
LTYPE
  5
2E
330
5
100
AcDbSymbolTableRecord
100
AcDbLinetypeTableRecord
  2
DASH_CENTER
 70
     0
  3
Dash_Center
 72
    65
 73
     4
 40
14.0
 49
11.0
 74
     0
 49
-1.0
 74
     0
 49
1.0
 74
     0
 49
-1.0
 74
     0
  0
LTYPE
  5
2F
330
5
100
AcDbSymbolTableRecord
100
AcDbLinetypeTableRecord
  2
PHANTOM
 70
     0
  3
Phantom
 72
    65
 73
     6
 40
13.0
 49
10.0
 74
     0
 49
-1.0
 74
     0
 49
0.0
 74
     0
 49
-1.0
 74
     0
 49
0.0
 74
     0
 49
-1.0
 74
     0
  0
ENDTAB
  0
TABLE
  2
LAYER
  5
2
330
0
100
AcDbSymbolTable
 70
     2
  0
LAYER
  5
10
330
2
100
AcDbSymbolTableRecord
100
AcDbLayerTableRecord
  2
0
 70
     0
 62
     7
  6
Continuous
370
    -3
390
F
  0
LAYER
  5
663
330
2
100
AcDbSymbolTableRecord
100
AcDbLayerTableRecord
  2
Defpoints
 70
     0
 62
     7
  6
Continuous
290
     0
370
    -3
390
F
  0
ENDTAB
  0
TABLE
  2
STYLE
  5
3
330
0
100
AcDbSymbolTable
 70
    23
  0
STYLE
  5
11
330
3
100
AcDbSymbolTableRecord
100
AcDbTextStyleTableRecord
  2
Standard
 70
     0
 40
0.0
 41
1.0
 50
0.0
 71
     0
 42
0.2
  3
txt
  4

  0
STYLE
  5
CB
330
3
100
AcDbSymbolTableRecord
100
AcDbTextStyleTableRecord
  2
CONVERTER_3
 70
     0
 40
0.0
 41
0.89
 50
0.0
 71
     0
 42
0.2
  3
simplex.shx
  4
bigfont.shx
  0
STYLE
  5
CD
330
3
100
AcDbSymbolTableRecord
100
AcDbTextStyleTableRecord
  2
CONVERTER_4
 70
     0
 40
0.0
 41
1.68111111111111
 50
0.0
 71
     0
 42
0.2
  3
txt.shx
  4
bigfont.shx
  0
STYLE
  5
CF
330
3
100
AcDbSymbolTableRecord
100
AcDbTextStyleTableRecord
  2
CONVERTER_5
 70
     0
 40
0.0
 41
1.62688172043011
 50
0.0
 71
     0
 42
0.2
  3
txt.shx
  4
bigfont.shx
  0
STYLE
  5
D2
330
3
100
AcDbSymbolTableRecord
100
AcDbTextStyleTableRecord
  2
CONVERTER_6
 70
     0
 40
0.0
 41
1.008666666666669
 50
0.0
 71
     0
 42
0.2
  3
txt.shx
  4
bigfont.shx
  0
STYLE
  5
D4
330
3
100
AcDbSymbolTableRecord
100
AcDbTextStyleTableRecord
  2
CONVERTER_7
 70
     0
 40
0.0
 41
0.9761290322580599
 50
0.0
 71
     0
 42
0.2
  3
txt.shx
  4
bigfont.shx
  0
STYLE
  5
D9
330
3
100
AcDbSymbolTableRecord
100
AcDbTextStyleTableRecord
  2
CONVERTER_8
 70
     0
 40
0.0
 41
0.73514
 50
0.0
 71
     0
 42
0.2
  3
simplex.shx
  4

  0
STYLE
  5
DF
330
3
100
AcDbSymbolTableRecord
100
AcDbTextStyleTableRecord
  2
CONVERTER_9
 70
     0
 40
0.0
 41
0.945625
 50
0.0
 71
     0
 42
0.2
  3
txt.shx
  4
bigfont.shx
  0
STYLE
  5
E5
330
3
100
AcDbSymbolTableRecord
100
AcDbTextStyleTableRecord
  2
CONVERTER_10
 70
     0
 40
0.0
 41
1.080714285714289
 50
0.0
 71
     0
 42
0.2
  3
txt.shx
  4
bigfont.shx
  0
STYLE
  5
E8
330
3
100
AcDbSymbolTableRecord
100
AcDbTextStyleTableRecord
  2
CONVERTER_11
 70
     0
 40
0.0
 41
0.7120000000000001
 50
0.0
 71
     0
 42
0.2
  3
simplex.shx
  4
bigfont.shx
  0
STYLE
  5
EA
330
3
100
AcDbSymbolTableRecord
100
AcDbTextStyleTableRecord
  2
CONVERTER_12
 70
     0
 40
0.0
 41
1.87368421052632
 50
0.0
 71
     0
 42
0.2
  3
txt.shx
  4

  0
STYLE
  5
F6
330
3
100
AcDbSymbolTableRecord
100
AcDbTextStyleTableRecord
  2
CONVERTER_14
 70
     0
 40
0.0
 41
0.7758974358974399
 50
0.0
 71
     0
 42
0.2
  3
txt.shx
  4
bigfont.shx
  0
STYLE
  5
F8
330
3
100
AcDbSymbolTableRecord
100
AcDbTextStyleTableRecord
  2
CONVERTER_15
 70
     0
 40
0.0
 41
0.8009999999999999
 50
0.0
 71
     0
 42
0.2
  3
simplex.shx
  4

  0
STYLE
  5
FA
330
3
100
AcDbSymbolTableRecord
100
AcDbTextStyleTableRecord
  2
CONVERTER_16
 70
     0
 40
0.0
 41
0.8009999999999999
 50
0.0
 71
     0
 42
0.2
  3
txt.shx
  4
bigfont.shx
  0
STYLE
  5
FD
330
3
100
AcDbSymbolTableRecord
100
AcDbTextStyleTableRecord
  2
CONVERTER_17
 70
     0
 40
0.0
 41
1.0235
 50
0.0
 71
     0
 42
0.2
  3
simplex.shx
  4

  0
STYLE
  5
104
330
3
100
AcDbSymbolTableRecord
100
AcDbTextStyleTableRecord
  2
CONVERTER_19
 70
     0
 40
0.0
 41
0.84605009384506
 50
0.0
 71
     0
 42
0.2
  3
simplex.shx
  4
bigfont.shx
  0
STYLE
  5
140
330
3
100
AcDbSymbolTableRecord
100
AcDbTextStyleTableRecord
  2
CONVERTER_20
 70
     0
 40
0.0
 41
0.7120000000000001
 50
0.0
 71
     0
 42
0.2
  3
simplex.shx
  4

  0
STYLE
  5
1C2
330
3
100
AcDbSymbolTableRecord
100
AcDbTextStyleTableRecord
  2
CONVERTER_21
 70
     0
 40
0.0
 41
0.7565
 50
0.0
 71
     0
 42
0.2
  3
simplex.shx
  4
bigfont.shx
  0
STYLE
  5
1CF
330
3
100
AcDbSymbolTableRecord
100
AcDbTextStyleTableRecord
  2
CONVERTER_22
 70
     0
 40
0.0
 41
0.7565
 50
0.0
 71
     0
 42
0.2
  3
simplex.shx
  4

  0
STYLE
  5
37F
330
3
100
AcDbSymbolTableRecord
100
AcDbTextStyleTableRecord
  2
CONVERTER_24
 70
     0
 40
0.0
 41
0.9100751879699199
 50
0.0
 71
     0
 42
0.2
  3
simplex.shx
  4
bigfont.shx
  0
STYLE
  5
381
330
3
100
AcDbSymbolTableRecord
100
AcDbTextStyleTableRecord
  2
CONVERTER_25
 70
     0
 40
0.0
 41
0.81185365853659
 50
0.0
 71
     0
 42
0.2
  3
simplex.shx
  4
bigfont.shx
  0
STYLE
  5
383
330
3
100
AcDbSymbolTableRecord
100
AcDbTextStyleTableRecord
  2
CONVERTER_26
 70
     0
 40
0.0
 41
0.7963157894736801
 50
0.0
 71
     0
 42
0.2
  3
simplex.shx
  4
bigfont.shx
  0
STYLE
  5
AAB
330
3
100
AcDbSymbolTableRecord
100
AcDbTextStyleTableRecord
  2
社名
 70
     0
 40
2.5
 41
0.8
 50
0.0
 71
     0
 42
2.5
  3
swissk.ttf
  4

1001
ACAD
1000
Swis721 Blk BT
1071
       34
  0
ENDTAB
  0
TABLE
  2
VIEW
  5
6
330
0
100
AcDbSymbolTable
 70
     0
  0
ENDTAB
  0
TABLE
  2
UCS
  5
7
330
0
100
AcDbSymbolTable
 70
     0
  0
ENDTAB
  0
TABLE
  2
APPID
  5
9
330
0
100
AcDbSymbolTable
 70
     3
  0
APPID
  5
12
330
9
100
AcDbSymbolTableRecord
100
AcDbRegAppTableRecord
  2
ACAD
 70
     0
  0
APPID
  5
1654
330
9
100
AcDbSymbolTableRecord
100
AcDbRegAppTableRecord
  2
ACAD_NAV_VCDISPLAY
 70
     0
  0
APPID
  5
1695
330
9
100
AcDbSymbolTableRecord
100
AcDbRegAppTableRecord
  2
ACAD_MLEADERVER
 70
     0
  0
ENDTAB
  0
TABLE
  2
DIMSTYLE
  5
A
330
0
100
AcDbSymbolTable
 70
    22
100
AcDbDimStyleTable
 71
     4
340
4F6
340
392
340
56B
340
27
  0
DIMSTYLE
105
27
330
A
100
AcDbSymbolTableRecord
100
AcDbDimStyleTableRecord
  2
Standard
 70
     0
340
11
  0
DIMSTYLE
105
392
330
A
100
AcDbSymbolTableRecord
100
AcDbDimStyleTableRecord
  2
ME10_DIM_4
 70
     0
 41
4.0
 42
2.35
 44
4.0
 73
     0
 74
     0
 77
     1
 78
     8
140
5.0
147
1.6
172
     1
173
     1
176
     2
177
     2
178
     2
271
     0
340
1CF
341
1D3
343
1D3
344
1D3
  0
DIMSTYLE
105
39F
330
A
100
AcDbSymbolTableRecord
100
AcDbDimStyleTableRecord
  2
ME10_DIM_5
 70
     0
 41
4.0
 42
2.35
 44
4.0
 73
     0
 74
     0
 77
     1
 78
     8
140
5.0
147
1.6
172
     1
173
     1
176
     2
177
     2
178
     2
271
     0
340
1CF
341
1D3
343
1D3
344
1D3
  0
DIMSTYLE
105
3AC
330
A
100
AcDbSymbolTableRecord
100
AcDbDimStyleTableRecord
  2
ME10_DIM_6
 70
     0
 41
4.0
 42
2.35
 44
4.0
 73
     0
 74
     0
 77
     1
 78
     8
140
5.0
147
1.6
172
     1
173
     1
176
     2
177
     2
178
     2
271
     0
340
1CF
341
1D3
343
1D3
344
1D3
  0
DIMSTYLE
105
3BB
330
A
100
AcDbSymbolTableRecord
100
AcDbDimStyleTableRecord
  2
ME10_DIM_7
 70
     0
 41
4.0
 42
2.35
 44
4.0
 73
     0
 74
     0
 77
     1
 78
     1
140
5.0
147
1.6
172
     1
173
     1
176
     2
177
     2
178
     2
271
     1
340
1CF
341
1D3
343
1D3
344
1D3
  0
DIMSTYLE
105
3C8
330
A
100
AcDbSymbolTableRecord
100
AcDbDimStyleTableRecord
  2
ME10_DIM_8
 70
     0
 41
4.0
 42
2.35
 44
4.0
 73
     0
 74
     0
 77
     1
 78
     8
140
5.0
147
1.6
172
     1
173
     1
176
     2
177
     2
178
     2
271
     0
340
1CF
341
1D3
343
1D3
344
1D3
  0
DIMSTYLE
105
3D5
330
A
100
AcDbSymbolTableRecord
100
AcDbDimStyleTableRecord
  2
ME10_DIM_9
 70
     0
 41
4.0
 42
2.35
 44
4.0
 73
     0
 74
     0
 77
     1
 78
     8
140
5.0
147
1.6
172
     1
173
     1
176
     2
177
     2
178
     2
271
     0
340
1CF
341
1D3
343
1D3
344
1D3
  0
DIMSTYLE
105
3E2
330
A
100
AcDbSymbolTableRecord
100
AcDbDimStyleTableRecord
  2
ME10_DIM_10
 70
     0
 41
4.0
 42
2.35
 44
4.0
 73
     0
 74
     0
 77
     1
 78
     8
140
5.0
147
1.6
172
     1
173
     1
176
     2
177
     2
178
     2
271
     0
340
1CF
341
1D3
343
1D3
344
1D3
  0
DIMSTYLE
105
3EF
330
A
100
AcDbSymbolTableRecord
100
AcDbDimStyleTableRecord
  2
ME10_DIM_11
 70
     0
 41
4.0
 42
2.35
 44
4.0
 73
     0
 74
     0
 77
     1
 78
     8
140
5.0
147
1.6
172
     1
173
     1
176
     2
177
     2
178
     2
271
     0
340
1CF
341
1D3
343
1D3
344
1D3
  0
DIMSTYLE
105
3FC
330
A
100
AcDbSymbolTableRecord
100
AcDbDimStyleTableRecord
  2
ME10_DIM_12
 70
     0
 41
4.0
 42
2.35
 44
4.0
 73
     0
 74
     0
 77
     1
 78
     8
140
5.0
147
1.6
172
     1
173
     1
176
     2
177
     2
178
     2
271
     0
340
1CF
341
1D3
343
1D3
344
1D3
  0
DIMSTYLE
105
4E9
330
A
100
AcDbSymbolTableRecord
100
AcDbDimStyleTableRecord
  2
ME10_DIM_13
 70
     0
 41
4.0
 42
2.35
 44
4.0
 73
     0
 74
     0
 77
     1
 78
     8
140
5.0
147
1.6
172
     1
173
     1
176
     2
177
     2
178
     2
271
     0
340
1CF
341
1D3
343
1D3
344
1D3
  0
DIMSTYLE
105
4F6
330
A
100
AcDbSymbolTableRecord
100
AcDbDimStyleTableRecord
  2
ME10_DIM_14
 70
     0
 41
4.0
 42
2.35
 44
4.0
 73
     0
 74
     0
 77
     1
 78
     8
140
5.0
147
1.6
172
     1
173
     1
176
     2
177
     2
178
     2
271
     0
340
1CF
341
1D3
343
1D3
344
1D3
  0
DIMSTYLE
105
503
330
A
100
AcDbSymbolTableRecord
100
AcDbDimStyleTableRecord
  2
ME10_DIM_15
 70
     0
 41
4.0
 42
2.35
 44
4.0
 73
     0
 74
     0
 77
     1
 78
     8
140
5.0
147
1.6
172
     1
173
     1
176
     2
177
     2
178
     2
271
     0
340
1CF
341
1D3
343
1D3
344
1D3
  0
DIMSTYLE
105
510
330
A
100
AcDbSymbolTableRecord
100
AcDbDimStyleTableRecord
  2
ME10_DIM_16
 70
     0
 41
4.0
 42
2.35
 44
4.0
 73
     0
 74
     0
 77
     1
 78
     8
140
5.0
147
1.6
172
     1
173
     1
176
     2
177
     2
178
     2
271
     0
340
1CF
341
1D3
343
1D3
344
1D3
  0
DIMSTYLE
105
51D
330
A
100
AcDbSymbolTableRecord
100
AcDbDimStyleTableRecord
  2
ME10_DIM_17
 70
     0
 41
4.0
 42
2.35
 44
4.0
 73
     0
 74
     0
 77
     1
 78
     8
140
5.0
147
1.6
172
     1
173
     1
176
     2
177
     2
178
     2
271
     0
340
1CF
341
1D3
343
1D3
344
1D3
  0
DIMSTYLE
105
52A
330
A
100
AcDbSymbolTableRecord
100
AcDbDimStyleTableRecord
  2
ME10_DIM_18
 70
     0
 41
4.0
 42
2.35
 44
4.0
 73
     0
 74
     0
 77
     1
 78
     8
140
5.0
147
1.6
172
     1
173
     1
176
     2
177
     2
178
     2
271
     0
340
1CF
341
1D3
343
1D3
344
1D3
  0
DIMSTYLE
105
537
330
A
100
AcDbSymbolTableRecord
100
AcDbDimStyleTableRecord
  2
ME10_DIM_19
 70
     0
 41
4.0
 42
2.35
 44
4.0
 73
     0
 74
     0
 77
     1
 78
     8
140
5.0
147
1.6
172
     1
173
     1
176
     2
177
     2
178
     2
271
     0
340
1CF
341
1D3
343
1D3
344
1D3
  0
DIMSTYLE
105
544
330
A
100
AcDbSymbolTableRecord
100
AcDbDimStyleTableRecord
  2
ME10_DIM_20
 70
     0
 41
4.0
 42
2.35
 44
4.0
 73
     0
 74
     0
 77
     1
 78
     8
140
5.0
147
1.6
172
     1
173
     1
176
     2
177
     2
178
     2
271
     0
340
1CF
341
1D3
343
1D3
344
1D3
  0
DIMSTYLE
105
551
330
A
100
AcDbSymbolTableRecord
100
AcDbDimStyleTableRecord
  2
ME10_DIM_21
 70
     0
 41
4.0
 42
2.35
 44
4.0
 73
     0
 74
     0
 77
     1
 78
     8
140
5.0
147
1.6
172
     1
173
     1
176
     2
177
     2
178
     2
271
     0
340
1CF
341
1D3
343
1D3
344
1D3
  0
DIMSTYLE
105
55E
330
A
100
AcDbSymbolTableRecord
100
AcDbDimStyleTableRecord
  2
ME10_DIM_22
 70
     0
 41
4.0
 42
2.35
 44
4.0
 73
     0
 74
     0
 77
     1
 78
     8
140
5.0
147
1.6
172
     1
173
     1
176
     2
177
     2
178
     2
271
     0
340
1CF
341
1D3
343
1D3
344
1D3
  0
DIMSTYLE
105
56B
330
A
100
AcDbSymbolTableRecord
100
AcDbDimStyleTableRecord
  2
ME10_DIM_23
 70
     0
 41
4.0
 42
2.35
 44
4.0
 73
     0
 74
     0
 77
     1
 78
     8
140
5.0
147
1.6
172
     1
173
     1
176
     2
177
     2
178
     2
271
     0
340
1CF
341
1D3
343
1D3
344
1D3
  0
DIMSTYLE
105
578
330
A
100
AcDbSymbolTableRecord
100
AcDbDimStyleTableRecord
  2
ME10_DIM_24
 70
     0
 41
4.0
 42
2.35
 44
4.0
 73
     0
 74
     0
 77
     1
 78
     8
140
5.0
147
1.6
172
     1
173
     1
176
     2
177
     2
178
     2
271
     0
340
1CF
341
1D3
343
1D3
344
1D3
  0
ENDTAB
  0
TABLE
  2
BLOCK_RECORD
  5
1
330
0
100
AcDbSymbolTable
 70
    27
  0
BLOCK_RECORD
  5
1F
330
1
100
AcDbSymbolTableRecord
100
AcDbBlockTableRecord
  2
*Model_Space
340
22
  0
BLOCK_RECORD
  5
1B
330
1
100
AcDbSymbolTableRecord
100
AcDbBlockTableRecord
  2
*Paper_Space
340
1E
  0
BLOCK_RECORD
  5
23
330
1
100
AcDbSymbolTableRecord
100
AcDbBlockTableRecord
  2
*Paper_Space0
340
26
  0
BLOCK_RECORD
  5
1D3
330
1
100
AcDbSymbolTableRecord
100
AcDbBlockTableRecord
  2
_Open30
340
0
102
{BLKREFS
331
1405
331
1406
331
140E
331
140F
331
1417
331
1418
331
1420
331
1421
331
1429
331
142A
331
1432
331
1433
331
143B
331
143C
331
1444
331
1445
331
144D
331
144E
331
1456
331
1457
331
145F
331
1460
331
1468
331
1469
331
148F
331
1490
331
1498
331
1499
331
14B5
331
14B6
331
14BE
331
14BF
331
14D0
331
14D1
331
150B
331
150C
331
156E
331
156F
331
1577
331
1578
331
1580
331
1581
331
15A8
331
15A9
331
15B1
331
15B2
331
15C4
331
15C5
331
15CF
331
15D0
331
169E
331
169F
331
16A7
331
16A8
331
16B0
331
16B1
331
16B9
331
16BA
331
16C2
331
16C3
331
16CB
331
16CC
331
16D4
331
16D5
331
16DD
331
16DE
331
16E6
331
16E7
331
16EF
331
16F0
331
16F8
331
16F9
331
1701
331
1702
331
170B
331
170C
331
1714
331
1715
331
171D
331
171E
331
1726
331
1727
331
1731
331
1732
331
173A
331
173B
331
1743
331
1744
331
174C
331
174D
331
1755
331
1756
331
175E
331
175F
331
1769
331
176A
331
1772
331
1773
331
177D
331
177E
102
}
  0
BLOCK_RECORD
  5
11A7
330
1
100
AcDbSymbolTableRecord
100
AcDbBlockTableRecord
  2
*D2
340
0
  0
BLOCK_RECORD
  5
11B4
330
1
100
AcDbSymbolTableRecord
100
AcDbBlockTableRecord
  2
*D3
340
0
  0
BLOCK_RECORD
  5
11C1
330
1
100
AcDbSymbolTableRecord
100
AcDbBlockTableRecord
  2
*D4
340
0
  0
BLOCK_RECORD
  5
11CE
330
1
100
AcDbSymbolTableRecord
100
AcDbBlockTableRecord
  2
*D5
340
0
  0
BLOCK_RECORD
  5
11DB
330
1
100
AcDbSymbolTableRecord
100
AcDbBlockTableRecord
  2
*D6
340
0
  0
BLOCK_RECORD
  5
11E8
330
1
100
AcDbSymbolTableRecord
100
AcDbBlockTableRecord
  2
*D7
340
0
  0
BLOCK_RECORD
  5
11F5
330
1
100
AcDbSymbolTableRecord
100
AcDbBlockTableRecord
  2
*D8
340
0
  0
BLOCK_RECORD
  5
1202
330
1
100
AcDbSymbolTableRecord
100
AcDbBlockTableRecord
  2
*D9
340
0
  0
BLOCK_RECORD
  5
120F
330
1
100
AcDbSymbolTableRecord
100
AcDbBlockTableRecord
  2
*D10
340
0
  0
BLOCK_RECORD
  5
121C
330
1
100
AcDbSymbolTableRecord
100
AcDbBlockTableRecord
  2
*D11
340
0
  0
BLOCK_RECORD
  5
1229
330
1
100
AcDbSymbolTableRecord
100
AcDbBlockTableRecord
  2
*D12
340
0
  0
BLOCK_RECORD
  5
1236
330
1
100
AcDbSymbolTableRecord
100
AcDbBlockTableRecord
  2
*D13
340
0
  0
BLOCK_RECORD
  5
1243
330
1
100
AcDbSymbolTableRecord
100
AcDbBlockTableRecord
  2
*D14
340
0
  0
BLOCK_RECORD
  5
1250
330
1
100
AcDbSymbolTableRecord
100
AcDbBlockTableRecord
  2
*D15
340
0
  0
BLOCK_RECORD
  5
125E
330
1
100
AcDbSymbolTableRecord
100
AcDbBlockTableRecord
  2
*D16
340
0
  0
BLOCK_RECORD
  5
126B
330
1
100
AcDbSymbolTableRecord
100
AcDbBlockTableRecord
  2
*D17
340
0
  0
BLOCK_RECORD
  5
127A
330
1
100
AcDbSymbolTableRecord
100
AcDbBlockTableRecord
  2
*D18
340
0
  0
BLOCK_RECORD
  5
1287
330
1
100
AcDbSymbolTableRecord
100
AcDbBlockTableRecord
  2
*D19
340
0
  0
BLOCK_RECORD
  5
1294
330
1
100
AcDbSymbolTableRecord
100
AcDbBlockTableRecord
  2
*D20
340
0
  0
BLOCK_RECORD
  5
12A1
330
1
100
AcDbSymbolTableRecord
100
AcDbBlockTableRecord
  2
*D21
340
0
  0
BLOCK_RECORD
  5
12AE
330
1
100
AcDbSymbolTableRecord
100
AcDbBlockTableRecord
  2
*D22
340
0
  0
BLOCK_RECORD
  5
12BB
330
1
100
AcDbSymbolTableRecord
100
AcDbBlockTableRecord
  2
*D23
340
0
  0
BLOCK_RECORD
  5
12C9
330
1
100
AcDbSymbolTableRecord
100
AcDbBlockTableRecord
  2
*D24
340
0
  0
BLOCK_RECORD
  5
12D6
330
1
100
AcDbSymbolTableRecord
100
AcDbBlockTableRecord
  2
*D25
340
0
  0
BLOCK_RECORD
  5
12E3
330
1
100
AcDbSymbolTableRecord
100
AcDbBlockTableRecord
  2
*D26
340
0
  0
ENDTAB
  0
ENDSEC
  0
SECTION
  2
BLOCKS
  0
BLOCK
  5
20
330
1F
100
AcDbEntity
  8
0
100
AcDbBlockBegin
  2
*Model_Space
 70
     0
 10
0.0
 20
0.0
 30
0.0
  3
*Model_Space
  1

  0
ENDBLK
  5
21
330
1F
100
AcDbEntity
  8
0
100
AcDbBlockEnd
  0
BLOCK
  5
1C
330
1B
100
AcDbEntity
 67
     1
  8
0
100
AcDbBlockBegin
  2
*Paper_Space
 70
     0
 10
0.0
 20
0.0
 30
0.0
  3
*Paper_Space
  1

  0
ENDBLK
  5
1D
330
1B
100
AcDbEntity
 67
     1
  8
0
100
AcDbBlockEnd
  0
BLOCK
  5
24
330
23
100
AcDbEntity
  8
0
100
AcDbBlockBegin
  2
*Paper_Space0
 70
     0
 10
0.0
 20
0.0
 30
0.0
  3
*Paper_Space0
  1

  0
ENDBLK
  5
25
330
23
100
AcDbEntity
  8
0
100
AcDbBlockEnd
  0
BLOCK
  5
1D4
330
1D3
100
AcDbEntity
  8
0
100
AcDbBlockBegin
  2
_Open30
 70
     0
 10
0.0
 20
0.0
 30
0.0
  3
_Open30
  1

  0
LINE
  5
1D6
330
1D3
100
AcDbEntity
  8
0
  6
ByBlock
 62
     0
370
    -2
100
AcDbLine
 10
-1.0
 20
0.267949
 30
0.0
 11
0.0
 21
0.0
 31
0.0
  0
LINE
  5
1D7
330
1D3
100
AcDbEntity
  8
0
  6
ByBlock
 62
     0
370
    -2
100
AcDbLine
 10
0.0
 20
0.0
 30
0.0
 11
-1.0
 21
-0.267949
 31
0.0
  0
LINE
  5
1D8
330
1D3
100
AcDbEntity
  8
0
  6
ByBlock
 62
     0
370
    -2
100
AcDbLine
 10
0.0
 20
0.0
 30
0.0
 11
-1.0
 21
0.0
 31
0.0
  0
ENDBLK
  5
1D5
330
1D3
100
AcDbEntity
  8
0
100
AcDbBlockEnd
  0
BLOCK
  5
11B2
330
11A7
100
AcDbEntity
  8
0
100
AcDbBlockBegin
  2
*D2
 70
     1
 10
0.0
 20
0.0
 30
0.0
  3
*D2
  1

  0
LINE
  5
1707
330
11A7
100
AcDbEntity
  8
0
 62
     2
370
    -2
100
AcDbLine
 10
17.14489368543949
 20
10.97920000000001
 30
0.0
 11
17.14489368543949
 21
-13.90794986710323
 31
0.0
  0
LINE
  5
1708
330
11A7
100
AcDbEntity
  8
0
 62
     2
370
    -2
100
AcDbLine
 10
3.144893685439491
 20
10.97920000000001
 30
0.0
 11
3.144893685439488
 21
-13.90794986710323
 31
0.0
  0
LINE
  5
1709
330
11A7
100
AcDbEntity
  8
0
 62
     2
370
    -2
100
AcDbLine
 10
7.144893685439487
 20
-9.907949867103241
 30
0.0
 11
13.14489368543949
 21
-9.907949867103241
 31
0.0
  0
LINE
  5
170A
330
11A7
100
AcDbEntity
  8
0
 62
     2
370
    -2
100
AcDbLine
 10
17.14489368543949
 20
-9.907949867103241
 30
0.0
 11
40.01525082829664
 21
-9.907949867103241
 31
0.0
  0
INSERT
  5
170B
330
11A7
100
AcDbEntity
  8
0
 62
     2
370
    -2
100
AcDbBlockReference
  2
_Open30
 10
3.144893685439488
 20
-9.907949867103241
 30
0.0
 41
4.0
 42
4.0
 43
4.0
 50
180.0
  0
INSERT
  5
170C
330
11A7
100
AcDbEntity
  8
0
 62
     2
370
    -2
100
AcDbBlockReference
  2
_Open30
 10
17.14489368543949
 20
-9.907949867103241
 30
0.0
 41
4.0
 42
4.0
 43
4.0
  0
MTEXT
  5
170D
330
11A7
100
AcDbEntity
  8
0
 62
     2
100
AcDbMText
 10
30.58007225686806
 20
-5.80794986710324
 30
0.0
 40
5.0
 41
0.0
 71
     5
 72
     1
  1
\A1;%%c14h6
  7
CONVERTER_22
 73
     1
 44
1.0
  0
POINT
  5
170E
330
11A7
100
AcDbEntity
  8
Defpoints
 62
     0
100
AcDbPoint
 10
17.14489368543949
 20
13.32920000000002
 30
0.0
  0
POINT
  5
170F
330
11A7
100
AcDbEntity
  8
Defpoints
 62
     0
100
AcDbPoint
 10
3.144893685439491
 20
13.32920000000002
 30
0.0
  0
POINT
  5
1710
330
11A7
100
AcDbEntity
  8
Defpoints
 62
     0
100
AcDbPoint
 10
3.144893685439488
 20
-9.907949867103241
 30
0.0
  0
ENDBLK
  5
11B3
330
11A7
100
AcDbEntity
  8
0
100
AcDbBlockEnd
  0
BLOCK
  5
11BF
330
11B4
100
AcDbEntity
  8
0
100
AcDbBlockBegin
  2
*D3
 70
     1
 10
0.0
 20
0.0
 30
0.0
  3
*D3
  1

  0
LINE
  5
16FE
330
11B4
100
AcDbEntity
  8
0
 62
     2
370
    -2
100
AcDbLine
 10
-161.0669794810009
 20
-73.89669999999998
 30
0.0
 11
-161.0669794810009
 21
-96.67070000000002
 31
0.0
  0
LINE
  5
16FF
330
11B4
100
AcDbEntity
  8
0
 62
     2
370
    -2
100
AcDbLine
 10
-206.0668794810009
 20
-63.34000000000001
 30
0.0
 11
-206.0668794810009
 21
-96.67070000000002
 31
0.0
  0
LINE
  5
1700
330
11B4
100
AcDbEntity
  8
0
 62
     2
370
    -2
100
AcDbLine
 10
-165.0669794810009
 20
-92.67070000000002
 30
0.0
 11
-202.0668794810009
 21
-92.67070000000002
 31
0.0
  0
INSERT
  5
1701
330
11B4
100
AcDbEntity
  8
0
 62
     2
370
    -2
100
AcDbBlockReference
  2
_Open30
 10
-161.0669794810009
 20
-92.67070000000002
 30
0.0
 41
4.0
 42
4.0
 43
4.0
  0
INSERT
  5
1702
330
11B4
100
AcDbEntity
  8
0
 62
     2
370
    -2
100
AcDbBlockReference
  2
_Open30
 10
-206.0668794810009
 20
-92.67070000000002
 30
0.0
 41
4.0
 42
4.0
 43
4.0
 50
180.0
  0
MTEXT
  5
1703
330
11B4
100
AcDbEntity
  8
0
 62
     2
100
AcDbMText
 10
-183.5669294810008
 20
-88.57070000000005
 30
0.0
 40
5.0
 41
0.0
 71
     5
 72
     1
  1
\A1;45
  7
CONVERTER_22
 73
     1
 44
1.0
  0
POINT
  5
1704
330
11B4
100
AcDbEntity
  8
Defpoints
 62
     0
100
AcDbPoint
 10
-161.0669794810009
 20
-71.54669999999999
 30
0.0
  0
POINT
  5
1705
330
11B4
100
AcDbEntity
  8
Defpoints
 62
     0
100
AcDbPoint
 10
-206.0668794810009
 20
-60.99000000000001
 30
0.0
  0
POINT
  5
1706
330
11B4
100
AcDbEntity
  8
Defpoints
 62
     0
100
AcDbPoint
 10
-206.0668794810009
 20
-92.67070000000002
 30
0.0
  0
ENDBLK
  5
11C0
330
11B4
100
AcDbEntity
  8
0
100
AcDbBlockEnd
  0
BLOCK
  5
11CC
330
11C1
100
AcDbEntity
  8
0
100
AcDbBlockBegin
  2
*D4
 70
     1
 10
0.0
 20
0.0
 30
0.0
  3
*D4
  1

  0
LINE
  5
16F5
330
11C1
100
AcDbEntity
  8
0
 62
     2
370
    -2
100
AcDbLine
 10
-116.0670794810009
 20
-63.34000000000001
 30
0.0
 11
-116.0670794810009
 21
-96.67070000000002
 31
0.0
  0
LINE
  5
16F6
330
11C1
100
AcDbEntity
  8
0
 62
     2
370
    -2
100
AcDbLine
 10
-161.0669794810009
 20
-73.89669999999998
 30
0.0
 11
-161.0669794810009
 21
-96.67070000000002
 31
0.0
  0
LINE
  5
16F7
330
11C1
100
AcDbEntity
  8
0
 62
     2
370
    -2
100
AcDbLine
 10
-120.0670794810009
 20
-92.67070000000002
 30
0.0
 11
-157.0669794810009
 21
-92.67070000000002
 31
0.0
  0
INSERT
  5
16F8
330
11C1
100
AcDbEntity
  8
0
 62
     2
370
    -2
100
AcDbBlockReference
  2
_Open30
 10
-116.0670794810009
 20
-92.67070000000002
 30
0.0
 41
4.0
 42
4.0
 43
4.0
  0
INSERT
  5
16F9
330
11C1
100
AcDbEntity
  8
0
 62
     2
370
    -2
100
AcDbBlockReference
  2
_Open30
 10
-161.0669794810009
 20
-92.67070000000002
 30
0.0
 41
4.0
 42
4.0
 43
4.0
 50
180.0
  0
MTEXT
  5
16FA
330
11C1
100
AcDbEntity
  8
0
 62
     2
100
AcDbMText
 10
-138.5670294810009
 20
-88.57070000000005
 30
0.0
 40
5.0
 41
0.0
 71
     5
 72
     1
  1
\A1;45
  7
CONVERTER_22
 73
     1
 44
1.0
  0
POINT
  5
16FB
330
11C1
100
AcDbEntity
  8
Defpoints
 62
     0
100
AcDbPoint
 10
-116.0670794810009
 20
-60.99000000000001
 30
0.0
  0
POINT
  5
16FC
330
11C1
100
AcDbEntity
  8
Defpoints
 62
     0
100
AcDbPoint
 10
-161.0669794810009
 20
-71.54669999999999
 30
0.0
  0
POINT
  5
16FD
330
11C1
100
AcDbEntity
  8
Defpoints
 62
     0
100
AcDbPoint
 10
-161.0669794810009
 20
-92.67070000000002
 30
0.0
  0
ENDBLK
  5
11CD
330
11C1
100
AcDbEntity
  8
0
100
AcDbBlockEnd
  0
BLOCK
  5
11D9
330
11CE
100
AcDbEntity
  8
0
100
AcDbBlockBegin
  2
*D5
 70
     1
 10
0.0
 20
0.0
 30
0.0
  3
*D5
  1

  0
LINE
  5
16EC
330
11CE
100
AcDbEntity
  8
0
 62
     2
370
    -2
100
AcDbLine
 10
-71.06697948100094
 20
3.579200000000008
 30
0.0
 11
-71.06697948100094
 21
-96.67070000000002
 31
0.0
  0
LINE
  5
16ED
330
11CE
100
AcDbEntity
  8
0
 62
     2
370
    -2
100
AcDbLine
 10
-116.0670794810009
 20
-63.34000000000001
 30
0.0
 11
-116.0670794810009
 21
-96.67070000000002
 31
0.0
  0
LINE
  5
16EE
330
11CE
100
AcDbEntity
  8
0
 62
     2
370
    -2
100
AcDbLine
 10
-75.06697948100094
 20
-92.67070000000002
 30
0.0
 11
-112.0670794810008
 21
-92.67070000000002
 31
0.0
  0
INSERT
  5
16EF
330
11CE
100
AcDbEntity
  8
0
 62
     2
370
    -2
100
AcDbBlockReference
  2
_Open30
 10
-71.06697948100094
 20
-92.67070000000002
 30
0.0
 41
4.0
 42
4.0
 43
4.0
  0
INSERT
  5
16F0
330
11CE
100
AcDbEntity
  8
0
 62
     2
370
    -2
100
AcDbBlockReference
  2
_Open30
 10
-116.0670794810009
 20
-92.67070000000002
 30
0.0
 41
4.0
 42
4.0
 43
4.0
 50
180.0
  0
MTEXT
  5
16F1
330
11CE
100
AcDbEntity
  8
0
 62
     2
100
AcDbMText
 10
-93.56702948100091
 20
-88.57070000000005
 30
0.0
 40
5.0
 41
0.0
 71
     5
 72
     1
  1
\A1;45
  7
CONVERTER_22
 73
     1
 44
1.0
  0
POINT
  5
16F2
330
11CE
100
AcDbEntity
  8
Defpoints
 62
     0
100
AcDbPoint
 10
-71.06697948100094
 20
5.929200000000008
 30
0.0
  0
POINT
  5
16F3
330
11CE
100
AcDbEntity
  8
Defpoints
 62
     0
100
AcDbPoint
 10
-116.0670794810009
 20
-60.99000000000001
 30
0.0
  0
POINT
  5
16F4
330
11CE
100
AcDbEntity
  8
Defpoints
 62
     0
100
AcDbPoint
 10
-116.0670794810009
 20
-92.67070000000002
 30
0.0
  0
ENDBLK
  5
11DA
330
11CE
100
AcDbEntity
  8
0
100
AcDbBlockEnd
  0
BLOCK
  5
11E6
330
11DB
100
AcDbEntity
  8
0
100
AcDbBlockBegin
  2
*D6
 70
     1
 10
0.0
 20
0.0
 30
0.0
  3
*D6
  1

  0
LINE
  5
16E3
330
11DB
100
AcDbEntity
  8
0
 62
     2
370
    -2
100
AcDbLine
 10
-106.0670794810009
 20
-60.02079999999999
 30
0.0
 11
-106.0670794810009
 21
-111.6706999999999
 31
0.0
  0
LINE
  5
16E4
330
11DB
100
AcDbEntity
  8
0
 62
     2
370
    -2
100
AcDbLine
 10
-216.0669794810009
 20
-60.02070000000001
 30
0.0
 11
-216.0669794810009
 21
-111.6706999999999
 31
0.0
  0
LINE
  5
16E5
330
11DB
100
AcDbEntity
  8
0
 62
     2
370
    -2
100
AcDbLine
 10
-110.0670794810008
 20
-107.6707
 30
0.0
 11
-212.0669794810009
 21
-107.6707
 31
0.0
  0
INSERT
  5
16E6
330
11DB
100
AcDbEntity
  8
0
 62
     2
370
    -2
100
AcDbBlockReference
  2
_Open30
 10
-106.0670794810009
 20
-107.6707
 30
0.0
 41
4.0
 42
4.0
 43
4.0
  0
INSERT
  5
16E7
330
11DB
100
AcDbEntity
  8
0
 62
     2
370
    -2
100
AcDbBlockReference
  2
_Open30
 10
-216.0669794810009
 20
-107.6707
 30
0.0
 41
4.0
 42
4.0
 43
4.0
 50
180.0
  0
MTEXT
  5
16E8
330
11DB
100
AcDbEntity
  8
0
 62
     2
100
AcDbMText
 10
-161.0670294810009
 20
-103.5706999999999
 30
0.0
 40
5.0
 41
0.0
 71
     5
 72
     1
  1
\A1;110
  7
CONVERTER_22
 73
     1
 44
1.0
  0
POINT
  5
16E9
330
11DB
100
AcDbEntity
  8
Defpoints
 62
     0
100
AcDbPoint
 10
-106.0670794810009
 20
-57.67079999999999
 30
0.0
  0
POINT
  5
16EA
330
11DB
100
AcDbEntity
  8
Defpoints
 62
     0
100
AcDbPoint
 10
-216.0669794810009
 20
-57.67070000000001
 30
0.0
  0
POINT
  5
16EB
330
11DB
100
AcDbEntity
  8
Defpoints
 62
     0
100
AcDbPoint
 10
-216.0669794810009
 20
-107.6707
 30
0.0
  0
ENDBLK
  5
11E7
330
11DB
100
AcDbEntity
  8
0
100
AcDbBlockEnd
  0
BLOCK
  5
11F3
330
11E8
100
AcDbEntity
  8
0
100
AcDbBlockBegin
  2
*D7
 70
     1
 10
0.0
 20
0.0
 30
0.0
  3
*D7
  1

  0
LINE
  5
16DA
330
11E8
100
AcDbEntity
  8
0
 62
     2
370
    -2
100
AcDbLine
 10
-186.0669794810009
 20
-60.02070000000001
 30
0.0
 11
-186.0669794810009
 21
-81.67070000000002
 31
0.0
  0
LINE
  5
16DB
330
11E8
100
AcDbEntity
  8
0
 62
     2
370
    -2
100
AcDbLine
 10
-216.0669794810009
 20
-60.02070000000001
 30
0.0
 11
-216.0669794810009
 21
-81.67070000000002
 31
0.0
  0
LINE
  5
16DC
330
11E8
100
AcDbEntity
  8
0
 62
     2
370
    -2
100
AcDbLine
 10
-190.0669794810008
 20
-77.67070000000003
 30
0.0
 11
-212.0669794810009
 21
-77.67070000000003
 31
0.0
  0
INSERT
  5
16DD
330
11E8
100
AcDbEntity
  8
0
 62
     2
370
    -2
100
AcDbBlockReference
  2
_Open30
 10
-186.0669794810009
 20
-77.67070000000003
 30
0.0
 41
4.0
 42
4.0
 43
4.0
  0
INSERT
  5
16DE
330
11E8
100
AcDbEntity
  8
0
 62
     2
370
    -2
100
AcDbBlockReference
  2
_Open30
 10
-216.0669794810009
 20
-77.67070000000003
 30
0.0
 41
4.0
 42
4.0
 43
4.0
 50
180.0
  0
MTEXT
  5
16DF
330
11E8
100
AcDbEntity
  8
0
 62
     2
100
AcDbMText
 10
-201.0669794810008
 20
-73.57070000000003
 30
0.0
 40
5.0
 41
0.0
 71
     5
 72
     1
  1
\A1;30
  7
CONVERTER_22
 73
     1
 44
1.0
  0
POINT
  5
16E0
330
11E8
100
AcDbEntity
  8
Defpoints
 62
     0
100
AcDbPoint
 10
-186.0669794810009
 20
-57.67070000000001
 30
0.0
  0
POINT
  5
16E1
330
11E8
100
AcDbEntity
  8
Defpoints
 62
     0
100
AcDbPoint
 10
-216.0669794810009
 20
-57.67070000000001
 30
0.0
  0
POINT
  5
16E2
330
11E8
100
AcDbEntity
  8
Defpoints
 62
     0
100
AcDbPoint
 10
-216.0669794810009
 20
-77.67070000000003
 30
0.0
  0
ENDBLK
  5
11F4
330
11E8
100
AcDbEntity
  8
0
100
AcDbBlockEnd
  0
BLOCK
  5
1200
330
11F5
100
AcDbEntity
  8
0
100
AcDbBlockBegin
  2
*D8
 70
     1
 10
0.0
 20
0.0
 30
0.0
  3
*D8
  1

  0
LINE
  5
16D1
330
11F5
100
AcDbEntity
  8
0
 62
     2
370
    -2
100
AcDbLine
 10
-106.0670794810009
 20
-60.02079999999999
 30
0.0
 11
-106.0670794810009
 21
-81.67070000000002
 31
0.0
  0
LINE
  5
16D2
330
11F5
100
AcDbEntity
  8
0
 62
     2
370
    -2
100
AcDbLine
 10
-136.0670794810008
 20
-60.02079999999999
 30
0.0
 11
-136.0670794810008
 21
-81.67070000000002
 31
0.0
  0
LINE
  5
16D3
330
11F5
100
AcDbEntity
  8
0
 62
     2
370
    -2
100
AcDbLine
 10
-110.0670794810008
 20
-77.67070000000003
 30
0.0
 11
-132.0670794810008
 21
-77.67070000000003
 31
0.0
  0
INSERT
  5
16D4
330
11F5
100
AcDbEntity
  8
0
 62
     2
370
    -2
100
AcDbBlockReference
  2
_Open30
 10
-106.0670794810009
 20
-77.67070000000003
 30
0.0
 41
4.0
 42
4.0
 43
4.0
  0
INSERT
  5
16D5
330
11F5
100
AcDbEntity
  8
0
 62
     2
370
    -2
100
AcDbBlockReference
  2
_Open30
 10
-136.0670794810008
 20
-77.67070000000003
 30
0.0
 41
4.0
 42
4.0
 43
4.0
 50
180.0
  0
MTEXT
  5
16D6
330
11F5
100
AcDbEntity
  8
0
 62
     2
100
AcDbMText
 10
-121.0670794810008
 20
-73.57070000000003
 30
0.0
 40
5.0
 41
0.0
 71
     5
 72
     1
  1
\A1;30
  7
CONVERTER_22
 73
     1
 44
1.0
  0
POINT
  5
16D7
330
11F5
100
AcDbEntity
  8
Defpoints
 62
     0
100
AcDbPoint
 10
-106.0670794810009
 20
-57.67079999999999
 30
0.0
  0
POINT
  5
16D8
330
11F5
100
AcDbEntity
  8
Defpoints
 62
     0
100
AcDbPoint
 10
-136.0670794810008
 20
-57.67079999999999
 30
0.0
  0
POINT
  5
16D9
330
11F5
100
AcDbEntity
  8
Defpoints
 62
     0
100
AcDbPoint
 10
-136.0670794810008
 20
-77.67070000000003
 30
0.0
  0
ENDBLK
  5
1201
330
11F5
100
AcDbEntity
  8
0
100
AcDbBlockEnd
  0
BLOCK
  5
120D
330
1202
100
AcDbEntity
  8
0
100
AcDbBlockBegin
  2
*D9
 70
     1
 10
0.0
 20
0.0
 30
0.0
  3
*D9
  1

  0
LINE
  5
16C8
330
1202
100
AcDbEntity
  8
0
 62
     2
370
    -2
100
AcDbLine
 10
-41.0669794810009
 20
21.67919999999998
 30
0.0
 11
-41.0669794810009
 21
91.09136183026839
 31
0.0
  0
LINE
  5
16C9
330
1202
100
AcDbEntity
  8
0
 62
     2
370
    -2
100
AcDbLine
 10
-68.06697948100091
 20
22.67920000000072
 30
0.0
 11
-68.06697948100091
 21
91.09136183026839
 31
0.0
  0
LINE
  5
16CA
330
1202
100
AcDbEntity
  8
0
 62
     2
370
    -2
100
AcDbLine
 10
-45.06697948100089
 20
87.0913618302684
 30
0.0
 11
-64.06697948100092
 21
87.0913618302684
 31
0.0
  0
INSERT
  5
16CB
330
1202
100
AcDbEntity
  8
0
 62
     2
370
    -2
100
AcDbBlockReference
  2
_Open30
 10
-41.0669794810009
 20
87.0913618302684
 30
0.0
 41
4.0
 42
4.0
 43
4.0
  0
INSERT
  5
16CC
330
1202
100
AcDbEntity
  8
0
 62
     2
370
    -2
100
AcDbBlockReference
  2
_Open30
 10
-68.06697948100091
 20
87.0913618302684
 30
0.0
 41
4.0
 42
4.0
 43
4.0
 50
180.0
  0
MTEXT
  5
16CD
330
1202
100
AcDbEntity
  8
0
 62
     2
100
AcDbMText
 10
-54.56697948100091
 20
91.1913618302684
 30
0.0
 40
5.0
 41
0.0
 71
     5
 72
     1
  1
\A1;27
  7
CONVERTER_22
 73
     1
 44
1.0
  0
POINT
  5
16CE
330
1202
100
AcDbEntity
  8
Defpoints
 62
     0
100
AcDbPoint
 10
-41.0669794810009
 20
19.32919999999998
 30
0.0
  0
POINT
  5
16CF
330
1202
100
AcDbEntity
  8
Defpoints
 62
     0
100
AcDbPoint
 10
-68.06697948100091
 20
20.32920000000073
 30
0.0
  0
POINT
  5
16D0
330
1202
100
AcDbEntity
  8
Defpoints
 62
     0
100
AcDbPoint
 10
-68.06697948100091
 20
87.0913618302684
 30
0.0
  0
ENDBLK
  5
120E
330
1202
100
AcDbEntity
  8
0
100
AcDbBlockEnd
  0
BLOCK
  5
121A
330
120F
100
AcDbEntity
  8
0
100
AcDbBlockBegin
  2
*D10
 70
     1
 10
0.0
 20
0.0
 30
0.0
  3
*D10
  1

  0
LINE
  5
16BF
330
120F
100
AcDbEntity
  8
0
 62
     2
370
    -2
100
AcDbLine
 10
-41.0669794810009
 20
21.67919999999998
 30
0.0
 11
-41.0669794810009
 21
106.0913618302682
 31
0.0
  0
LINE
  5
16C0
330
120F
100
AcDbEntity
  8
0
 62
     2
370
    -2
100
AcDbLine
 10
-71.06697948100094
 20
23.07919999999998
 30
0.0
 11
-71.06697948100094
 21
106.0913618302682
 31
0.0
  0
LINE
  5
16C1
330
120F
100
AcDbEntity
  8
0
 62
     2
370
    -2
100
AcDbLine
 10
-45.06697948100089
 20
102.0913618302682
 30
0.0
 11
-67.06697948100094
 21
102.0913618302682
 31
0.0
  0
INSERT
  5
16C2
330
120F
100
AcDbEntity
  8
0
 62
     2
370
    -2
100
AcDbBlockReference
  2
_Open30
 10
-41.0669794810009
 20
102.0913618302682
 30
0.0
 41
4.0
 42
4.0
 43
4.0
  0
INSERT
  5
16C3
330
120F
100
AcDbEntity
  8
0
 62
     2
370
    -2
100
AcDbBlockReference
  2
_Open30
 10
-71.06697948100094
 20
102.0913618302682
 30
0.0
 41
4.0
 42
4.0
 43
4.0
 50
180.0
  0
MTEXT
  5
16C4
330
120F
100
AcDbEntity
  8
0
 62
     2
100
AcDbMText
 10
-56.06697948100092
 20
106.1913618302682
 30
0.0
 40
5.0
 41
0.0
 71
     5
 72
     1
  1
\A1;30
  7
CONVERTER_22
 73
     1
 44
1.0
  0
POINT
  5
16C5
330
120F
100
AcDbEntity
  8
Defpoints
 62
     0
100
AcDbPoint
 10
-41.0669794810009
 20
19.32919999999998
 30
0.0
  0
POINT
  5
16C6
330
120F
100
AcDbEntity
  8
Defpoints
 62
     0
100
AcDbPoint
 10
-71.06697948100094
 20
20.72919999999998
 30
0.0
  0
POINT
  5
16C7
330
120F
100
AcDbEntity
  8
Defpoints
 62
     0
100
AcDbPoint
 10
-71.06697948100094
 20
102.0913618302682
 30
0.0
  0
ENDBLK
  5
121B
330
120F
100
AcDbEntity
  8
0
100
AcDbBlockEnd
  0
BLOCK
  5
1227
330
121C
100
AcDbEntity
  8
0
100
AcDbBlockBegin
  2
*D11
 70
     1
 10
0.0
 20
0.0
 30
0.0
  3
*D11
  1

  0
LINE
  5
16B6
330
121C
100
AcDbEntity
  8
0
 62
     2
370
    -2
100
AcDbLine
 10
-161.0669794810009
 20
97.67620000000004
 30
0.0
 11
-161.0669794810009
 21
106.0913618302682
 31
0.0
  0
LINE
  5
16B7
330
121C
100
AcDbEntity
  8
0
 62
     2
370
    -2
100
AcDbLine
 10
-73.36699626710188
 20
15.67919999999999
 30
0.0
 11
-73.36699626710188
 21
106.0913618302682
 31
0.0
  0
LINE
  5
16B8
330
121C
100
AcDbEntity
  8
0
 62
     2
370
    -2
100
AcDbLine
 10
-157.0669794810009
 20
102.0913618302682
 30
0.0
 11
-77.36699626710188
 21
102.0913618302682
 31
0.0
  0
INSERT
  5
16B9
330
121C
100
AcDbEntity
  8
0
 62
     2
370
    -2
100
AcDbBlockReference
  2
_Open30
 10
-161.0669794810009
 20
102.0913618302682
 30
0.0
 41
4.0
 42
4.0
 43
4.0
 50
180.0
  0
INSERT
  5
16BA
330
121C
100
AcDbEntity
  8
0
 62
     2
370
    -2
100
AcDbBlockReference
  2
_Open30
 10
-73.36699626710188
 20
102.0913618302682
 30
0.0
 41
4.0
 42
4.0
 43
4.0
  0
MTEXT
  5
16BB
330
121C
100
AcDbEntity
  8
0
 62
     2
100
AcDbMText
 10
-117.2169878740513
 20
106.1913618302682
 30
0.0
 40
5.0
 41
0.0
 71
     5
 72
     1
  1
\A1;88
  7
CONVERTER_22
 73
     1
 44
1.0
  0
POINT
  5
16BC
330
121C
100
AcDbEntity
  8
Defpoints
 62
     0
100
AcDbPoint
 10
-161.0669794810009
 20
95.32620000000004
 30
0.0
  0
POINT
  5
16BD
330
121C
100
AcDbEntity
  8
Defpoints
 62
     0
100
AcDbPoint
 10
-73.36699626710188
 20
13.3292
 30
0.0
  0
POINT
  5
16BE
330
121C
100
AcDbEntity
  8
Defpoints
 62
     0
100
AcDbPoint
 10
-73.36699626710188
 20
102.0913618302682
 30
0.0
  0
ENDBLK
  5
1228
330
121C
100
AcDbEntity
  8
0
100
AcDbBlockEnd
  0
BLOCK
  5
1234
330
1229
100
AcDbEntity
  8
0
100
AcDbBlockBegin
  2
*D12
 70
     1
 10
0.0
 20
0.0
 30
0.0
  3
*D12
  1

  0
LINE
  5
16AD
330
1229
100
AcDbEntity
  8
0
 62
     2
370
    -2
100
AcDbLine
 10
-311.0669794810009
 20
15.67920000000001
 30
0.0
 11
-311.0669794810009
 21
106.0913618302682
 31
0.0
  0
LINE
  5
16AE
330
1229
100
AcDbEntity
  8
0
 62
     2
370
    -2
100
AcDbLine
 10
-161.0669794810009
 20
97.67620000000004
 30
0.0
 11
-161.0669794810009
 21
106.0913618302682
 31
0.0
  0
LINE
  5
16AF
330
1229
100
AcDbEntity
  8
0
 62
     2
370
    -2
100
AcDbLine
 10
-307.0669794810009
 20
102.0913618302682
 30
0.0
 11
-165.0669794810009
 21
102.0913618302682
 31
0.0
  0
INSERT
  5
16B0
330
1229
100
AcDbEntity
  8
0
 62
     2
370
    -2
100
AcDbBlockReference
  2
_Open30
 10
-311.0669794810009
 20
102.0913618302682
 30
0.0
 41
4.0
 42
4.0
 43
4.0
 50
180.0
  0
INSERT
  5
16B1
330
1229
100
AcDbEntity
  8
0
 62
     2
370
    -2
100
AcDbBlockReference
  2
_Open30
 10
-161.0669794810009
 20
102.0913618302682
 30
0.0
 41
4.0
 42
4.0
 43
4.0
  0
MTEXT
  5
16B2
330
1229
100
AcDbEntity
  8
0
 62
     2
100
AcDbMText
 10
-236.0669794810009
 20
106.1913618302682
 30
0.0
 40
5.0
 41
0.0
 71
     5
 72
     1
  1
\A1;150
  7
CONVERTER_22
 73
     1
 44
1.0
  0
POINT
  5
16B3
330
1229
100
AcDbEntity
  8
Defpoints
 62
     0
100
AcDbPoint
 10
-311.0669794810009
 20
13.32920000000002
 30
0.0
  0
POINT
  5
16B4
330
1229
100
AcDbEntity
  8
Defpoints
 62
     0
100
AcDbPoint
 10
-161.0669794810009
 20
95.32620000000004
 30
0.0
  0
POINT
  5
16B5
330
1229
100
AcDbEntity
  8
Defpoints
 62
     0
100
AcDbPoint
 10
-161.0669794810009
 20
102.0913618302682
 30
0.0
  0
ENDBLK
  5
1235
330
1229
100
AcDbEntity
  8
0
100
AcDbBlockEnd
  0
BLOCK
  5
1241
330
1236
100
AcDbEntity
  8
0
100
AcDbBlockBegin
  2
*D13
 70
     1
 10
0.0
 20
0.0
 30
0.0
  3
*D13
  1

  0
LINE
  5
16A4
330
1236
100
AcDbEntity
  8
0
 62
     2
370
    -2
100
AcDbLine
 10
-41.0669794810009
 20
21.67919999999998
 30
0.0
 11
-41.0669794810009
 21
136.0913618302681
 31
0.0
  0
LINE
  5
16A5
330
1236
100
AcDbEntity
  8
0
 62
     2
370
    -2
100
AcDbLine
 10
-311.0669794810009
 20
15.67920000000001
 30
0.0
 11
-311.0669794810009
 21
136.0913618302681
 31
0.0
  0
LINE
  5
16A6
330
1236
100
AcDbEntity
  8
0
 62
     2
370
    -2
100
AcDbLine
 10
-45.06697948100089
 20
132.0913618302681
 30
0.0
 11
-307.0669794810009
 21
132.0913618302681
 31
0.0
  0
INSERT
  5
16A7
330
1236
100
AcDbEntity
  8
0
 62
     2
370
    -2
100
AcDbBlockReference
  2
_Open30
 10
-41.0669794810009
 20
132.0913618302681
 30
0.0
 41
4.0
 42
4.0
 43
4.0
  0
INSERT
  5
16A8
330
1236
100
AcDbEntity
  8
0
 62
     2
370
    -2
100
AcDbBlockReference
  2
_Open30
 10
-311.0669794810009
 20
132.0913618302681
 30
0.0
 41
4.0
 42
4.0
 43
4.0
 50
180.0
  0
MTEXT
  5
16A9
330
1236
100
AcDbEntity
  8
0
 62
     2
100
AcDbMText
 10
-176.0669794810008
 20
136.1913618302682
 30
0.0
 40
5.0
 41
0.0
 71
     5
 72
     1
  1
\A1;270
  7
CONVERTER_22
 73
     1
 44
1.0
  0
POINT
  5
16AA
330
1236
100
AcDbEntity
  8
Defpoints
 62
     0
100
AcDbPoint
 10
-41.0669794810009
 20
19.32919999999998
 30
0.0
  0
POINT
  5
16AB
330
1236
100
AcDbEntity
  8
Defpoints
 62
     0
100
AcDbPoint
 10
-311.0669794810009
 20
13.32920000000002
 30
0.0
  0
POINT
  5
16AC
330
1236
100
AcDbEntity
  8
Defpoints
 62
     0
100
AcDbPoint
 10
-311.0669794810009
 20
132.0913618302681
 30
0.0
  0
ENDBLK
  5
1242
330
1236
100
AcDbEntity
  8
0
100
AcDbBlockEnd
  0
BLOCK
  5
124E
330
1243
100
AcDbEntity
  8
0
100
AcDbBlockBegin
  2
*D14
 70
     1
 10
0.0
 20
0.0
 30
0.0
  3
*D14
  1

  0
LINE
  5
169B
330
1243
100
AcDbEntity
  8
0
 62
     2
370
    -2
100
AcDbLine
 10
-41.0669794810009
 20
21.67919999999998
 30
0.0
 11
-41.0669794810009
 21
121.0913618302684
 31
0.0
  0
LINE
  5
169C
330
1243
100
AcDbEntity
  8
0
 62
     2
370
    -2
100
AcDbLine
 10
-161.0669794810009
 20
97.67620000000004
 30
0.0
 11
-161.0669794810009
 21
121.0913618302684
 31
0.0
  0
LINE
  5
169D
330
1243
100
AcDbEntity
  8
0
 62
     2
370
    -2
100
AcDbLine
 10
-45.06697948100089
 20
117.0913618302684
 30
0.0
 11
-157.0669794810009
 21
117.0913618302684
 31
0.0
  0
INSERT
  5
169E
330
1243
100
AcDbEntity
  8
0
 62
     2
370
    -2
100
AcDbBlockReference
  2
_Open30
 10
-41.0669794810009
 20
117.0913618302684
 30
0.0
 41
4.0
 42
4.0
 43
4.0
  0
INSERT
  5
169F
330
1243
100
AcDbEntity
  8
0
 62
     2
370
    -2
100
AcDbBlockReference
  2
_Open30
 10
-161.0669794810009
 20
117.0913618302684
 30
0.0
 41
4.0
 42
4.0
 43
4.0
 50
180.0
  0
MTEXT
  5
16A0
330
1243
100
AcDbEntity
  8
0
 62
     2
100
AcDbMText
 10
-101.0669794810008
 20
121.1913618302682
 30
0.0
 40
5.0
 41
0.0
 71
     5
 72
     1
  1
\A1;120
  7
CONVERTER_22
 73
     1
 44
1.0
  0
POINT
  5
16A1
330
1243
100
AcDbEntity
  8
Defpoints
 62
     0
100
AcDbPoint
 10
-41.0669794810009
 20
19.32919999999998
 30
0.0
  0
POINT
  5
16A2
330
1243
100
AcDbEntity
  8
Defpoints
 62
     0
100
AcDbPoint
 10
-161.0669794810009
 20
95.32620000000004
 30
0.0
  0
POINT
  5
16A3
330
1243
100
AcDbEntity
  8
Defpoints
 62
     0
100
AcDbPoint
 10
-161.0669794810009
 20
117.0913618302684
 30
0.0
  0
ENDBLK
  5
124F
330
1243
100
AcDbEntity
  8
0
100
AcDbBlockEnd
  0
BLOCK
  5
125C
330
1250
100
AcDbEntity
  8
0
100
AcDbBlockBegin
  2
*D15
 70
     1
 10
0.0
 20
0.0
 30
0.0
  3
*D15
  1

  0
LINE
  5
1778
330
1250
100
AcDbEntity
  8
0
 62
     2
370
    -2
100
AcDbLine
 10
12.49489368543946
 20
20.32919999999998
 30
0.0
 11
38.00025555141699
 21
20.32919999999998
 31
0.0
  0
LINE
  5
1779
330
1250
100
AcDbEntity
  8
0
 62
     2
370
    -2
100
AcDbLine
 10
16.10049368543936
 20
19.32919999999998
 30
0.0
 11
38.00025555141699
 21
19.32919999999996
 31
0.0
  0
LINE
  5
177A
330
1250
100
AcDbEntity
  8
0
 62
     2
370
    -2
100
AcDbLine
 10
34.00025555141699
 20
15.32919999999998
 30
0.0
 11
34.00025555141699
 21
11.32919999999997
 31
0.0
  0
LINE
  5
177B
330
1250
100
AcDbEntity
  8
0
 62
     2
370
    -2
100
AcDbLine
 10
34.000255551417
 20
24.32919999999997
 30
0.0
 11
34.000255551417
 21
32.42979523809522
 31
0.0
  0
LINE
  5
177C
330
1250
100
AcDbEntity
  8
0
 62
     2
370
    -2
100
AcDbLine
 10
34.000255551417
 20
19.32919999999996
 30
0.0
 11
34.000255551417
 21
20.32919999999998
 31
0.0
  0
INSERT
  5
177D
330
1250
100
AcDbEntity
  8
0
 62
     2
370
    -2
100
AcDbBlockReference
  2
_Open30
 10
34.000255551417
 20
19.32919999999996
 30
0.0
 41
4.0
 42
4.0
 43
4.0
 50
90.0
  0
INSERT
  5
177E
330
1250
100
AcDbEntity
  8
0
 62
     2
370
    -2
100
AcDbBlockReference
  2
_Open30
 10
34.000255551417
 20
20.32919999999998
 30
0.0
 41
4.0
 42
4.0
 43
4.0
 50
270.0
  0
MTEXT
  5
177F
330
1250
100
AcDbEntity
  8
0
 62
     2
100
AcDbMText
 10
29.90025555141698
 20
30.3794976190476
 30
0.0
 40
5.0
 41
0.0
 71
     5
 72
     1
  1
\A1;1
  7
CONVERTER_22
 11
0.0000000000000001
 21
1.0
 31
0.0
 73
     1
 44
1.0
  0
POINT
  5
1780
330
1250
100
AcDbEntity
  8
Defpoints
 62
     0
100
AcDbPoint
 10
10.14489368543949
 20
20.32919999999998
 30
0.0
  0
POINT
  5
1781
330
1250
100
AcDbEntity
  8
Defpoints
 62
     0
100
AcDbPoint
 10
13.75049368543936
 20
19.32919999999998
 30
0.0
  0
POINT
  5
1782
330
1250
100
AcDbEntity
  8
Defpoints
 62
     0
100
AcDbPoint
 10
34.000255551417
 20
19.32919999999996
 30
0.0
  0
ENDBLK
  5
125D
330
1250
100
AcDbEntity
  8
0
100
AcDbBlockEnd
  0
BLOCK
  5
1269
330
125E
100
AcDbEntity
  8
0
100
AcDbBlockBegin
  2
*D16
 70
     1
 10
0.0
 20
0.0
 30
0.0
  3
*D16
  1

  0
LINE
  5
176F
330
125E
100
AcDbEntity
  8
0
 62
     2
370
    -2
100
AcDbLine
 10
257.1675205189989
 20
-156.6172965875435
 30
0.0
 11
257.1675205189989
 21
-131.1843700926909
 31
0.0
  0
LINE
  5
1770
330
125E
100
AcDbEntity
  8
0
 62
     2
370
    -2
100
AcDbLine
 10
284.1675205189991
 20
-156.6172965875435
 30
0.0
 11
284.1675205189991
 21
-131.1843700926909
 31
0.0
  0
LINE
  5
1771
330
125E
100
AcDbEntity
  8
0
 62
     2
370
    -2
100
AcDbLine
 10
261.1675205189988
 20
-135.1843700926909
 30
0.0
 11
280.1675205189989
 21
-135.1843700926909
 31
0.0
  0
INSERT
  5
1772
330
125E
100
AcDbEntity
  8
0
 62
     2
370
    -2
100
AcDbBlockReference
  2
_Open30
 10
257.1675205189989
 20
-135.1843700926909
 30
0.0
 41
4.0
 42
4.0
 43
4.0
 50
180.0
  0
INSERT
  5
1773
330
125E
100
AcDbEntity
  8
0
 62
     2
370
    -2
100
AcDbBlockReference
  2
_Open30
 10
284.1675205189991
 20
-135.1843700926909
 30
0.0
 41
4.0
 42
4.0
 43
4.0
  0
MTEXT
  5
1774
330
125E
100
AcDbEntity
  8
0
 62
     2
100
AcDbMText
 10
270.6675205189989
 20
-131.0843700926909
 30
0.0
 40
5.0
 41
0.0
 71
     5
 72
     1
  1
\A1;27
  7
CONVERTER_22
 73
     1
 44
1.0
  0
POINT
  5
1775
330
125E
100
AcDbEntity
  8
Defpoints
 62
     0
100
AcDbPoint
 10
257.1675205189989
 20
-158.9672965875436
 30
0.0
  0
POINT
  5
1776
330
125E
100
AcDbEntity
  8
Defpoints
 62
     0
100
AcDbPoint
 10
284.1675205189991
 20
-158.9672965875436
 30
0.0
  0
POINT
  5
1777
330
125E
100
AcDbEntity
  8
Defpoints
 62
     0
100
AcDbPoint
 10
284.1675205189991
 20
-135.1843700926909
 30
0.0
  0
ENDBLK
  5
126A
330
125E
100
AcDbEntity
  8
0
100
AcDbBlockEnd
  0
BLOCK
  5
1278
330
126B
100
AcDbEntity
  8
0
100
AcDbBlockBegin
  2
*D17
 70
     1
 10
0.0
 20
0.0
 30
0.0
  3
*D17
  1

  0
LINE
  5
1764
330
126B
100
AcDbEntity
  8
0
 62
     2
370
    -2
100
AcDbLine
 10
258.317520518999
 20
-155.4672965875436
 30
0.0
 11
227.8873112464721
 21
-155.4672965875436
 31
0.0
  0
LINE
  5
1765
330
126B
100
AcDbEntity
  8
0
 62
     2
370
    -2
100
AcDbLine
 10
258.317520518999
 20
-162.4672965875436
 30
0.0
 11
227.8873112464721
 21
-162.4672965875436
 31
0.0
  0
LINE
  5
1766
330
126B
100
AcDbEntity
  8
0
 62
     2
370
    -2
100
AcDbLine
 10
231.8873112464721
 20
-151.4672965875436
 30
0.0
 11
231.8873112464721
 21
-147.4672965875436
 31
0.0
  0
LINE
  5
1767
330
126B
100
AcDbEntity
  8
0
 62
     2
370
    -2
100
AcDbLine
 10
231.8873112464721
 20
-166.4672965875436
 30
0.0
 11
231.8873112464721
 21
-170.4672965875436
 31
0.0
  0
LINE
  5
1768
330
126B
100
AcDbEntity
  8
0
 62
     2
370
    -2
100
AcDbLine
 10
231.8873112464721
 20
-155.4672965875436
 30
0.0
 11
231.8873112464721
 21
-162.4672965875436
 31
0.0
  0
INSERT
  5
1769
330
126B
100
AcDbEntity
  8
0
 62
     2
370
    -2
100
AcDbBlockReference
  2
_Open30
 10
231.8873112464721
 20
-155.4672965875436
 30
0.0
 41
4.0
 42
4.0
 43
4.0
 50
270.0
  0
INSERT
  5
176A
330
126B
100
AcDbEntity
  8
0
 62
     2
370
    -2
100
AcDbBlockReference
  2
_Open30
 10
231.8873112464721
 20
-162.4672965875436
 30
0.0
 41
4.0
 42
4.0
 43
4.0
 50
90.0
  0
MTEXT
  5
176B
330
126B
100
AcDbEntity
  8
0
 62
     2
100
AcDbMText
 10
227.7873112464721
 20
-158.9672965875434
 30
0.0
 40
5.0
 41
0.0
 71
     5
 72
     1
  1
\A1;7
  7
CONVERTER_22
 11
0.0000000000000001
 21
1.0
 31
0.0
 73
     1
 44
1.0
  0
POINT
  5
176C
330
126B
100
AcDbEntity
  8
Defpoints
 62
     0
100
AcDbPoint
 10
260.6675205189989
 20
-155.4672965875436
 30
0.0
  0
POINT
  5
176D
330
126B
100
AcDbEntity
  8
Defpoints
 62
     0
100
AcDbPoint
 10
260.6675205189989
 20
-162.4672965875436
 30
0.0
  0
POINT
  5
176E
330
126B
100
AcDbEntity
  8
Defpoints
 62
     0
100
AcDbPoint
 10
231.8873112464721
 20
-162.4672965875436
 30
0.0
  0
ENDBLK
  5
1279
330
126B
100
AcDbEntity
  8
0
100
AcDbBlockEnd
  0
BLOCK
  5
1285
330
127A
100
AcDbEntity
  8
0
100
AcDbBlockBegin
  2
*D18
 70
     1
 10
0.0
 20
0.0
 30
0.0
  3
*D18
  1

  0
LINE
  5
175B
330
127A
100
AcDbEntity
  8
0
 62
     2
370
    -2
100
AcDbLine
 10
214.6675205189991
 20
-74.44590000000002
 30
0.0
 11
214.6675205189991
 21
-96.67070000000002
 31
0.0
  0
LINE
  5
175C
330
127A
100
AcDbEntity
  8
0
 62
     2
370
    -2
100
AcDbLine
 10
158.6675205189991
 20
-64.59189999999999
 30
0.0
 11
158.6675205189991
 21
-96.67070000000002
 31
0.0
  0
LINE
  5
175D
330
127A
100
AcDbEntity
  8
0
 62
     2
370
    -2
100
AcDbLine
 10
210.6675205189991
 20
-92.67070000000002
 30
0.0
 11
162.6675205189991
 21
-92.67070000000002
 31
0.0
  0
INSERT
  5
175E
330
127A
100
AcDbEntity
  8
0
 62
     2
370
    -2
100
AcDbBlockReference
  2
_Open30
 10
214.6675205189991
 20
-92.67070000000002
 30
0.0
 41
4.0
 42
4.0
 43
4.0
  0
INSERT
  5
175F
330
127A
100
AcDbEntity
  8
0
 62
     2
370
    -2
100
AcDbBlockReference
  2
_Open30
 10
158.6675205189991
 20
-92.67070000000002
 30
0.0
 41
4.0
 42
4.0
 43
4.0
 50
180.0
  0
MTEXT
  5
1760
330
127A
100
AcDbEntity
  8
0
 62
     2
100
AcDbMText
 10
186.6675205189991
 20
-88.57070000000005
 30
0.0
 40
5.0
 41
0.0
 71
     5
 72
     1
  1
\A1;56
  7
CONVERTER_22
 73
     1
 44
1.0
  0
POINT
  5
1761
330
127A
100
AcDbEntity
  8
Defpoints
 62
     0
100
AcDbPoint
 10
214.6675205189991
 20
-72.09590000000003
 30
0.0
  0
POINT
  5
1762
330
127A
100
AcDbEntity
  8
Defpoints
 62
     0
100
AcDbPoint
 10
158.6675205189991
 20
-62.2419
 30
0.0
  0
POINT
  5
1763
330
127A
100
AcDbEntity
  8
Defpoints
 62
     0
100
AcDbPoint
 10
158.6675205189991
 20
-92.67070000000002
 30
0.0
  0
ENDBLK
  5
1286
330
127A
100
AcDbEntity
  8
0
100
AcDbBlockEnd
  0
BLOCK
  5
1292
330
1287
100
AcDbEntity
  8
0
100
AcDbBlockBegin
  2
*D19
 70
     1
 10
0.0
 20
0.0
 30
0.0
  3
*D19
  1

  0
LINE
  5
1752
330
1287
100
AcDbEntity
  8
0
 62
     2
370
    -2
100
AcDbLine
 10
270.6675205189989
 20
-64.59189999999999
 30
0.0
 11
270.6675205189989
 21
-96.67070000000002
 31
0.0
  0
LINE
  5
1753
330
1287
100
AcDbEntity
  8
0
 62
     2
370
    -2
100
AcDbLine
 10
214.6675205189991
 20
-74.44590000000002
 30
0.0
 11
214.6675205189991
 21
-96.67070000000002
 31
0.0
  0
LINE
  5
1754
330
1287
100
AcDbEntity
  8
0
 62
     2
370
    -2
100
AcDbLine
 10
266.6675205189989
 20
-92.67070000000002
 30
0.0
 11
218.6675205189991
 21
-92.67070000000002
 31
0.0
  0
INSERT
  5
1755
330
1287
100
AcDbEntity
  8
0
 62
     2
370
    -2
100
AcDbBlockReference
  2
_Open30
 10
270.6675205189989
 20
-92.67070000000002
 30
0.0
 41
4.0
 42
4.0
 43
4.0
  0
INSERT
  5
1756
330
1287
100
AcDbEntity
  8
0
 62
     2
370
    -2
100
AcDbBlockReference
  2
_Open30
 10
214.6675205189991
 20
-92.67070000000002
 30
0.0
 41
4.0
 42
4.0
 43
4.0
 50
180.0
  0
MTEXT
  5
1757
330
1287
100
AcDbEntity
  8
0
 62
     2
100
AcDbMText
 10
242.667520518999
 20
-88.57070000000005
 30
0.0
 40
5.0
 41
0.0
 71
     5
 72
     1
  1
\A1;56
  7
CONVERTER_22
 73
     1
 44
1.0
  0
POINT
  5
1758
330
1287
100
AcDbEntity
  8
Defpoints
 62
     0
100
AcDbPoint
 10
270.6675205189989
 20
-62.2419
 30
0.0
  0
POINT
  5
1759
330
1287
100
AcDbEntity
  8
Defpoints
 62
     0
100
AcDbPoint
 10
214.6675205189991
 20
-72.09590000000003
 30
0.0
  0
POINT
  5
175A
330
1287
100
AcDbEntity
  8
Defpoints
 62
     0
100
AcDbPoint
 10
214.6675205189991
 20
-92.67070000000002
 30
0.0
  0
ENDBLK
  5
1293
330
1287
100
AcDbEntity
  8
0
100
AcDbBlockEnd
  0
BLOCK
  5
129F
330
1294
100
AcDbEntity
  8
0
100
AcDbBlockBegin
  2
*D20
 70
     1
 10
0.0
 20
0.0
 30
0.0
  3
*D20
  1

  0
LINE
  5
1749
330
1294
100
AcDbEntity
  8
0
 62
     2
370
    -2
100
AcDbLine
 10
289.6675205189991
 20
-60.02089999999999
 30
0.0
 11
289.6675205189991
 21
-111.6706999999999
 31
0.0
  0
LINE
  5
174A
330
1294
100
AcDbEntity
  8
0
 62
     2
370
    -2
100
AcDbLine
 10
139.6675205189991
 20
-60.02089999999999
 30
0.0
 11
139.6675205189991
 21
-111.6706999999999
 31
0.0
  0
LINE
  5
174B
330
1294
100
AcDbEntity
  8
0
 62
     2
370
    -2
100
AcDbLine
 10
285.6675205189991
 20
-107.6707
 30
0.0
 11
143.6675205189991
 21
-107.6707
 31
0.0
  0
INSERT
  5
174C
330
1294
100
AcDbEntity
  8
0
 62
     2
370
    -2
100
AcDbBlockReference
  2
_Open30
 10
289.6675205189991
 20
-107.6707
 30
0.0
 41
4.0
 42
4.0
 43
4.0
  0
INSERT
  5
174D
330
1294
100
AcDbEntity
  8
0
 62
     2
370
    -2
100
AcDbBlockReference
  2
_Open30
 10
139.6675205189991
 20
-107.6707
 30
0.0
 41
4.0
 42
4.0
 43
4.0
 50
180.0
  0
MTEXT
  5
174E
330
1294
100
AcDbEntity
  8
0
 62
     2
100
AcDbMText
 10
214.6675205189991
 20
-103.5706999999999
 30
0.0
 40
5.0
 41
0.0
 71
     5
 72
     1
  1
\A1;150
  7
CONVERTER_22
 73
     1
 44
1.0
  0
POINT
  5
174F
330
1294
100
AcDbEntity
  8
Defpoints
 62
     0
100
AcDbPoint
 10
289.6675205189991
 20
-57.67089999999999
 30
0.0
  0
POINT
  5
1750
330
1294
100
AcDbEntity
  8
Defpoints
 62
     0
100
AcDbPoint
 10
139.6675205189991
 20
-57.67089999999999
 30
0.0
  0
POINT
  5
1751
330
1294
100
AcDbEntity
  8
Defpoints
 62
     0
100
AcDbPoint
 10
139.6675205189991
 20
-107.6707
 30
0.0
  0
ENDBLK
  5
12A0
330
1294
100
AcDbEntity
  8
0
100
AcDbBlockEnd
  0
BLOCK
  5
12AC
330
12A1
100
AcDbEntity
  8
0
100
AcDbBlockBegin
  2
*D21
 70
     1
 10
0.0
 20
0.0
 30
0.0
  3
*D21
  1

  0
LINE
  5
1740
330
12A1
100
AcDbEntity
  8
0
 62
     2
370
    -2
100
AcDbLine
 10
184.6675205189989
 20
-60.02089999999999
 30
0.0
 11
184.6675205189989
 21
-81.67070000000002
 31
0.0
  0
LINE
  5
1741
330
12A1
100
AcDbEntity
  8
0
 62
     2
370
    -2
100
AcDbLine
 10
139.6675205189991
 20
-60.02089999999999
 30
0.0
 11
139.6675205189991
 21
-81.67070000000002
 31
0.0
  0
LINE
  5
1742
330
12A1
100
AcDbEntity
  8
0
 62
     2
370
    -2
100
AcDbLine
 10
180.6675205189989
 20
-77.67070000000003
 30
0.0
 11
143.6675205189991
 21
-77.67070000000003
 31
0.0
  0
INSERT
  5
1743
330
12A1
100
AcDbEntity
  8
0
 62
     2
370
    -2
100
AcDbBlockReference
  2
_Open30
 10
184.6675205189989
 20
-77.67070000000003
 30
0.0
 41
4.0
 42
4.0
 43
4.0
  0
INSERT
  5
1744
330
12A1
100
AcDbEntity
  8
0
 62
     2
370
    -2
100
AcDbBlockReference
  2
_Open30
 10
139.6675205189991
 20
-77.67070000000003
 30
0.0
 41
4.0
 42
4.0
 43
4.0
 50
180.0
  0
MTEXT
  5
1745
330
12A1
100
AcDbEntity
  8
0
 62
     2
100
AcDbMText
 10
164.5723179343763
 20
-73.57070000000003
 30
0.0
 40
5.0
 41
0.0
 71
     5
 72
     1
  1
\A1;45
  7
CONVERTER_22
 73
     1
 44
1.0
  0
POINT
  5
1746
330
12A1
100
AcDbEntity
  8
Defpoints
 62
     0
100
AcDbPoint
 10
184.6675205189989
 20
-57.67089999999999
 30
0.0
  0
POINT
  5
1747
330
12A1
100
AcDbEntity
  8
Defpoints
 62
     0
100
AcDbPoint
 10
139.6675205189991
 20
-57.67089999999999
 30
0.0
  0
POINT
  5
1748
330
12A1
100
AcDbEntity
  8
Defpoints
 62
     0
100
AcDbPoint
 10
139.6675205189991
 20
-77.67070000000003
 30
0.0
  0
ENDBLK
  5
12AD
330
12A1
100
AcDbEntity
  8
0
100
AcDbBlockEnd
  0
BLOCK
  5
12B9
330
12AE
100
AcDbEntity
  8
0
100
AcDbBlockBegin
  2
*D22
 70
     1
 10
0.0
 20
0.0
 30
0.0
  3
*D22
  1

  0
LINE
  5
1737
330
12AE
100
AcDbEntity
  8
0
 62
     2
370
    -2
100
AcDbLine
 10
289.6675205189991
 20
-60.02089999999999
 30
0.0
 11
289.6675205189991
 21
-81.67070000000002
 31
0.0
  0
LINE
  5
1738
330
12AE
100
AcDbEntity
  8
0
 62
     2
370
    -2
100
AcDbLine
 10
244.6675205189991
 20
-60.02089999999999
 30
0.0
 11
244.6675205189991
 21
-81.67070000000002
 31
0.0
  0
LINE
  5
1739
330
12AE
100
AcDbEntity
  8
0
 62
     2
370
    -2
100
AcDbLine
 10
285.6675205189991
 20
-77.67070000000003
 30
0.0
 11
248.6675205189991
 21
-77.67070000000003
 31
0.0
  0
INSERT
  5
173A
330
12AE
100
AcDbEntity
  8
0
 62
     2
370
    -2
100
AcDbBlockReference
  2
_Open30
 10
289.6675205189991
 20
-77.67070000000003
 30
0.0
 41
4.0
 42
4.0
 43
4.0
  0
INSERT
  5
173B
330
12AE
100
AcDbEntity
  8
0
 62
     2
370
    -2
100
AcDbBlockReference
  2
_Open30
 10
244.6675205189991
 20
-77.67070000000003
 30
0.0
 41
4.0
 42
4.0
 43
4.0
 50
180.0
  0
MTEXT
  5
173C
330
12AE
100
AcDbEntity
  8
0
 62
     2
100
AcDbMText
 10
265.5364966189611
 20
-73.57070000000003
 30
0.0
 40
5.0
 41
0.0
 71
     5
 72
     1
  1
\A1;45
  7
CONVERTER_22
 73
     1
 44
1.0
  0
POINT
  5
173D
330
12AE
100
AcDbEntity
  8
Defpoints
 62
     0
100
AcDbPoint
 10
289.6675205189991
 20
-57.67089999999999
 30
0.0
  0
POINT
  5
173E
330
12AE
100
AcDbEntity
  8
Defpoints
 62
     0
100
AcDbPoint
 10
244.6675205189991
 20
-57.67089999999999
 30
0.0
  0
POINT
  5
173F
330
12AE
100
AcDbEntity
  8
Defpoints
 62
     0
100
AcDbPoint
 10
244.6675205189991
 20
-77.67070000000003
 30
0.0
  0
ENDBLK
  5
12BA
330
12AE
100
AcDbEntity
  8
0
100
AcDbBlockEnd
  0
BLOCK
  5
12C7
330
12BB
100
AcDbEntity
  8
0
100
AcDbBlockBegin
  2
*D23
 70
     1
 10
0.0
 20
0.0
 30
0.0
  3
*D23
  1

  0
LINE
  5
172C
330
12BB
100
AcDbEntity
  8
0
 62
     2
370
    -2
100
AcDbLine
 10
292.0175205189991
 20
-54.4709
 30
0.0
 11
313.6675205189991
 21
-54.47090000000001
 31
0.0
  0
LINE
  5
172D
330
12BB
100
AcDbEntity
  8
0
 62
     2
370
    -2
100
AcDbLine
 10
292.0175205189991
 20
-57.67089999999999
 30
0.0
 11
313.6675205189991
 21
-57.67089999999999
 31
0.0
  0
LINE
  5
172E
330
12BB
100
AcDbEntity
  8
0
 62
     2
370
    -2
100
AcDbLine
 10
309.6675205189991
 20
-61.67089999999999
 30
0.0
 11
309.6675205189991
 21
-65.6709
 31
0.0
  0
LINE
  5
172F
330
12BB
100
AcDbEntity
  8
0
 62
     2
370
    -2
100
AcDbLine
 10
309.6675205189991
 20
-50.4709
 30
0.0
 11
309.6675205189991
 21
-35.34566190476189
 31
0.0
  0
LINE
  5
1730
330
12BB
100
AcDbEntity
  8
0
 62
     2
370
    -2
100
AcDbLine
 10
309.6675205189991
 20
-57.67089999999999
 30
0.0
 11
309.6675205189991
 21
-54.47090000000001
 31
0.0
  0
INSERT
  5
1731
330
12BB
100
AcDbEntity
  8
0
 62
     2
370
    -2
100
AcDbBlockReference
  2
_Open30
 10
309.6675205189991
 20
-57.67089999999999
 30
0.0
 41
4.0
 42
4.0
 43
4.0
 50
90.0
  0
INSERT
  5
1732
330
12BB
100
AcDbEntity
  8
0
 62
     2
370
    -2
100
AcDbBlockReference
  2
_Open30
 10
309.6675205189991
 20
-54.47090000000001
 30
0.0
 41
4.0
 42
4.0
 43
4.0
 50
270.0
  0
MTEXT
  5
1733
330
12BB
100
AcDbEntity
  8
0
 62
     2
100
AcDbMText
 10
305.5675205189992
 20
-40.9082809523809
 30
0.0
 40
5.0
 41
0.0
 71
     5
 72
     1
  1
\A1;3.2
  7
CONVERTER_22
 11
0.0000000000000001
 21
1.0
 31
0.0
 73
     1
 44
1.0
  0
POINT
  5
1734
330
12BB
100
AcDbEntity
  8
Defpoints
 62
     0
100
AcDbPoint
 10
289.6675205189991
 20
-54.4709
 30
0.0
  0
POINT
  5
1735
330
12BB
100
AcDbEntity
  8
Defpoints
 62
     0
100
AcDbPoint
 10
289.6675205189991
 20
-57.67089999999999
 30
0.0
  0
POINT
  5
1736
330
12BB
100
AcDbEntity
  8
Defpoints
 62
     0
100
AcDbPoint
 10
309.6675205189991
 20
-57.67089999999999
 30
0.0
  0
ENDBLK
  5
12C8
330
12BB
100
AcDbEntity
  8
0
100
AcDbBlockEnd
  0
BLOCK
  5
12D4
330
12C9
100
AcDbEntity
  8
0
100
AcDbBlockBegin
  2
*D24
 70
     1
 10
0.0
 20
0.0
 30
0.0
  3
*D24
  1

  0
LINE
  5
1723
330
12C9
100
AcDbEntity
  8
0
 62
     2
370
    -2
100
AcDbLine
 10
303.3394741893441
 20
13.3291
 30
0.0
 11
328.6675205189991
 21
13.3291
 31
0.0
  0
LINE
  5
1724
330
12C9
100
AcDbEntity
  8
0
 62
     2
370
    -2
100
AcDbLine
 10
292.0175205189991
 20
-57.67089999999999
 30
0.0
 11
328.6675205189991
 21
-57.67089999999999
 31
0.0
  0
LINE
  5
1725
330
12C9
100
AcDbEntity
  8
0
 62
     2
370
    -2
100
AcDbLine
 10
324.6675205189991
 20
9.329100000000002
 30
0.0
 11
324.6675205189991
 21
-53.67090000000001
 31
0.0
  0
INSERT
  5
1726
330
12C9
100
AcDbEntity
  8
0
 62
     2
370
    -2
100
AcDbBlockReference
  2
_Open30
 10
324.6675205189991
 20
13.3291
 30
0.0
 41
4.0
 42
4.0
 43
4.0
 50
90.0
  0
INSERT
  5
1727
330
12C9
100
AcDbEntity
  8
0
 62
     2
370
    -2
100
AcDbBlockReference
  2
_Open30
 10
324.6675205189991
 20
-57.67089999999999
 30
0.0
 41
4.0
 42
4.0
 43
4.0
 50
270.0
  0
MTEXT
  5
1728
330
12C9
100
AcDbEntity
  8
0
 62
     2
100
AcDbMText
 10
320.5675205189991
 20
-22.17089999999994
 30
0.0
 40
5.0
 41
0.0
 71
     5
 72
     1
  1
\A1;71
  7
CONVERTER_22
 11
0.0000000000000001
 21
1.0
 31
0.0
 73
     1
 44
1.0
  0
POINT
  5
1729
330
12C9
100
AcDbEntity
  8
Defpoints
 62
     0
100
AcDbPoint
 10
300.9894741893441
 20
13.3291
 30
0.0
  0
POINT
  5
172A
330
12C9
100
AcDbEntity
  8
Defpoints
 62
     0
100
AcDbPoint
 10
289.6675205189991
 20
-57.67089999999999
 30
0.0
  0
POINT
  5
172B
330
12C9
100
AcDbEntity
  8
Defpoints
 62
     0
100
AcDbPoint
 10
324.6675205189991
 20
-57.67089999999999
 30
0.0
  0
ENDBLK
  5
12D5
330
12C9
100
AcDbEntity
  8
0
100
AcDbBlockEnd
  0
BLOCK
  5
12E1
330
12D6
100
AcDbEntity
  8
0
100
AcDbBlockBegin
  2
*D25
 70
     1
 10
0.0
 20
0.0
 30
0.0
  3
*D25
  1

  0
LINE
  5
171A
330
12D6
100
AcDbEntity
  8
0
 62
     2
370
    -2
100
AcDbLine
 10
292.0175205189991
 20
-57.67089999999999
 30
0.0
 11
343.6675205189992
 21
-57.6709
 31
0.0
  0
LINE
  5
171B
330
12D6
100
AcDbEntity
  8
0
 62
     2
370
    -2
100
AcDbLine
 10
217.0176205189989
 20
85.82909999999998
 30
0.0
 11
343.6675205189992
 21
85.82909999999994
 31
0.0
  0
LINE
  5
171C
330
12D6
100
AcDbEntity
  8
0
 62
     2
370
    -2
100
AcDbLine
 10
339.6675205189992
 20
-53.67090000000001
 30
0.0
 11
339.6675205189992
 21
81.82909999999994
 31
0.0
  0
INSERT
  5
171D
330
12D6
100
AcDbEntity
  8
0
 62
     2
370
    -2
100
AcDbBlockReference
  2
_Open30
 10
339.6675205189992
 20
-57.6709
 30
0.0
 41
4.0
 42
4.0
 43
4.0
 50
270.0
  0
INSERT
  5
171E
330
12D6
100
AcDbEntity
  8
0
 62
     2
370
    -2
100
AcDbBlockReference
  2
_Open30
 10
339.6675205189992
 20
85.82909999999994
 30
0.0
 41
4.0
 42
4.0
 43
4.0
 50
90.0
  0
MTEXT
  5
171F
330
12D6
100
AcDbEntity
  8
0
 62
     2
100
AcDbMText
 10
335.5675205189991
 20
14.07910000000001
 30
0.0
 40
5.0
 41
0.0
 71
     5
 72
     1
  1
\A1;144
  7
CONVERTER_22
 11
0.0000000000000001
 21
1.0
 31
0.0
 73
     1
 44
1.0
  0
POINT
  5
1720
330
12D6
100
AcDbEntity
  8
Defpoints
 62
     0
100
AcDbPoint
 10
289.6675205189991
 20
-57.67089999999999
 30
0.0
  0
POINT
  5
1721
330
12D6
100
AcDbEntity
  8
Defpoints
 62
     0
100
AcDbPoint
 10
214.6676205189991
 20
85.82909999999998
 30
0.0
  0
POINT
  5
1722
330
12D6
100
AcDbEntity
  8
Defpoints
 62
     0
100
AcDbPoint
 10
339.6675205189992
 20
85.82909999999994
 30
0.0
  0
ENDBLK
  5
12E2
330
12D6
100
AcDbEntity
  8
0
100
AcDbBlockEnd
  0
BLOCK
  5
12EE
330
12E3
100
AcDbEntity
  8
0
100
AcDbBlockBegin
  2
*D26
 70
     1
 10
0.0
 20
0.0
 30
0.0
  3
*D26
  1

  0
LINE
  5
1711
330
12E3
100
AcDbEntity
  8
0
 62
     2
370
    -2
100
AcDbLine
 10
142.1675205189302
 20
15.67910000000001
 30
0.0
 11
142.1675205189302
 21
121.0913618302684
 31
0.0
  0
LINE
  5
1712
330
12E3
100
AcDbEntity
  8
0
 62
     2
370
    -2
100
AcDbLine
 10
287.1675205190678
 20
15.67910000000001
 30
0.0
 11
287.1675205190678
 21
121.0913618302684
 31
0.0
  0
LINE
  5
1713
330
12E3
100
AcDbEntity
  8
0
 62
     2
370
    -2
100
AcDbLine
 10
146.1675205189301
 20
117.0913618302684
 30
0.0
 11
283.1675205190677
 21
117.0913618302684
 31
0.0
  0
INSERT
  5
1714
330
12E3
100
AcDbEntity
  8
0
 62
     2
370
    -2
100
AcDbBlockReference
  2
_Open30
 10
142.1675205189302
 20
117.0913618302684
 30
0.0
 41
4.0
 42
4.0
 43
4.0
 50
180.0
  0
INSERT
  5
1715
330
12E3
100
AcDbEntity
  8
0
 62
     2
370
    -2
100
AcDbBlockReference
  2
_Open30
 10
287.1675205190678
 20
117.0913618302684
 30
0.0
 41
4.0
 42
4.0
 43
4.0
  0
MTEXT
  5
1716
330
12E3
100
AcDbEntity
  8
0
 62
     2
100
AcDbMText
 10
214.6675205189989
 20
121.1913618302682
 30
0.0
 40
5.0
 41
0.0
 71
     5
 72
     1
  1
\A1;%%c145
  7
CONVERTER_22
 73
     1
 44
1.0
  0
POINT
  5
1717
330
12E3
100
AcDbEntity
  8
Defpoints
 62
     0
100
AcDbPoint
 10
142.1675205189302
 20
13.3291
 30
0.0
  0
POINT
  5
1718
330
12E3
100
AcDbEntity
  8
Defpoints
 62
     0
100
AcDbPoint
 10
287.1675205190678
 20
13.3291
 30
0.0
  0
POINT
  5
1719
330
12E3
100
AcDbEntity
  8
Defpoints
 62
     0
100
AcDbPoint
 10
287.1675205190678
 20
117.0913618302684
 30
0.0
  0
ENDBLK
  5
12EF
330
12E3
100
AcDbEntity
  8
0
100
AcDbBlockEnd
  0
ENDSEC
  0
SECTION
  2
ENTITIES
  0
SPLINE
  5
F28
330
1F
100
AcDbEntity
  8
0
  6
Continuous
 62
    54
100
AcDbSpline
210
0.0
220
0.0
230
1.0
 70
     8
 71
     3
 72
   141
 73
   137
 74
   135
 42
0.0000000001
 43
0.0000000001
 44
0.00000001
 40
0.0
 40
0.0
 40
0.0
 40
0.0
 40
0.2626125722556449
 40
0.5252229897646617
 40
0.7878464660577594
 40
1.075428894539329
 40
1.363038469518841
 40
1.650586370738192
 40
1.931165997059122
 40
2.211798652447195
 40
2.492417660817325
 40
2.793855024798812
 40
3.095312440915733
 40
3.396867360777394
 40
3.698451587455193
 40
4.131419367174132
 40
4.564261333664694
 40
4.997082101088542
 40
5.504456529645336
 40
6.011845427822676
 40
6.017628938581191
 40
6.023412446106712
 40
6.029184323754021
 40
6.034956207770906
 40
6.392597960615497
 40
6.750241790400558
 40
7.107879068242167
 40
7.458869678834639
 40
7.809872634916467
 40
8.160857351962837
 40
8.662250235285856
 40
9.16366767426925
 40
9.665963731559484
 40
10.16826034608088
 40
10.670572059692
 40
11.53513511739705
 40
12.39966727442301
 40
13.15108807270427
 40
13.90254681865648
 40
14.34352127109366
 40
14.7844777993105
 40
15.22546558312139
 40
15.66670408180276
 40
15.94520950942097
 40
16.22377830584833
 40
16.50228001026693
 40
16.78067696223662
 40
17.05903809259527
 40
17.33755265406584
 40
17.60555161429084
 40
17.87365499845074
 40
18.14164887677249
 40
18.40945504999517
 40
18.67714768750844
 40
18.95195816673721
 40
19.22705363335573
 40
19.50247915331863
 40
19.77817141596927
 40
20.05397194558612
 40
20.32963988899201
 40
20.62920858574838
 40
20.92853756368696
 40
21.22780795499025
 40
21.52710147147667
 40
21.82640832152208
 40
22.12563524598858
 40
22.45504233936392
 40
22.78431214062675
 40
23.11352656921052
 40
23.44269033167676
 40
23.77173681646103
 40
24.13304127693879
 40
24.49434029182105
 40
24.85579325322771
 40
25.21743423172817
 40
25.57918777449623
 40
25.94088462366876
 40
26.51623964040034
 40
27.0912366812095
 40
27.66612082861392
 40
28.24100476126343
 40
29.19453933397158
 40
30.1481302823649
 40
30.86917923654622
 40
31.59022136773162
 40
32.31126706812961
 40
32.81978126287667
 40
33.32830297845372
 40
33.83682121827333
 40
34.34537023208824
 40
34.88768945933709
 40
35.4299594635132
 40
35.97207848225665
 40
36.45475494073527
 40
36.93751076578519
 40
37.42039946420067
 40
37.90335952236911
 40
38.4133312922071
 40
38.92320624963318
 40
39.43298700024183
 40
39.94276972224243
 40
40.4162151037456
 40
40.88973934494283
 40
41.36324863012005
 40
41.83667380712345
 40
42.35248327591883
 40
42.86833599801406
 40
43.38431243746351
 40
43.90038956572033
 40
44.41646096010132
 40
45.30530436082398
 40
46.19393822957817
 40
47.08256538739967
 40
47.76074793111893
 40
48.43893529127642
 40
49.11712161447559
 40
49.61240291207278
 40
50.10770005288123
 40
50.60300444592246
 40
51.09835660715208
 40
51.4701903491478
 40
51.84200607556516
 40
52.21375512448414
 40
52.58544661174389
 40
52.88720975880687
 40
53.18899926558
 40
53.49091296168277
 40
53.67862654352776
 40
53.86630490942624
 40
54.0538986781452
 40
54.24150005309898
 40
54.41175084459256
 40
54.58197677432773
 40
54.75206400148931
 40
54.92310382909771
 40
55.09419135664116
 40
55.09419135664116
 40
55.09419135664116
 40
55.09419135664116
 10
251.4642205189991
 20
-148.9672965875436
 30
0.0
 10
251.4469817232696
 20
-149.053120148123
 30
0.0
 10
251.4125042810057
 20
-149.2247665666333
 30
0.0
 10
251.3638053521256
 20
-149.482838902742
 30
0.0
 10
251.3194984884786
 20
-149.7501660205912
 30
0.0
 10
251.2833990599666
 20
-150.027166374795
 30
0.0
 10
251.2576485920062
 20
-150.3136734439832
 30
0.0
 10
251.244595300976
 20
-150.5987248137422
 30
0.0
 10
251.245030237397
 20
-150.8817421700777
 30
0.0
 10
251.257483721667
 20
-151.1621535448506
 30
0.0
 10
251.2814519600265
 20
-151.4487827815196
 30
0.0
 10
251.3167541473867
 20
-151.7412255619591
 30
0.0
 10
251.3623519361296
 20
-152.0392809081295
 30
0.0
 10
251.4154740078209
 20
-152.3361218284653
 30
0.0
 10
251.4827344830253
 20
-152.6748909641159
 30
0.0
 10
251.5643601973296
 20
-153.0553827712092
 30
0.0
 10
251.661195488178
 20
-153.477300406144
 30
0.0
 10
251.7682411118542
 20
-153.9222909084845
 30
0.0
 10
251.8844823514158
 20
-154.3906096993429
 30
0.0
 10
251.9667274793218
 20
-154.7207005116697
 30
0.0
 10
252.0080398917229
 20
-154.8886802771207
 30
0.0
 10
252.0094196886148
 20
-154.8942927904566
 30
0.0
 10
252.0107979517424
 20
-154.8999016899608
 30
0.0
 10
252.040153202196
 20
-155.0194110370599
 30
0.0
 10
252.0969465883605
 20
-155.2529594129087
 30
0.0
 10
252.178124982492
 20
-155.6012737434859
 30
0.0
 10
252.2537432150076
 20
-155.9485791324265
 30
0.0
 10
252.3221738289092
 20
-156.295121070216
 30
0.0
 10
252.3833232399538
 20
-156.6407699811163
 30
0.0
 10
252.4450981599899
 20
-157.0371411080441
 30
0.0
 10
252.503128420943
 20
-157.4847201241684
 30
0.0
 10
252.5560200627587
 20
-157.9836564315
 30
0.0
 10
252.6007146375753
 20
-158.4836823633088
 30
0.0
 10
252.6396238159891
 20
-158.9844813273301
 30
0.0
 10
252.6837048320221
 20
-159.605978611737
 30
0.0
 10
252.7344566668615
 20
-160.3480469866306
 30
0.0
 10
252.7922572105684
 20
-161.1728651249595
 30
0.0
 10
252.8522358932797
 20
-161.9597267066166
 30
0.0
 10
252.907551674075
 20
-162.6053267825888
 30
0.0
 10
252.9596667541917
 20
-163.1472989543125
 30
0.0
 10
253.0080232937102
 20
-163.5856345167757
 30
0.0
 10
253.0652998507992
 20
-164.0229993594813
 30
0.0
 10
253.1257639301977
 20
-164.4052195428722
 30
0.0
 10
253.1865673071337
 20
-164.7324152858205
 30
0.0
 10
253.2441752904757
 20
-165.0049515407674
 30
0.0
 10
253.3095087459833
 20
-165.2757125691886
 30
0.0
 10
253.3835619709519
 20
-165.5441605055476
 30
0.0
 10
253.4673305375323
 20
-165.8097554574768
 30
0.0
 10
253.5605727850379
 20
-166.0685091453032
 30
0.0
 10
253.6636491099937
 20
-166.3198180430291
 30
0.0
 10
253.7766015571836
 20
-166.5629977553057
 30
0.0
 10
253.901299173713
 20
-166.8003138201448
 30
0.0
 10
254.0382242975915
 20
-167.0306508754475
 30
0.0
 10
254.1891682567291
 20
-167.2548281385468
 30
0.0
 10
254.3549522963645
 20
-167.471351469501
 30
0.0
 10
254.5348878666418
 20
-167.6796597956546
 30
0.0
 10
254.7264974611407
 20
-167.877677350438
 30
0.0
 10
254.9287194358408
 20
-168.0651735587417
 30
0.0
 10
255.1404963903135
 20
-168.2419187113295
 30
0.0
 10
255.3672548479392
 20
-168.4125632761713
 30
0.0
 10
255.6089348795241
 20
-168.5758235772881
 30
0.0
 10
255.865334085886
 20
-168.730636247458
 30
0.0
 10
256.1288613022683
 20
-168.8727624452601
 30
0.0
 10
256.3986748526589
 20
-169.0025174734385
 30
0.0
 10
256.67393578486
 20
-169.1202171255593
 30
0.0
 10
256.9632911880336
 20
-169.229768425941
 30
0.0
 10
257.2665147750604
 20
-169.330136404511
 30
0.0
 10
257.5833223031159
 20
-169.4203090654941
 30
0.0
 10
257.903426464849
 20
-169.4975926143017
 30
0.0
 10
258.2261869479605
 20
-169.5624834253941
 30
0.0
 10
258.5616604233399
 20
-169.6172244180857
 30
0.0
 10
258.9095497380856
 20
-169.6609786551116
 30
0.0
 10
259.2694872693333
 20
-169.6936353954407
 30
0.0
 10
259.6303599147388
 20
-169.7151761868391
 30
0.0
 10
259.9918227141297
 20
-169.7269327305788
 30
0.0
 10
260.3535329802276
 20
-169.7302350574716
 30
0.0
 10
260.7864651239895
 20
-169.725658154286
 30
0.0
 10
261.2902822002451
 20
-169.7098363253455
 30
0.0
 10
261.8646069262065
 20
-169.6797938843611
 30
0.0
 10
262.4382033651234
 20
-169.6405184189976
 30
0.0
 10
263.1370885236867
 20
-169.5847006218219
 30
0.0
 10
263.9611944374652
 20
-169.5116464775872
 30
0.0
 10
264.8340009438495
 20
-169.4361008169157
 30
0.0
 10
265.6304503752063
 20
-169.3777387046466
 30
0.0
 10
266.3502744869721
 20
-169.3353055996856
 30
0.0
 10
266.9999503089417
 20
-169.3081971795266
 30
0.0
 10
267.5791565387699
 20
-169.293961425954
 30
0.0
 10
268.0876790188327
 20
-169.28952450814
 30
0.0
 10
268.5962176402416
 20
-169.2940062465505
 30
0.0
 10
269.1158429536332
 20
-169.3085828039977
 30
0.0
 10
269.6462830326658
 20
-169.3349462516973
 30
0.0
 10
270.187093622655
 20
-169.3750042725964
 30
0.0
 10
270.7068978683675
 20
-169.4272718843976
 30
0.0
 10
271.2054113767789
 20
-169.4909175124564
 30
0.0
 10
271.6830839252542
 20
-169.5610378140874
 30
0.0
 10
272.1599385634197
 20
-169.6370470594495
 30
0.0
 10
272.6452832319813
 20
-169.717332148288
 30
0.0
 10
273.1395511509141
 20
-169.7987946974862
 30
0.0
 10
273.6431329928921
 20
-169.8787006590714
 30
0.0
 10
274.1475376485555
 20
-169.9528700780663
 30
0.0
 10
274.6410895851151
 20
-170.017015758893
 30
0.0
 10
275.1238855282567
 20
-170.0693174058778
 30
0.0
 10
275.595639968015
 20
-170.1102836479688
 30
0.0
 10
276.0681794949748
 20
-170.1408305564114
 30
0.0
 10
276.5553821813707
 20
-170.1611539493326
 30
0.0
 10
277.0570568361495
 20
-170.1696534959861
 30
0.0
 10
277.5729640994595
 20
-170.1669277154802
 30
0.0
 10
278.0888097413535
 20
-170.1545929026075
 30
0.0
 10
278.6044751721489
 20
-170.1345027267378
 30
0.0
 10
279.2440020477032
 20
-170.1022478728069
 30
0.0
 10
280.0071081011972
 20
-170.0555416896813
 30
0.0
 10
280.8936342106006
 20
-169.9933225976733
 30
0.0
 10
281.7098545548387
 20
-169.9325289525649
 30
0.0
 10
282.4561395384751
 20
-169.8772002320474
 30
0.0
 10
283.1327707915817
 20
-169.8311995366391
 30
0.0
 10
283.7490492144317
 20
-169.7966971820184
 30
0.0
 10
284.3048649811055
 20
-169.7741499123605
 30
0.0
 10
284.8000177544788
 20
-169.7614654130512
 30
0.0
 10
285.2953427129339
 20
-169.7571439648605
 30
0.0
 10
285.7495139183035
 20
-169.7617415368759
 30
0.0
 10
286.1623670576177
 20
-169.7734401661231
 30
0.0
 10
286.5337893561474
 20
-169.7906975599853
 30
0.0
 10
286.9047355170445
 20
-169.8156035044055
 30
0.0
 10
287.2517564037252
 20
-169.8469818646416
 30
0.0
 10
287.5747753621518
 20
-169.8837788624938
 30
0.0
 10
287.8737617562446
 20
-169.9253086116717
 30
0.0
 10
288.1339662532714
 20
-169.9690043114504
 30
0.0
 10
288.3555876598567
 20
-170.0121736898107
 30
0.0
 10
288.5387751925843
 20
-170.0530463612823
 30
0.0
 10
288.7204246008796
 20
-170.1001968317391
 30
0.0
 10
288.8944069915294
 20
-170.1532085023222
 30
0.0
 10
289.0602684570183
 20
-170.2123521040986
 30
0.0
 10
289.2176156708253
 20
-170.2773990311097
 30
0.0
 10
289.3714197133075
 20
-170.351112388693
 30
0.0
 10
289.5207187348953
 20
-170.434093882934
 30
0.0
 10
289.6185153768287
 20
-170.4927596304393
 30
0.0
 10
289.6674205189991
 20
-170.5220965875435
 30
0.0
 11
251.4642205189991
 21
-148.9672965875436
 31
0.0
 11
251.4130071329387
 21
-149.2248670764204
 31
0.0
 11
251.3647649753401
 21
-149.4830083673299
 31
0.0
 11
251.322290903693
 21
-149.7421744218604
 31
0.0
 11
251.2853039713959
 21
-150.027368426081
 31
0.0
 11
251.2597455869851
 21
-150.3138401287029
 31
0.0
 11
251.2467835965479
 21
-150.6010957326683
 31
0.0
 11
251.2470334886259
 21
-150.8816752472024
 31
0.0
 11
251.2593066609642
 21
-151.1620393965904
 31
0.0
 11
251.2825205189991
 21
-151.4416965875434
 31
0.0
 11
251.318329572671
 21
-151.7409994373435
 31
0.0
 11
251.3635993271986
 21
-152.0390383994351
 31
0.0
 11
251.4164058530794
 21
-152.335933735247
 31
0.0
 11
251.4748252208109
 21
-152.6318057062084
 31
0.0
 11
251.5653749165329
 21
-153.0551989641161
 31
0.0
 11
251.6619319336343
 21
-153.4771336870598
 31
0.0
 11
251.7628944656709
 21
-153.8980141735395
 31
0.0
 11
251.8845545386885
 21
-154.3905866428398
 31
0.0
 11
252.0066586144039
 21
-154.8830641436945
 31
0.0
 11
252.0080398156748
 21
-154.8886803060644
 31
0.0
 11
252.0094205189989
 21
-154.8942965875435
 31
0.0
 11
252.0107978727728
 21
-154.8999017162824
 31
0.0
 11
252.0121747180251
 21
-154.9055069765153
 31
0.0
 11
252.0963915438658
 21
-155.2530917139763
 31
0.0
 11
252.177277390769
 21
-155.6014687925225
 31
0.0
 11
252.2530704861019
 21
-155.9509824965646
 31
0.0
 11
252.3210311336884
 21
-156.2953308074628
 31
0.0
 11
252.3821416867395
 21
-156.6409730728215
 31
0.0
 11
252.4361529653531
 21
-156.9877771291715
 31
0.0
 11
252.5011911869742
 21
-157.4849338986154
 31
0.0
 11
252.5546205189989
 21
-157.9834965875436
 31
0.0
 11
252.5997459784095
 21
-158.4837615395749
 31
0.0
 11
252.6390615129987
 21
-158.9845171464296
 31
0.0
 11
252.675006942773
 21
-159.4855410817423
 31
0.0
 11
252.7346983716984
 21
-160.3480410608923
 31
0.0
 11
252.7958333624761
 21
-161.2104089425205
 31
0.0
 11
252.853407728563
 21
-161.9596208005909
 31
0.0
 11
252.918020518999
 21
-162.7082965875436
 31
0.0
 11
252.9606919104966
 21
-163.1472016114098
 31
0.0
 11
253.00950680552
 21
-163.5854478501006
 31
0.0
 11
253.0672297581784
 21
-164.0226414984249
 31
0.0
 11
253.1366253225811
 21
-164.4583887511904
 31
0.0
 11
253.187682616828
 21
-164.7321741158328
 31
0.0
 11
253.2454692620119
 21
-165.0046833412891
 31
0.0
 11
253.310973637564
 21
-165.2753720483449
 31
0.0
 11
253.385184122915
 21
-165.5436958577858
 31
0.0
 11
253.4690890974959
 21
-165.8091103903974
 31
0.0
 11
253.563676940737
 21
-166.0710712669654
 31
0.0
 11
253.6655031892176
 21
-166.318972170144
 31
0.0
 11
253.7785803717003
 21
-166.5620626376628
 31
0.0
 11
253.9033787877689
 21
-166.79922518565
 31
0.0
 11
254.0403687370071
 21
-167.0293423302339
 31
0.0
 11
254.1900205189989
 21
-167.2512965875434
 31
0.0
 11
254.3569883900047
 21
-167.4695682750424
 31
0.0
 11
254.5367262440475
 21
-167.677827295497
 31
0.0
 11
254.7281748810318
 21
-167.8758339531379
 31
0.0
 11
254.930275100861
 21
-168.0633485521966
 31
0.0
 11
255.1419677034393
 21
-168.2401313969044
 31
0.0
 11
255.3621934886709
 21
-168.4059427914926
 31
0.0
 11
255.610368620954
 21
-168.5737239222417
 31
0.0
 11
255.8665521454194
 21
-168.7285394216938
 31
0.0
 11
256.1299032070773
 21
-168.8706977330224
 31
0.0
 11
256.3995809509374
 21
-169.0005072994003
 31
0.0
 11
256.67474452201
 21
-169.1182765640014
 31
0.0
 11
256.954553065305
 21
-169.2243139699984
 31
0.0
 11
257.2672405062703
 21
-169.3279266983831
 31
0.0
 11
257.5839026421478
 21
-169.4181691151213
 31
0.0
 11
257.9038978029124
 21
-169.495533429422
 31
0.0
 11
258.226584318538
 21
-169.5605118504929
 31
0.0
 11
258.5513205189989
 21
-169.6135965875434
 31
0.0
 11
258.9097728509571
 21
-169.6589048531348
 31
0.0
 11
259.2695732909163
 21
-169.6917776627666
 31
0.0
 11
259.6303704399296
 21
-169.7135414083966
 31
0.0
 11
259.9918128990484
 21
-169.7255224819842
 31
0.0
 11
260.3535492693245
 21
-169.7290472754881
 31
0.0
 11
260.71522815181
 21
-169.7254421808675
 31
0.0
 11
261.2903136250121
 21
-169.7078326979799
 31
0.0
 11
261.8645492405085
 21
-169.6782513707198
 31
0.0
 11
262.4381214926041
 21
-169.6394357212794
 31
0.0
 11
263.0112168756038
 21
-169.5941232718505
 31
0.0
 11
263.9612064045949
 21
-169.511976596179
 31
0.0
 11
264.9114205189988
 21
-169.4317965875434
 31
0.0
 11
265.6305667813539
 21
-169.3794492119135
 31
0.0
 11
266.3503798711391
 21
-169.3373674964244
 31
0.0
 11
267.070813191501
 21
-169.3076566730304
 31
0.0
 11
267.579177342558
 21
-169.2953044990603
 31
0.0
 11
268.087680932186
 21
-169.2910109494266
 31
0.0
 11
268.5961781397679
 21
-169.2956358956273
 31
0.0
 11
269.104523144686
 21
-169.3100392091596
 31
0.0
 11
269.6461649403685
 21
-169.3371373534795
 31
0.0
 11
270.1869400251079
 21
-169.3773749622804
 31
0.0
 11
270.726320518999
 21
-169.4317965875434
 31
0.0
 11
271.2051760541045
 21
-169.4924096229954
 31
0.0
 11
271.6828882499215
 21
-169.5620102306224
 31
0.0
 11
272.1598383541425
 21
-169.6375091917556
 31
0.0
 11
272.6364076144601
 21
-169.7158172877266
 31
0.0
 11
273.1396651295016
 21
-169.7982980707614
 31
0.0
 11
273.6433115467086
 21
-169.8777509412363
 31
0.0
 11
274.1477353179623
 21
-169.9514603210033
 31
0.0
 11
274.6533248951442
 21
-170.0167106319154
 31
0.0
 11
275.1240227308459
 21
-170.0676427113228
 31
0.0
 11
275.5957769128035
 21
-170.1085474639278
 31
0.0
 11
276.0683039918951
 21
-170.1390302894334
 31
0.0
 11
276.541320518999
 21
-170.1586965875435
 31
0.0
 11
277.0570506582795
 21
-170.16774266414
 31
0.0
 11
277.5728977245224
 21
-170.1653270686017
 31
0.0
 11
278.0887340138176
 21
-170.1533017341744
 31
0.0
 11
278.6044318222562
 21
-170.1335185941049
 31
0.0
 11
279.1198634459282
 21
-170.1078295816405
 31
0.0
 11
280.0070884340319
 21
-170.0542160450515
 31
0.0
 11
280.893589869634
 21
-169.9926907888074
 31
0.0
 11
281.7798134153962
 21
-169.9273757652354
 31
0.0
 11
282.4561881515186
 21
-169.8778906283244
 31
0.0
 11
283.1328580364957
 21
-169.8325479105093
 31
0.0
 11
283.810020518999
 21
-169.7952965875435
 31
0.0
 11
284.3049012872471
 21
-169.7753820488378
 31
0.0
 11
284.800040095867
 21
-169.7628593587133
 31
0.0
 11
285.2953270236448
 21
-169.7586999349478
 31
0.0
 11
285.7906521493672
 21
-169.7638751953185
 31
0.0
 11
286.1623323016911
 21
-169.7745614466614
 31
0.0
 11
286.5337400765781
 21
-169.7919740590683
 31
0.0
 11
286.9046434970596
 21
-169.8170341457675
 31
0.0
 11
287.2748105861682
 21
-169.8506628199884
 31
0.0
 11
287.574613187148
 21
-169.885005174135
 31
0.0
 11
287.8735067585865
 21
-169.9267129582755
 31
0.0
 11
288.1712205189991
 21
-169.9768965875435
 31
0.0
 11
288.3554279138268
 21
-170.0130078662518
 31
0.0
 11
288.5385523180731
 21
-170.0541007067348
 31
0.0
 11
288.7200708573846
 21
-170.1014551350883
 31
0.0
 11
288.8994606574069
 21
-170.1563511774073
 31
0.0
 11
289.0597738194543
 21
-170.213666288995
 31
0.0
 11
289.2170279318932
 21
-170.2788430579476
 31
0.0
 11
289.370344394431
 21
-170.3524890157954
 31
0.0
 11
289.5202235158603
 21
-170.4348957612388
 31
0.0
 11
289.6674205189991
 21
-170.5220965875435
 31
0.0
  0
ARC
  5
F29
330
1F
100
AcDbEntity
  8
0
  6
Continuous
 62
     7
100
AcDbCircle
 10
279.6675205179989
 20
-158.9675965865434
 30
0.0
 40
10.00000000099999
100
AcDbArc
 50
359.9999999942695
 51
89.99885407868083
  0
ARC
  5
F2A
330
1F
100
AcDbEntity
  8
0
  6
Continuous
 62
     7
100
AcDbCircle
 10
280.6675205189991
 20
-158.9672965875436
 30
0.0
 40
3.5
100
AcDbArc
 50
270.0
 51
90.0
  0
ARC
  5
F2B
330
1F
100
AcDbEntity
  8
0
  6
Continuous
 62
     7
100
AcDbCircle
 10
260.6675205189989
 20
-158.9672965875436
 30
0.0
 40
3.5
100
AcDbArc
 50
90.0
 51
270.0
  0
LINE
  5
F2C
330
1F
100
AcDbEntity
  8
0
  6
Continuous
 62
     7
100
AcDbLine
 10
260.6675205189989
 20
-162.4672965875436
 30
0.0
 11
280.6675205189991
 21
-162.4672965875436
 31
0.0
  0
LINE
  5
F2D
330
1F
100
AcDbEntity
  8
0
  6
Continuous
 62
     7
100
AcDbLine
 10
260.6675205189989
 20
-155.4672965875436
 30
0.0
 11
280.6675205189991
 21
-155.4672965875436
 31
0.0
  0
LINE
  5
F2E
330
1F
100
AcDbEntity
  8
0
  6
Continuous
 62
     7
100
AcDbLine
 10
289.6675205189991
 20
-158.9675965875435
 30
0.0
 11
289.6675205189991
 21
-170.5221965875435
 31
0.0
  0
LINE
  5
F2F
330
1F
100
AcDbEntity
  8
0
  6
Continuous
 62
     7
100
AcDbLine
 10
251.4643205189992
 20
-148.9672965875436
 30
0.0
 11
279.6677205189989
 21
-148.9672965875436
 31
0.0
  0
LINE
  5
F30
330
1F
100
AcDbEntity
  8
0
  6
DASH_CENTER
 62
    30
100
AcDbLine
 10
287.234920518999
 20
-158.9672965875436
 30
0.0
 11
251.3719205189992
 21
-158.9672965875436
 31
0.0
  0
LINE
  5
F31
330
1F
100
AcDbEntity
  8
0
  6
DASH_CENTER
 62
    30
100
AcDbLine
 10
270.6675205189989
 20
-151.3703965875436
 30
0.0
 11
270.6675205189989
 21
-166.9928965875435
 31
0.0
  0
ARC
  5
F48
330
1F
100
AcDbEntity
  8
0
  6
Continuous
 62
     7
100
AcDbCircle
 10
223.6675205189991
 20
81.23528528528897
 30
0.0
 40
3.0
100
AcDbArc
 50
180.0
 51
262.4502589271763
  0
ARC
  5
F49
330
1F
100
AcDbEntity
  8
0
  6
Continuous
 62
     7
100
AcDbCircle
 10
205.6675205189991
 20
81.23528528528897
 30
0.0
 40
3.000000000000006
100
AcDbArc
 50
277.5497410728239
 51
0.0
  0
ARC
  5
F4A
330
1F
100
AcDbEntity
  8
0
  6
Continuous
 62
     7
100
AcDbCircle
 10
147.8041404548875
 20
-1.555066298525133
 30
0.0
 40
2.999999999999948
100
AcDbArc
 50
12.54974107282268
 51
95.00000000000273
  0
ARC
  5
F4B
330
1F
100
AcDbEntity
  8
0
  6
Continuous
 62
     7
100
AcDbCircle
 10
283.0997039525686
 20
16.37643826712625
 30
0.0
 40
2.999999999999886
100
AcDbArc
 50
182.5497410728226
 51
265.0000000000011
  0
ARC
  5
F4C
330
1F
100
AcDbEntity
  8
0
  6
Continuous
 62
     7
100
AcDbCircle
 10
281.5309005831106
 20
-1.555066298525133
 30
0.0
 40
2.999999999999986
100
AcDbArc
 50
84.99999999999687
 51
167.4502589271756
  0
ARC
  5
F4D
330
1F
100
AcDbEntity
  8
0
  6
Continuous
 62
     7
100
AcDbCircle
 10
149.1423722168175
 20
22.02742052985588
 30
0.0
 40
2.00000000000001
100
AcDbArc
 50
80.70444615503438
 51
172.438320671231
  0
ARC
  5
F4E
330
1F
100
AcDbEntity
  8
0
  6
Continuous
 62
     7
100
AcDbCircle
 10
149.1423722168175
 20
4.630779470144148
 30
0.0
 40
1.999999999999953
100
AcDbArc
 50
187.5616793287688
 51
279.2955538449656
  0
ARC
  5
F4F
330
1F
100
AcDbEntity
  8
0
  6
Continuous
 62
     7
100
AcDbCircle
 10
129.3730970319004
 20
-4.170899999999988
 30
0.0
 40
19.0
100
AcDbArc
 50
90.0
 51
180.0
  0
ARC
  5
F50
330
1F
100
AcDbEntity
  8
0
  6
Continuous
 62
     7
100
AcDbCircle
 10
129.3730970319004
 20
-4.170899999999988
 30
0.0
 40
16.0
100
AcDbArc
 50
90.0
 51
180.0
  0
ARC
  5
F51
330
1F
100
AcDbEntity
  8
0
  6
Continuous
 62
     7
100
AcDbCircle
 10
130.3730970319004
 20
-3.170899999999988
 30
0.0
 40
20.0
100
AcDbArc
 50
90.0
 51
180.0
  0
ARC
  5
F52
330
1F
100
AcDbEntity
  8
0
  6
Continuous
 62
     7
100
AcDbCircle
 10
130.3730970319004
 20
-3.170899999999988
 30
0.0
 40
23.00000000000001
100
AcDbArc
 50
90.0
 51
180.0
  0
ARC
  5
F53
330
1F
100
AcDbEntity
  8
0
  6
Continuous
 62
     7
100
AcDbCircle
 10
127.3730970319006
 20
-4.170899999999988
 30
0.0
 40
14.0
100
AcDbArc
 50
94.31230445599025
 51
180.0
  0
ARC
  5
F54
330
1F
100
AcDbEntity
  8
0
  6
Continuous
 62
     7
100
AcDbCircle
 10
127.3730970319006
 20
-4.170899999999988
 30
0.0
 40
10.99999999999998
100
AcDbArc
 50
121.0649952274482
 51
180.0
  0
ARC
  5
F55
330
1F
100
AcDbEntity
  8
0
  6
Continuous
 62
     7
100
AcDbCircle
 10
127.3730970319006
 20
-4.170899999999988
 30
0.0
 40
14.0
100
AcDbArc
 50
90.0
 51
94.31230445599025
  0
ARC
  5
F56
330
1F
100
AcDbEntity
  8
0
  6
Continuous
 62
     7
100
AcDbCircle
 10
127.3730970319006
 20
-4.170899999999988
 30
0.0
 40
10.99999999999999
100
AcDbArc
 50
90.0
 51
121.0649952274482
  0
CIRCLE
  5
F57
330
1F
100
AcDbEntity
  8
0
  6
Continuous
 62
     7
100
AcDbCircle
 10
214.6675205189991
 20
13.3291
 30
0.0
 40
54.0000073564812
  0
CIRCLE
  5
F58
330
1F
100
AcDbEntity
  8
0
  6
Continuous
 62
     7
100
AcDbCircle
 10
214.6675205189991
 20
13.3291
 30
0.0
 40
19.5499551406136
  0
CIRCLE
  5
F59
330
1F
100
AcDbEntity
  8
0
  6
Continuous
 62
     7
100
AcDbCircle
 10
214.6675205189991
 20
13.3291
 30
0.0
 40
17.2499619527118
  0
CIRCLE
  5
F5A
330
1F
100
AcDbEntity
  8
0
  6
Continuous
 62
     7
100
AcDbCircle
 10
214.6675205189991
 20
13.3291
 30
0.0
 40
7.749922616388005
  0
CIRCLE
  5
F5B
330
1F
100
AcDbEntity
  8
0
  6
Continuous
 62
     7
100
AcDbCircle
 10
257.8012484802584
 20
-29.80439069418384
 30
0.0
 40
3.5
  0
CIRCLE
  5
F5C
330
1F
100
AcDbEntity
  8
0
  6
Continuous
 62
    30
100
AcDbCircle
 10
257.8012484802584
 20
-29.80439069418384
 30
0.0
 40
2.0
  0
CIRCLE
  5
F5D
330
1F
100
AcDbEntity
  8
0
  6
Continuous
 62
     7
100
AcDbCircle
 10
257.8012484802584
 20
-29.80439069418384
 30
0.0
 40
1.65000000000009
  0
CIRCLE
  5
F5E
330
1F
100
AcDbEntity
  8
0
  6
Continuous
 62
     7
100
AcDbCircle
 10
257.8010112131829
 20
56.46282796125939
 30
0.0
 40
3.5
  0
CIRCLE
  5
F5F
330
1F
100
AcDbEntity
  8
0
  6
Continuous
 62
    30
100
AcDbCircle
 10
257.8010112131829
 20
56.46282796125939
 30
0.0
 40
2.0
  0
CIRCLE
  5
F60
330
1F
100
AcDbEntity
  8
0
  6
Continuous
 62
     7
100
AcDbCircle
 10
257.8010112131829
 20
56.46282796125939
 30
0.0
 40
1.65000000000009
  0
CIRCLE
  5
F61
330
1F
100
AcDbEntity
  8
0
  6
Continuous
 62
     7
100
AcDbCircle
 10
171.5337925577397
 20
56.46259069418385
 30
0.0
 40
3.5
  0
CIRCLE
  5
F62
330
1F
100
AcDbEntity
  8
0
  6
Continuous
 62
    30
100
AcDbCircle
 10
171.5337925577397
 20
56.46259069418385
 30
0.0
 40
2.0
  0
CIRCLE
  5
F63
330
1F
100
AcDbEntity
  8
0
  6
Continuous
 62
     7
100
AcDbCircle
 10
171.5337925577397
 20
56.46259069418385
 30
0.0
 40
1.650000000000119
  0
CIRCLE
  5
F64
330
1F
100
AcDbEntity
  8
0
  6
Continuous
 62
     7
100
AcDbCircle
 10
171.5340298248153
 20
-29.80462796125932
 30
0.0
 40
3.5
  0
CIRCLE
  5
F65
330
1F
100
AcDbEntity
  8
0
  6
Continuous
 62
    30
100
AcDbCircle
 10
171.5340298248153
 20
-29.80462796125932
 30
0.0
 40
2.0
  0
CIRCLE
  5
F66
330
1F
100
AcDbEntity
  8
0
  6
Continuous
 62
     7
100
AcDbCircle
 10
171.5340298248153
 20
-29.80462796125932
 30
0.0
 40
1.65000000000009
  0
CIRCLE
  5
F67
330
1F
100
AcDbEntity
  8
0
  6
Continuous
 62
     7
100
AcDbCircle
 10
214.6675205189991
 20
13.3291
 30
0.0
 40
7.0
  0
CIRCLE
  5
F68
330
1F
100
AcDbEntity
  8
0
  6
Continuous
 62
     7
100
AcDbCircle
 10
214.6675205189991
 20
13.3291
 30
0.0
 40
7.400000000000002
  0
CIRCLE
  5
F69
330
1F
100
AcDbEntity
  8
0
  6
Continuous
 62
     7
100
AcDbCircle
 10
108.9731970319007
 20
-53.9104962837958
 30
0.0
 40
2.149999999999891
  0
ARC
  5
F6A
330
1F
100
AcDbEntity
  8
0
  6
Continuous
 62
     7
100
AcDbCircle
 10
141.4894575801282
 20
-51.47087816967505
 30
0.0
 40
2.000021830668331
100
AcDbArc
 50
269.9989382884475
 51
331.0002618339906
  0
ARC
  5
F6B
330
1F
100
AcDbEntity
  8
0
  6
Continuous
 62
     7
100
AcDbCircle
 10
182.1425205139991
 20
-53.970900004999
 30
0.0
 40
0.500000004999998
100
AcDbArc
 50
269.9885414170966
 51
0.0000005728426301
  0
ARC
  5
F6C
330
1F
100
AcDbEntity
  8
0
  6
Continuous
 62
     7
100
AcDbCircle
 10
225.9171199772344
 20
-52.31386463363993
 30
0.0
 40
0.9999661363552776
100
AcDbArc
 50
99.73579669322065
 51
119.4139653082119
  0
ARC
  5
F6D
330
1F
100
AcDbEntity
  8
0
  6
Continuous
 62
     7
100
AcDbCircle
 10
221.5653216411574
 20
-52.47092595795064
 30
0.0
 40
0.9999740469378931
100
AcDbArc
 50
270.0056654300486
 51
299.4136715910272
  0
ARC
  5
F6E
330
1F
100
AcDbEntity
  8
0
  6
Continuous
 62
     7
100
AcDbCircle
 10
214.6675648750534
 20
13.32909470608115
 30
0.0
 40
65.59998182296246
100
AcDbArc
 50
245.8858636704791
 51
280.5019617716673
  0
ARC
  5
F6F
330
1F
100
AcDbEntity
  8
0
  6
Continuous
 62
     7
100
AcDbCircle
 10
214.6675205189991
 20
13.3291
 30
0.0
 40
65.5999685329955
100
AcDbArc
 50
189.2955538449639
 51
245.8859009198398
  0
ARC
  5
F70
330
1F
100
AcDbEntity
  8
0
  6
Continuous
 62
     7
100
AcDbCircle
 10
287.84568345787
 20
-51.47087816967502
 30
0.0
 40
2.000021830668313
100
AcDbArc
 50
208.999738166011
 51
270.001061711553
  0
ARC
  5
F71
330
1F
100
AcDbEntity
  8
0
  6
Continuous
 62
     7
100
AcDbCircle
 10
214.6675821520634
 20
13.32913165850058
 30
0.0
 40
65.60000911493995
100
AcDbArc
 50
279.5733442394265
 51
314.8022498480986
  0
ARC
  5
F72
330
1F
100
AcDbEntity
  8
0
  6
Continuous
 62
     7
100
AcDbCircle
 10
183.1425205239991
 20
-53.970899994999
 30
0.0
 40
0.5000000050000013
100
AcDbArc
 50
90.01145972881978
 51
180.0000005730722
  0
ARC
  5
F73
330
1F
100
AcDbEntity
  8
0
  6
Continuous
 62
     7
100
AcDbCircle
 10
161.3950205189991
 20
-40.31229999999999
 30
0.0
 40
10.00000440249894
100
AcDbArc
 50
107.4860138727804
 51
150.9999891047303
  0
ARC
  5
F74
330
1F
100
AcDbEntity
  8
0
  6
Continuous
 62
     7
100
AcDbCircle
 10
185.8235003169269
 20
-51.10980941815903
 30
0.0
 40
4.99996452982449
100
AcDbArc
 50
65.88515612022013
 51
164.1044914385705
  0
ARC
  5
F75
330
1F
100
AcDbEntity
  8
0
  6
Continuous
 62
     7
100
AcDbCircle
 10
267.9401205189991
 20
-40.31229999999999
 30
0.0
 40
10.00003410244179
100
AcDbArc
 50
72.51418146284347
 51
134.802695962216
  0
ARC
  5
F76
330
1F
100
AcDbEntity
  8
0
  6
Continuous
 62
     7
100
AcDbCircle
 10
222.4050216411576
 20
-55.67092595795066
 30
0.0
 40
0.9999740469378931
100
AcDbArc
 50
270.0056654300486
 51
299.4136715910272
  0
ARC
  5
F77
330
1F
100
AcDbEntity
  8
0
  6
Continuous
 62
     7
100
AcDbCircle
 10
243.5115407210711
 20
-51.10980941815903
 30
0.0
 40
4.999964529824518
100
AcDbArc
 50
15.89550856142952
 51
114.1148438797801
  0
ARC
  5
F78
330
1F
100
AcDbEntity
  8
0
  6
Continuous
 62
     7
100
AcDbCircle
 10
243.5115407210711
 20
-51.10980941815903
 30
0.0
 40
4.999964529824518
100
AcDbArc
 50
15.89550856142952
 51
114.1148438797801
  0
ARC
  5
F79
330
1F
100
AcDbEntity
  8
0
  6
Continuous
 62
     7
100
AcDbCircle
 10
247.192520523999
 20
-53.970900004999
 30
0.0
 40
0.500000005000004
100
AcDbArc
 50
179.9999994271556
 51
270.0114585829064
  0
ARC
  5
F7A
330
1F
100
AcDbEntity
  8
0
  6
Continuous
 62
     7
100
AcDbCircle
 10
246.1925205139991
 20
-53.970899994999
 30
0.0
 40
0.500000005000004
100
AcDbArc
 50
359.9999994269277
 51
89.98854027117692
  0
ARC
  5
F7B
330
1F
100
AcDbEntity
  8
0
  6
Continuous
 62
     7
100
AcDbCircle
 10
214.6677503074214
 20
13.32919518238503
 30
0.0
 40
61.24996328417797
100
AcDbArc
 50
104.5231554053749
 51
120.4772293909159
  0
ARC
  5
F7C
330
1F
100
AcDbEntity
  8
0
  6
Continuous
 62
     7
100
AcDbCircle
 10
214.6675653340916
 20
13.32911856302831
 30
0.0
 40
64.2499709288079
100
AcDbArc
 50
104.897757933213
 51
120.1022620618829
  0
ARC
  5
F7D
330
1F
100
AcDbEntity
  8
0
  6
Continuous
 62
     7
100
AcDbCircle
 10
214.6676629614685
 20
13.32915900125621
 30
0.0
 40
61.25004427415721
100
AcDbArc
 50
284.5228727180701
 51
300.4768893228281
  0
ARC
  5
F7E
330
1F
100
AcDbEntity
  8
0
  6
Continuous
 62
     7
100
AcDbCircle
 10
214.6676508293161
 20
13.32915397598364
 30
0.0
 40
64.24999600591492
100
AcDbArc
 50
284.8975903814515
 51
300.1021716594473
  0
ARC
  5
F7F
330
1F
100
AcDbEntity
  8
0
  6
Continuous
 62
     7
100
AcDbCircle
 10
214.6674615177428
 20
13.32895755753026
 30
0.0
 40
61.25004427415724
100
AcDbArc
 50
329.5231106771721
 51
345.477127281929
  0
ARC
  5
F80
330
1F
100
AcDbEntity
  8
0
  6
Continuous
 62
     7
100
AcDbCircle
 10
214.6675037266759
 20
13.32905945976571
 30
0.0
 40
64.25000886080133
100
AcDbArc
 50
329.8977424528693
 51
345.1022375520358
  0
ARC
  5
F81
330
1F
100
AcDbEntity
  8
0
  6
Continuous
 62
     7
100
AcDbCircle
 10
214.6674968729348
 20
13.32915708698428
 30
0.0
 40
61.25000637629506
100
AcDbArc
 50
14.52286775023202
 51
30.47689429066647
  0
ARC
  5
F82
330
1F
100
AcDbEntity
  8
0
  6
Continuous
 62
     7
100
AcDbCircle
 10
214.6675390820273
 20
13.32905518490778
 30
0.0
 40
64.24997092880769
100
AcDbArc
 50
14.89775793321203
 51
30.10226206188339
  0
ARC
  5
F83
330
1F
100
AcDbEntity
  8
0
  6
Continuous
 62
     7
100
AcDbCircle
 10
214.667614843865
 20
13.32906092934194
 30
0.0
 40
61.24996531880311
100
AcDbArc
 50
59.52301498421179
 51
75.47696502069062
  0
ARC
  5
F84
330
1F
100
AcDbEntity
  8
0
  6
Continuous
 62
     7
100
AcDbCircle
 10
214.6674341060615
 20
13.32913579375068
 30
0.0
 40
64.24999068152661
100
AcDbArc
 50
59.89749911464482
 51
75.10211608906502
  0
ARC
  5
F85
330
1F
100
AcDbEntity
  8
0
  6
Continuous
 62
     7
100
AcDbCircle
 10
207.6677285648701
 20
63.84639299202422
 30
0.0
 40
2.999991954136957
100
AcDbArc
 50
0.0001338428380258
 51
97.88795905548241
  0
ARC
  5
F86
330
1F
100
AcDbEntity
  8
0
  6
Continuous
 62
     7
100
AcDbCircle
 10
221.6677585348706
 20
45.57803064980014
 30
0.0
 40
3.000038016028371
100
AcDbArc
 50
77.75350015796608
 51
180.0005853606449
  0
ARC
  5
F87
330
1F
100
AcDbEntity
  8
0
  6
Continuous
 62
     7
100
AcDbCircle
 10
221.6677274297861
 20
34.76499047315582
 30
0.0
 40
3.000006910802348
100
AcDbArc
 50
179.9998180510943
 51
251.9145571545626
  0
ARC
  5
F88
330
1F
100
AcDbEntity
  8
0
  6
Continuous
 62
     7
100
AcDbCircle
 10
221.6677251723135
 20
42.50099409797877
 30
0.0
 40
3.000004653320254
100
AcDbArc
 50
179.9998872798719
 51
256.506531109425
  0
ARC
  5
F89
330
1F
100
AcDbEntity
  8
0
  6
Continuous
 62
     7
100
AcDbCircle
 10
207.6677291295083
 20
34.76511186983362
 30
0.0
 40
2.999991390785201
100
AcDbArc
 50
288.0832186894573
 51
0.0016831670271611
  0
ARC
  5
F8A
330
1F
100
AcDbEntity
  8
0
  6
Continuous
 62
     7
100
AcDbCircle
 10
221.6677267292114
 20
-30.11059270908686
 30
0.0
 40
3.000006211644972
100
AcDbArc
 50
99.15476189340765
 51
179.998229390531
  0
ARC
  5
F8B
330
1F
100
AcDbEntity
  8
0
  6
Continuous
 62
     7
100
AcDbCircle
 10
221.6677124731276
 20
-37.18829299202406
 30
0.0
 40
2.999991954136816
100
AcDbArc
 50
180.0001338428395
 51
277.8879590554812
  0
ARC
  5
F8C
330
1F
100
AcDbEntity
  8
0
  6
Continuous
 62
     7
100
AcDbCircle
 10
221.6676990670792
 20
-18.91998270478413
 30
0.0
 40
2.999978548130003
100
AcDbArc
 50
180.0003303166531
 51
282.2459542283328
  0
ARC
  5
F8D
330
1F
100
AcDbEntity
  8
0
  6
Continuous
 62
     7
100
AcDbCircle
 10
221.6677251723135
 20
-15.84289409797861
 30
0.0
 40
3.000004653320353
100
AcDbArc
 50
103.4934688905764
 51
180.0001127201313
  0
ARC
  5
F8E
330
1F
100
AcDbEntity
  8
0
  6
Continuous
 62
     7
100
AcDbCircle
 10
221.6677274297861
 20
-8.10699047315566
 30
0.0
 40
3.000006910802231
100
AcDbArc
 50
108.085442845436
 51
180.0001819489023
  0
ARC
  5
F8F
330
1F
100
AcDbEntity
  8
0
  6
Continuous
 62
     7
100
AcDbCircle
 10
207.6677611378943
 20
-8.106855995052709
 30
0.0
 40
2.999959381427416
100
AcDbArc
 50
359.9991595560358
 51
71.91521564962205
  0
ARC
  5
F90
330
1F
100
AcDbEntity
  8
0
  6
Continuous
 62
     7
100
AcDbCircle
 10
207.667721702333
 20
-37.18819896934286
 30
0.0
 40
2.999998816665943
100
AcDbArc
 50
262.1102633129944
 51
359.9999803158917
  0
ARC
  5
F91
330
1F
100
AcDbEntity
  8
0
  6
Continuous
 62
     7
100
AcDbCircle
 10
258.1073132271466
 20
20.32900621080285
 30
0.0
 40
3.00000621081168
100
AcDbArc
 50
189.154761907392
 51
270.0001392638318
  0
ARC
  5
F92
330
1F
100
AcDbEntity
  8
0
  6
Continuous
 62
     7
100
AcDbCircle
 10
265.1850135110231
 20
20.3289919541288
 30
0.0
 40
2.99999195413695
100
AcDbArc
 50
270.0001338428376
 51
7.887959055482347
  0
ARC
  5
F93
330
1F
100
AcDbEntity
  8
0
  6
Continuous
 62
     7
100
AcDbCircle
 10
246.9167426188999
 20
20.32902741042005
 30
0.0
 40
3.000027410501397
100
AcDbArc
 50
269.9995779268411
 51
12.24479676196213
  0
ARC
  5
F94
330
1F
100
AcDbEntity
  8
0
  6
Continuous
 62
     7
100
AcDbCircle
 10
243.8396146169775
 20
20.3290046533146
 30
0.0
 40
3.000004653320361
100
AcDbArc
 50
193.4934688905761
 51
270.0001127201308
  0
ARC
  5
F95
330
1F
100
AcDbEntity
  8
0
  6
Continuous
 62
     7
100
AcDbCircle
 10
236.1038323878129
 20
20.32899138992831
 30
0.0
 40
2.999991389951775
100
AcDbArc
 50
198.0832187034469
 51
269.9997733216981
  0
ARC
  5
F96
330
1F
100
AcDbEntity
  8
0
  6
Continuous
 62
     7
100
AcDbCircle
 10
236.1036109921548
 20
6.328993089212929
 30
0.0
 40
3.000006910802231
100
AcDbArc
 50
89.99981805109717
 51
161.9145571545633
  0
ARC
  5
F97
330
1F
100
AcDbEntity
  8
0
  6
Continuous
 62
     7
100
AcDbCircle
 10
243.8396146169775
 20
6.328995346685474
 30
0.0
 40
3.000004653320357
100
AcDbArc
 50
89.99988727986925
 51
166.5065311094238
  0
ARC
  5
F98
330
1F
100
AcDbEntity
  8
0
  6
Continuous
 62
     7
100
AcDbCircle
 10
246.9167117749337
 20
6.329010845898181
 30
0.0
 40
2.999989154114602
100
AcDbArc
 50
347.7523426735118
 51
89.99983300004776
  0
ARC
  5
F99
330
1F
100
AcDbEntity
  8
0
  6
Continuous
 62
     7
100
AcDbCircle
 10
258.1073132271466
 20
6.328993789197228
 30
0.0
 40
3.00000621081168
100
AcDbArc
 50
89.99986073616799
 51
170.8452380926078
  0
ARC
  5
F9A
330
1F
100
AcDbEntity
  8
0
  6
Continuous
 62
     7
100
AcDbCircle
 10
265.185019488342
 20
6.329001183334156
 30
0.0
 40
2.999998816666031
100
AcDbArc
 50
352.1102633129986
 51
89.99998031589312
  0
ARC
  5
F9B
330
1F
100
AcDbEntity
  8
0
  6
Continuous
 62
     7
100
AcDbCircle
 10
214.6675066569255
 20
13.32908613787612
 30
0.0
 40
36.00005635057542
100
AcDbArc
 50
282.2469149192826
 51
347.7532930935375
  0
ARC
  5
F9C
330
1F
100
AcDbEntity
  8
0
  6
Continuous
 62
     7
100
AcDbCircle
 10
214.667504733119
 20
13.32908421404084
 30
0.0
 40
26.99999818693505
100
AcDbArc
 50
283.4936524249673
 51
346.5066347049963
  0
ARC
  5
F9D
330
1F
100
AcDbEntity
  8
0
  6
Continuous
 62
     7
100
AcDbCircle
 10
214.66751091386
 20
13.3290903948326
 30
0.0
 40
40.99999835322932
100
AcDbArc
 50
279.1543917445116
 51
350.8457769960675
  0
ARC
  5
F9E
330
1F
100
AcDbEntity
  8
0
  6
Continuous
 62
     7
100
AcDbCircle
 10
214.6675289329292
 20
13.32909158597826
 30
0.0
 40
35.99999688284512
100
AcDbArc
 50
12.24643800743633
 51
77.75293795410092
  0
ARC
  5
F9F
330
1F
100
AcDbEntity
  8
0
  6
Continuous
 62
     7
100
AcDbCircle
 10
214.6675600526601
 20
13.32906103256414
 30
0.0
 40
41.00002447599169
100
AcDbArc
 50
9.15400277808763
 51
81.67252698539535
  0
ARC
  5
FA0
330
1F
100
AcDbEntity
  8
0
  6
DASH_CENTER
 62
    30
100
AcDbCircle
 10
214.667542774272
 20
13.32892063710756
 30
0.0
 40
61.00001965840854
100
AcDbArc
 50
309.4010987939938
 51
321.1181475675786
  0
ARC
  5
FA1
330
1F
100
AcDbEntity
  8
0
  6
Continuous
 62
     7
100
AcDbCircle
 10
214.6675389469884
 20
13.32908157182595
 30
0.0
 40
26.99994956753284
100
AcDbArc
 50
13.49324648718734
 51
76.50617925144323
  0
ARC
  5
FA2
330
1F
100
AcDbEntity
  8
0
  6
Continuous
 62
     7
100
AcDbCircle
 10
221.6677267298018
 20
56.7686927081479
 30
0.0
 40
3.000006210811641
100
AcDbArc
 50
179.9998607361695
 51
260.8452380926079
  0
ARC
  5
FA3
330
1F
100
AcDbEntity
  8
0
  6
Continuous
 62
     7
100
AcDbCircle
 10
221.6677193356649
 20
63.84629896934296
 30
0.0
 40
2.99999881666605
100
AcDbArc
 50
82.11026331299853
 51
179.9999803158933
  0
ARC
  5
FA4
330
1F
100
AcDbEntity
  8
0
  6
Continuous
 62
     7
100
AcDbCircle
 10
214.6679363048789
 20
13.3290842140409
 30
0.0
 40
26.9999981869351
100
AcDbArc
 50
193.4933652950034
 51
256.5063475750327
  0
ARC
  5
FA5
330
1F
100
AcDbEntity
  8
0
  6
Continuous
 62
     7
100
AcDbCircle
 10
207.6677143087865
 20
-30.11059270908686
 30
0.0
 40
3.000006211644981
100
AcDbArc
 50
0.0017706094688834
 51
80.84523810659094
  0
ARC
  5
FA6
330
1F
100
AcDbEntity
  8
0
  6
Continuous
 62
     7
100
AcDbCircle
 10
207.6677419709187
 20
-18.91998270478413
 30
0.0
 40
2.999978548129997
100
AcDbArc
 50
257.7540457716671
 51
359.9996696833467
  0
ARC
  5
FA7
330
1F
100
AcDbEntity
  8
0
  6
Continuous
 62
     7
100
AcDbCircle
 10
207.6677158656845
 20
-15.84289409797861
 30
0.0
 40
3.000004653320368
100
AcDbArc
 50
359.9998872798686
 51
76.50653110942265
  0
ARC
  5
FA8
330
1F
100
AcDbEntity
  8
0
  6
Continuous
 62
     7
100
AcDbCircle
 10
214.667930124138
 20
13.32909039483257
 30
0.0
 40
40.99999835322932
100
AcDbArc
 50
189.1542230039324
 51
260.8456082554882
  0
ARC
  5
FA9
330
1F
100
AcDbEntity
  8
0
  6
Continuous
 62
     7
100
AcDbCircle
 10
214.6679343810725
 20
13.32908613787612
 30
0.0
 40
36.00005635057539
100
AcDbArc
 50
192.2467069064606
 51
257.7530850807173
  0
ARC
  5
FAA
330
1F
100
AcDbEntity
  8
0
  6
Continuous
 62
     7
100
AcDbCircle
 10
185.4958264210203
 20
6.328995346685474
 30
0.0
 40
3.000004653320389
100
AcDbArc
 50
13.49346889057616
 51
90.00011272013074
  0
ARC
  5
FAB
330
1F
100
AcDbEntity
  8
0
  6
Continuous
 62
     7
100
AcDbCircle
 10
182.4187292630644
 20
6.329010845898181
 30
0.0
 40
2.999989154114596
100
AcDbArc
 50
90.00016699995226
 51
192.2476573264899
  0
ARC
  5
FAC
330
1F
100
AcDbEntity
  8
0
  6
Continuous
 62
     7
100
AcDbCircle
 10
171.2281278108513
 20
6.328993789197228
 30
0.0
 40
3.000006210811652
100
AcDbArc
 50
9.154761907391987
 51
90.000139263832
  0
ARC
  5
FAD
330
1F
100
AcDbEntity
  8
0
  6
Continuous
 62
     7
100
AcDbCircle
 10
193.2318300458433
 20
6.328993089212929
 30
0.0
 40
3.000006910802231
100
AcDbArc
 50
18.08544284543661
 51
90.00018194890344
  0
ARC
  5
FAE
330
1F
100
AcDbEntity
  8
0
  6
Continuous
 62
     7
100
AcDbCircle
 10
164.150421549656
 20
6.329001183334156
 30
0.0
 40
2.99999881666605
100
AcDbArc
 50
90.00001968410728
 51
187.8897366870013
  0
ARC
  5
FAF
330
1F
100
AcDbEntity
  8
0
  6
Continuous
 62
     7
100
AcDbCircle
 10
171.2281278108513
 20
20.32900621080285
 30
0.0
 40
3.00000621081166
100
AcDbArc
 50
269.9998607361679
 51
350.845238092608
  0
ARC
  5
FB0
330
1F
100
AcDbEntity
  8
0
  6
Continuous
 62
     7
100
AcDbCircle
 10
164.1504275269749
 20
20.3289919541288
 30
0.0
 40
2.999991954136937
100
AcDbArc
 50
172.1120409445175
 51
269.9998661571628
  0
ARC
  5
FB1
330
1F
100
AcDbEntity
  8
0
  6
Continuous
 62
     7
100
AcDbCircle
 10
182.4186984190982
 20
20.32902741042005
 30
0.0
 40
3.000027410501405
100
AcDbArc
 50
167.7552032380378
 51
270.0004220731581
  0
ARC
  5
FB2
330
1F
100
AcDbEntity
  8
0
  6
Continuous
 62
     7
100
AcDbCircle
 10
185.4958264210203
 20
20.3290046533146
 30
0.0
 40
3.000004653320368
100
AcDbArc
 50
269.9998872798693
 51
346.5065311094237
  0
ARC
  5
FB3
330
1F
100
AcDbEntity
  8
0
  6
Continuous
 62
     7
100
AcDbCircle
 10
193.231608650185
 20
20.32899138992838
 30
0.0
 40
2.999991389951821
100
AcDbArc
 50
270.0002266783
 51
341.9167812965528
  0
ARC
  5
FB4
330
1F
100
AcDbEntity
  8
0
  6
Continuous
 62
     7
100
AcDbCircle
 10
214.6678809853379
 20
13.32906103256414
 30
0.0
 40
41.00002447599168
100
AcDbArc
 50
98.32747301460464
 51
170.8459972219124
  0
ARC
  5
FB5
330
1F
100
AcDbEntity
  8
0
  6
Continuous
 62
     7
100
AcDbCircle
 10
214.6679121050687
 20
13.32909158597828
 30
0.0
 40
35.99999688284511
100
AcDbArc
 50
102.2470620458987
 51
167.7535619925635
  0
ARC
  5
FB6
330
1F
100
AcDbEntity
  8
0
  6
Continuous
 62
     7
100
AcDbCircle
 10
214.6679020910096
 20
13.32908157182589
 30
0.0
 40
26.99994956753287
100
AcDbArc
 50
103.4938207485567
 51
166.5067535128125
  0
ARC
  5
FB7
330
1F
100
AcDbEntity
  8
0
  6
Continuous
 62
     7
100
AcDbCircle
 10
207.6676825031271
 20
45.57803064980014
 30
0.0
 40
3.000038016028375
100
AcDbArc
 50
359.9994146393547
 51
102.2464998420327
  0
ARC
  5
FB8
330
1F
100
AcDbEntity
  8
0
  6
Continuous
 62
     7
100
AcDbCircle
 10
207.6677136082118
 20
34.76499047315576
 30
0.0
 40
3.000006910802353
100
AcDbArc
 50
288.0854428454396
 51
0.0001819489056942
  0
ARC
  5
FB9
330
1F
100
AcDbEntity
  8
0
  6
Continuous
 62
     7
100
AcDbCircle
 10
207.6677158656845
 20
42.50099409797877
 30
0.0
 40
3.00000465332026
100
AcDbArc
 50
283.4934688905757
 51
0.0001127201280975
  0
ARC
  5
FBA
330
1F
100
AcDbEntity
  8
0
  6
Continuous
 62
     7
100
AcDbCircle
 10
207.6677143081961
 20
56.7686927081479
 30
0.0
 40
3.000006210811633
100
AcDbArc
 50
279.1547619073936
 51
0.0001392638320133
  0
ARC
  5
FBB
330
1F
100
AcDbEntity
  8
0
  6
Continuous
 62
     7
100
AcDbCircle
 10
214.667944165063
 20
13.32915708698428
 30
0.0
 40
61.25000637629503
100
AcDbArc
 50
149.5231057093334
 51
165.4771322497679
  0
ARC
  5
FBC
330
1F
100
AcDbEntity
  8
0
  6
Continuous
 62
     7
100
AcDbCircle
 10
214.6679019559706
 20
13.32905518490742
 30
0.0
 40
64.24997092880776
100
AcDbArc
 50
149.8977379381166
 51
165.1022420667863
  0
ARC
  5
FBD
330
1F
100
AcDbEntity
  8
0
  6
Continuous
 62
     7
100
AcDbCircle
 10
214.6679795202553
 20
13.32895755753026
 30
0.0
 40
61.25004427415721
100
AcDbArc
 50
194.5228727180708
 51
210.4768893228276
  0
ARC
  5
FBE
330
1F
100
AcDbEntity
  8
0
  6
Continuous
 62
     7
100
AcDbCircle
 10
214.667937311322
 20
13.32905945976611
 30
0.0
 40
64.2500088608014
100
AcDbArc
 50
194.8977624479639
 51
210.1022575471306
  0
ARC
  5
FBF
330
1F
100
AcDbEntity
  8
0
  6
Continuous
 62
     7
100
AcDbCircle
 10
214.6677780765294
 20
13.32915900125621
 30
0.0
 40
61.25004427415721
100
AcDbArc
 50
239.5231106771718
 51
255.4771272819296
  0
ARC
  5
FC0
330
1F
100
AcDbEntity
  8
0
  6
Continuous
 62
     7
100
AcDbCircle
 10
214.6677902086818
 20
13.32915397598367
 30
0.0
 40
64.24999600591497
100
AcDbArc
 50
239.8978283405524
 51
255.1024096185483
  0
ARC
  5
FC1
330
1F
100
AcDbEntity
  8
0
  6
DASH_CENTER
 62
    30
100
AcDbCircle
 10
214.6676998818914
 20
13.329122255273
 30
0.0
 40
61.00001965840851
100
AcDbArc
 50
39.40109879399489
 51
51.11814756757723
  0
ARC
  5
FC2
330
1F
100
AcDbEntity
  8
0
  6
DASH_CENTER
 62
    30
100
AcDbCircle
 10
214.6674982637259
 20
13.32927936289243
 30
0.0
 40
61.00001965840853
100
AcDbArc
 50
129.4010987939937
 51
141.1181475675786
  0
ARC
  5
FC3
330
1F
100
AcDbEntity
  8
0
  6
DASH_CENTER
 62
    30
100
AcDbCircle
 10
214.6673411561065
 20
13.32907774472701
 30
0.0
 40
61.00001965840849
100
AcDbArc
 50
219.4010987939948
 51
231.1181475675773
  0
ARC
  5
FC4
330
1F
100
AcDbEntity
  8
0
  6
Continuous
 62
     7
100
AcDbCircle
 10
214.6675205189991
 20
13.3291
 30
0.0
 40
71.5000000000699
100
AcDbArc
 50
85.18630164081882
 51
89.99991986604262
  0
ARC
  5
FC5
330
1F
100
AcDbEntity
  8
0
  6
Continuous
 62
     7
100
AcDbCircle
 10
216.7488915342165
 20
87.1292265608042
 30
0.0
 40
1.299973439518792
100
AcDbArc
 50
4.998818206896671
 51
89.99872250796469
  0
ARC
  5
FC6
330
1F
100
AcDbEntity
  8
0
  6
Continuous
 62
     7
100
AcDbCircle
 10
212.5862951462046
 20
87.12917675091095
 30
0.0
 40
1.300023249336498
100
AcDbArc
 50
89.99888174766683
 51
174.999170157527
  0
ARC
  5
FC7
330
1F
100
AcDbEntity
  8
0
  6
Continuous
 62
     7
100
AcDbCircle
 10
141.3296660841688
 20
4.823693814028358
 30
0.0
 40
1.300023249336482
100
AcDbArc
 50
184.9988817476673
 51
269.9991701575267
  0
ARC
  5
FC8
330
1F
100
AcDbEntity
  8
0
  6
Continuous
 62
     7
100
AcDbCircle
 10
288.3682187541367
 20
8.970445924843346
 30
0.0
 40
1.299973439518905
100
AcDbArc
 50
355.0012774920356
 51
80.0011817931028
  0
ARC
  5
FC9
330
1F
100
AcDbEntity
  8
0
  6
Continuous
 62
     7
100
AcDbCircle
 10
288.0053749538295
 20
4.823693814028358
 30
0.0
 40
1.300023249336475
100
AcDbArc
 50
270.0008298424668
 51
355.0011182523324
  0
ARC
  5
FCA
330
1F
100
AcDbEntity
  8
0
  6
Continuous
 62
     7
100
AcDbCircle
 10
214.6679529012493
 20
13.32911817689555
 30
0.0
 40
71.4999818250865
100
AcDbArc
 50
90.00042661907375
 51
94.81404729731451
  0
ARC
  5
FCB
330
1F
100
AcDbEntity
  8
0
  6
Continuous
 62
     7
100
AcDbCircle
 10
214.6675205189991
 20
13.3291
 30
0.0
 40
71.50000000006989
100
AcDbArc
 50
359.813698359181
 51
85.18630164081882
  0
ARC
  5
FCC
330
1F
100
AcDbEntity
  8
0
  6
Continuous
 62
     7
100
AcDbCircle
 10
214.6675205189991
 20
13.3291
 30
0.0
 40
71.50000000006997
100
AcDbArc
 50
350.1863016408194
 51
359.813698359181
  0
ARC
  5
FCD
330
1F
100
AcDbEntity
  8
0
  6
Continuous
 62
     7
100
AcDbCircle
 10
214.6675205189991
 20
13.3291
 30
0.0
 40
72.50000000006889
100
AcDbArc
 50
0.0
 51
89.99992097133864
  0
ARC
  5
FCE
330
1F
100
AcDbEntity
  8
0
  6
Continuous
 62
     7
100
AcDbCircle
 10
267.940086325214
 20
-40.31226894292291
 30
0.0
 40
10.00001925237482
100
AcDbArc
 50
28.99976028051451
 51
66.50459242053854
  0
ARC
  5
FCF
330
1F
100
AcDbEntity
  8
0
  6
Continuous
 62
     7
100
AcDbCircle
 10
214.6675205189991
 20
13.3291
 30
0.0
 40
71.50000000006993
100
AcDbArc
 50
321.9148770376401
 51
350.1863016408194
  0
ARC
  5
FD0
330
1F
100
AcDbEntity
  8
0
  6
Continuous
 62
     7
100
AcDbCircle
 10
267.9401205189991
 20
-40.31229999999999
 30
0.0
 40
10.00003410244196
100
AcDbArc
 50
66.50484303454817
 51
72.51418146284347
  0
ARC
  5
FD1
330
1F
100
AcDbEntity
  8
0
  6
Continuous
 62
     7
100
AcDbCircle
 10
214.6675205189991
 20
13.3291
 30
0.0
 40
71.49996365271788
100
AcDbArc
 50
189.813700812022
 51
218.0851850577688
  0
ARC
  5
FD2
330
1F
100
AcDbEntity
  8
0
  6
Continuous
 62
     7
100
AcDbCircle
 10
161.3950484195193
 20
-40.31230677985329
 30
0.0
 40
10.00001925244021
100
AcDbArc
 50
45.19744483622232
 51
107.4861546716358
  0
ARC
  5
FD3
330
1F
100
AcDbEntity
  8
0
  6
Continuous
 62
     7
100
AcDbCircle
 10
214.6675205189991
 20
13.3291
 30
0.0
 40
65.5999685329955
100
AcDbArc
 50
170.7044461550359
 51
180.0
  0
ARC
  5
FD4
330
1F
100
AcDbEntity
  8
0
  6
Continuous
 62
     7
100
AcDbCircle
 10
214.6675205189991
 20
13.3291
 30
0.0
 40
65.59996853299556
100
AcDbArc
 50
62.53015131637036
 51
170.7044461550359
  0
ARC
  5
FD5
330
1F
100
AcDbEntity
  8
0
  6
Continuous
 62
     7
100
AcDbCircle
 10
214.6675205189991
 20
13.3291
 30
0.0
 40
65.59996853299549
100
AcDbArc
 50
180.0
 51
189.2955538449639
  0
ARC
  5
FD6
330
1F
100
AcDbEntity
  8
0
  6
Continuous
 62
     7
100
AcDbCircle
 10
214.6675205189991
 20
13.3291
 30
0.0
 40
68.09996853299542
100
AcDbArc
 50
172.438320671231
 51
174.5228994039255
  0
ARC
  5
FD7
330
1F
100
AcDbEntity
  8
0
  6
Continuous
 62
     7
100
AcDbCircle
 10
214.6675205189991
 20
13.3291
 30
0.0
 40
68.09996853299549
100
AcDbArc
 50
174.5228994039255
 51
177.0539836998628
  0
ARC
  5
FD8
330
1F
100
AcDbEntity
  8
0
  6
Continuous
 62
     7
100
AcDbCircle
 10
214.6675205189991
 20
13.3291
 30
0.0
 40
68.09996853299543
100
AcDbArc
 50
177.0539836998628
 51
178.7378757714096
  0
ARC
  5
FD9
330
1F
100
AcDbEntity
  8
0
  6
Continuous
 62
     7
100
AcDbCircle
 10
140.9668462174036
 20
8.970477114256766
 30
0.0
 40
1.299946879684019
100
AcDbArc
 50
99.2964219630104
 51
138.6615152501818
  0
ARC
  5
FDA
330
1F
100
AcDbEntity
  8
0
  6
Continuous
 62
     7
100
AcDbCircle
 10
214.6675205189991
 20
13.3291
 30
0.0
 40
68.09996853299543
100
AcDbArc
 50
182.9460163001369
 51
187.5616793287688
  0
ARC
  5
FDB
330
1F
100
AcDbEntity
  8
0
  6
Continuous
 62
     7
100
AcDbCircle
 10
214.6675205189991
 20
13.3291
 30
0.0
 40
68.09996853299543
100
AcDbArc
 50
178.7378757714096
 51
181.2621242285903
  0
ARC
  5
FDC
330
1F
100
AcDbEntity
  8
0
  6
Continuous
 62
     7
100
AcDbCircle
 10
141.3730970319005
 20
-10.17089999999999
 30
0.0
 40
24.99999999999999
100
AcDbArc
 50
118.3576365763279
 51
127.0210223494105
  0
ARC
  5
FDD
330
1F
100
AcDbEntity
  8
0
  6
Continuous
 62
     7
100
AcDbCircle
 10
141.3730970319005
 20
-10.17089999999999
 30
0.0
 40
24.99999999999996
100
AcDbArc
 50
141.9101615875081
 51
180.0
  0
ARC
  5
FDE
330
1F
100
AcDbEntity
  8
0
  6
Continuous
 62
     7
100
AcDbCircle
 10
141.3730970319005
 20
-10.17089999999999
 30
0.0
 40
22.0
100
AcDbArc
 50
90.0
 51
114.6199773286572
  0
ARC
  5
FDF
330
1F
100
AcDbEntity
  8
0
  6
Continuous
 62
     7
100
AcDbCircle
 10
141.3730970319005
 20
-10.17089999999999
 30
0.0
 40
21.99999999999996
100
AcDbArc
 50
129.4005687537372
 51
180.0
  0
ARC
  5
FE0
330
1F
100
AcDbEntity
  8
0
  6
Continuous
 62
    30
100
AcDbCircle
 10
108.1230970319005
 20
-26.13369081027605
 30
0.0
 40
1.500000000000003
100
AcDbArc
 50
60.00000000000046
 51
119.9999999999995
  0
ARC
  5
FE1
330
1F
100
AcDbEntity
  8
0
  6
Continuous
 62
    30
100
AcDbCircle
 10
109.6230970319006
 20
-23.53561459892274
 30
0.0
 40
1.5
100
AcDbArc
 50
240.0000000000004
 51
299.9999999999996
  0
ARC
  5
FE2
330
1F
100
AcDbEntity
  8
0
  6
Continuous
 62
    30
100
AcDbCircle
 10
108.1230970319005
 20
-23.53561459892274
 30
0.0
 40
1.5
100
AcDbArc
 50
240.0000000000004
 51
299.9999999999996
  0
ARC
  5
FE3
330
1F
100
AcDbEntity
  8
0
  6
Continuous
 62
    30
100
AcDbCircle
 10
111.1230970319005
 20
-26.13369081027605
 30
0.0
 40
1.500000000000003
100
AcDbArc
 50
60.00000000000046
 51
119.9999999999995
  0
ARC
  5
FE4
330
1F
100
AcDbEntity
  8
0
  6
Continuous
 62
    30
100
AcDbCircle
 10
112.6230970319006
 20
-23.53561459892274
 30
0.0
 40
1.5
100
AcDbArc
 50
240.0000000000004
 51
299.9999999999996
  0
ARC
  5
FE5
330
1F
100
AcDbEntity
  8
0
  6
Continuous
 62
    30
100
AcDbCircle
 10
111.1230970319005
 20
-23.53561459892274
 30
0.0
 40
1.5
100
AcDbArc
 50
240.0000000000004
 51
299.9999999999996
  0
ARC
  5
FE6
330
1F
100
AcDbEntity
  8
0
  6
Continuous
 62
    30
100
AcDbCircle
 10
114.1230970319005
 20
-26.13369081027605
 30
0.0
 40
1.500000000000003
100
AcDbArc
 50
60.00000000000046
 51
119.9999999999995
  0
ARC
  5
FE7
330
1F
100
AcDbEntity
  8
0
  6
Continuous
 62
    30
100
AcDbCircle
 10
115.6230970319006
 20
-23.53561459892274
 30
0.0
 40
1.5
100
AcDbArc
 50
240.0000000000004
 51
299.9999999999996
  0
ARC
  5
FE8
330
1F
100
AcDbEntity
  8
0
  6
Continuous
 62
    30
100
AcDbCircle
 10
114.1230970319005
 20
-23.53561459892274
 30
0.0
 40
1.5
100
AcDbArc
 50
240.0000000000004
 51
299.9999999999996
  0
ARC
  5
FE9
330
1F
100
AcDbEntity
  8
0
  6
Continuous
 62
    30
100
AcDbCircle
 10
117.1230970319006
 20
-26.13369081027605
 30
0.0
 40
1.500000000000003
100
AcDbArc
 50
60.00000000000046
 51
119.9999999999995
  0
ARC
  5
FEA
330
1F
100
AcDbEntity
  8
0
  6
Continuous
 62
    30
100
AcDbCircle
 10
118.6230970319005
 20
-23.53561459892274
 30
0.0
 40
1.5
100
AcDbArc
 50
240.0000000000004
 51
299.9999999999996
  0
ARC
  5
FEB
330
1F
100
AcDbEntity
  8
0
  6
Continuous
 62
    30
100
AcDbCircle
 10
117.1230970319006
 20
-23.53561459892274
 30
0.0
 40
1.5
100
AcDbArc
 50
240.0000000000004
 51
299.9999999999996
  0
ARC
  5
FEC
330
1F
100
AcDbEntity
  8
0
  6
Continuous
 62
     7
100
AcDbCircle
 10
214.667489744387
 20
13.32902606431149
 30
0.0
 40
65.59999930764928
100
AcDbArc
 50
314.8023721042338
 51
0.000064576264244
  0
ARC
  5
FED
330
1F
100
AcDbEntity
  8
0
  6
Continuous
 62
     7
100
AcDbCircle
 10
214.6675205189991
 20
13.3291
 30
0.0
 40
65.59996853299558
100
AcDbArc
 50
27.47017069661906
 51
62.53015131637036
  0
ARC
  5
FEE
330
1F
100
AcDbEntity
  8
0
  6
Continuous
 62
     7
100
AcDbCircle
 10
214.6675205189991
 20
13.3291
 30
0.0
 40
66.39996853299556
100
AcDbArc
 50
27.47017069661906
 51
62.53015131637184
  0
ARC
  5
FEF
330
1F
100
AcDbEntity
  8
0
  6
Continuous
 62
     7
100
AcDbCircle
 10
214.6675205189991
 20
13.3291
 30
0.0
 40
65.59996853299549
100
AcDbArc
 50
0.0
 51
27.47017069661906
  0
ARC
  5
FF0
330
1F
100
AcDbEntity
  8
0
  6
Continuous
 62
     7
100
AcDbCircle
 10
214.6675205189991
 20
13.3291
 30
0.0
 40
72.50000000006891
100
AcDbArc
 50
322.1653165071108
 51
0.0
  0
ARC
  5
FF1
330
1F
100
AcDbEntity
  8
0
  6
Continuous
 62
     7
100
AcDbCircle
 10
214.6675205189991
 20
13.3291
 30
0.0
 40
71.49996365271788
100
AcDbArc
 50
185.2159112293304
 51
189.813700812022
  0
ARC
  5
FF2
330
1F
100
AcDbEntity
  8
0
  6
Continuous
 62
     7
100
AcDbCircle
 10
214.6675205189991
 20
13.3291
 30
0.0
 40
68.09996853299543
100
AcDbArc
 50
181.2621242285903
 51
182.9460163001369
  0
ARC
  5
FF3
330
1F
100
AcDbEntity
  8
0
  6
Continuous
 62
     7
100
AcDbCircle
 10
214.6675205189991
 20
13.3291
 30
0.0
 40
72.50000000006892
100
AcDbArc
 50
185.1437697295004
 51
217.8347479818799
  0
ARC
  5
FF4
330
1F
100
AcDbEntity
  8
0
  6
DASHED
 62
    30
100
AcDbCircle
 10
214.6675205189991
 20
13.3291
 30
0.0
 40
72.50000000006889
100
AcDbArc
 50
180.0
 51
181.185514510138
  0
ARC
  5
FF5
330
1F
100
AcDbEntity
  8
0
  6
DASHED
 62
    30
100
AcDbCircle
 10
214.6675205189991
 20
13.3291
 30
0.0
 40
71.49996365271785
100
AcDbArc
 50
178.7979018396812
 51
181.2020981603188
  0
ARC
  5
FF6
330
1F
100
AcDbEntity
  8
0
  6
DASHED
 62
    30
100
AcDbCircle
 10
214.6675205189991
 20
13.3291
 30
0.0
 40
71.49996365271788
100
AcDbArc
 50
174.7840887706695
 51
177.1941887538311
  0
ARC
  5
FF7
330
1F
100
AcDbEntity
  8
0
  6
DASHED
 62
    30
100
AcDbCircle
 10
214.6675205189991
 20
13.3291
 30
0.0
 40
72.50000000006892
100
AcDbArc
 50
174.8562302704993
 51
177.2329213339058
  0
ARC
  5
FF8
330
1F
100
AcDbEntity
  8
0
  6
Continuous
 62
     7
100
AcDbCircle
 10
214.6675205189991
 20
13.3291
 30
0.0
 40
72.50000000006895
100
AcDbArc
 50
90.00007902866135
 51
174.8562302704993
  0
ARC
  5
FF9
330
1F
100
AcDbEntity
  8
0
  6
Continuous
 62
     7
100
AcDbCircle
 10
214.6675205189991
 20
13.3291
 30
0.0
 40
71.49996365271788
100
AcDbArc
 50
94.8137008120217
 51
174.7840887706695
  0
ARC
  5
FFA
330
1F
100
AcDbEntity
  8
0
  6
Continuous
 62
     7
100
AcDbCircle
 10
214.6675205189991
 20
13.3291
 30
0.0
 40
71.49996365271791
100
AcDbArc
 50
177.1941887538311
 51
178.7979018396812
  0
ARC
  5
FFB
330
1F
100
AcDbEntity
  8
0
  6
Continuous
 62
     7
100
AcDbCircle
 10
214.6675205189991
 20
13.3291
 30
0.0
 40
72.50000000006892
100
AcDbArc
 50
177.2329213339058
 51
178.814485489862
  0
ARC
  5
FFC
330
1F
100
AcDbEntity
  8
0
  6
Continuous
 62
     7
100
AcDbCircle
 10
214.6675205189991
 20
13.3291
 30
0.0
 40
71.49996365271785
100
AcDbArc
 50
181.2020981603188
 51
182.8058112461689
  0
ARC
  5
FFD
330
1F
100
AcDbEntity
  8
0
  6
Continuous
 62
     7
100
AcDbCircle
 10
214.6675205189991
 20
13.3291
 30
0.0
 40
72.50000000006888
100
AcDbArc
 50
181.185514510138
 51
182.767078666094
  0
ARC
  5
FFE
330
1F
100
AcDbEntity
  8
0
  6
DASHED
 62
    30
100
AcDbCircle
 10
214.6675205189991
 20
13.3291
 30
0.0
 40
72.50000000006892
100
AcDbArc
 50
182.767078666094
 51
185.1437697295004
  0
ARC
  5
FFF
330
1F
100
AcDbEntity
  8
0
  6
DASHED
 62
    30
100
AcDbCircle
 10
214.6675205189991
 20
13.3291
 30
0.0
 40
71.49996365271791
100
AcDbArc
 50
182.8058112461689
 51
185.2159112293304
  0
ARC
  5
1000
330
1F
100
AcDbEntity
  8
0
  6
DASHED
 62
    30
100
AcDbCircle
 10
214.6675205189991
 20
13.3291
 30
0.0
 40
72.50000000006899
100
AcDbArc
 50
178.814485489862
 51
180.0
  0
ARC
  5
1001
330
1F
100
AcDbEntity
  8
0
  6
Continuous
 62
     7
100
AcDbCircle
 10
108.9732470319006
 20
-53.9104962837958
 30
0.0
 40
3.299966800211787
100
AcDbArc
 50
168.1508663061883
 51
11.84913369381167
  0
ARC
  5
1002
330
1F
100
AcDbEntity
  8
0
  6
Continuous
 62
    30
100
AcDbCircle
 10
108.1730970319005
 20
-33.3392371957828
 30
0.0
 40
1.599999999999988
100
AcDbArc
 50
59.99999999999166
 51
119.9999999999991
  0
ARC
  5
1003
330
1F
100
AcDbEntity
  8
0
  6
Continuous
 62
    30
100
AcDbCircle
 10
109.7730970319007
 20
-30.56795590367261
 30
0.0
 40
1.60000000000009
100
AcDbArc
 50
240.0000000000014
 51
299.9999999999951
  0
ARC
  5
1004
330
1F
100
AcDbEntity
  8
0
  6
Continuous
 62
    30
100
AcDbCircle
 10
109.7730970319007
 20
-33.3392371957828
 30
0.0
 40
1.599999999999839
100
AcDbArc
 50
60.00000000000097
 51
120.0000000000021
  0
LINE
  5
1005
330
1F
100
AcDbEntity
  8
0
  6
DASH_CENTER
 62
    30
100
AcDbLine
 10
158.6675205189991
 20
-49.00229999999999
 30
0.0
 11
158.6675205189991
 21
-62.2419
 31
0.0
  0
LINE
  5
1006
330
1F
100
AcDbEntity
  8
0
  6
Continuous
 62
     7
100
AcDbLine
 10
289.6675205189991
 20
-53.4709
 30
0.0
 11
287.8457205189991
 21
-53.4709
 31
0.0
  0
LINE
  5
1007
330
1F
100
AcDbEntity
  8
0
  6
Continuous
 62
     7
100
AcDbLine
 10
203.909220518999
 20
-51.44280000000001
 30
0.0
 11
207.2787205189991
 21
-53.34199999999999
 31
0.0
  0
LINE
  5
1008
330
1F
100
AcDbEntity
  8
0
  6
Continuous
 62
     7
100
AcDbLine
 10
244.6675205189991
 20
-57.67089999999999
 30
0.0
 11
289.6675205189991
 21
-57.67089999999999
 31
0.0
  0
LINE
  5
1009
330
1F
100
AcDbEntity
  8
0
  6
Continuous
 62
     7
100
AcDbLine
 10
244.6675205189991
 20
-56.67089999999999
 30
0.0
 11
222.667520518999
 21
-56.67089999999999
 31
0.0
  0
LINE
  5
100A
330
1F
100
AcDbEntity
  8
0
  6
Continuous
 62
     7
100
AcDbLine
 10
222.405120518999
 20
-56.67089999999999
 30
0.0
 11
184.6675205189989
 21
-56.67089999999999
 31
0.0
  0
LINE
  5
100B
330
1F
100
AcDbEntity
  8
0
  6
Continuous
 62
     7
100
AcDbLine
 10
225.4259205189991
 20
-51.44280000000001
 30
0.0
 11
222.0564205189989
 21
-53.34199999999999
 31
0.0
  0
LINE
  5
100C
330
1F
100
AcDbEntity
  8
0
  6
Continuous
 62
     7
100
AcDbLine
 10
286.0964205189991
 20
-52.44049999999997
 30
0.0
 11
276.6863205189991
 21
-35.46420000000001
 31
0.0
  0
LINE
  5
100D
330
1F
100
AcDbEntity
  8
0
  6
Continuous
 62
     7
100
AcDbLine
 10
179.6675205189989
 20
-54.4709
 30
0.0
 11
181.0147205189988
 21
-49.74039999999999
 31
0.0
  0
LINE
  5
100E
330
1F
100
AcDbEntity
  8
0
  6
Continuous
 62
     7
100
AcDbLine
 10
143.2387205189989
 20
-52.44049999999997
 30
0.0
 11
152.6488205189989
 21
-35.46420000000001
 31
0.0
  0
LINE
  5
100F
330
1F
100
AcDbEntity
  8
0
  6
Continuous
 62
     7
100
AcDbLine
 10
139.6675205189991
 20
-53.4709
 30
0.0
 11
141.4894205189991
 21
-53.4709
 31
0.0
  0
LINE
  5
1010
330
1F
100
AcDbEntity
  8
0
  6
Continuous
 62
     7
100
AcDbLine
 10
182.1424205189991
 20
-54.4709
 30
0.0
 11
139.6675205189991
 21
-54.4709
 31
0.0
  0
LINE
  5
1011
330
1F
100
AcDbEntity
  8
0
  6
Continuous
 62
     7
100
AcDbLine
 10
244.6675205189991
 20
-56.67089999999999
 30
0.0
 11
244.6675205189991
 21
-57.67089999999999
 31
0.0
  0
LINE
  5
1012
330
1F
100
AcDbEntity
  8
0
  6
Continuous
 62
     7
100
AcDbLine
 10
184.6675205189989
 20
-56.67089999999999
 30
0.0
 11
184.6675205189989
 21
-57.67089999999999
 31
0.0
  0
LINE
  5
1013
330
1F
100
AcDbEntity
  8
0
  6
Continuous
 62
     7
100
AcDbLine
 10
289.6675205189991
 20
-53.4709
 30
0.0
 11
289.6675205189991
 21
-57.67089999999999
 31
0.0
  0
LINE
  5
1014
330
1F
100
AcDbEntity
  8
0
  6
Continuous
 62
     7
100
AcDbLine
 10
139.6675205189991
 20
-53.4709
 30
0.0
 11
139.6675205189991
 21
-57.67089999999999
 31
0.0
  0
LINE
  5
1015
330
1F
100
AcDbEntity
  8
0
  6
Continuous
 62
     7
100
AcDbLine
 10
221.5654205189991
 20
-53.4709
 30
0.0
 11
183.1424205189991
 21
-53.4709
 31
0.0
  0
LINE
  5
1016
330
1F
100
AcDbEntity
  8
0
  6
Continuous
 62
     7
100
AcDbLine
 10
139.6675205189991
 20
-57.67089999999999
 30
0.0
 11
184.6675205189989
 21
-57.67089999999999
 31
0.0
  0
LINE
  5
1017
330
1F
100
AcDbEntity
  8
0
  6
DASH_CENTER
 62
    30
100
AcDbLine
 10
270.6675205189989
 20
-62.2419
 30
0.0
 11
270.6675205189989
 21
-49.00229999999999
 31
0.0
  0
LINE
  5
1018
330
1F
100
AcDbEntity
  8
0
  6
Continuous
 62
     7
100
AcDbLine
 10
248.3203205189989
 20
-49.74039999999999
 30
0.0
 11
249.667520518999
 21
-54.4709
 31
0.0
  0
LINE
  5
1019
330
1F
100
AcDbEntity
  8
0
  6
Continuous
 62
     7
100
AcDbLine
 10
244.6675205189991
 20
-57.67089999999999
 30
0.0
 11
244.6675205189991
 21
-56.67089999999999
 31
0.0
  0
LINE
  5
101A
330
1F
100
AcDbEntity
  8
0
  6
Continuous
 62
     7
100
AcDbLine
 10
246.1926205189989
 20
-53.4709
 30
0.0
 11
207.7696205189989
 21
-53.4709
 31
0.0
  0
LINE
  5
101B
330
1F
100
AcDbEntity
  8
0
  6
Continuous
 62
     7
100
AcDbLine
 10
289.6675205189991
 20
-54.4709
 30
0.0
 11
247.1926205189991
 21
-54.4709
 31
0.0
  0
LINE
  5
101C
330
1F
100
AcDbEntity
  8
0
  6
Continuous
 62
     7
100
AcDbLine
 10
289.6675205189991
 20
-54.4709
 30
0.0
 11
247.1926205189991
 21
-54.4709
 31
0.0
  0
LINE
  5
101D
330
1F
100
AcDbEntity
  8
0
  6
Continuous
 62
     7
100
AcDbLine
 10
246.1926205189989
 20
-53.4709
 30
0.0
 11
207.7696205189989
 21
-53.4709
 31
0.0
  0
LINE
  5
101E
330
1F
100
AcDbEntity
  8
0
  6
Continuous
 62
     7
100
AcDbLine
 10
183.6020205189986
 20
66.11629999999997
 30
0.0
 11
182.4433205189989
 21
68.91370000000012
 31
0.0
  0
LINE
  5
101F
330
1F
100
AcDbEntity
  8
0
  6
Continuous
 62
     7
100
AcDbLine
 10
199.3079205189991
 20
72.62190000000019
 30
0.0
 11
198.1492205189986
 21
75.41940000000005
 31
0.0
  0
LINE
  5
1020
330
1F
100
AcDbEntity
  8
0
  6
Continuous
 62
     7
100
AcDbLine
 10
199.3080205189991
 20
-45.96379999999991
 30
0.0
 11
198.1492205189986
 21
-48.76119999999983
 31
0.0
  0
LINE
  5
1021
330
1F
100
AcDbEntity
  8
0
  6
Continuous
 62
     7
100
AcDbLine
 10
245.7330205189989
 20
-39.45809999999996
 30
0.0
 11
246.891720518999
 21
-42.25559999999986
 31
0.0
  0
LINE
  5
1022
330
1F
100
AcDbEntity
  8
0
  6
Continuous
 62
     7
100
AcDbLine
 10
230.0271205189991
 20
-45.96369999999993
 30
0.0
 11
231.1858205189988
 21
-48.76119999999983
 31
0.0
  0
LINE
  5
1023
330
1F
100
AcDbEntity
  8
0
  6
Continuous
 62
     7
100
AcDbLine
 10
273.9603205189989
 20
-2.030499999999987
 30
0.0
 11
276.7578205189989
 21
-3.189199999999942
 31
0.0
  0
LINE
  5
1024
330
1F
100
AcDbEntity
  8
0
  6
Continuous
 62
     7
100
AcDbLine
 10
267.4547205189991
 20
-17.73639999999992
 30
0.0
 11
270.2522205189989
 21
-18.89519999999984
 31
0.0
  0
LINE
  5
1025
330
1F
100
AcDbEntity
  8
0
  6
Continuous
 62
     7
100
AcDbLine
 10
267.4547205189991
 20
44.39460000000013
 30
0.0
 11
270.2522205189989
 21
45.55330000000009
 31
0.0
  0
LINE
  5
1026
330
1F
100
AcDbEntity
  8
0
  6
Continuous
 62
     7
100
AcDbLine
 10
273.9603205189989
 20
28.68860000000003
 30
0.0
 11
276.7578205189989
 21
29.84740000000019
 31
0.0
  0
LINE
  5
1027
330
1F
100
AcDbEntity
  8
0
  6
Continuous
 62
     7
100
AcDbLine
 10
230.0271205189991
 20
72.62190000000019
 30
0.0
 11
231.1858205189988
 21
75.41930000000006
 31
0.0
  0
LINE
  5
1028
330
1F
100
AcDbEntity
  8
0
  6
Continuous
 62
     7
100
AcDbLine
 10
245.7330205189989
 20
66.11619999999999
 30
0.0
 11
246.8918205189989
 21
68.91370000000012
 31
0.0
  0
LINE
  5
1029
330
1F
100
AcDbEntity
  8
0
  6
Continuous
 62
     7
100
AcDbLine
 10
218.6677205189989
 20
34.76500000000016
 30
0.0
 11
218.6677205189989
 21
45.57800000000002
 31
0.0
  0
LINE
  5
102A
330
1F
100
AcDbEntity
  8
0
  6
Continuous
 62
     7
100
AcDbLine
 10
218.6677205189989
 20
45.57800000000002
 30
0.0
 11
218.6677205189989
 21
63.84629999999997
 31
0.0
  0
LINE
  5
102B
330
1F
100
AcDbEntity
  8
0
  6
Continuous
 62
     7
100
AcDbLine
 10
210.6677205189989
 20
34.7652000000001
 30
0.0
 11
210.6677205189989
 21
63.84639999999996
 31
0.0
  0
LINE
  5
102C
330
1F
100
AcDbEntity
  8
0
  6
Continuous
 62
     7
100
AcDbLine
 10
218.6677205189989
 20
-30.11059999999989
 30
0.0
 11
218.6677205189989
 21
-37.18829999999994
 31
0.0
  0
LINE
  5
102D
330
1F
100
AcDbEntity
  8
0
  6
Continuous
 62
     7
100
AcDbLine
 10
218.6677205189989
 20
-18.91999999999998
 30
0.0
 11
218.6677205189989
 21
-30.11049999999992
 31
0.0
  0
LINE
  5
102E
330
1F
100
AcDbEntity
  8
0
  6
Continuous
 62
     7
100
AcDbLine
 10
218.6677205189989
 20
-8.106999999999883
 30
0.0
 11
218.6677205189989
 21
-18.91999999999998
 31
0.0
  0
LINE
  5
102F
330
1F
100
AcDbEntity
  8
0
  6
Continuous
 62
     7
100
AcDbLine
 10
210.6677205189989
 20
-37.18819999999996
 30
0.0
 11
210.6677205189989
 21
-8.106799999999934
 31
0.0
  0
LINE
  5
1030
330
1F
100
AcDbEntity
  8
0
  6
Continuous
 62
     7
100
AcDbLine
 10
258.1073205189988
 20
17.32900000000001
 30
0.0
 11
265.185020518999
 21
17.32900000000001
 31
0.0
  0
LINE
  5
1031
330
1F
100
AcDbEntity
  8
0
  6
Continuous
 62
     7
100
AcDbLine
 10
246.9167205189991
 20
17.32900000000001
 30
0.0
 11
258.1073205189988
 21
17.32900000000001
 31
0.0
  0
LINE
  5
1032
330
1F
100
AcDbEntity
  8
0
  6
Continuous
 62
     7
100
AcDbLine
 10
236.1038205189989
 20
17.32900000000001
 30
0.0
 11
246.9167205189991
 21
17.32900000000001
 31
0.0
  0
LINE
  5
1033
330
1F
100
AcDbEntity
  8
0
  6
Continuous
 62
     7
100
AcDbLine
 10
236.1036205189988
 20
9.329000000000036
 30
0.0
 11
246.9167205189991
 21
9.329000000000036
 31
0.0
  0
LINE
  5
1034
330
1F
100
AcDbEntity
  8
0
  6
Continuous
 62
     7
100
AcDbLine
 10
246.9166205189991
 20
9.329000000000036
 30
0.0
 11
265.185020518999
 21
9.329000000000036
 31
0.0
  0
LINE
  5
1035
330
1F
100
AcDbEntity
  8
0
  6
Continuous
 62
     7
100
AcDbLine
 10
210.6677205189989
 20
-30.11049999999992
 30
0.0
 11
210.6677205189989
 21
-18.91999999999998
 31
0.0
  0
LINE
  5
1036
330
1F
100
AcDbEntity
  8
0
  6
Continuous
 62
     7
100
AcDbLine
 10
164.1504205189991
 20
9.329000000000036
 30
0.0
 11
182.4188205189987
 21
9.329000000000036
 31
0.0
  0
LINE
  5
1037
330
1F
100
AcDbEntity
  8
0
  6
Continuous
 62
     7
100
AcDbLine
 10
182.4187205189987
 20
9.329000000000036
 30
0.0
 11
193.2318205189989
 21
9.329000000000036
 31
0.0
  0
LINE
  5
1038
330
1F
100
AcDbEntity
  8
0
  6
Continuous
 62
     7
100
AcDbLine
 10
164.1504205189991
 20
17.32900000000001
 30
0.0
 11
171.2281205189991
 21
17.32900000000001
 31
0.0
  0
LINE
  5
1039
330
1F
100
AcDbEntity
  8
0
  6
Continuous
 62
     7
100
AcDbLine
 10
171.2281205189991
 20
17.32900000000001
 30
0.0
 11
182.4187205189987
 21
17.32900000000001
 31
0.0
  0
LINE
  5
103A
330
1F
100
AcDbEntity
  8
0
  6
Continuous
 62
     7
100
AcDbLine
 10
182.4187205189987
 20
17.32900000000001
 30
0.0
 11
193.2316205189991
 21
17.32900000000001
 31
0.0
  0
LINE
  5
103B
330
1F
100
AcDbEntity
  8
0
  6
Continuous
 62
     7
100
AcDbLine
 10
210.6677205189989
 20
45.57800000000002
 30
0.0
 11
210.6677205189989
 21
34.76500000000016
 31
0.0
  0
LINE
  5
103C
330
1F
100
AcDbEntity
  8
0
  6
Continuous
 62
     7
100
AcDbLine
 10
159.0832205189991
 20
45.55330000000009
 30
0.0
 11
161.8807205189989
 21
44.39460000000013
 31
0.0
  0
LINE
  5
103D
330
1F
100
AcDbEntity
  8
0
  6
Continuous
 62
     7
100
AcDbLine
 10
152.5776205189989
 20
29.84740000000019
 30
0.0
 11
155.3751205189989
 21
28.68860000000003
 31
0.0
  0
LINE
  5
103E
330
1F
100
AcDbEntity
  8
0
  6
Continuous
 62
     7
100
AcDbLine
 10
152.5776205189989
 20
-3.189199999999942
 30
0.0
 11
155.3751205189989
 21
-2.030499999999987
 31
0.0
  0
LINE
  5
103F
330
1F
100
AcDbEntity
  8
0
  6
Continuous
 62
     7
100
AcDbLine
 10
159.0832205189991
 20
-18.89519999999984
 30
0.0
 11
161.8807205189989
 21
-17.73639999999992
 31
0.0
  0
LINE
  5
1040
330
1F
100
AcDbEntity
  8
0
  6
Continuous
 62
     7
100
AcDbLine
 10
182.4437205189991
 20
-42.25559999999986
 30
0.0
 11
183.6024205189991
 21
-39.45809999999996
 31
0.0
  0
LINE
  5
1041
330
1F
100
AcDbEntity
  8
0
  6
Continuous
 62
     7
100
AcDbLine
 10
258.8473484802583
 20
-25.90059069418378
 30
0.0
 11
261.7133484802585
 21
-28.75609069418391
 31
0.0
  0
LINE
  5
1042
330
1F
100
AcDbEntity
  8
0
  6
Continuous
 62
     7
100
AcDbLine
 10
261.7133484802585
 20
-28.75609069418391
 30
0.0
 11
260.6591484802584
 21
-32.66209069418386
 31
0.0
  0
LINE
  5
1043
330
1F
100
AcDbEntity
  8
0
  6
Continuous
 62
     7
100
AcDbLine
 10
260.6591484802584
 20
-32.66209069418386
 30
0.0
 11
256.7553484802584
 21
-33.70819069418387
 31
0.0
  0
LINE
  5
1044
330
1F
100
AcDbEntity
  8
0
  6
Continuous
 62
     7
100
AcDbLine
 10
256.7553484802584
 20
-33.70819069418387
 30
0.0
 11
253.8893484802584
 21
-30.8524906941838
 31
0.0
  0
LINE
  5
1045
330
1F
100
AcDbEntity
  8
0
  6
Continuous
 62
     7
100
AcDbLine
 10
254.9435484802584
 20
-26.94669069418381
 30
0.0
 11
258.8473484802583
 21
-25.90059069418378
 31
0.0
  0
LINE
  5
1046
330
1F
100
AcDbEntity
  8
0
  6
Continuous
 62
     7
100
AcDbLine
 10
253.8893484802584
 20
-30.8524906941838
 30
0.0
 11
254.9435484802584
 21
-26.94669069418381
 31
0.0
  0
LINE
  5
1047
330
1F
100
AcDbEntity
  8
0
  6
DASH_CENTER
 62
    30
100
AcDbLine
 10
263.1290019399189
 20
-35.13209745193817
 30
0.0
 11
253.5498205189991
 21
-25.55299999999979
 31
0.0
  0
LINE
  5
1048
330
1F
100
AcDbEntity
  8
0
  6
Continuous
 62
     7
100
AcDbLine
 10
253.8972112131829
 20
57.50892796125942
 30
0.0
 11
256.7527112131831
 21
60.37492796125939
 31
0.0
  0
LINE
  5
1049
330
1F
100
AcDbEntity
  8
0
  6
Continuous
 62
     7
100
AcDbLine
 10
256.7527112131831
 20
60.37492796125939
 30
0.0
 11
260.6587112131829
 21
59.32072796125936
 31
0.0
  0
LINE
  5
104A
330
1F
100
AcDbEntity
  8
0
  6
Continuous
 62
     7
100
AcDbLine
 10
260.6587112131829
 20
59.32072796125936
 30
0.0
 11
261.704811213183
 21
55.41692796125926
 31
0.0
  0
LINE
  5
104B
330
1F
100
AcDbEntity
  8
0
  6
Continuous
 62
     7
100
AcDbLine
 10
261.704811213183
 20
55.41692796125926
 30
0.0
 11
258.8491112131829
 21
52.55092796125932
 31
0.0
  0
LINE
  5
104C
330
1F
100
AcDbEntity
  8
0
  6
Continuous
 62
     7
100
AcDbLine
 10
254.9433112131829
 20
53.60512796125935
 30
0.0
 11
253.8972112131829
 21
57.50892796125942
 31
0.0
  0
LINE
  5
104D
330
1F
100
AcDbEntity
  8
0
  6
Continuous
 62
     7
100
AcDbLine
 10
258.8491112131829
 20
52.55092796125932
 30
0.0
 11
254.9433112131829
 21
53.60512796125935
 31
0.0
  0
LINE
  5
104E
330
1F
100
AcDbEntity
  8
0
  6
DASH_CENTER
 62
    30
100
AcDbLine
 10
263.1287179709373
 20
61.79058142091975
 30
0.0
 11
253.5496205189989
 21
52.21139999999997
 31
0.0
  0
LINE
  5
104F
330
1F
100
AcDbEntity
  8
0
  6
Continuous
 62
     7
100
AcDbLine
 10
170.4876925577397
 20
52.55879069418382
 30
0.0
 11
167.6216925577396
 21
55.41429069418393
 31
0.0
  0
LINE
  5
1050
330
1F
100
AcDbEntity
  8
0
  6
Continuous
 62
     7
100
AcDbLine
 10
167.6216925577396
 20
55.41429069418393
 30
0.0
 11
168.6758925577398
 21
59.32029069418394
 31
0.0
  0
LINE
  5
1051
330
1F
100
AcDbEntity
  8
0
  6
Continuous
 62
     7
100
AcDbLine
 10
168.6758925577398
 20
59.32029069418394
 30
0.0
 11
172.5796925577396
 21
60.36639069418391
 31
0.0
  0
LINE
  5
1052
330
1F
100
AcDbEntity
  8
0
  6
Continuous
 62
     7
100
AcDbLine
 10
172.5796925577396
 20
60.36639069418391
 30
0.0
 11
175.4456925577398
 21
57.51069069418385
 31
0.0
  0
LINE
  5
1053
330
1F
100
AcDbEntity
  8
0
  6
Continuous
 62
     7
100
AcDbLine
 10
174.3914925577398
 20
53.60489069418385
 30
0.0
 11
170.4876925577397
 21
52.55879069418382
 31
0.0
  0
LINE
  5
1054
330
1F
100
AcDbEntity
  8
0
  6
Continuous
 62
     7
100
AcDbLine
 10
175.4456925577398
 20
57.51069069418385
 30
0.0
 11
174.3914925577398
 21
53.60489069418385
 31
0.0
  0
LINE
  5
1055
330
1F
100
AcDbEntity
  8
0
  6
DASH_CENTER
 62
    30
100
AcDbLine
 10
166.206039098079
 20
61.79029745193822
 30
0.0
 11
175.7852205189989
 21
52.21119999999979
 31
0.0
  0
LINE
  5
1056
330
1F
100
AcDbEntity
  8
0
  6
Continuous
 62
     7
100
AcDbLine
 10
175.4378298248153
 20
-30.85072796125934
 30
0.0
 11
172.5823298248151
 21
-33.71672796125932
 31
0.0
  0
LINE
  5
1057
330
1F
100
AcDbEntity
  8
0
  6
Continuous
 62
     7
100
AcDbLine
 10
172.5823298248151
 20
-33.71672796125932
 30
0.0
 11
168.6763298248151
 21
-32.66252796125928
 31
0.0
  0
LINE
  5
1058
330
1F
100
AcDbEntity
  8
0
  6
Continuous
 62
     7
100
AcDbLine
 10
168.6763298248151
 20
-32.66252796125928
 30
0.0
 11
167.6302298248151
 21
-28.75872796125923
 31
0.0
  0
LINE
  5
1059
330
1F
100
AcDbEntity
  8
0
  6
Continuous
 62
     7
100
AcDbLine
 10
167.6302298248151
 20
-28.75872796125923
 30
0.0
 11
170.4859298248153
 21
-25.89272796125925
 31
0.0
  0
LINE
  5
105A
330
1F
100
AcDbEntity
  8
0
  6
Continuous
 62
     7
100
AcDbLine
 10
174.3917298248153
 20
-26.94692796125929
 30
0.0
 11
175.4378298248153
 21
-30.85072796125934
 31
0.0
  0
LINE
  5
105B
330
1F
100
AcDbEntity
  8
0
  6
Continuous
 62
     7
100
AcDbLine
 10
170.4859298248153
 20
-25.89272796125925
 30
0.0
 11
174.3917298248153
 21
-26.94692796125929
 31
0.0
  0
LINE
  5
105C
330
1F
100
AcDbEntity
  8
0
  6
DASH_CENTER
 62
    30
100
AcDbLine
 10
166.2063230670609
 20
-35.13238142091973
 30
0.0
 11
175.7854205189993
 21
-25.55319999999994
 31
0.0
  0
LINE
  5
105D
330
1F
100
AcDbEntity
  8
0
  6
DASH_CENTER
 62
    30
100
AcDbLine
 10
300.9894741893441
 20
13.3291
 30
0.0
 11
222.0675205189989
 21
13.3291
 31
0.0
  0
LINE
  5
105E
330
1F
100
AcDbEntity
  8
0
  6
Continuous
 62
     7
100
AcDbLine
 10
211.1676205189989
 20
85.82909999999998
 30
0.0
 11
211.2911205189989
 21
87.24249999999996
 31
0.0
  0
LINE
  5
105F
330
1F
100
AcDbEntity
  8
0
  6
Continuous
 62
     7
100
AcDbLine
 10
212.5863205189989
 20
88.42919999999987
 30
0.0
 11
216.7489205189989
 21
88.42919999999987
 31
0.0
  0
LINE
  5
1060
330
1F
100
AcDbEntity
  8
0
  6
Continuous
 62
     7
100
AcDbLine
 10
218.1676205189989
 20
85.82909999999998
 30
0.0
 11
218.0438205189989
 21
87.24249999999996
 31
0.0
  0
LINE
  5
1061
330
1F
100
AcDbEntity
  8
0
  6
Continuous
 62
     7
100
AcDbLine
 10
142.7484412913901
 20
3.523726826943486
 30
0.0
 11
141.3296559708779
 21
3.523570945358412
 31
0.0
  0
LINE
  5
1062
330
1F
100
AcDbEntity
  8
0
  6
Continuous
 62
     7
100
AcDbLine
 10
287.1966899458418
 20
10.49708971358568
 30
0.0
 11
286.5865997466082
 21
3.523726826943486
 31
0.0
  0
LINE
  5
1063
330
1F
100
AcDbEntity
  8
0
  6
Continuous
 62
     7
100
AcDbLine
 10
288.0053850671203
 20
3.523570945358412
 30
0.0
 11
286.5865997466082
 21
3.523726826943486
 31
0.0
  0
LINE
  5
1064
330
1F
100
AcDbEntity
  8
0
  6
Continuous
 62
     7
100
AcDbLine
 10
289.6632479281138
 20
8.857174648684804
 30
0.0
 11
289.3004534333523
 21
4.710414598407993
 31
0.0
  0
LINE
  5
1065
330
1F
100
AcDbEntity
  8
0
  6
Continuous
 62
     7
100
AcDbLine
 10
288.5939216511723
 20
10.25057488316233
 30
0.0
 11
287.1966899458418
 21
10.49708971358568
 31
0.0
  0
LINE
  5
1066
330
1F
100
AcDbEntity
  8
0
  6
Continuous
 62
     7
100
AcDbLine
 10
208.6675205189991
 20
84.57687050785507
 30
0.0
 11
208.6675205189991
 21
81.23528528528897
 31
0.0
  0
LINE
  5
1067
330
1F
100
AcDbEntity
  8
0
  6
Continuous
 62
     7
100
AcDbLine
 10
220.6675205189991
 20
84.57690698386437
 30
0.0
 11
220.6675205189991
 21
81.23528528528897
 31
0.0
  0
LINE
  5
1068
330
1F
100
AcDbEntity
  8
0
  6
Continuous
 62
     7
100
AcDbLine
 10
144.2138037447024
 20
1.142279453722778
 30
0.0
 11
147.5426732266444
 21
1.433517795750074
 31
0.0
  0
LINE
  5
1069
330
1F
100
AcDbEntity
  8
0
  6
Continuous
 62
     7
100
AcDbLine
 10
285.121273630503
 20
1.142276274629068
 30
0.0
 11
281.7923678113538
 21
1.433517795750074
 31
0.0
  0
LINE
  5
106A
330
1F
100
AcDbEntity
  8
0
  6
Continuous
 62
     7
100
AcDbLine
 10
286.1671425434748
 20
13.09661265172997
 30
0.0
 11
282.8382367243256
 21
13.38785417285103
 31
0.0
  0
LINE
  5
106B
330
1F
100
AcDbEntity
  8
0
  6
DASH_CENTER
 62
    30
100
AcDbLine
 10
293.2150374021542
 20
6.457074917019355
 30
0.0
 11
276.7496205189991
 21
7.897600000000096
 31
0.0
  0
LINE
  5
106C
330
1F
100
AcDbEntity
  8
0
  6
Continuous
 62
     7
100
AcDbLine
 10
214.6676205189991
 20
85.82909999999998
 30
0.0
 11
218.1676205189989
 21
85.82909999999998
 31
0.0
  0
LINE
  5
106D
330
1F
100
AcDbEntity
  8
0
  6
Continuous
 62
     7
100
AcDbLine
 10
149.9289941170004
 20
23.92528189857643
 30
0.0
 11
149.4654266979565
 21
24.00115703765422
 31
0.0
  0
LINE
  5
106E
330
1F
100
AcDbEntity
  8
0
  6
Continuous
 62
     7
100
AcDbLine
 10
149.4654266979565
 20
2.657042962345798
 30
0.0
 11
149.9289941170004
 21
2.732918101423589
 31
0.0
  0
LINE
  5
106F
330
1F
100
AcDbEntity
  8
0
  6
DASH_CENTER
 62
    30
100
AcDbLine
 10
214.6675205189991
 20
13.3291
 30
0.0
 11
214.6675205189991
 21
98.2487638102603
 31
0.0
  0
LINE
  5
1070
330
1F
100
AcDbEntity
  8
0
  6
DASH_CENTER
 62
    30
100
AcDbLine
 10
214.6675205189991
 20
-72.09590000000003
 30
0.0
 11
214.6675205189991
 21
13.3291
 31
0.0
  0
LINE
  5
1071
330
1F
100
AcDbEntity
  8
0
  6
Continuous
 62
     7
100
AcDbLine
 10
211.1676205189989
 20
85.82909999999998
 30
0.0
 11
214.6674205189991
 21
85.82909999999998
 31
0.0
  0
LINE
  5
1072
330
1F
100
AcDbEntity
  8
0
  6
Continuous
 62
     7
100
AcDbLine
 10
146.8784674632514
 20
6.829100000000011
 30
0.0
 11
142.4594877247869
 21
6.829100000000011
 31
0.0
  0
LINE
  5
1073
330
1F
100
AcDbEntity
  8
0
  6
Continuous
 62
     7
100
AcDbLine
 10
139.8492266504286
 20
6.82909999999998
 30
0.0
 11
140.0345876046458
 21
4.710414598407993
 31
0.0
  0
LINE
  5
1074
330
1F
100
AcDbEntity
  8
0
  6
Continuous
 62
     7
100
AcDbLine
 10
139.8492266504286
 20
6.82909999999998
 30
0.0
 11
142.4592586100249
 21
6.829100000000011
 31
0.0
  0
LINE
  5
1075
330
1F
100
AcDbEntity
  8
0
  6
Continuous
 62
     7
100
AcDbLine
 10
142.4592586100249
 20
6.829100000000011
 30
0.0
 11
142.7484412913901
 21
3.523726826943486
 31
0.0
  0
LINE
  5
1076
330
1F
100
AcDbEntity
  8
0
  6
Continuous
 62
     7
100
AcDbLine
 10
142.4592586100249
 20
6.829100000000011
 30
0.0
 11
142.4594877247869
 21
6.829100000000011
 31
0.0
  0
LINE
  5
1077
330
1F
100
AcDbEntity
  8
0
  6
Continuous
 62
     7
100
AcDbLine
 10
140.7411193868259
 20
10.25057488316233
 30
0.0
 11
140.7568499475418
 21
10.25335023995717
 31
0.0
  0
LINE
  5
1078
330
1F
100
AcDbEntity
  8
0
  6
Continuous
 62
     7
100
AcDbLine
 10
140.7568499475418
 20
10.25335023995717
 30
0.0
 11
142.1383510921565
 21
10.49708971358568
 31
0.0
  0
LINE
  5
1079
330
1F
100
AcDbEntity
  8
0
  6
DASH_CENTER
 62
    30
100
AcDbLine
 10
134.7683759177465
 20
13.3291
 30
0.0
 11
214.6675205189991
 21
13.3291
 31
0.0
  0
LINE
  5
107A
330
1F
100
AcDbEntity
  8
0
  6
Continuous
 62
     7
100
AcDbLine
 10
130.3730970319004
 20
19.82910000000001
 30
0.0
 11
146.8784674632514
 21
19.82910000000001
 31
0.0
  0
LINE
  5
107B
330
1F
100
AcDbEntity
  8
0
  6
Continuous
 62
     7
100
AcDbLine
 10
130.3730970319004
 20
16.82910000000001
 30
0.0
 11
142.2520525580034
 21
16.82910000000001
 31
0.0
  0
LINE
  5
107C
330
1F
100
AcDbEntity
  8
0
  6
Continuous
 62
     7
100
AcDbLine
 10
127.3730970319006
 20
6.829100000000011
 30
0.0
 11
127.4088569881316
 21
6.829100000000011
 31
0.0
  0
LINE
  5
107D
330
1F
100
AcDbEntity
  8
0
  6
Continuous
 62
     7
100
AcDbLine
 10
141.3730970319005
 20
11.82910000000001
 30
0.0
 11
142.1830394212497
 21
11.82910000000001
 31
0.0
  0
LINE
  5
107E
330
1F
100
AcDbEntity
  8
0
  6
Continuous
 62
     7
100
AcDbLine
 10
129.3730970319004
 20
14.82910000000001
 30
0.0
 11
146.5840738216192
 21
14.82910000000001
 31
0.0
  0
LINE
  5
107F
330
1F
100
AcDbEntity
  8
0
  6
Continuous
 62
     7
100
AcDbLine
 10
139.9908192556457
 20
9.829100000000011
 30
0.0
 11
132.2079456419888
 21
9.829100000000011
 31
0.0
  0
LINE
  5
1080
330
1F
100
AcDbEntity
  8
0
  6
Continuous
 62
     7
100
AcDbLine
 10
141.3730970319005
 20
11.82910000000001
 30
0.0
 11
142.1830394212497
 21
11.82910000000001
 31
0.0
  0
LINE
  5
1081
330
1F
100
AcDbEntity
  8
0
  6
Continuous
 62
     7
100
AcDbLine
 10
141.3730970319005
 20
11.82910000000001
 30
0.0
 11
129.4987549448624
 21
11.82910000000001
 31
0.0
  0
LINE
  5
1082
330
1F
100
AcDbEntity
  8
0
  6
Continuous
 62
     7
100
AcDbLine
 10
116.3730970319005
 20
-4.170900000000017
 30
0.0
 11
116.3730970319005
 21
-10.17089999999999
 31
0.0
  0
LINE
  5
1083
330
1F
100
AcDbEntity
  8
0
  6
Continuous
 62
     7
100
AcDbLine
 10
129.4987549448624
 20
11.82910000000001
 30
0.0
 11
129.3730970319004
 21
11.82910000000001
 31
0.0
  0
LINE
  5
1084
330
1F
100
AcDbEntity
  8
0
  6
Continuous
 62
     7
100
AcDbLine
 10
132.2079456419888
 20
9.829100000000011
 30
0.0
 11
127.3730970319006
 21
9.829100000000011
 31
0.0
  0
LINE
  5
1085
330
1F
100
AcDbEntity
  8
0
  6
Continuous
 62
     7
100
AcDbLine
 10
127.4088569881316
 20
6.829100000000011
 30
0.0
 11
139.8492266504286
 21
6.82909999999998
 31
0.0
  0
LINE
  5
1086
330
1F
100
AcDbEntity
  8
0
  6
Continuous
 62
     7
100
AcDbLine
 10
107.3730970319006
 20
-3.170899999999988
 30
0.0
 11
107.3730970319006
 21
-24.8346527045994
 31
0.0
  0
LINE
  5
1087
330
1F
100
AcDbEntity
  8
0
  6
Continuous
 62
     7
100
AcDbLine
 10
110.3730970319005
 20
-3.170899999999988
 30
0.0
 11
110.3730970319005
 21
-24.8346527045994
 31
0.0
  0
LINE
  5
1088
330
1F
100
AcDbEntity
  8
0
  6
Continuous
 62
     7
100
AcDbLine
 10
113.3730970319005
 20
-24.8346527045994
 30
0.0
 11
113.3730970319005
 21
-4.170899999999988
 31
0.0
  0
LINE
  5
1089
330
1F
100
AcDbEntity
  8
0
  6
Continuous
 62
     7
100
AcDbLine
 10
116.3730970319005
 20
-24.8346527045994
 30
0.0
 11
116.3730970319005
 21
-10.17089999999999
 31
0.0
  0
LINE
  5
108A
330
1F
100
AcDbEntity
  8
0
  6
Continuous
 62
     7
100
AcDbLine
 10
119.3730970319005
 20
-24.8346527045994
 30
0.0
 11
119.3730970319005
 21
-10.17089999999999
 31
0.0
  0
LINE
  5
108B
330
1F
100
AcDbEntity
  8
0
  6
Continuous
 62
     7
100
AcDbLine
 10
244.9275900480623
 20
71.53291485458033
 30
0.0
 11
245.2966154632357
 21
72.24271781523633
 31
0.0
  0
LINE
  5
108C
330
1F
100
AcDbEntity
  8
0
  6
Continuous
 62
     7
100
AcDbLine
 10
272.8711653054135
 20
43.5894966449038
 30
0.0
 11
273.5809661920665
 21
43.95852604929666
 31
0.0
  0
LINE
  5
108D
330
1F
100
AcDbEntity
  8
0
  6
Continuous
 62
     7
100
AcDbLine
 10
211.0620205189988
 20
19.32910000000001
 30
0.0
 11
218.2731205189989
 21
19.32910000000001
 31
0.0
  0
LINE
  5
108E
330
1F
100
AcDbEntity
  8
0
  6
DASH_CENTER
 62
    30
100
AcDbLine
 10
222.0675205189989
 20
13.3291
 30
0.0
 11
214.6675205189991
 21
13.3291
 31
0.0
  0
LINE
  5
108F
330
1F
100
AcDbEntity
  8
0
  6
Continuous
 62
     7
100
AcDbLine
 10
143.1832928716364
 20
11.82910000000001
 30
0.0
 11
146.5840738216192
 21
11.82910000000001
 31
0.0
  0
LINE
  5
1090
330
1F
100
AcDbEntity
  8
0
  6
Continuous
 62
     7
100
AcDbLine
 10
139.9908192556457
 20
9.829100000000011
 30
0.0
 11
146.6575527628314
 21
9.829100000000011
 31
0.0
  0
LINE
  5
1091
330
1F
100
AcDbEntity
  8
0
  6
Continuous
 62
     7
100
AcDbLine
 10
142.1830394212497
 20
11.82910000000001
 30
0.0
 11
143.1832928716364
 21
11.82910000000001
 31
0.0
  0
LINE
  5
1092
330
1F
100
AcDbEntity
  8
0
  6
Continuous
 62
     7
100
AcDbLine
 10
142.2520525580034
 20
16.82910000000001
 30
0.0
 11
143.2532726244789
 21
16.82910000000001
 31
0.0
  0
LINE
  5
1093
330
1F
100
AcDbEntity
  8
0
  6
Continuous
 62
     7
100
AcDbLine
 10
143.2532726244789
 20
16.82910000000001
 30
0.0
 11
146.6575527628314
 21
16.82910000000001
 31
0.0
  0
LINE
  5
1094
330
1F
100
AcDbEntity
  8
0
  6
Continuous
 62
     7
100
AcDbLine
 10
214.6674205189991
 20
85.82909999999998
 30
0.0
 11
214.6676205189991
 21
85.82909999999998
 31
0.0
  0
LINE
  5
1095
330
1F
100
AcDbEntity
  8
0
  6
DASH_CENTER
 62
    30
100
AcDbLine
 10
111.1231970319006
 20
-53.9104962837958
 30
0.0
 11
103.2122036300054
 21
-53.9104962837958
 31
0.0
  0
LINE
  5
1096
330
1F
100
AcDbEntity
  8
0
  6
DASH_CENTER
 62
    30
100
AcDbLine
 10
114.6696127832725
 20
-53.9104962837958
 30
0.0
 11
111.1231970319006
 21
-53.9104962837958
 31
0.0
  0
LINE
  5
1097
330
1F
100
AcDbEntity
  8
0
  6
DASH_CENTER
 62
    30
100
AcDbLine
 10
108.9731970319007
 20
-49.33346753536767
 30
0.0
 11
108.9731970319007
 21
-59.77806703972561
 31
0.0
  0
LINE
  5
1098
330
1F
100
AcDbEntity
  8
0
  6
Continuous
 62
     7
100
AcDbLine
 10
106.9231970319007
 20
-47.61069628379579
 30
0.0
 11
105.7434970319006
 21
-53.23299628379579
 31
0.0
  0
LINE
  5
1099
330
1F
100
AcDbEntity
  8
0
  6
Continuous
 62
     7
100
AcDbLine
 10
111.0229970319007
 20
-47.61069628379579
 30
0.0
 11
112.2026970319006
 21
-53.23299628379579
 31
0.0
  0
LINE
  5
109A
330
1F
100
AcDbEntity
  8
0
  6
Continuous
 62
     7
100
AcDbLine
 10
106.9231970319007
 20
-42.81069628379561
 30
0.0
 11
106.9231970319007
 21
-47.61069628379579
 31
0.0
  0
LINE
  5
109B
330
1F
100
AcDbEntity
  8
0
  6
Continuous
 62
     7
100
AcDbLine
 10
111.0229970319007
 20
-42.81069628379561
 30
0.0
 11
111.0229970319007
 21
-47.61069628379579
 31
0.0
  0
LINE
  5
109C
330
1F
100
AcDbEntity
  8
0
  6
Continuous
 62
     7
100
AcDbLine
 10
106.9231970319007
 20
-47.61069628379579
 30
0.0
 11
111.0229970319007
 21
-47.61069628379579
 31
0.0
  0
LINE
  5
109D
330
1F
100
AcDbEntity
  8
0
  6
Continuous
 62
     7
100
AcDbLine
 10
111.0229970319007
 20
-42.81069628379561
 30
0.0
 11
110.5730970319006
 21
-42.81069628379561
 31
0.0
  0
LINE
  5
109E
330
1F
100
AcDbEntity
  8
0
  6
Continuous
 62
     7
100
AcDbLine
 10
107.3730970319006
 20
-42.81069628379561
 30
0.0
 11
107.3730970319006
 21
-31.95359654972782
 31
0.0
  0
LINE
  5
109F
330
1F
100
AcDbEntity
  8
0
  6
Continuous
 62
     7
100
AcDbLine
 10
107.3730970319006
 20
-42.81069628379561
 30
0.0
 11
106.9231970319007
 21
-42.81069628379561
 31
0.0
  0
LINE
  5
10A0
330
1F
100
AcDbEntity
  8
0
  6
Continuous
 62
     7
100
AcDbLine
 10
110.5730970319006
 20
-31.95359654972782
 30
0.0
 11
110.5730970319006
 21
-42.81069628379561
 31
0.0
  0
LINE
  5
10A1
330
1F
100
AcDbEntity
  8
0
  6
Continuous
 62
     7
100
AcDbLine
 10
110.5730970319006
 20
-42.81069628379561
 30
0.0
 11
107.3730970319006
 21
-42.81069628379561
 31
0.0
  0
POINT
  5
10A2
330
1F
100
AcDbEntity
  8
0
 62
     2
100
AcDbPoint
 10
289.6675205189991
 20
-57.8434
 30
0.0
  0
POINT
  5
10A3
330
1F
100
AcDbEntity
  8
0
 62
     2
100
AcDbPoint
 10
289.6675205189991
 20
-54.64339999999999
 30
0.0
  0
POINT
  5
10A6
330
1F
100
AcDbEntity
  8
0
 62
     2
100
AcDbPoint
 10
213.4950205189991
 20
78.92899999999997
 30
0.0
  0
POINT
  5
10A7
330
1F
100
AcDbEntity
  8
0
 62
     2
100
AcDbPoint
 10
280.2675205189991
 20
14.50159999999999
 30
0.0
  0
POINT
  5
10A8
330
1F
100
AcDbEntity
  8
0
 62
     7
100
AcDbPoint
 10
149.067620518999
 20
14.50159999999999
 30
0.0
  0
POINT
  5
10A9
330
1F
100
AcDbEntity
  8
0
 62
     2
100
AcDbPoint
 10
238.7836205189989
 20
25.5270000000001
 30
0.0
  0
POINT
  5
10AA
330
1F
100
AcDbEntity
  8
0
 62
     2
100
AcDbPoint
 10
246.6308205189989
 20
29.93380000000014
 30
0.0
  0
POINT
  5
10AB
330
1F
100
AcDbEntity
  8
0
 62
     2
100
AcDbPoint
 10
246.6308205189989
 20
29.93380000000014
 30
0.0
  0
POINT
  5
10AC
330
1F
100
AcDbEntity
  8
0
 62
     2
100
AcDbPoint
 10
181.9946205189991
 20
69.99700000000013
 30
0.0
  0
POINT
  5
10AD
330
1F
100
AcDbEntity
  8
0
 62
     2
100
AcDbPoint
 10
197.7005205189989
 20
76.5026000000001
 30
0.0
  0
POINT
  5
10AE
330
1F
100
AcDbEntity
  8
0
 62
     2
100
AcDbPoint
 10
190.5518205189989
 20
25.5270000000001
 30
0.0
  0
POINT
  5
10AF
330
1F
100
AcDbEntity
  8
0
 62
     2
100
AcDbPoint
 10
221.6675205189991
 20
12.15659999999988
 30
0.0
  0
POINT
  5
10B0
330
1F
100
AcDbEntity
  8
0
 62
     2
100
AcDbPoint
 10
215.8400205189987
 20
20.32909999999998
 30
0.0
  0
CIRCLE
  5
10B2
330
1F
100
AcDbEntity
  8
0
  6
Continuous
 62
     7
100
AcDbCircle
 10
10.14489368543949
 20
13.32919999999998
 30
0.0
 40
7.0
  0
LINE
  5
10B3
330
1F
100
AcDbEntity
  8
0
  6
Continuous
 62
     7
100
AcDbLine
 10
6.539393685439369
 20
19.32919999999998
 30
0.0
 11
13.75049368543936
 21
19.32919999999998
 31
0.0
  0
LINE
  5
10B4
330
1F
100
AcDbEntity
  8
0
  6
DASH_CENTER
 62
    30
100
AcDbLine
 10
-2.122006314560472
 20
13.32919999999998
 30
0.0
 11
22.41179368543946
 21
13.32919999999998
 31
0.0
  0
LINE
  5
10B5
330
1F
100
AcDbEntity
  8
0
  6
DASH_CENTER
 62
    30
100
AcDbLine
 10
10.14489368543949
 20
25.10545
 30
0.0
 11
10.14489368543949
 21
1.552949999999967
 31
0.0
  0
CIRCLE
  5
10C7
330
1F
100
AcDbEntity
  8
0
  6
Continuous
 62
     7
100
AcDbCircle
 10
-273.5668649510561
 20
6.443900000000127
 30
0.0
 40
3.5
  0
ARC
  5
10C8
330
1F
100
AcDbEntity
  8
0
  6
Continuous
 62
     7
100
AcDbCircle
 10
-213.1421503428533
 20
-52.47077704943786
 30
0.0
 40
2.00002295077438
100
AcDbArc
 50
269.9991652631396
 51
346.4520651527838
  0
ARC
  5
10C9
330
1F
100
AcDbEntity
  8
0
  6
Continuous
 62
     7
100
AcDbCircle
 10
-116.5053226261752
 20
-51.17066601589669
 30
0.0
 40
4.999966016082874
100
AcDbArc
 50
13.5476995929388
 51
89.99950558935957
  0
ARC
  5
10CA
330
1F
100
AcDbEntity
  8
0
  6
Continuous
 62
     7
100
AcDbCircle
 10
-132.3670794860019
 20
-53.97069999499999
 30
0.0
 40
0.5000000050000013
100
AcDbArc
 50
180.0114597288219
 51
270.0000005730722
  0
ARC
  5
10CB
330
1F
100
AcDbEntity
  8
0
  6
Continuous
 62
     7
100
AcDbCircle
 10
-133.3670794760019
 20
-53.970700005
 30
0.0
 40
0.5000000049999909
100
AcDbArc
 50
359.9885414170945
 51
90.00000057284424
  0
ARC
  5
10CC
330
1F
100
AcDbEntity
  8
0
  6
Continuous
 62
     7
100
AcDbCircle
 10
-127.4215104082071
 20
-51.47067272620256
 30
0.0
 40
3.000027274592623
100
AcDbArc
 50
187.1850650581211
 51
269.9986808188045
  0
ARC
  5
10CD
330
1F
100
AcDbEntity
  8
0
  6
Continuous
 62
     7
100
AcDbCircle
 10
-200.7997923662232
 20
-31.26910598523442
 30
0.0
 40
14.99994767940202
100
AcDbArc
 50
276.5648622900071
 51
313.2652304649271
  0
ARC
  5
10CE
330
1F
100
AcDbEntity
  8
0
  6
Continuous
 62
     7
100
AcDbCircle
 10
-108.9918086191485
 20
-52.47077704943788
 30
0.0
 40
2.000022950774384
100
AcDbArc
 50
193.5479348472162
 51
270.0008347368598
  0
ARC
  5
10CF
330
1F
100
AcDbEntity
  8
0
  6
Continuous
 62
     7
100
AcDbCircle
 10
-189.7668794759999
 20
-53.97069999499999
 30
0.0
 40
0.5000000049999969
100
AcDbArc
 50
269.9999994269278
 51
359.9885402711779
  0
ARC
  5
10D0
330
1F
100
AcDbEntity
  8
0
  6
Continuous
 62
     7
100
AcDbCircle
 10
-188.7668794859999
 20
-53.970700005
 30
0.0
 40
0.500000005000004
100
AcDbArc
 50
89.99999942715573
 51
180.0114585829055
  0
ARC
  5
10D1
330
1F
100
AcDbEntity
  8
0
  6
Continuous
 62
     7
100
AcDbCircle
 10
-180.2482840908414
 20
-40.67070406524621
 30
0.0
 40
10.0000040652473
100
AcDbArc
 50
89.99997358756882
 51
172.8157587418014
  0
ARC
  5
10D2
330
1F
100
AcDbEntity
  8
0
  6
Continuous
 62
     7
100
AcDbCircle
 10
-205.6286363358264
 20
-51.17066601589669
 30
0.0
 40
4.999966016082861
100
AcDbArc
 50
90.00049441064019
 51
166.4523004070611
  0
ARC
  5
10D3
330
1F
100
AcDbEntity
  8
0
  6
Continuous
 62
     7
100
AcDbCircle
 10
-141.88557487116
 20
-40.6708040652462
 30
0.0
 40
10.0000040652473
100
AcDbArc
 50
7.184241258198244
 51
90.00002641243099
  0
ARC
  5
10D4
330
1F
100
AcDbEntity
  8
0
  6
Continuous
 62
     7
100
AcDbCircle
 10
-121.3341106418541
 20
-31.26898552566604
 30
0.0
 40
15.00007374627934
100
AcDbArc
 50
226.7349292563797
 51
263.4349779886864
  0
ARC
  5
10D5
330
1F
100
AcDbEntity
  8
0
  6
Continuous
 62
     7
100
AcDbCircle
 10
-194.7124485529797
 20
-51.47067272640011
 30
0.0
 40
3.000027273759291
100
AcDbArc
 50
269.9994093236759
 51
352.8149349436758
  0
ARC
  5
10D6
330
1F
100
AcDbEntity
  8
0
  6
Continuous
 62
     7
100
AcDbCircle
 10
-76.16697948100105
 20
-5.72079999999994
 30
0.0
 40
0.5
100
AcDbArc
 50
270.0
 51
0.0
  0
ARC
  5
10D7
330
1F
100
AcDbEntity
  8
0
  6
Continuous
 62
     7
100
AcDbCircle
 10
-75.16700591638596
 20
-4.36254464982332
 30
0.0
 40
0.4999735666088196
100
AcDbArc
 50
118.7489405057552
 51
179.9948832366012
  0
ARC
  5
10D8
330
1F
100
AcDbEntity
  8
0
  6
Continuous
 62
     7
100
AcDbCircle
 10
-76.3697343099268
 20
-2.17088031301975
 30
0.0
 40
2.000016070071178
100
AcDbArc
 50
298.7588084840053
 51
352.5992366537793
  0
ARC
  5
10D9
330
1F
100
AcDbEntity
  8
0
  6
Continuous
 62
     7
100
AcDbCircle
 10
-75.16700591638593
 20
31.02084464982362
 30
0.0
 40
0.4999735666088301
100
AcDbArc
 50
180.0051167633966
 51
241.2510594942439
  0
ARC
  5
10DA
330
1F
100
AcDbEntity
  8
0
  6
Continuous
 62
     7
100
AcDbCircle
 10
-76.36967972230634
 20
28.82920035343895
 30
0.0
 40
1.999972238557234
100
AcDbArc
 50
7.403236405043393
 51
61.24228623789747
  0
ARC
  5
10DB
330
1F
100
AcDbEntity
  8
0
  6
Continuous
 62
     7
100
AcDbCircle
 10
-76.16697948100105
 20
32.3792000000002
 30
0.0
 40
0.5
100
AcDbArc
 50
0.0
 51
90.0
  0
ARC
  5
10DC
330
1F
100
AcDbEntity
  8
0
  6
Continuous
 62
     7
100
AcDbCircle
 10
-195.666979481001
 20
13.3292
 30
0.0
 40
122.3000089828287
100
AcDbArc
 50
356.5310885151518
 51
0.0
  0
ARC
  5
10DD
330
1F
100
AcDbEntity
  8
0
  6
Continuous
 62
     7
100
AcDbCircle
 10
-195.666979481001
 20
13.3292
 30
0.0
 40
122.299983213899
100
AcDbArc
 50
3.468912216652078
 51
7.402787619525544
  0
ARC
  5
10DE
330
1F
100
AcDbEntity
  8
0
  6
Continuous
 62
     7
100
AcDbCircle
 10
-89.15522901051716
 20
-33.84608086585169
 30
0.0
 40
6.588277034786337
100
AcDbArc
 50
4.419247763366542
 51
17.8625555803128
  0
ARC
  5
10DF
330
1F
100
AcDbEntity
  8
0
  6
Continuous
 62
     7
100
AcDbCircle
 10
-89.15520368901837
 20
-25.76284648982824
 30
0.0
 40
6.588261696440962
100
AcDbArc
 50
342.1371404131443
 51
355.5796204923373
  0
ARC
  5
10E0
330
1F
100
AcDbEntity
  8
0
  6
Continuous
 62
     7
100
AcDbCircle
 10
-89.15523942537232
 20
-29.80437279844457
 30
0.0
 40
6.588287640269276
100
AcDbArc
 50
342.1374535096646
 51
17.85971104818693
  0
ARC
  5
10E1
330
1F
100
AcDbEntity
  8
0
  6
Continuous
 62
     7
100
AcDbCircle
 10
-79.17874984790619
 20
-33.84608086585169
 30
0.0
 40
6.588277034786337
100
AcDbArc
 50
162.1374444196872
 51
175.5807522366334
  0
ARC
  5
10E2
330
1F
100
AcDbEntity
  8
0
  6
Continuous
 62
     7
100
AcDbCircle
 10
-79.17877516940496
 20
-25.76284648982824
 30
0.0
 40
6.588261696440962
100
AcDbArc
 50
184.4203795076625
 51
197.8628595868555
  0
ARC
  5
10E3
330
1F
100
AcDbEntity
  8
0
  6
Continuous
 62
     7
100
AcDbCircle
 10
-79.178739433051
 20
-29.80437279844457
 30
0.0
 40
6.588287640269276
100
AcDbArc
 50
162.140288951813
 51
197.8625464903353
  0
ARC
  5
10E4
330
1F
100
AcDbEntity
  8
0
  6
Continuous
 62
     7
100
AcDbCircle
 10
-89.15522901051716
 20
60.50448086585169
 30
0.0
 40
6.588277034786337
100
AcDbArc
 50
342.1374444196872
 51
355.5807522366335
  0
ARC
  5
10E5
330
1F
100
AcDbEntity
  8
0
  6
Continuous
 62
     7
100
AcDbCircle
 10
-89.15520368901837
 20
52.42124648982827
 30
0.0
 40
6.588261696440962
100
AcDbArc
 50
4.420379507662622
 51
17.86285958685575
  0
ARC
  5
10E6
330
1F
100
AcDbEntity
  8
0
  6
Continuous
 62
     7
100
AcDbCircle
 10
-89.15523942537232
 20
56.46277279844463
 30
0.0
 40
6.588287640269276
100
AcDbArc
 50
342.140288951813
 51
17.86254649033535
  0
ARC
  5
10E7
330
1F
100
AcDbEntity
  8
0
  6
Continuous
 62
     7
100
AcDbCircle
 10
-79.17874984790619
 20
60.50448086585169
 30
0.0
 40
6.588277034786337
100
AcDbArc
 50
184.4192477633665
 51
197.8625555803128
  0
ARC
  5
10E8
330
1F
100
AcDbEntity
  8
0
  6
Continuous
 62
     7
100
AcDbCircle
 10
-79.17877516940496
 20
52.42124648982827
 30
0.0
 40
6.588261696440962
100
AcDbArc
 50
162.1371404131441
 51
175.5796204923373
  0
ARC
  5
10E9
330
1F
100
AcDbEntity
  8
0
  6
Continuous
 62
     7
100
AcDbCircle
 10
-79.178739433051
 20
56.46277279844463
 30
0.0
 40
6.58828764026928
100
AcDbArc
 50
162.1374535096645
 51
197.8597110481869
  0
ARC
  5
10EA
330
1F
100
AcDbEntity
  8
0
  6
Continuous
 62
     7
100
AcDbCircle
 10
-279.0251649510561
 20
6.443900000000127
 30
0.0
 40
2.541660655949178
100
AcDbArc
 50
79.61188128797553
 51
280.3881187120245
  0
ARC
  5
10EB
330
1F
100
AcDbEntity
  8
0
  6
Continuous
 62
     7
100
AcDbCircle
 10
-303.1626516108147
 20
-48.17041253941676
 30
0.0
 40
5.999987461208879
100
AcDbArc
 50
183.5439811702364
 51
270.000827541468
  0
ARC
  5
10EC
330
1F
100
AcDbEntity
  8
0
  6
Continuous
 62
     7
100
AcDbCircle
 10
-302.8985743117253
 20
78.94919104762272
 30
0.0
 40
5.999999965402687
100
AcDbArc
 50
91.23377508391971
 51
176.2118140003741
  0
ARC
  5
10ED
330
1F
100
AcDbEntity
  8
0
  6
Continuous
 62
     7
100
AcDbCircle
 10
688.9330350489437
 20
13.32920000000002
 30
0.0
 40
1000.000014529945
100
AcDbArc
 50
180.0
 51
183.5471840131662
  0
ARC
  5
10EE
330
1F
100
AcDbEntity
  8
0
  6
Continuous
 62
     7
100
AcDbCircle
 10
-271.4855939358386
 20
86.88176292444058
 30
0.0
 40
1.299973439518852
100
AcDbArc
 50
4.998818206898311
 51
89.99872250796611
  0
ARC
  5
10EF
330
1F
100
AcDbEntity
  8
0
  6
Continuous
 62
     7
100
AcDbCircle
 10
-275.6481903238505
 20
86.88171311454743
 30
0.0
 40
1.300023249336482
100
AcDbArc
 50
89.99888174766683
 51
174.999170157527
  0
ARC
  5
10F0
330
1F
100
AcDbEntity
  8
0
  6
Continuous
 62
     7
100
AcDbCircle
 10
-274.5668649510561
 20
7.443900000000127
 30
0.0
 40
0.5
100
AcDbArc
 50
270.0
 51
0.0
  0
ARC
  5
10F1
330
1F
100
AcDbEntity
  8
0
  6
Continuous
 62
     7
100
AcDbCircle
 10
-272.5668649510561
 20
7.443900000000127
 30
0.0
 40
0.5
100
AcDbArc
 50
180.0
 51
270.0
  0
ARC
  5
10F2
330
1F
100
AcDbEntity
  8
0
  6
Continuous
 62
     7
100
AcDbCircle
 10
-272.5668649510561
 20
5.443900000000126
 30
0.0
 40
0.5
100
AcDbArc
 50
90.0
 51
180.0
  0
ARC
  5
10F3
330
1F
100
AcDbEntity
  8
0
  6
Continuous
 62
     7
100
AcDbCircle
 10
-274.5668649510561
 20
5.443900000000126
 30
0.0
 40
0.5
100
AcDbArc
 50
0.0
 51
90.0
  0
ARC
  5
10F4
330
1F
100
AcDbEntity
  8
0
  6
Continuous
 62
     7
100
AcDbCircle
 10
688.9330586771891
 20
13.32991506431923
 30
0.0
 40
1000.000038158445
100
AcDbArc
 50
176.2148272718849
 51
180.0000409701658
  0
ARC
  5
10F5
330
1F
100
AcDbEntity
  8
0
  6
Continuous
 62
     7
100
AcDbCircle
 10
-222.5669794810009
 20
13.3292
 30
0.0
 40
1.5
100
AcDbArc
 50
0.0
 51
180.0
  0
ARC
  5
10F6
330
1F
100
AcDbEntity
  8
0
  6
Continuous
 62
     7
100
AcDbCircle
 10
-212.5669794810009
 20
13.3292
 30
0.0
 40
1.5
100
AcDbArc
 50
0.0
 51
180.0
  0
ARC
  5
10F7
330
1F
100
AcDbEntity
  8
0
  6
Continuous
 62
     7
100
AcDbCircle
 10
-217.5669794810008
 20
18.32920000000001
 30
0.0
 40
1.5
100
AcDbArc
 50
0.0
 51
180.0
  0
ARC
  5
10F8
330
1F
100
AcDbEntity
  8
0
  6
Continuous
 62
     7
100
AcDbCircle
 10
-217.5669794810008
 20
13.3292
 30
0.0
 40
11.0
100
AcDbArc
 50
277.8374797630841
 51
288.5530045350208
  0
ARC
  5
10F9
330
1F
100
AcDbEntity
  8
0
  6
Continuous
 62
     7
100
AcDbCircle
 10
-217.5669794810008
 20
13.3292
 30
0.0
 40
11.0
100
AcDbArc
 50
306.2215466198351
 51
233.7784533801649
  0
ARC
  5
10FA
330
1F
100
AcDbEntity
  8
0
  6
Continuous
 62
    30
100
AcDbCircle
 10
-227.254944000429
 20
-14.06276345143854
 30
0.0
 40
1.499999999999968
100
AcDbArc
 50
38.36567327912986
 51
98.36567327912808
  0
ARC
  5
10FB
330
1F
100
AcDbEntity
  8
0
  6
Continuous
 62
    30
100
AcDbCircle
 10
-224.9027476349104
 20
-12.20072901082238
 30
0.0
 40
1.49999999999998
100
AcDbArc
 50
218.3656732791277
 51
278.3656732791281
  0
ARC
  5
10FC
330
1F
100
AcDbEntity
  8
0
  6
Continuous
 62
    30
100
AcDbCircle
 10
-226.2970812904375
 20
-11.64770671736212
 30
0.0
 40
1.499999999999968
100
AcDbArc
 50
218.3656732791298
 51
278.3656732791281
  0
ARC
  5
10FD
330
1F
100
AcDbEntity
  8
0
  6
Continuous
 62
    30
100
AcDbCircle
 10
-218.3169794810009
 20
-17.74957327790085
 30
0.0
 40
1.500000000000003
100
AcDbArc
 50
60.00000000000046
 51
119.9999999999995
  0
ARC
  5
10FE
330
1F
100
AcDbEntity
  8
0
  6
Continuous
 62
    30
100
AcDbCircle
 10
-216.8169794810009
 20
-15.15149706654753
 30
0.0
 40
1.5
100
AcDbArc
 50
240.0000000000004
 51
299.9999999999996
  0
ARC
  5
10FF
330
1F
100
AcDbEntity
  8
0
  6
Continuous
 62
    30
100
AcDbCircle
 10
-218.3169794810009
 20
-15.15149706654753
 30
0.0
 40
1.5
100
AcDbArc
 50
240.0000000000004
 51
299.9999999999996
  0
ARC
  5
1100
330
1F
100
AcDbEntity
  8
0
  6
Continuous
 62
    30
100
AcDbCircle
 10
-223.3169794810009
 20
-17.74957327790085
 30
0.0
 40
1.500000000000003
100
AcDbArc
 50
60.00000000000046
 51
119.9999999999995
  0
ARC
  5
1101
330
1F
100
AcDbEntity
  8
0
  6
Continuous
 62
    30
100
AcDbCircle
 10
-221.8169794810008
 20
-15.15149706654753
 30
0.0
 40
1.5
100
AcDbArc
 50
240.0000000000004
 51
299.9999999999996
  0
ARC
  5
1102
330
1F
100
AcDbEntity
  8
0
  6
Continuous
 62
    30
100
AcDbCircle
 10
-223.3169794810009
 20
-15.15149706654753
 30
0.0
 40
1.5
100
AcDbArc
 50
240.0000000000004
 51
299.9999999999996
  0
ARC
  5
1103
330
1F
100
AcDbEntity
  8
0
  6
Continuous
 62
    30
100
AcDbCircle
 10
-213.3169794810009
 20
-17.74957327790085
 30
0.0
 40
1.500000000000003
100
AcDbArc
 50
60.00000000000046
 51
119.9999999999995
  0
ARC
  5
1104
330
1F
100
AcDbEntity
  8
0
  6
Continuous
 62
    30
100
AcDbCircle
 10
-211.8169794810009
 20
-15.15149706654753
 30
0.0
 40
1.5
100
AcDbArc
 50
240.0000000000004
 51
299.9999999999996
  0
ARC
  5
1105
330
1F
100
AcDbEntity
  8
0
  6
Continuous
 62
    30
100
AcDbCircle
 10
-213.3169794810009
 20
-15.15149706654753
 30
0.0
 40
1.5
100
AcDbArc
 50
240.0000000000004
 51
299.9999999999996
  0
ARC
  5
1106
330
1F
100
AcDbEntity
  8
0
  6
Continuous
 62
     7
100
AcDbCircle
 10
-195.666979481001
 20
13.3292
 30
0.0
 40
122.299983213899
100
AcDbArc
 50
0.0
 51
3.468912216652078
  0
ARC
  5
1107
330
1F
100
AcDbEntity
  8
0
  6
Continuous
 62
     7
100
AcDbCircle
 10
-195.666979481001
 20
13.3292
 30
0.0
 40
122.3000089828287
100
AcDbArc
 50
352.5971194643516
 51
356.5310885151518
  0
ARC
  5
1108
330
1F
100
AcDbEntity
  8
0
  6
Continuous
 62
     7
100
AcDbCircle
 10
-70.50129405605194
 20
20.92920000000071
 30
0.0
 40
0.5999999999999944
100
AcDbArc
 50
199.4712206345621
 51
270.0
  0
ARC
  5
1109
330
1F
100
AcDbEntity
  8
0
  6
Continuous
 62
     7
100
AcDbCircle
 10
-70.50129405605168
 20
5.729200000000019
 30
0.0
 40
0.5999999999999997
100
AcDbArc
 50
90.0
 51
160.5287793655086
  0
LINE
  5
110A
330
1F
100
AcDbEntity
  8
0
  6
DASH_CENTER
 62
    30
100
AcDbLine
 10
-161.0669794810009
 20
95.32620000000004
 30
0.0
 11
-161.0669794810009
 21
-71.54669999999999
 31
0.0
  0
LINE
  5
110B
330
1F
100
AcDbEntity
  8
0
  6
DASH_CENTER
 62
    30
100
AcDbLine
 10
-206.0668794810009
 20
-60.99000000000001
 30
0.0
 11
-206.0668794810009
 21
-52.22559999999997
 31
0.0
  0
LINE
  5
110C
330
1F
100
AcDbEntity
  8
0
  6
DASH_CENTER
 62
    30
100
AcDbLine
 10
-116.0670794810009
 20
-60.99000000000001
 30
0.0
 11
-116.0670794810009
 21
-52.22559999999997
 31
0.0
  0
LINE
  5
110D
330
1F
100
AcDbEntity
  8
0
  6
Continuous
 62
     7
100
AcDbLine
 10
-216.0669794810009
 20
-54.4707
 30
0.0
 11
-216.0669794810009
 21
-57.67070000000001
 31
0.0
  0
LINE
  5
110E
330
1F
100
AcDbEntity
  8
0
  6
Continuous
 62
     7
100
AcDbLine
 10
-136.0670794810008
 20
-56.67079999999998
 30
0.0
 11
-136.0670794810008
 21
-57.67079999999999
 31
0.0
  0
LINE
  5
110F
330
1F
100
AcDbEntity
  8
0
  6
Continuous
 62
     7
100
AcDbLine
 10
-106.0670794810009
 20
-54.47079999999999
 30
0.0
 11
-106.0670794810009
 21
-57.67079999999999
 31
0.0
  0
LINE
  5
1110
330
1F
100
AcDbEntity
  8
0
  6
Continuous
 62
     7
100
AcDbLine
 10
-132.3670794810009
 20
-54.47079999999999
 30
0.0
 11
-106.0670794810009
 21
-54.47079999999999
 31
0.0
  0
LINE
  5
1111
330
1F
100
AcDbEntity
  8
0
  6
Continuous
 62
     7
100
AcDbLine
 10
-186.0669794810009
 20
-56.67079999999998
 30
0.0
 11
-186.0669794810009
 21
-57.67079999999999
 31
0.0
  0
LINE
  5
1112
330
1F
100
AcDbEntity
  8
0
  6
Continuous
 62
     7
100
AcDbLine
 10
-136.0670794810008
 20
-57.67079999999999
 30
0.0
 11
-106.0670794810009
 21
-57.67079999999999
 31
0.0
  0
LINE
  5
1113
330
1F
100
AcDbEntity
  8
0
  6
Continuous
 62
     7
100
AcDbLine
 10
-88.06697948100092
 20
-52.2708
 30
0.0
 11
-111.0970794810009
 21
-52.2708
 31
0.0
  0
LINE
  5
1114
330
1F
100
AcDbEntity
  8
0
  6
Continuous
 62
     7
100
AcDbLine
 10
-211.1978794810009
 20
-52.9393
 30
0.0
 11
-210.4894794810009
 21
-49.99939999999998
 31
0.0
  0
LINE
  5
1115
330
1F
100
AcDbEntity
  8
0
  6
Continuous
 62
     7
100
AcDbLine
 10
-199.0848794810009
 20
-46.1707
 30
0.0
 11
-205.6286794810008
 21
-46.1707
 31
0.0
  0
LINE
  5
1116
330
1F
100
AcDbEntity
  8
0
  6
Continuous
 62
     7
100
AcDbLine
 10
-190.1697794810008
 20
-39.42009999999999
 30
0.0
 11
-191.7360794810009
 21
-51.8459
 31
0.0
  0
LINE
  5
1117
330
1F
100
AcDbEntity
  8
0
  6
Continuous
 62
     7
100
AcDbLine
 10
-131.9771794810008
 20
-39.3176
 30
0.0
 11
-130.3978794810009
 21
-51.8459
 31
0.0
  0
LINE
  5
1118
330
1F
100
AcDbEntity
  8
0
  6
Continuous
 62
     7
100
AcDbLine
 10
-141.8855794810006
 20
-30.67079999999998
 30
0.0
 11
-180.2482794810009
 21
-30.67069999999998
 31
0.0
  0
LINE
  5
1119
330
1F
100
AcDbEntity
  8
0
  6
Continuous
 62
     7
100
AcDbLine
 10
-216.0669794810009
 20
-57.67070000000001
 30
0.0
 11
-186.0669794810009
 21
-57.67070000000001
 31
0.0
  0
LINE
  5
111A
330
1F
100
AcDbEntity
  8
0
  6
Continuous
 62
     7
100
AcDbLine
 10
-123.0490794810009
 20
-46.1707
 30
0.0
 11
-116.5052794810008
 21
-46.1707
 31
0.0
  0
LINE
  5
111B
330
1F
100
AcDbEntity
  8
0
  6
Continuous
 62
     7
100
AcDbLine
 10
-110.9359794810009
 20
-52.9393
 30
0.0
 11
-111.6443794810008
 21
-49.99939999999998
 31
0.0
  0
LINE
  5
111C
330
1F
100
AcDbEntity
  8
0
  6
Continuous
 62
     7
100
AcDbLine
 10
-161.0669794810009
 20
-53.47069999999999
 30
0.0
 11
-188.7668794810009
 21
-53.4708
 31
0.0
  0
LINE
  5
111D
330
1F
100
AcDbEntity
  8
0
  6
Continuous
 62
     7
100
AcDbLine
 10
-161.0669794810009
 20
-56.67070000000001
 30
0.0
 11
-186.0669794810009
 21
-56.67079999999998
 31
0.0
  0
LINE
  5
111E
330
1F
100
AcDbEntity
  8
0
  6
Continuous
 62
     7
100
AcDbLine
 10
-161.0670794810008
 20
-53.47069999999999
 30
0.0
 11
-133.3670794810009
 21
-53.4708
 31
0.0
  0
LINE
  5
111F
330
1F
100
AcDbEntity
  8
0
  6
Continuous
 62
     7
100
AcDbLine
 10
-161.0669794810009
 20
-56.67070000000001
 30
0.0
 11
-136.0670794810008
 21
-56.67079999999998
 31
0.0
  0
LINE
  5
1120
330
1F
100
AcDbEntity
  8
0
  6
Continuous
 62
     7
100
AcDbLine
 10
-189.7668794810009
 20
-54.47059999999999
 30
0.0
 11
-216.0669794810009
 21
-54.47079999999999
 31
0.0
  0
LINE
  5
1121
330
1F
100
AcDbEntity
  8
0
  6
Continuous
 62
     7
100
AcDbLine
 10
-88.06697948100092
 20
78.92909988642816
 30
0.0
 11
-88.06697948100092
 21
-52.2708
 31
0.0
  0
LINE
  5
1122
330
1F
100
AcDbEntity
  8
0
  6
Continuous
 62
     7
100
AcDbLine
 10
-75.66697948100105
 20
-4.170799999999982
 30
0.0
 11
-75.66697948100105
 21
-4.270799999999892
 31
0.0
  0
LINE
  5
1123
330
1F
100
AcDbEntity
  8
0
  6
Continuous
 62
     7
100
AcDbLine
 10
-75.66697948100105
 20
32.3792000000002
 30
0.0
 11
-75.66697948100105
 21
31.02080000000011
 31
0.0
  0
LINE
  5
1124
330
1F
100
AcDbEntity
  8
0
  6
Continuous
 62
     7
100
AcDbLine
 10
-75.66697948100105
 20
30.82920000000001
 30
0.0
 11
-75.66697948100105
 21
30.92920000000013
 31
0.0
  0
LINE
  5
1125
330
1F
100
AcDbEntity
  8
0
  6
Continuous
 62
     7
100
AcDbLine
 10
-75.66697948100105
 20
-4.294299999999907
 30
0.0
 11
-75.66697948100105
 21
-4.270799999999892
 31
0.0
  0
LINE
  5
1126
330
1F
100
AcDbEntity
  8
0
  6
Continuous
 62
     7
100
AcDbLine
 10
-85.76697948100095
 20
78.82920000000002
 30
0.0
 11
-88.06697948100092
 21
78.82920000000002
 31
0.0
  0
LINE
  5
1127
330
1F
100
AcDbEntity
  8
0
  6
Continuous
 62
     7
100
AcDbLine
 10
-85.76697948100095
 20
-52.17079999999999
 30
0.0
 11
-88.06697948100092
 21
-52.17079999999999
 31
0.0
  0
LINE
  5
1128
330
1F
100
AcDbEntity
  8
0
  6
Continuous
 62
     7
100
AcDbLine
 10
-85.76697948100095
 20
13.3292
 30
0.0
 11
-85.76697948100095
 21
14.64722630963601
 31
0.0
  0
LINE
  5
1129
330
1F
100
AcDbEntity
  8
0
  6
Continuous
 62
     7
100
AcDbLine
 10
-85.76697948100095
 20
14.64722630963601
 30
0.0
 11
-85.76697948100095
 21
13.3292
 31
0.0
  0
LINE
  5
112A
330
1F
100
AcDbEntity
  8
0
  6
Continuous
 62
     7
100
AcDbLine
 10
-85.76697948100095
 20
14.64722630963601
 30
0.0
 11
-85.76697948100095
 21
32.8792000000002
 31
0.0
  0
LINE
  5
112B
330
1F
100
AcDbEntity
  8
0
  6
Continuous
 62
     7
100
AcDbLine
 10
-88.06697948100092
 20
78.82920000000002
 30
0.0
 11
-88.06697948100092
 21
-52.17079999999999
 31
0.0
  0
LINE
  5
112C
330
1F
100
AcDbEntity
  8
0
  6
Continuous
 62
     7
100
AcDbLine
 10
-85.76697948100095
 20
32.8792000000002
 30
0.0
 11
-76.16697948100105
 21
32.8792000000002
 31
0.0
  0
LINE
  5
112D
330
1F
100
AcDbEntity
  8
0
  6
Continuous
 62
     7
100
AcDbLine
 10
-85.76697948100095
 20
32.8792000000002
 30
0.0
 11
-85.76697948100095
 21
78.82920000000002
 31
0.0
  0
LINE
  5
112E
330
1F
100
AcDbEntity
  8
0
  6
Continuous
 62
     7
100
AcDbLine
 10
-85.76697948100095
 20
-6.22079999999994
 30
0.0
 11
-76.16697948100105
 21
-6.22079999999994
 31
0.0
  0
LINE
  5
112F
330
1F
100
AcDbEntity
  8
0
  6
Continuous
 62
     7
100
AcDbLine
 10
-85.76697948100095
 20
-6.22079999999994
 30
0.0
 11
-85.76697948100095
 21
-52.17079999999999
 31
0.0
  0
LINE
  5
1130
330
1F
100
AcDbEntity
  8
0
  6
Continuous
 62
     7
100
AcDbLine
 10
-75.66697948100105
 20
31.02080000000011
 30
0.0
 11
-75.66697948100105
 21
-5.72079999999994
 31
0.0
  0
LINE
  5
1131
330
1F
100
AcDbEntity
  8
0
  6
DASH_CENTER
 62
    30
100
AcDbLine
 10
-73.36699626710188
 20
13.3292
 30
0.0
 11
-73.36697049817228
 21
13.3292
 31
0.0
  0
LINE
  5
1132
330
1F
100
AcDbEntity
  8
0
  6
Continuous
 62
     7
100
AcDbLine
 10
-85.76697948100095
 20
13.3292
 30
0.0
 11
-85.76697948100095
 21
-6.22079999999994
 31
0.0
  0
LINE
  5
1133
330
1F
100
AcDbEntity
  8
0
  6
Continuous
 62
     7
100
AcDbLine
 10
-82.56693942921177
 20
-33.30452796125931
 30
0.0
 11
-82.88453942921163
 21
-33.85452796125927
 31
0.0
  0
LINE
  5
1134
330
1F
100
AcDbEntity
  8
0
  6
Continuous
 62
     7
100
AcDbLine
 10
-85.4494394292117
 20
-25.75442796125937
 30
0.0
 11
-82.88453942921163
 21
-25.75442796125937
 31
0.0
  0
LINE
  5
1135
330
1F
100
AcDbEntity
  8
0
  6
Continuous
 62
     7
100
AcDbLine
 10
-85.76683942921162
 20
-33.30452796125931
 30
0.0
 11
-85.76683942921162
 21
-26.3045279612593
 31
0.0
  0
LINE
  5
1136
330
1F
100
AcDbEntity
  8
0
  6
Continuous
 62
     7
100
AcDbLine
 10
-82.88453942921163
 20
-33.85432796125932
 30
0.0
 11
-85.4494394292117
 21
-33.85432796125932
 31
0.0
  0
LINE
  5
1137
330
1F
100
AcDbEntity
  8
0
  6
Continuous
 62
     7
100
AcDbLine
 10
-82.56693942921177
 20
-26.3045279612593
 30
0.0
 11
-82.56693942921177
 21
-33.30452796125931
 31
0.0
  0
LINE
  5
1138
330
1F
100
AcDbEntity
  8
0
  6
Continuous
 62
     7
100
AcDbLine
 10
-85.76683942921162
 20
-33.30452796125931
 30
0.0
 11
-85.4494394292117
 21
-33.85452796125927
 31
0.0
  0
LINE
  5
1139
330
1F
100
AcDbEntity
  8
0
  6
Continuous
 62
     7
100
AcDbLine
 10
-82.56693942921177
 20
-26.3045279612593
 30
0.0
 11
-82.88453942921163
 21
-25.75442796125937
 31
0.0
  0
LINE
  5
113A
330
1F
100
AcDbEntity
  8
0
  6
Continuous
 62
     7
100
AcDbLine
 10
-85.76683942921162
 20
-26.3045279612593
 30
0.0
 11
-85.4494394292117
 21
-25.75442796125937
 31
0.0
  0
LINE
  5
113B
330
1F
100
AcDbEntity
  8
0
  6
Continuous
 62
     7
100
AcDbLine
 10
-78.2168394292116
 20
-31.80422796125939
 30
0.0
 11
-82.56693942921177
 21
-31.80422796125939
 31
0.0
  0
LINE
  5
113C
330
1F
100
AcDbEntity
  8
0
  6
Continuous
 62
    30
100
AcDbLine
 10
-77.86673942921175
 20
-31.45442796125919
 30
0.0
 11
-82.56693942921177
 21
-31.45442796125919
 31
0.0
  0
LINE
  5
113D
330
1F
100
AcDbEntity
  8
0
  6
Continuous
 62
    30
100
AcDbLine
 10
-77.86673942921175
 20
-28.15432796125927
 30
0.0
 11
-82.56693942921177
 21
-28.15432796125927
 31
0.0
  0
LINE
  5
113E
330
1F
100
AcDbEntity
  8
0
  6
Continuous
 62
     7
100
AcDbLine
 10
-78.2168394292116
 20
-31.80422796125939
 30
0.0
 11
-78.2168394292116
 21
-27.8045279612593
 31
0.0
  0
LINE
  5
113F
330
1F
100
AcDbEntity
  8
0
  6
Continuous
 62
     7
100
AcDbLine
 10
-82.56693942921177
 20
-27.8045279612593
 30
0.0
 11
-78.2168394292116
 21
-27.8045279612593
 31
0.0
  0
LINE
  5
1140
330
1F
100
AcDbEntity
  8
0
  6
Continuous
 62
     7
100
AcDbLine
 10
-77.86673942921175
 20
-28.15432796125927
 30
0.0
 11
-77.86673942921175
 21
-31.45442796125919
 31
0.0
  0
LINE
  5
1141
330
1F
100
AcDbEntity
  8
0
  6
Continuous
 62
     7
100
AcDbLine
 10
-77.86673942921175
 20
-28.15432796125927
 30
0.0
 11
-78.2168394292116
 21
-27.8045279612593
 31
0.0
  0
LINE
  5
1142
330
1F
100
AcDbEntity
  8
0
  6
Continuous
 62
     7
100
AcDbLine
 10
-77.86673942921175
 20
-31.45442796125919
 30
0.0
 11
-78.2168394292116
 21
-31.80422796125939
 31
0.0
  0
LINE
  5
1143
330
1F
100
AcDbEntity
  8
0
  6
Continuous
 62
     7
100
AcDbLine
 10
-85.76683942921162
 20
-26.3045279612593
 30
0.0
 11
-85.76683942921162
 21
-33.30452796125931
 31
0.0
  0
LINE
  5
1144
330
1F
100
AcDbEntity
  8
0
  6
Continuous
 62
     7
100
AcDbLine
 10
-82.88453942921163
 20
-27.78372796125931
 30
0.0
 11
-85.4494394292117
 21
-27.78372796125931
 31
0.0
  0
LINE
  5
1145
330
1F
100
AcDbEntity
  8
0
  6
Continuous
 62
     7
100
AcDbLine
 10
-82.88453942921163
 20
-31.82522796125935
 30
0.0
 11
-85.4494394292117
 21
-31.82522796125935
 31
0.0
  0
LINE
  5
1146
330
1F
100
AcDbEntity
  8
0
  6
DASH_CENTER
 62
    30
100
AcDbLine
 10
-92.12519197162391
 20
-29.80452796125931
 30
0.0
 11
-72.68111832170501
 21
-29.80452796125931
 31
0.0
  0
LINE
  5
1147
330
1F
100
AcDbEntity
  8
0
  6
Continuous
 62
     7
100
AcDbLine
 10
-82.88453942921163
 20
60.51292796125931
 30
0.0
 11
-82.56693942921177
 21
59.96292796125931
 31
0.0
  0
LINE
  5
1148
330
1F
100
AcDbEntity
  8
0
  6
Continuous
 62
     7
100
AcDbLine
 10
-82.88453942921163
 20
52.41282796125938
 30
0.0
 11
-85.4494394292117
 21
52.41282796125938
 31
0.0
  0
LINE
  5
1149
330
1F
100
AcDbEntity
  8
0
  6
Continuous
 62
     7
100
AcDbLine
 10
-85.76683942921162
 20
52.96292796125931
 30
0.0
 11
-85.76683942921162
 21
59.96292796125931
 31
0.0
  0
LINE
  5
114A
330
1F
100
AcDbEntity
  8
0
  6
Continuous
 62
     7
100
AcDbLine
 10
-85.4494394292117
 20
60.51272796125935
 30
0.0
 11
-82.88453942921163
 21
60.51272796125935
 31
0.0
  0
LINE
  5
114B
330
1F
100
AcDbEntity
  8
0
  6
Continuous
 62
     7
100
AcDbLine
 10
-82.56693942921177
 20
59.96292796125931
 30
0.0
 11
-82.56693942921177
 21
52.96292796125931
 31
0.0
  0
LINE
  5
114C
330
1F
100
AcDbEntity
  8
0
  6
Continuous
 62
     7
100
AcDbLine
 10
-85.4494394292117
 20
60.51292796125931
 30
0.0
 11
-85.76683942921162
 21
59.96292796125931
 31
0.0
  0
LINE
  5
114D
330
1F
100
AcDbEntity
  8
0
  6
Continuous
 62
     7
100
AcDbLine
 10
-82.88453942921163
 20
52.41282796125938
 30
0.0
 11
-82.56693942921177
 21
52.96292796125931
 31
0.0
  0
LINE
  5
114E
330
1F
100
AcDbEntity
  8
0
  6
Continuous
 62
     7
100
AcDbLine
 10
-85.4494394292117
 20
52.41282796125938
 30
0.0
 11
-85.76683942921162
 21
52.96292796125931
 31
0.0
  0
LINE
  5
114F
330
1F
100
AcDbEntity
  8
0
  6
Continuous
 62
     7
100
AcDbLine
 10
-82.56693942921177
 20
58.46262796125938
 30
0.0
 11
-78.2168394292116
 21
58.46262796125938
 31
0.0
  0
LINE
  5
1150
330
1F
100
AcDbEntity
  8
0
  6
Continuous
 62
    30
100
AcDbLine
 10
-82.56693942921177
 20
58.11282796125926
 30
0.0
 11
-77.86673942921175
 21
58.11282796125926
 31
0.0
  0
LINE
  5
1151
330
1F
100
AcDbEntity
  8
0
  6
Continuous
 62
    30
100
AcDbLine
 10
-82.56693942921177
 20
54.81272796125931
 30
0.0
 11
-77.86673942921175
 21
54.81272796125931
 31
0.0
  0
LINE
  5
1152
330
1F
100
AcDbEntity
  8
0
  6
Continuous
 62
     7
100
AcDbLine
 10
-78.2168394292116
 20
54.46292796125931
 30
0.0
 11
-78.2168394292116
 21
58.46262796125938
 31
0.0
  0
LINE
  5
1153
330
1F
100
AcDbEntity
  8
0
  6
Continuous
 62
     7
100
AcDbLine
 10
-78.2168394292116
 20
54.46292796125931
 30
0.0
 11
-82.56693942921177
 21
54.46292796125931
 31
0.0
  0
LINE
  5
1154
330
1F
100
AcDbEntity
  8
0
  6
Continuous
 62
     7
100
AcDbLine
 10
-77.86673942921175
 20
58.11282796125926
 30
0.0
 11
-77.86673942921175
 21
54.81272796125931
 31
0.0
  0
LINE
  5
1155
330
1F
100
AcDbEntity
  8
0
  6
Continuous
 62
     7
100
AcDbLine
 10
-78.2168394292116
 20
54.46292796125931
 30
0.0
 11
-77.86673942921175
 21
54.81272796125931
 31
0.0
  0
LINE
  5
1156
330
1F
100
AcDbEntity
  8
0
  6
Continuous
 62
     7
100
AcDbLine
 10
-78.2168394292116
 20
58.46262796125938
 30
0.0
 11
-77.86673942921175
 21
58.11282796125926
 31
0.0
  0
LINE
  5
1157
330
1F
100
AcDbEntity
  8
0
  6
Continuous
 62
     7
100
AcDbLine
 10
-85.76683942921162
 20
59.96292796125931
 30
0.0
 11
-85.76683942921162
 21
52.96292796125931
 31
0.0
  0
LINE
  5
1158
330
1F
100
AcDbEntity
  8
0
  6
Continuous
 62
     7
100
AcDbLine
 10
-85.4494394292117
 20
54.44212796125929
 30
0.0
 11
-82.88453942921163
 21
54.44212796125929
 31
0.0
  0
LINE
  5
1159
330
1F
100
AcDbEntity
  8
0
  6
Continuous
 62
     7
100
AcDbLine
 10
-85.4494394292117
 20
58.4836279612594
 30
0.0
 11
-82.88453942921163
 21
58.4836279612594
 31
0.0
  0
LINE
  5
115A
330
1F
100
AcDbEntity
  8
0
  6
DASH_CENTER
 62
    30
100
AcDbLine
 10
-72.68111832170501
 20
56.46292796125931
 30
0.0
 11
-92.12519197162391
 21
56.46292796125931
 31
0.0
  0
LINE
  5
115B
330
1F
100
AcDbEntity
  8
0
  6
Continuous
 62
     7
100
AcDbLine
 10
-303.1625649510561
 20
-54.17079999999995
 30
0.0
 11
-262.0668649510561
 21
-54.17079999999995
 31
0.0
  0
LINE
  5
115C
330
1F
100
AcDbEntity
  8
0
  6
Continuous
 62
     7
100
AcDbLine
 10
-283.388664951056
 20
85.37020000000024
 30
0.0
 11
-303.0277649510561
 21
84.94750000000015
 31
0.0
  0
LINE
  5
115D
330
1F
100
AcDbEntity
  8
0
  6
Continuous
 62
     7
100
AcDbLine
 10
-278.5668649510561
 20
3.943900000000126
 30
0.0
 11
-278.5668649510561
 21
8.943900000000127
 31
0.0
  0
LINE
  5
115E
330
1F
100
AcDbEntity
  8
0
  6
Continuous
 62
     7
100
AcDbLine
 10
-262.0668649510561
 20
-54.17079999999995
 30
0.0
 11
-262.0668649510561
 21
-52.2708
 31
0.0
  0
LINE
  5
115F
330
1F
100
AcDbEntity
  8
0
  6
PHANTOM
 62
    30
100
AcDbLine
 10
-273.5668649510561
 20
90.6031000000002
 30
0.0
 11
-273.5668649510561
 21
80.25860000000028
 31
0.0
  0
LINE
  5
1160
330
1F
100
AcDbEntity
  8
0
  6
Continuous
 62
     7
100
AcDbLine
 10
-283.3886649466741
 20
85.37019979645803
 30
0.0
 11
-262.0668649510561
 21
85.82920000000006
 31
0.0
  0
LINE
  5
1161
330
1F
100
AcDbEntity
  8
0
  6
Continuous
 62
     7
100
AcDbLine
 10
-277.0668649510561
 20
85.58163636363639
 30
0.0
 11
-270.0668649510561
 21
85.58163636363639
 31
0.0
  0
LINE
  5
1162
330
1F
100
AcDbEntity
  8
0
  6
Continuous
 62
     7
100
AcDbLine
 10
-277.0668649510561
 20
85.58163636363639
 30
0.0
 11
-276.9433649510559
 21
86.9950363636363
 31
0.0
  0
LINE
  5
1163
330
1F
100
AcDbEntity
  8
0
  6
Continuous
 62
     7
100
AcDbLine
 10
-275.6481649510561
 20
88.1817363636363
 30
0.0
 11
-271.485564951056
 21
88.1817363636363
 31
0.0
  0
LINE
  5
1164
330
1F
100
AcDbEntity
  8
0
  6
Continuous
 62
     7
100
AcDbLine
 10
-270.0668649510561
 20
85.58163636363639
 30
0.0
 11
-270.1906649510561
 21
86.9950363636363
 31
0.0
  0
LINE
  5
1165
330
1F
100
AcDbEntity
  8
0
  6
Continuous
 62
     7
100
AcDbLine
 10
-273.0668649510561
 20
8.594000000000191
 30
0.0
 11
-274.0668649510561
 21
8.594000000000191
 31
0.0
  0
LINE
  5
1166
330
1F
100
AcDbEntity
  8
0
  6
Continuous
 62
     7
100
AcDbLine
 10
-273.0668649510561
 20
4.294000000000238
 30
0.0
 11
-274.0668649510561
 21
4.294000000000238
 31
0.0
  0
LINE
  5
1167
330
1F
100
AcDbEntity
  8
0
  6
Continuous
 62
     7
100
AcDbLine
 10
-271.4169649510561
 20
5.943900000000127
 30
0.0
 11
-271.4169649510561
 21
6.943900000000127
 31
0.0
  0
LINE
  5
1168
330
1F
100
AcDbEntity
  8
0
  6
Continuous
 62
     7
100
AcDbLine
 10
-275.7167649510563
 20
5.943900000000127
 30
0.0
 11
-275.7167649510563
 21
6.943900000000127
 31
0.0
  0
LINE
  5
1169
330
1F
100
AcDbEntity
  8
0
  6
Continuous
 62
     7
100
AcDbLine
 10
-274.5668649510561
 20
6.943900000000127
 30
0.0
 11
-275.7167649510563
 21
6.943900000000127
 31
0.0
  0
LINE
  5
116A
330
1F
100
AcDbEntity
  8
0
  6
Continuous
 62
     7
100
AcDbLine
 10
-274.5668649510561
 20
5.943900000000127
 30
0.0
 11
-275.7167649510563
 21
5.943900000000127
 31
0.0
  0
LINE
  5
116B
330
1F
100
AcDbEntity
  8
0
  6
Continuous
 62
     7
100
AcDbLine
 10
-271.4169649510561
 20
6.943900000000127
 30
0.0
 11
-272.5668649510561
 21
6.943900000000127
 31
0.0
  0
LINE
  5
116C
330
1F
100
AcDbEntity
  8
0
  6
Continuous
 62
     7
100
AcDbLine
 10
-271.4169649510561
 20
5.943900000000127
 30
0.0
 11
-272.5668649510561
 21
5.943900000000127
 31
0.0
  0
LINE
  5
116D
330
1F
100
AcDbEntity
  8
0
  6
Continuous
 62
     7
100
AcDbLine
 10
-273.0668649510561
 20
7.443900000000127
 30
0.0
 11
-273.0668649510561
 21
8.594000000000191
 31
0.0
  0
LINE
  5
116E
330
1F
100
AcDbEntity
  8
0
  6
Continuous
 62
     7
100
AcDbLine
 10
-274.0668649510561
 20
7.443900000000127
 30
0.0
 11
-274.0668649510561
 21
8.594000000000191
 31
0.0
  0
LINE
  5
116F
330
1F
100
AcDbEntity
  8
0
  6
Continuous
 62
     7
100
AcDbLine
 10
-273.0668649510561
 20
4.294000000000238
 30
0.0
 11
-273.0668649510561
 21
5.443900000000126
 31
0.0
  0
LINE
  5
1170
330
1F
100
AcDbEntity
  8
0
  6
Continuous
 62
     7
100
AcDbLine
 10
-274.0668649510561
 20
4.294000000000238
 30
0.0
 11
-274.0668649510561
 21
5.443900000000126
 31
0.0
  0
LINE
  5
1171
330
1F
100
AcDbEntity
  8
0
  6
DASH_CENTER
 62
    30
100
AcDbLine
 10
-268.539572378593
 20
6.443900000000127
 30
0.0
 11
-283.2751733656991
 21
6.443900000000127
 31
0.0
  0
LINE
  5
1172
330
1F
100
AcDbEntity
  8
0
  6
DASH_CENTER
 62
    30
100
AcDbLine
 10
-273.5668649510561
 20
11.5989381264025
 30
0.0
 11
-273.5668649510561
 21
1.257585864150797
 31
0.0
  0
LINE
  5
1173
330
1F
100
AcDbEntity
  8
0
  6
Continuous
 62
     7
100
AcDbLine
 10
-262.0668649510561
 20
78.92919869385889
 30
0.0
 11
-88.06697948100092
 21
78.92909988642816
 31
0.0
  0
LINE
  5
1174
330
1F
100
AcDbEntity
  8
0
  6
Continuous
 62
     7
100
AcDbLine
 10
-262.0668649510561
 20
78.92919869385889
 30
0.0
 11
-262.0668649510561
 21
85.82920000000006
 31
0.0
  0
LINE
  5
1175
330
1F
100
AcDbEntity
  8
0
  6
Continuous
 62
     7
100
AcDbLine
 10
-262.0668649510561
 20
-52.2708
 30
0.0
 11
-211.0367794810009
 21
-52.2708
 31
0.0
  0
LINE
  5
1176
330
1F
100
AcDbEntity
  8
0
  6
Continuous
 62
     7
100
AcDbLine
 10
-262.0668649510561
 20
-52.2708
 30
0.0
 11
-262.0668649510561
 21
78.92919869385889
 31
0.0
  0
LINE
  5
1177
330
1F
100
AcDbEntity
  8
0
  6
DASH_CENTER
 62
    30
100
AcDbLine
 10
-224.0669794810009
 20
13.3292
 30
0.0
 11
-330.7553918453038
 21
13.32920000000002
 31
0.0
  0
LINE
  5
1178
330
1F
100
AcDbEntity
  8
0
  6
DASH_CENTER
 62
    30
100
AcDbLine
 10
-214.0669794810009
 20
13.3292
 30
0.0
 11
-211.0669794810009
 21
13.3292
 31
0.0
  0
LINE
  5
1179
330
1F
100
AcDbEntity
  8
0
  6
DASH_CENTER
 62
    30
100
AcDbLine
 10
-224.0669794810009
 20
13.3292
 30
0.0
 11
-221.0669794810009
 21
13.3292
 31
0.0
  0
LINE
  5
117A
330
1F
100
AcDbEntity
  8
0
  6
DASH_CENTER
 62
    30
100
AcDbLine
 10
-221.0669794810009
 20
13.3292
 30
0.0
 11
-214.0669794810009
 21
13.3292
 31
0.0
  0
LINE
  5
117B
330
1F
100
AcDbEntity
  8
0
  6
DASH_CENTER
 62
    30
100
AcDbLine
 10
-211.0669794810009
 20
13.3292
 30
0.0
 11
-71.06697948100094
 21
13.3292
 31
0.0
  0
LINE
  5
117C
330
1F
100
AcDbEntity
  8
0
  6
Continuous
 62
     7
100
AcDbLine
 10
-219.0669794810009
 20
18.32920000000001
 30
0.0
 11
-219.0669794810009
 21
8.615806016761837
 31
0.0
  0
LINE
  5
117D
330
1F
100
AcDbEntity
  8
0
  6
Continuous
 62
     7
100
AcDbLine
 10
-221.0669794810009
 20
3.573211271429128
 30
0.0
 11
-219.0669794810009
 21
8.615806016761837
 31
0.0
  0
LINE
  5
117E
330
1F
100
AcDbEntity
  8
0
  6
Continuous
 62
     7
100
AcDbLine
 10
-221.0669794810009
 20
3.573211271429128
 30
0.0
 11
-221.0669794810009
 21
13.3292
 31
0.0
  0
LINE
  5
117F
330
1F
100
AcDbEntity
  8
0
  6
Continuous
 62
     7
100
AcDbLine
 10
-221.0669794810009
 20
-4.56389288009359
 30
0.0
 11
-219.0669794810009
 21
0.4787018652391454
 31
0.0
  0
LINE
  5
1180
330
1F
100
AcDbEntity
  8
0
  6
Continuous
 62
     7
100
AcDbLine
 10
-221.0669794810009
 20
-4.56389288009359
 30
0.0
 11
-221.0669794810009
 21
3.573211271429128
 31
0.0
  0
LINE
  5
1181
330
1F
100
AcDbEntity
  8
0
  6
Continuous
 62
     7
100
AcDbLine
 10
-219.0669794810009
 20
0.4787018652391454
 30
0.0
 11
-219.0669794810009
 21
8.615806016761837
 31
0.0
  0
LINE
  5
1182
330
1F
100
AcDbEntity
  8
0
  6
Continuous
 62
     7
100
AcDbLine
 10
-216.0669794810009
 20
18.32920000000001
 30
0.0
 11
-216.0669794810009
 21
2.431952641148339
 31
0.0
  0
LINE
  5
1183
330
1F
100
AcDbEntity
  8
0
  6
Continuous
 62
     7
100
AcDbLine
 10
-224.0669794810009
 20
4.45508032535059
 30
0.0
 11
-224.0669794810009
 21
-3.990680846569944
 31
0.0
  0
LINE
  5
1184
330
1F
100
AcDbEntity
  8
0
  6
Continuous
 62
     7
100
AcDbLine
 10
-214.0669794810009
 20
2.900873192692926
 30
0.0
 11
-214.0669794810009
 21
13.3292
 31
0.0
  0
LINE
  5
1185
330
1F
100
AcDbEntity
  8
0
  6
Continuous
 62
     7
100
AcDbLine
 10
-224.0669794810009
 20
4.45508032535059
 30
0.0
 11
-224.0669794810009
 21
13.3292
 31
0.0
  0
LINE
  5
1186
330
1F
100
AcDbEntity
  8
0
  6
Continuous
 62
     7
100
AcDbLine
 10
-227.4731794731969
 20
-12.57872393767022
 30
0.0
 11
-224.0669794810009
 21
-3.990680846569944
 31
0.0
  0
LINE
  5
1187
330
1F
100
AcDbEntity
  8
0
  6
Continuous
 62
     7
100
AcDbLine
 10
-224.0669794810009
 20
-3.990680846569944
 30
0.0
 11
-224.0669794810009
 21
-12.12778499809266
 31
0.0
  0
LINE
  5
1188
330
1F
100
AcDbEntity
  8
0
  6
Continuous
 62
     7
100
AcDbLine
 10
-224.6845121621424
 20
-13.68476852459071
 30
0.0
 11
-224.0669794810009
 21
-12.12778499809266
 31
0.0
  0
LINE
  5
1189
330
1F
100
AcDbEntity
  8
0
  6
Continuous
 62
     7
100
AcDbLine
 10
-224.0669794810009
 20
-12.12778499809266
 30
0.0
 11
-224.0669794810009
 21
-16.45053517222418
 31
0.0
  0
LINE
  5
118A
330
1F
100
AcDbEntity
  8
0
  6
Continuous
 62
     7
100
AcDbLine
 10
-219.0669794810009
 20
-16.45053517222418
 30
0.0
 11
-219.0669794810009
 21
0.4787018652391454
 31
0.0
  0
LINE
  5
118B
330
1F
100
AcDbEntity
  8
0
  6
Continuous
 62
     7
100
AcDbLine
 10
-221.0669794810009
 20
-16.45053517222418
 30
0.0
 11
-221.0669794810009
 21
-4.56389288009359
 31
0.0
  0
LINE
  5
118C
330
1F
100
AcDbEntity
  8
0
  6
Continuous
 62
     7
100
AcDbLine
 10
-216.0669794810009
 20
-16.45053517222418
 30
0.0
 11
-216.0669794810009
 21
2.431952641148339
 31
0.0
  0
LINE
  5
118D
330
1F
100
AcDbEntity
  8
0
  6
Continuous
 62
     7
100
AcDbLine
 10
-214.0669794810009
 20
-16.45053517222418
 30
0.0
 11
-214.0669794810009
 21
2.900873192692926
 31
0.0
  0
LINE
  5
118E
330
1F
100
AcDbEntity
  8
0
  6
Continuous
 62
     7
100
AcDbLine
 10
-211.0669794810009
 20
-16.45053517222418
 30
0.0
 11
-211.0669794810009
 21
4.45508032535059
 31
0.0
  0
LINE
  5
118F
330
1F
100
AcDbEntity
  8
0
  6
DASHED
 62
    30
100
AcDbLine
 10
-192.5669794810009
 20
72.24271781523633
 30
0.0
 11
-129.5669794810009
 21
72.24271781523633
 31
0.0
  0
LINE
  5
1190
330
1F
100
AcDbEntity
  8
0
  6
DASHED
 62
    30
100
AcDbLine
 10
-129.5669794810009
 20
72.24271781523633
 30
0.0
 11
-129.5669794810009
 21
43.95852604929666
 31
0.0
  0
LINE
  5
1191
330
1F
100
AcDbEntity
  8
0
  6
DASHED
 62
    30
100
AcDbLine
 10
-129.5669794810009
 20
43.95852604929666
 30
0.0
 11
-192.5669794810009
 21
43.95852604929666
 31
0.0
  0
LINE
  5
1192
330
1F
100
AcDbEntity
  8
0
  6
DASHED
 62
    30
100
AcDbLine
 10
-192.5669794810009
 20
43.95852604929666
 30
0.0
 11
-192.5669794810009
 21
72.24271781523633
 31
0.0
  0
LINE
  5
1193
330
1F
100
AcDbEntity
  8
0
  6
Continuous
 62
     7
100
AcDbLine
 10
-41.0669794810009
 20
19.32919999999998
 30
0.0
 11
-41.0669794810009
 21
7.329200000000013
 31
0.0
  0
LINE
  5
1194
330
1F
100
AcDbEntity
  8
0
  6
Continuous
 62
     7
100
AcDbLine
 10
-42.06697948100091
 20
6.329200000000013
 30
0.0
 11
-41.0669794810009
 21
7.329200000000013
 31
0.0
  0
LINE
  5
1195
330
1F
100
AcDbEntity
  8
0
  6
Continuous
 62
     7
100
AcDbLine
 10
-42.06697948100091
 20
19.32919999999998
 30
0.0
 11
-68.06697948100091
 21
19.32919999999998
 31
0.0
  0
LINE
  5
1196
330
1F
100
AcDbEntity
  8
0
  6
Continuous
 62
     7
100
AcDbLine
 10
-42.06697948100091
 20
19.32919999999998
 30
0.0
 11
-42.06697948100091
 21
6.329200000000013
 31
0.0
  0
LINE
  5
1197
330
1F
100
AcDbEntity
  8
0
  6
Continuous
 62
     7
100
AcDbLine
 10
-42.06697948100091
 20
19.32919999999998
 30
0.0
 11
-41.0669794810009
 21
19.32919999999998
 31
0.0
  0
LINE
  5
1198
330
1F
100
AcDbEntity
  8
0
  6
Continuous
 62
     7
100
AcDbLine
 10
-68.06697948100091
 20
20.32920000000073
 30
0.0
 11
-68.06697948100091
 21
19.32919999999998
 31
0.0
  0
LINE
  5
1199
330
1F
100
AcDbEntity
  8
0
  6
Continuous
 62
     7
100
AcDbLine
 10
-70.50129405605168
 20
6.329200000000013
 30
0.0
 11
-42.06697948100091
 21
6.329200000000013
 31
0.0
  0
LINE
  5
119A
330
1F
100
AcDbEntity
  8
0
  6
Continuous
 62
     7
100
AcDbLine
 10
-211.0669794810009
 20
13.3292
 30
0.0
 11
-211.0669794810009
 21
4.45508032535059
 31
0.0
  0
LINE
  5
119B
330
1F
100
AcDbEntity
  8
0
  6
Continuous
 62
     7
100
AcDbLine
 10
-71.06697948100094
 20
20.72919999999998
 30
0.0
 11
-73.5910772966632
 21
20.72919999999998
 31
0.0
  0
LINE
  5
119C
330
1F
100
AcDbEntity
  8
0
  6
Continuous
 62
     7
100
AcDbLine
 10
-71.06697948100094
 20
5.929200000000008
 30
0.0
 11
-73.5910514804325
 21
5.929200000000008
 31
0.0
  0
LINE
  5
119D
330
1F
100
AcDbEntity
  8
0
  6
Continuous
 62
     7
100
AcDbLine
 10
-71.06697948100094
 20
20.72919999999998
 30
0.0
 11
-71.06697948100094
 21
13.3292
 31
0.0
  0
LINE
  5
119E
330
1F
100
AcDbEntity
  8
0
  6
Continuous
 62
     7
100
AcDbLine
 10
-70.50129405605194
 20
20.32920000000073
 30
0.0
 11
-68.06697948100091
 21
20.32920000000073
 31
0.0
  0
LINE
  5
119F
330
1F
100
AcDbEntity
  8
0
  6
Continuous
 62
     7
100
AcDbLine
 10
-71.06697948100094
 20
5.929200000000008
 30
0.0
 11
-71.06697948100094
 21
13.3292
 31
0.0
  0
LINE
  5
11A0
330
1F
100
AcDbEntity
  8
0
  6
DASH_CENTER
 62
    30
100
AcDbLine
 10
-28.03034403362181
 20
13.32919999999998
 30
0.0
 11
-71.06697948100094
 21
13.3292
 31
0.0
  0
POINT
  5
11A1
330
1F
100
AcDbEntity
  8
0
 62
     2
100
AcDbPoint
 10
-131.1945794810007
 20
-54.4709
 30
0.0
  0
POINT
  5
11A2
330
1F
100
AcDbEntity
  8
0
 62
     2
100
AcDbPoint
 10
-214.9393794810009
 20
-54.4709
 30
0.0
  0
POINT
  5
11A3
330
1F
100
AcDbEntity
  8
0
 62
     7
100
AcDbPoint
 10
-211.5669794810009
 20
-54.47079999999999
 30
0.0
  0
POINT
  5
11A4
330
1F
100
AcDbEntity
  8
0
 62
     2
100
AcDbPoint
 10
-73.36697948100084
 20
12.1567000000001
 30
0.0
  0
POINT
  5
11A5
330
1F
100
AcDbEntity
  8
0
 62
     2
100
AcDbPoint
 10
-73.36697948100084
 20
14.50170000000014
 30
0.0
  0
POINT
  5
11A6
330
1F
100
AcDbEntity
  8
0
 62
     7
100
AcDbPoint
 10
-73.36697948100084
 20
13.3292
 30
0.0
  0
MTEXT
  5
1783
330
1F
100
AcDbEntity
  8
0
100
AcDbMText
 10
-41.47422539372564
 20
-126.7618817322887
 30
0.0
 40
8.0
 41
104.5812852086253
 71
     1
 72
     1
  1
AES-FBF 4P 0.2kW
  7
CONVERTER_24
 73
     1
 44
1.0
  0
MTEXT
  5
1785
330
1F
100
AcDbEntity
  8
0
100
AcDbMText
 10
-42.26597826746046
 20
-149.9453633692773
 30
0.0
 40
8.0
 41
113.3038699179412
 71
     1
 72
     1
  1
AES-FBF 4P 0.25kW
  7
CONVERTER_24
 73
     1
 44
1.0
  0
ENDSEC
  0
SECTION
  2
OBJECTS
  0
DICTIONARY
  5
C
330
0
100
AcDbDictionary
281
     1
  3
ACAD_CIP_PREVIOUS_PRODUCT_INFO
350
164A
  3
ACAD_COLOR
350
590
  3
ACAD_GROUP
350
D
  3
ACAD_LAYOUT
350
1A
  3
ACAD_MATERIAL
350
58F
  3
ACAD_MLEADERSTYLE
350
1642
  3
ACAD_MLINESTYLE
350
17
  3
ACAD_PLOTSETTINGS
350
19
  3
ACAD_PLOTSTYLENAME
350
E
  3
ACAD_SCALELIST
350
1630
  3
ACAD_TABLESTYLE
350
162E
  3
ACAD_VISUALSTYLE
350
1615
  3
ACDB_RECOMPOSE_DATA
350
1659
  3
AcDbVariableDictionary
350
164C
  3
DWGPROPS
350
165A
  0
XRECORD
  5
164A
102
{ACAD_REACTORS
330
C
102
}
330
C
100
AcDbXrecord
280
     1
300
ACDLT
300
2012
300
ACDLT_F_S
  0
DICTIONARY
  5
590
102
{ACAD_REACTORS
330
C
102
}
330
C
100
AcDbDictionary
281
     1
  0
DICTIONARY
  5
D
102
{ACAD_REACTORS
330
C
102
}
330
C
100
AcDbDictionary
281
     1
  0
DICTIONARY
  5
1A
102
{ACAD_REACTORS
330
C
102
}
330
C
100
AcDbDictionary
281
     1
  3
Layout1
350
1E
  3
Layout2
350
26
  3
Model
350
22
  0
DICTIONARY
  5
58F
102
{ACAD_REACTORS
330
C
102
}
330
C
100
AcDbDictionary
281
     1
  3
ByBlock
350
1605
  3
ByLayer
350
15FD
  3
Global
350
160D
  0
DICTIONARY
  5
1642
102
{ACAD_REACTORS
330
C
102
}
330
C
100
AcDbDictionary
281
     1
  3
Standard
350
1643
  0
DICTIONARY
  5
17
102
{ACAD_REACTORS
330
C
102
}
330
C
100
AcDbDictionary
281
     1
  3
Standard
350
18
  0
DICTIONARY
  5
19
102
{ACAD_REACTORS
330
C
102
}
330
C
100
AcDbDictionary
281
     1
  0
ACDBDICTIONARYWDFLT
  5
E
102
{ACAD_REACTORS
330
C
102
}
330
C
100
AcDbDictionary
281
     1
  3
Normal
350
F
100
AcDbDictionaryWithDefault
340
F
  0
DICTIONARY
  5
1630
102
{ACAD_REACTORS
330
C
102
}
330
C
100
AcDbDictionary
281
     1
  3
A0
350
1631
  3
A1
350
1632
  3
A2
350
1633
  3
A3
350
1634
  3
A4
350
1635
  3
A5
350
1636
  3
A6
350
1637
  3
A7
350
1638
  3
A8
350
1639
  3
A9
350
163A
  3
B0
350
163B
  3
B1
350
163C
  3
B2
350
163D
  3
B3
350
163E
  3
B4
350
163F
  3
B5
350
1640
  3
B6
350
1641
  0
DICTIONARY
  5
162E
102
{ACAD_REACTORS
330
C
102
}
330
C
100
AcDbDictionary
281
     1
  3
Standard
350
162F
  0
DICTIONARY
  5
1615
102
{ACAD_REACTORS
330
C
102
}
330
C
100
AcDbDictionary
281
     1
  3
2dWireframe
350
161B
  3
Basic
350
161A
  3
Brighten
350
1621
  3
ColorChange
350
1625
  3
Conceptual
350
161E
  3
Dim
350
1620
  3
EdgeColorOff
350
162D
  3
Facepattern
350
1624
  3
Flat
350
1616
  3
FlatWithEdges
350
1617
  3
Gouraud
350
1618
  3
GouraudWithEdges
350
1619
  3
Hidden
350
161D
  3
JitterOff
350
162B
  3
Linepattern
350
1623
  3
OverhangOff
350
162C
  3
Realistic
350
161F
  3
Shaded
350
162A
  3
Shaded with edges
350
1629
  3
Shades of Gray
350
1626
  3
Sketchy
350
1627
  3
Thicken
350
1622
  3
Wireframe
350
161C
  3
X-Ray
350
1628
  0
XRECORD
  5
1659
102
{ACAD_REACTORS
330
C
102
}
330
C
100
AcDbXrecord
280
     1
 90
        1
330
162F
  0
DICTIONARY
  5
164C
102
{ACAD_REACTORS
330
C
102
}
330
C
100
AcDbDictionary
281
     1
  3
CANNOSCALE
350
164F
  3
CMLEADERSTYLE
350
164E
  3
CTABLESTYLE
350
164D
  3
DIMASSOC
350
1653
  3
INDEXCTL
350
1651
  3
SORTENTS
350
1650
  3
XCLIPFRAME
350
1652
  0
XRECORD
  5
165A
102
{ACAD_REACTORS
330
C
102
}
330
C
100
AcDbXrecord
280
     1
  1
DWGPROPS COOKIE
  2

  3

  4

  6

  7

  8
越智　仁勇
  9

300
=
301
=
302
=
303
=
304
=
305
=
306
=
307
=
308
=
309
=
 40
0.1892106365740741
 41
2455132.473925058
 42
2456013.774329234
  1

 90
        0
  0
LAYOUT
  5
1E
102
{ACAD_XDICTIONARY
360
165B
102
}
102
{ACAD_REACTORS
330
1A
102
}
330
1A
100
AcDbPlotSettings
  1

  2

  4

  6

 40
0.0
 41
0.0
 42
0.0
 43
0.0
 44
0.0
 45
0.0
 46
0.0
 47
0.0
 48
0.0
 49
0.0
140
0.0
141
0.0
142
1.0
143
1.0
 70
   688
 72
     0
 73
     0
 74
     5
  7
P社図面.ctb
 75
    16
147
1.0
148
0.0
149
0.0
100
AcDbLayout
  1
Layout1
 70
     1
 71
     1
 10
0.0
 20
0.0
 11
12.0
 21
9.0
 12
0.0
 22
0.0
 32
0.0
 14
1.000000000000000E+20
 24
1.000000000000000E+20
 34
1.000000000000000E+20
 15
-1.000000000000000E+20
 25
-1.000000000000000E+20
 35
-1.000000000000000E+20
146
0.0
 13
0.0
 23
0.0
 33
0.0
 16
1.0
 26
0.0
 36
0.0
 17
0.0
 27
1.0
 37
0.0
 76
     0
330
1B
  0
LAYOUT
  5
26
102
{ACAD_XDICTIONARY
360
165F
102
}
102
{ACAD_REACTORS
330
1A
102
}
330
1A
100
AcDbPlotSettings
  1

  2

  4

  6

 40
0.0
 41
0.0
 42
0.0
 43
0.0
 44
0.0
 45
0.0
 46
0.0
 47
0.0
 48
0.0
 49
0.0
140
0.0
141
0.0
142
1.0
143
1.0
 70
   688
 72
     0
 73
     0
 74
     5
  7
P社図面.ctb
 75
    16
147
1.0
148
0.0
149
0.0
100
AcDbLayout
  1
Layout2
 70
     1
 71
     2
 10
0.0
 20
0.0
 11
0.0
 21
0.0
 12
0.0
 22
0.0
 32
0.0
 14
0.0
 24
0.0
 34
0.0
 15
0.0
 25
0.0
 35
0.0
146
0.0
 13
0.0
 23
0.0
 33
0.0
 16
1.0
 26
0.0
 36
0.0
 17
0.0
 27
1.0
 37
0.0
 76
     0
330
23
  0
LAYOUT
  5
22
102
{ACAD_XDICTIONARY
360
165D
102
}
102
{ACAD_REACTORS
330
1A
102
}
330
1A
100
AcDbPlotSettings
  1

  2
Acrobat Distiller
  4
A3
  6

 40
3.174999952316281
 41
3.174999952316281
 42
3.17498779296875
 43
3.17498779296875
 44
297.0318298339843
 45
420.1583251953125
 46
0.0
 47
0.0
 48
0.0
 49
0.0
140
0.0
141
0.0
142
1.0
143
1.979357356893913
 70
 11952
 72
     1
 73
     1
 74
     1
  7
P社図面.ctb
 75
     0
147
0.5052144811128195
148
428.0372809099396
149
286.026377156235
100
AcDbLayout
  1
Model
 70
     1
 71
     0
 10
0.0
 20
0.0
 11
0.0
 21
0.0
 12
0.0
 22
0.0
 32
0.0
 14
-427.9997999999998
 24
-286.0002
 34
0.0
 15
390.9997999999998
 25
285.9998
 35
0.0
146
0.0
 13
0.0
 23
0.0
 33
0.0
 16
1.0
 26
0.0
 36
0.0
 17
0.0
 27
1.0
 37
0.0
 76
     0
330
1F
331
15FB
  0
MATERIAL
  5
1605
102
{ACAD_XDICTIONARY
360
1606
102
}
102
{ACAD_REACTORS
330
58F
102
}
330
58F
100
AcDbMaterial
  1
ByBlock
 72
     0
 43
0.0208333333333333
 43
0.0
 43
0.0
 43
0.0
 43
0.0
 43
0.0208333333333333
 43
0.0
 43
0.0
 43
0.0
 43
0.0
 43
1.0
 43
0.0
 43
0.0
 43
0.0
 43
0.0
 43
1.0
 77
     0
 47
0.0208333333333333
 47
0.0
 47
0.0
 47
0.0
 47
0.0
 47
0.0208333333333333
 47
0.0
 47
0.0
 47
0.0
 47
0.0
 47
1.0
 47
0.0
 47
0.0
 47
0.0
 47
0.0
 47
1.0
171
     0
 49
0.0208333333333333
 49
0.0
 49
0.0
 49
0.0
 49
0.0
 49
0.0208333333333333
 49
0.0
 49
0.0
 49
0.0
 49
0.0
 49
1.0
 49
0.0
 49
0.0
 49
0.0
 49
0.0
 49
1.0
175
     0
142
0.0208333333333333
142
0.0
142
0.0
142
0.0
142
0.0
142
0.0208333333333333
142
0.0
142
0.0
142
0.0
142
0.0
142
1.0
142
0.0
142
0.0
142
0.0
142
0.0
142
1.0
179
     0
144
0.0208333333333333
144
0.0
144
0.0
144
0.0
144
0.0
144
0.0208333333333333
144
0.0
144
0.0
144
0.0
144
0.0
144
1.0
144
0.0
144
0.0
144
0.0
144
0.0
144
1.0
147
0.0208333333333333
147
0.0
147
0.0
147
0.0
147
0.0
147
0.0208333333333333
147
0.0
147
0.0
147
0.0
147
0.0
147
1.0
147
0.0
147
0.0
147
0.0
147
0.0
147
1.0
  0
MATERIAL
  5
15FD
102
{ACAD_XDICTIONARY
360
15FE
102
}
102
{ACAD_REACTORS
330
58F
102
}
330
58F
100
AcDbMaterial
  1
ByLayer
 72
     0
 43
0.0208333333333333
 43
0.0
 43
0.0
 43
0.0
 43
0.0
 43
0.0208333333333333
 43
0.0
 43
0.0
 43
0.0
 43
0.0
 43
1.0
 43
0.0
 43
0.0
 43
0.0
 43
0.0
 43
1.0
 77
     0
 47
0.0208333333333333
 47
0.0
 47
0.0
 47
0.0
 47
0.0
 47
0.0208333333333333
 47
0.0
 47
0.0
 47
0.0
 47
0.0
 47
1.0
 47
0.0
 47
0.0
 47
0.0
 47
0.0
 47
1.0
171
     0
 49
0.0208333333333333
 49
0.0
 49
0.0
 49
0.0
 49
0.0
 49
0.0208333333333333
 49
0.0
 49
0.0
 49
0.0
 49
0.0
 49
1.0
 49
0.0
 49
0.0
 49
0.0
 49
0.0
 49
1.0
175
     0
142
0.0208333333333333
142
0.0
142
0.0
142
0.0
142
0.0
142
0.0208333333333333
142
0.0
142
0.0
142
0.0
142
0.0
142
1.0
142
0.0
142
0.0
142
0.0
142
0.0
142
1.0
179
     0
144
0.0208333333333333
144
0.0
144
0.0
144
0.0
144
0.0
144
0.0208333333333333
144
0.0
144
0.0
144
0.0
144
0.0
144
1.0
144
0.0
144
0.0
144
0.0
144
0.0
144
1.0
147
0.0208333333333333
147
0.0
147
0.0
147
0.0
147
0.0
147
0.0208333333333333
147
0.0
147
0.0
147
0.0
147
0.0
147
1.0
147
0.0
147
0.0
147
0.0
147
0.0
147
1.0
  0
MATERIAL
  5
160D
102
{ACAD_XDICTIONARY
360
160E
102
}
102
{ACAD_REACTORS
330
58F
102
}
330
58F
100
AcDbMaterial
  1
Global
 72
     0
 43
0.0208333333333333
 43
0.0
 43
0.0
 43
0.0
 43
0.0
 43
0.0208333333333333
 43
0.0
 43
0.0
 43
0.0
 43
0.0
 43
1.0
 43
0.0
 43
0.0
 43
0.0
 43
0.0
 43
1.0
 77
     0
 47
0.0208333333333333
 47
0.0
 47
0.0
 47
0.0
 47
0.0
 47
0.0208333333333333
 47
0.0
 47
0.0
 47
0.0
 47
0.0
 47
1.0
 47
0.0
 47
0.0
 47
0.0
 47
0.0
 47
1.0
171
     0
 49
0.0208333333333333
 49
0.0
 49
0.0
 49
0.0
 49
0.0
 49
0.0208333333333333
 49
0.0
 49
0.0
 49
0.0
 49
0.0
 49
1.0
 49
0.0
 49
0.0
 49
0.0
 49
0.0
 49
1.0
175
     0
142
0.0208333333333333
142
0.0
142
0.0
142
0.0
142
0.0
142
0.0208333333333333
142
0.0
142
0.0
142
0.0
142
0.0
142
1.0
142
0.0
142
0.0
142
0.0
142
0.0
142
1.0
179
     0
144
0.0208333333333333
144
0.0
144
0.0
144
0.0
144
0.0
144
0.0208333333333333
144
0.0
144
0.0
144
0.0
144
0.0
144
1.0
144
0.0
144
0.0
144
0.0
144
0.0
144
1.0
147
0.0208333333333333
147
0.0
147
0.0
147
0.0
147
0.0
147
0.0208333333333333
147
0.0
147
0.0
147
0.0
147
0.0
147
1.0
147
0.0
147
0.0
147
0.0
147
0.0
147
1.0
  0
MLEADERSTYLE
  5
1643
102
{ACAD_XDICTIONARY
360
1657
102
}
102
{ACAD_REACTORS
330
1642
102
}
330
1642
100
AcDbMLeaderStyle
170
     2
171
     1
172
     0
 90
        2
 40
0.0
 41
0.0
173
     1
 91
-1056964608
340
14
 92
       -2
290
     1
 42
2.0
291
     1
 43
0.36
  3
Standard
 44
4.0
300

342
11
174
     1
178
     6
175
     1
176
     0
 93
-1056964608
 45
4.0
292
     0
297
     0
 46
4.0
 94
-1056964608
 47
1.0
 49
1.0
140
1.0
293
     1
141
0.0
294
     1
177
     0
142
1.0
295
     0
296
     0
143
0.125
1001
ACAD_MLEADERVER
1070
     2
  0
MLINESTYLE
  5
18
102
{ACAD_REACTORS
330
17
102
}
330
17
100
AcDbMlineStyle
  2
STANDARD
 70
     0
  3

 62
   256
 51
90.0
 52
90.0
 71
     2
 49
0.5
 62
   256
  6
BYLAYER
 49
-0.5
 62
   256
  6
BYLAYER
  0
ACDBPLACEHOLDER
  5
F
102
{ACAD_REACTORS
330
E
102
}
330
E
  0
SCALE
  5
1631
102
{ACAD_REACTORS
330
1630
102
}
330
1630
100
AcDbScale
 70
     0
300
1:1
140
1.0
141
1.0
290
     1
  0
SCALE
  5
1632
102
{ACAD_REACTORS
330
1630
102
}
330
1630
100
AcDbScale
 70
     0
300
1:2
140
1.0
141
2.0
290
     0
  0
SCALE
  5
1633
102
{ACAD_REACTORS
330
1630
102
}
330
1630
100
AcDbScale
 70
     0
300
1:4
140
1.0
141
4.0
290
     0
  0
SCALE
  5
1634
102
{ACAD_REACTORS
330
1630
102
}
330
1630
100
AcDbScale
 70
     0
300
1:5
140
1.0
141
5.0
290
     0
  0
SCALE
  5
1635
102
{ACAD_REACTORS
330
1630
102
}
330
1630
100
AcDbScale
 70
     0
300
1:8
140
1.0
141
8.0
290
     0
  0
SCALE
  5
1636
102
{ACAD_REACTORS
330
1630
102
}
330
1630
100
AcDbScale
 70
     0
300
1:10
140
1.0
141
10.0
290
     0
  0
SCALE
  5
1637
102
{ACAD_REACTORS
330
1630
102
}
330
1630
100
AcDbScale
 70
     0
300
1:16
140
1.0
141
16.0
290
     0
  0
SCALE
  5
1638
102
{ACAD_REACTORS
330
1630
102
}
330
1630
100
AcDbScale
 70
     0
300
1:20
140
1.0
141
20.0
290
     0
  0
SCALE
  5
1639
102
{ACAD_REACTORS
330
1630
102
}
330
1630
100
AcDbScale
 70
     0
300
1:30
140
1.0
141
30.0
290
     0
  0
SCALE
  5
163A
102
{ACAD_REACTORS
330
1630
102
}
330
1630
100
AcDbScale
 70
     0
300
1:40
140
1.0
141
40.0
290
     0
  0
SCALE
  5
163B
102
{ACAD_REACTORS
330
1630
102
}
330
1630
100
AcDbScale
 70
     0
300
1:50
140
1.0
141
50.0
290
     0
  0
SCALE
  5
163C
102
{ACAD_REACTORS
330
1630
102
}
330
1630
100
AcDbScale
 70
     0
300
1:100
140
1.0
141
100.0
290
     0
  0
SCALE
  5
163D
102
{ACAD_REACTORS
330
1630
102
}
330
1630
100
AcDbScale
 70
     0
300
2:1
140
2.0
141
1.0
290
     0
  0
SCALE
  5
163E
102
{ACAD_REACTORS
330
1630
102
}
330
1630
100
AcDbScale
 70
     0
300
4:1
140
4.0
141
1.0
290
     0
  0
SCALE
  5
163F
102
{ACAD_REACTORS
330
1630
102
}
330
1630
100
AcDbScale
 70
     0
300
8:1
140
8.0
141
1.0
290
     0
  0
SCALE
  5
1640
102
{ACAD_REACTORS
330
1630
102
}
330
1630
100
AcDbScale
 70
     0
300
10:1
140
10.0
141
1.0
290
     0
  0
SCALE
  5
1641
102
{ACAD_REACTORS
330
1630
102
}
330
1630
100
AcDbScale
 70
     0
300
100:1
140
100.0
141
1.0
290
     0
  0
TABLESTYLE
  5
162F
102
{ACAD_XDICTIONARY
360
1655
102
}
102
{ACAD_REACTORS
330
162E
102
}
330
162E
100
AcDbTableStyle
  3
Standard
 70
     0
 71
     0
 40
1.5
 41
1.5
280
     0
281
     0
  7
Standard
140
4.5
170
     2
 62
     0
 63
     7
283
     0
274
    -2
284
     1
 64
     0
275
    -2
285
     1
 65
     0
276
    -2
286
     1
 66
     0
277
    -2
287
     1
 67
     0
278
    -2
288
     1
 68
     0
279
    -2
289
     1
 69
     0
  7
Standard
140
6.0
170
     5
 62
     0
 63
     7
283
     0
274
    -2
284
     1
 64
     0
275
    -2
285
     1
 65
     0
276
    -2
286
     1
 66
     0
277
    -2
287
     1
 67
     0
278
    -2
288
     1
 68
     0
279
    -2
289
     1
 69
     0
  7
Standard
140
4.5
170
     5
 62
     0
 63
     7
283
     0
274
    -2
284
     1
 64
     0
275
    -2
285
     1
 65
     0
276
    -2
286
     1
 66
     0
277
    -2
287
     1
 67
     0
278
    -2
288
     1
 68
     0
279
    -2
289
     1
 69
     0
  0
VISUALSTYLE
  5
161B
102
{ACAD_XDICTIONARY
360
166E
102
}
102
{ACAD_REACTORS
330
1615
102
}
330
1615
100
AcDbVisualStyle
  2
2dWireframe
 70
     4
 71
     0
 72
     2
 73
     0
 90
        0
 40
-0.6
 41
-30.0
 62
     5
 63
     7
 74
     1
 91
        4
 64
     7
 65
   257
 75
     1
175
     1
 42
1.0
 92
        0
 66
   257
 43
1.0
 76
     1
 77
     6
 78
     2
 67
     7
 79
     5
170
     0
171
     0
290
     0
174
     0
 93
        1
 44
0.0
173
     0
291
     0
 45
0.0
1001
ACAD
1000
AcDbSavedByObjectVersion
1070
     0
  0
VISUALSTYLE
  5
161A
102
{ACAD_XDICTIONARY
360
166C
102
}
102
{ACAD_REACTORS
330
1615
102
}
330
1615
100
AcDbVisualStyle
  2
Basic
 70
     7
 71
     1
 72
     0
 73
     1
 90
        0
 40
-0.6
 41
-30.0
 62
     5
 63
     7
 74
     0
 91
        4
 64
     7
 65
   257
 75
     1
175
     1
 42
1.0
 92
        8
 66
     7
 43
1.0
 76
     1
 77
     6
 78
     2
 67
     7
 79
     5
170
     0
171
     0
290
     0
174
     0
 93
        1
 44
0.0
173
     0
291
     1
 45
0.0
1001
ACAD
1000
AcDbSavedByObjectVersion
1070
     0
  0
VISUALSTYLE
  5
1621
102
{ACAD_XDICTIONARY
360
167A
102
}
102
{ACAD_REACTORS
330
1615
102
}
330
1615
100
AcDbVisualStyle
  2
Brighten
 70
    12
 71
     2
 72
     2
 73
     0
 90
        0
 40
-0.6
 41
-30.0
 62
     5
 63
     7
 74
     1
 91
        4
 64
     7
 65
   257
 75
     1
175
     1
 42
1.0
 92
        8
 66
     7
 43
1.0
 76
     1
 77
     6
 78
     2
 67
     7
 79
     5
170
     0
171
     0
290
     0
174
     0
 93
        1
 44
50.0
173
     0
291
     1
 45
0.0
1001
ACAD
1000
AcDbSavedByObjectVersion
1070
     0
  0
VISUALSTYLE
  5
1625
102
{ACAD_XDICTIONARY
360
1682
102
}
102
{ACAD_REACTORS
330
1615
102
}
330
1615
100
AcDbVisualStyle
  2
ColorChange
 70
    16
 71
     2
 72
     2
 73
     3
 90
        0
 40
-0.6
 41
-30.0
 62
     5
 63
     8
 74
     1
 91
        4
 64
     7
 65
   257
 75
     1
175
     1
 42
1.0
 92
        8
 66
     8
 43
1.0
 76
     1
 77
     6
 78
     2
 67
     7
 79
     5
170
     0
171
     0
290
     0
174
     0
 93
        1
 44
0.0
173
     0
291
     1
 45
0.0
1001
ACAD
1000
AcDbSavedByObjectVersion
1070
     0
  0
VISUALSTYLE
  5
161E
102
{ACAD_XDICTIONARY
360
1674
102
}
102
{ACAD_REACTORS
330
1615
102
}
330
1615
100
AcDbVisualStyle
  2
Conceptual
 70
     9
 71
     3
 72
     2
 73
     0
 90
        0
 40
-0.6
 41
-30.0
 62
     5
 63
     7
 74
     2
 91
        2
 64
     7
 65
   257
 75
     1
175
     1
 42
179.0
 92
        8
 66
     7
 43
1.0
 76
     1
 77
     6
 78
     2
 67
     7
 79
     3
170
     0
171
     0
290
     0
174
     0
 93
        1
 44
0.0
173
     0
291
     0
 45
0.0
1001
ACAD
1000
AcDbSavedByObjectVersion
1070
     0
  0
VISUALSTYLE
  5
1620
102
{ACAD_XDICTIONARY
360
1678
102
}
102
{ACAD_REACTORS
330
1615
102
}
330
1615
100
AcDbVisualStyle
  2
Dim
 70
    11
 71
     2
 72
     2
 73
     0
 90
        0
 40
-0.6
 41
-30.0
 62
     5
 63
     7
 74
     1
 91
        4
 64
     7
 65
   257
 75
     1
175
     1
 42
1.0
 92
        8
 66
     7
 43
1.0
 76
     1
 77
     6
 78
     2
 67
     7
 79
     5
170
     0
171
     0
290
     0
174
     0
 93
        1
 44
-50.0
173
     0
291
     1
 45
0.0
1001
ACAD
1000
AcDbSavedByObjectVersion
1070
     0
  0
VISUALSTYLE
  5
162D
102
{ACAD_XDICTIONARY
360
1692
102
}
102
{ACAD_REACTORS
330
1615
102
}
330
1615
100
AcDbVisualStyle
  2
EdgeColorOff
 70
    22
 71
     2
 72
     2
 73
     0
 90
        0
 40
-0.6
 41
-30.0
 62
     5
 63
     7
 74
     1
 91
        4
 64
     7
 65
   257
 75
     1
175
     1
 42
1.0
 92
        8
 66
     7
 43
1.0
 76
     1
 77
     6
 78
     2
 67
     7
 79
     5
170
     0
171
     0
290
     0
174
     0
 93
        1
 44
0.0
173
     0
291
     1
 45
0.0
1001
ACAD
1000
AcDbSavedByObjectVersion
1070
     0
  0
VISUALSTYLE
  5
1624
102
{ACAD_XDICTIONARY
360
1680
102
}
102
{ACAD_REACTORS
330
1615
102
}
330
1615
100
AcDbVisualStyle
  2
Facepattern
 70
    15
 71
     2
 72
     2
 73
     0
 90
        0
 40
-0.6
 41
-30.0
 62
     5
 63
     7
 74
     1
 91
        4
 64
     7
 65
   257
 75
     1
175
     1
 42
1.0
 92
        8
 66
     7
 43
1.0
 76
     1
 77
     6
 78
     2
 67
     7
 79
     5
170
     0
171
     0
290
     0
174
     0
 93
        1
 44
0.0
173
     0
291
     1
 45
0.0
1001
ACAD
1000
AcDbSavedByObjectVersion
1070
     0
  0
VISUALSTYLE
  5
1616
102
{ACAD_XDICTIONARY
360
1664
102
}
102
{ACAD_REACTORS
330
1615
102
}
330
1615
100
AcDbVisualStyle
  2
Flat
 70
     0
 71
     2
 72
     1
 73
     1
 90
        2
 40
-0.6
 41
30.0
 62
     5
 63
     7
 74
     0
 91
        0
 64
     7
 65
   257
 75
     1
175
     1
 42
1.0
 92
        8
 66
     7
 43
1.0
 76
     1
 77
     6
 78
     2
 67
     7
 79
     5
170
     0
171
     0
290
     0
174
     0
 93
       13
 44
0.0
173
     0
291
     1
 45
0.0
1001
ACAD
1000
AcDbSavedByObjectVersion
1070
     0
  0
VISUALSTYLE
  5
1617
102
{ACAD_XDICTIONARY
360
1666
102
}
102
{ACAD_REACTORS
330
1615
102
}
330
1615
100
AcDbVisualStyle
  2
FlatWithEdges
 70
     1
 71
     2
 72
     1
 73
     1
 90
        2
 40
-0.6
 41
30.0
 62
     5
 63
     7
 74
     1
 91
        0
 64
     7
 65
   257
 75
     1
175
     1
 42
1.0
 92
        0
 66
   257
 43
1.0
 76
     1
 77
     6
 78
     2
 67
     7
 79
     5
170
     0
171
     0
290
     0
174
     0
 93
       13
 44
0.0
173
     0
291
     1
 45
0.0
1001
ACAD
1000
AcDbSavedByObjectVersion
1070
     0
  0
VISUALSTYLE
  5
1618
102
{ACAD_XDICTIONARY
360
1668
102
}
102
{ACAD_REACTORS
330
1615
102
}
330
1615
100
AcDbVisualStyle
  2
Gouraud
 70
     2
 71
     2
 72
     2
 73
     1
 90
        2
 40
-0.6
 41
30.0
 62
     5
 63
     7
 74
     0
 91
        0
 64
     7
 65
   257
 75
     1
175
     1
 42
1.0
 92
        0
 66
     7
 43
1.0
 76
     1
 77
     6
 78
     2
 67
     7
 79
     5
170
     0
171
     0
290
     0
174
     0
 93
       13
 44
0.0
173
     0
291
     1
 45
0.0
1001
ACAD
1000
AcDbSavedByObjectVersion
1070
     0
  0
VISUALSTYLE
  5
1619
102
{ACAD_XDICTIONARY
360
166A
102
}
102
{ACAD_REACTORS
330
1615
102
}
330
1615
100
AcDbVisualStyle
  2
GouraudWithEdges
 70
     3
 71
     2
 72
     2
 73
     1
 90
        2
 40
-0.6
 41
30.0
 62
     5
 63
     7
 74
     1
 91
        0
 64
     7
 65
   257
 75
     1
175
     1
 42
1.0
 92
        0
 66
   257
 43
1.0
 76
     1
 77
     6
 78
     2
 67
     7
 79
     5
170
     0
171
     0
290
     0
174
     0
 93
       13
 44
0.0
173
     0
291
     1
 45
0.0
1001
ACAD
1000
AcDbSavedByObjectVersion
1070
     0
  0
VISUALSTYLE
  5
161D
102
{ACAD_XDICTIONARY
360
1672
102
}
102
{ACAD_REACTORS
330
1615
102
}
330
1615
100
AcDbVisualStyle
  2
Hidden
 70
     6
 71
     1
 72
     2
 73
     2
 90
        0
 40
-0.6
 41
-30.0
 62
     5
 63
     7
 74
     2
 91
        2
 64
     7
 65
   257
 75
     2
175
     1
 42
40.0
 92
        0
 66
   257
 43
1.0
 76
     1
 77
     6
 78
     2
 67
     7
 79
     3
170
     0
171
     0
290
     0
174
     0
 93
        1
 44
0.0
173
     0
291
     0
 45
0.0
1001
ACAD
1000
AcDbSavedByObjectVersion
1070
     0
  0
VISUALSTYLE
  5
162B
102
{ACAD_XDICTIONARY
360
168E
102
}
102
{ACAD_REACTORS
330
1615
102
}
330
1615
100
AcDbVisualStyle
  2
JitterOff
 70
    20
 71
     2
 72
     2
 73
     0
 90
        0
 40
-0.6
 41
-30.0
 62
     5
 63
     7
 74
     1
 91
        4
 64
     7
 65
   257
 75
     1
175
     1
 42
1.0
 92
       10
 66
     7
 43
1.0
 76
     1
 77
     6
 78
     2
 67
     7
 79
     5
170
     0
171
     0
290
     0
174
     0
 93
        1
 44
0.0
173
     0
291
     1
 45
0.0
1001
ACAD
1000
AcDbSavedByObjectVersion
1070
     0
  0
VISUALSTYLE
  5
1623
102
{ACAD_XDICTIONARY
360
167E
102
}
102
{ACAD_REACTORS
330
1615
102
}
330
1615
100
AcDbVisualStyle
  2
Linepattern
 70
    14
 71
     2
 72
     2
 73
     0
 90
        0
 40
-0.6
 41
-30.0
 62
     5
 63
     7
 74
     1
 91
        4
 64
     7
 65
   257
 75
     7
175
     7
 42
1.0
 92
        8
 66
     7
 43
1.0
 76
     1
 77
     6
 78
     2
 67
     7
 79
     5
170
     0
171
     0
290
     0
174
     0
 93
        1
 44
0.0
173
     0
291
     1
 45
0.0
1001
ACAD
1000
AcDbSavedByObjectVersion
1070
     0
  0
VISUALSTYLE
  5
162C
102
{ACAD_XDICTIONARY
360
1690
102
}
102
{ACAD_REACTORS
330
1615
102
}
330
1615
100
AcDbVisualStyle
  2
OverhangOff
 70
    21
 71
     2
 72
     2
 73
     0
 90
        0
 40
-0.6
 41
-30.0
 62
     5
 63
     7
 74
     1
 91
        4
 64
     7
 65
   257
 75
     1
175
     1
 42
1.0
 92
        9
 66
     7
 43
1.0
 76
     1
 77
     6
 78
     2
 67
     7
 79
     5
170
     0
171
     0
290
     0
174
     0
 93
        1
 44
0.0
173
     0
291
     1
 45
0.0
1001
ACAD
1000
AcDbSavedByObjectVersion
1070
     0
  0
VISUALSTYLE
  5
161F
102
{ACAD_XDICTIONARY
360
1676
102
}
102
{ACAD_REACTORS
330
1615
102
}
330
1615
100
AcDbVisualStyle
  2
Realistic
 70
     8
 71
     2
 72
     3
 73
     0
 90
        2
 40
-0.6
 41
30.0
 62
     5
 63
     7
 74
     0
 91
        0
 64
     7
 65
   257
 75
     1
175
     1
 42
1.0
 92
        8
 66
   257
 43
1.0
 76
     1
 77
     6
 78
     2
 67
     7
 79
     3
170
     0
171
     0
290
     0
174
     0
 93
       13
 44
0.0
173
     0
291
     0
 45
0.0
1001
ACAD
1000
AcDbSavedByObjectVersion
1070
     0
  0
VISUALSTYLE
  5
162A
102
{ACAD_XDICTIONARY
360
168C
102
}
102
{ACAD_REACTORS
330
1615
102
}
330
1615
100
AcDbVisualStyle
  2
Shaded
 70
    27
 71
     2
 72
     2
 73
     1
 90
        2
 40
-0.6
 41
30.0
 62
     5
 63
     7
 74
     0
 91
        4
 64
     7
 65
   257
 75
     1
175
     1
 42
1.0
 92
        8
 66
   257
 43
1.0
 76
     1
 77
     6
 78
     2
 67
     8
 79
     3
170
     0
171
     0
290
     0
174
     0
 93
        5
 44
0.0
173
     0
291
     0
 45
0.0
1001
ACAD
1000
AcDbSavedByObjectVersion
1070
     0
  0
VISUALSTYLE
  5
1629
102
{ACAD_XDICTIONARY
360
168A
102
}
102
{ACAD_REACTORS
330
1615
102
}
330
1615
100
AcDbVisualStyle
  2
Shaded with edges
 70
    26
 71
     2
 72
     2
 73
     1
 90
        2
 40
-0.6
 41
30.0
 62
     5
 63
     7
 74
     1
 91
       10
 64
     7
 65
   257
 75
     2
175
     1
 42
1.0
 92
        8
 66
   257
 43
1.0
 76
     1
 77
     6
 78
     2
 67
     7
 79
     3
170
     0
171
     0
290
     0
174
     0
 93
        5
 44
0.0
173
     0
291
     0
 45
0.0
1001
ACAD
1000
AcDbSavedByObjectVersion
1070
     0
  0
VISUALSTYLE
  5
1626
102
{ACAD_XDICTIONARY
360
1684
102
}
102
{ACAD_REACTORS
330
1615
102
}
330
1615
100
AcDbVisualStyle
  2
Shades of Gray
 70
    23
 71
     2
 72
     2
 73
     3
 90
        0
 40
-0.6
 41
-30.0
 62
     5
 63
     7
 74
     2
 91
        2
 64
     7
 65
     7
 75
     1
175
     1
 42
40.0
 92
        8
 66
     7
 43
1.0
 76
     1
 77
     6
 78
     2
 67
     7
 79
     3
170
     0
171
     0
290
     0
174
     0
 93
        1
 44
0.0
173
     0
291
     0
 45
0.0
1001
ACAD
1000
AcDbSavedByObjectVersion
1070
     0
  0
VISUALSTYLE
  5
1627
102
{ACAD_XDICTIONARY
360
1686
102
}
102
{ACAD_REACTORS
330
1615
102
}
330
1615
100
AcDbVisualStyle
  2
Sketchy
 70
    24
 71
     1
 72
     2
 73
     2
 90
        0
 40
-0.6
 41
-30.0
 62
     5
 63
     7
 74
     2
 91
        2
 64
     7
 65
     7
 75
     1
175
     1
 42
40.0
 92
       11
 66
     7
 43
1.0
 76
     1
 77
     6
 78
     2
 67
     7
 79
     6
170
     0
171
     0
290
     0
174
     0
 93
        1
 44
0.0
173
     0
291
     0
 45
0.0
1001
ACAD
1000
AcDbSavedByObjectVersion
1070
     0
  0
VISUALSTYLE
  5
1622
102
{ACAD_XDICTIONARY
360
167C
102
}
102
{ACAD_REACTORS
330
1615
102
}
330
1615
100
AcDbVisualStyle
  2
Thicken
 70
    13
 71
     2
 72
     2
 73
     0
 90
        0
 40
-0.6
 41
-30.0
 62
     5
 63
     7
 74
     1
 91
        4
 64
     7
 65
   257
 75
     1
175
     1
 42
1.0
 92
       12
 66
     7
 43
1.0
 76
     1
 77
     6
 78
     2
 67
     7
 79
     5
170
     0
171
     0
290
     0
174
     0
 93
        1
 44
0.0
173
     0
291
     1
 45
0.0
1001
ACAD
1000
AcDbSavedByObjectVersion
1070
     0
  0
VISUALSTYLE
  5
161C
102
{ACAD_XDICTIONARY
360
1670
102
}
102
{ACAD_REACTORS
330
1615
102
}
330
1615
100
AcDbVisualStyle
  2
Wireframe
 70
     5
 71
     0
 72
     2
 73
     0
 90
        0
 40
-0.6
 41
-30.0
 62
     5
 63
     7
 74
     1
 91
        4
 64
     7
 65
   257
 75
     1
175
     1
 42
1.0
 92
        0
 66
   257
 43
1.0
 76
     1
 77
     6
 78
     2
 67
     7
 79
     3
170
     0
171
     0
290
     0
174
     0
 93
        1
 44
0.0
173
     0
291
     0
 45
0.0
1001
ACAD
1000
AcDbSavedByObjectVersion
1070
     0
  0
VISUALSTYLE
  5
1628
102
{ACAD_XDICTIONARY
360
1688
102
}
102
{ACAD_REACTORS
330
1615
102
}
330
1615
100
AcDbVisualStyle
  2
X-Ray
 70
    25
 71
     2
 72
     2
 73
     1
 90
        1
 40
0.5
 41
-30.0
 62
     5
 63
     7
 74
     1
 91
        0
 64
     7
 65
   257
 75
     1
175
     1
 42
1.0
 92
        8
 66
     7
 43
1.0
 76
     1
 77
     6
 78
     2
 67
     7
 79
     3
170
     0
171
     0
290
     0
174
     0
 93
       13
 44
0.0
173
     0
291
     0
 45
0.0
1001
ACAD
1000
AcDbSavedByObjectVersion
1070
     0
  0
DICTIONARYVAR
  5
164F
102
{ACAD_REACTORS
330
164C
102
}
330
164C
100
DictionaryVariables
280
     0
  1
1:1
  0
DICTIONARYVAR
  5
164E
102
{ACAD_REACTORS
330
164C
102
}
330
164C
100
DictionaryVariables
280
     0
  1
STANDARD
  0
DICTIONARYVAR
  5
164D
102
{ACAD_REACTORS
330
164C
102
}
330
164C
100
DictionaryVariables
280
     0
  1
STANDARD
  0
DICTIONARYVAR
  5
1653
102
{ACAD_REACTORS
330
164C
102
}
330
164C
100
DictionaryVariables
280
     0
  1
1
  0
DICTIONARYVAR
  5
1651
102
{ACAD_REACTORS
330
164C
102
}
330
164C
100
DictionaryVariables
280
     0
  1
0
  0
DICTIONARYVAR
  5
1650
102
{ACAD_REACTORS
330
164C
102
}
330
164C
100
DictionaryVariables
280
     0
  1
127
  0
DICTIONARYVAR
  5
1652
102
{ACAD_REACTORS
330
164C
102
}
330
164C
100
DictionaryVariables
280
     0
  1
0
  0
DICTIONARY
  5
165B
330
1E
100
AcDbDictionary
280
     1
281
     1
  3
ACAD_XREC_ROUNDTRIP
360
165C
  0
DICTIONARY
  5
165F
330
26
100
AcDbDictionary
280
     1
281
     1
  3
ACAD_XREC_ROUNDTRIP
360
1660
  0
DICTIONARY
  5
165D
330
22
100
AcDbDictionary
280
     1
281
     1
  3
ACAD_XREC_ROUNDTRIP
360
165E
  0
DICTIONARY
  5
1606
330
1605
100
AcDbDictionary
280
     1
281
     1
  3
ACAD_XREC_ROUNDTRIP
360
1662
  3
BUMPTILE
360
1608
  3
DIFFUSETILE
360
1607
  3
OPACITYTILE
360
160B
  3
REFLECTIONTILE
360
160A
  3
REFRACTIONTILE
360
160C
  3
SPECULARTILE
360
1609
  0
DICTIONARY
  5
15FE
330
15FD
100
AcDbDictionary
280
     1
281
     1
  3
ACAD_XREC_ROUNDTRIP
360
1661
  3
BUMPTILE
360
1600
  3
DIFFUSETILE
360
15FF
  3
OPACITYTILE
360
1603
  3
REFLECTIONTILE
360
1602
  3
REFRACTIONTILE
360
1604
  3
SPECULARTILE
360
1601
  0
DICTIONARY
  5
160E
330
160D
100
AcDbDictionary
280
     1
281
     1
  3
ACAD_XREC_ROUNDTRIP
360
1663
  3
BUMPTILE
360
1610
  3
DIFFUSETILE
360
160F
  3
OPACITYTILE
360
1613
  3
REFLECTIONTILE
360
1612
  3
REFRACTIONTILE
360
1614
  3
SPECULARTILE
360
1611
  0
DICTIONARY
  5
1657
330
1643
100
AcDbDictionary
280
     1
281
     1
  3
ACAD_XREC_ROUNDTRIP
360
1658
  0
DICTIONARY
  5
1655
330
162F
100
AcDbDictionary
280
     1
281
     1
  3
ACAD_ROUNDTRIP_2008_TABLESTYLE_CELLSTYLEMAP
360
1656
  3
ACAD_XREC_ROUNDTRIP
360
1694
  0
DICTIONARY
  5
166E
330
161B
100
AcDbDictionary
280
     1
281
     1
  3
ACAD_XREC_ROUNDTRIP
360
166F
  0
DICTIONARY
  5
166C
330
161A
100
AcDbDictionary
280
     1
281
     1
  3
ACAD_XREC_ROUNDTRIP
360
166D
  0
DICTIONARY
  5
167A
330
1621
100
AcDbDictionary
280
     1
281
     1
  3
ACAD_XREC_ROUNDTRIP
360
167B
  0
DICTIONARY
  5
1682
330
1625
100
AcDbDictionary
280
     1
281
     1
  3
ACAD_XREC_ROUNDTRIP
360
1683
  0
DICTIONARY
  5
1674
330
161E
100
AcDbDictionary
280
     1
281
     1
  3
ACAD_XREC_ROUNDTRIP
360
1675
  0
DICTIONARY
  5
1678
330
1620
100
AcDbDictionary
280
     1
281
     1
  3
ACAD_XREC_ROUNDTRIP
360
1679
  0
DICTIONARY
  5
1692
330
162D
100
AcDbDictionary
280
     1
281
     1
  3
ACAD_XREC_ROUNDTRIP
360
1693
  0
DICTIONARY
  5
1680
330
1624
100
AcDbDictionary
280
     1
281
     1
  3
ACAD_XREC_ROUNDTRIP
360
1681
  0
DICTIONARY
  5
1664
330
1616
100
AcDbDictionary
280
     1
281
     1
  3
ACAD_XREC_ROUNDTRIP
360
1665
  0
DICTIONARY
  5
1666
330
1617
100
AcDbDictionary
280
     1
281
     1
  3
ACAD_XREC_ROUNDTRIP
360
1667
  0
DICTIONARY
  5
1668
330
1618
100
AcDbDictionary
280
     1
281
     1
  3
ACAD_XREC_ROUNDTRIP
360
1669
  0
DICTIONARY
  5
166A
330
1619
100
AcDbDictionary
280
     1
281
     1
  3
ACAD_XREC_ROUNDTRIP
360
166B
  0
DICTIONARY
  5
1672
330
161D
100
AcDbDictionary
280
     1
281
     1
  3
ACAD_XREC_ROUNDTRIP
360
1673
  0
DICTIONARY
  5
168E
330
162B
100
AcDbDictionary
280
     1
281
     1
  3
ACAD_XREC_ROUNDTRIP
360
168F
  0
DICTIONARY
  5
167E
330
1623
100
AcDbDictionary
280
     1
281
     1
  3
ACAD_XREC_ROUNDTRIP
360
167F
  0
DICTIONARY
  5
1690
330
162C
100
AcDbDictionary
280
     1
281
     1
  3
ACAD_XREC_ROUNDTRIP
360
1691
  0
DICTIONARY
  5
1676
330
161F
100
AcDbDictionary
280
     1
281
     1
  3
ACAD_XREC_ROUNDTRIP
360
1677
  0
DICTIONARY
  5
168C
330
162A
100
AcDbDictionary
280
     1
281
     1
  3
ACAD_XREC_ROUNDTRIP
360
168D
  0
DICTIONARY
  5
168A
330
1629
100
AcDbDictionary
280
     1
281
     1
  3
ACAD_XREC_ROUNDTRIP
360
168B
  0
DICTIONARY
  5
1684
330
1626
100
AcDbDictionary
280
     1
281
     1
  3
ACAD_XREC_ROUNDTRIP
360
1685
  0
DICTIONARY
  5
1686
330
1627
100
AcDbDictionary
280
     1
281
     1
  3
ACAD_XREC_ROUNDTRIP
360
1687
  0
DICTIONARY
  5
167C
330
1622
100
AcDbDictionary
280
     1
281
     1
  3
ACAD_XREC_ROUNDTRIP
360
167D
  0
DICTIONARY
  5
1670
330
161C
100
AcDbDictionary
280
     1
281
     1
  3
ACAD_XREC_ROUNDTRIP
360
1671
  0
DICTIONARY
  5
1688
330
1628
100
AcDbDictionary
280
     1
281
     1
  3
ACAD_XREC_ROUNDTRIP
360
1689
  0
XRECORD
  5
165C
102
{ACAD_REACTORS
330
165B
102
}
330
165B
100
AcDbXrecord
280
     1
102
SHADEPLOT
 70
     0
102
SHADEPLOTRESLEVEL
 70
     2
102
SHADEPLOTCUSTOMDPI
 70
   300
  0
XRECORD
  5
1660
102
{ACAD_REACTORS
330
165F
102
}
330
165F
100
AcDbXrecord
280
     1
102
SHADEPLOT
 70
     0
102
SHADEPLOTRESLEVEL
 70
     2
102
SHADEPLOTCUSTOMDPI
 70
   300
  0
XRECORD
  5
165E
102
{ACAD_REACTORS
330
165D
102
}
330
165D
100
AcDbXrecord
280
     1
102
SHADEPLOT
 70
     0
102
SHADEPLOTRESLEVEL
 70
     2
102
SHADEPLOTCUSTOMDPI
 70
   300
  0
XRECORD
  5
1662
102
{ACAD_REACTORS
330
1606
102
}
330
1606
100
AcDbXrecord
280
     1
102
MATERIAL
148
0.0
149
0.0
149
0.0
 93
        0
 94
      127
282
     0
 72
     0
 77
     0
171
     0
175
     0
179
     0
273
     0
  0
XRECORD
  5
1608
102
{ACAD_REACTORS
330
1606
102
}
330
1606
100
AcDbXrecord
280
     1
270
     1
271
     1
  0
XRECORD
  5
1607
102
{ACAD_REACTORS
330
1606
102
}
330
1606
100
AcDbXrecord
280
     1
270
     1
271
     1
  0
XRECORD
  5
160B
102
{ACAD_REACTORS
330
1606
102
}
330
1606
100
AcDbXrecord
280
     1
270
     1
271
     1
  0
XRECORD
  5
160A
102
{ACAD_REACTORS
330
1606
102
}
330
1606
100
AcDbXrecord
280
     1
270
     1
271
     1
  0
XRECORD
  5
160C
102
{ACAD_REACTORS
330
1606
102
}
330
1606
100
AcDbXrecord
280
     1
270
     1
271
     1
  0
XRECORD
  5
1609
102
{ACAD_REACTORS
330
1606
102
}
330
1606
100
AcDbXrecord
280
     1
270
     1
271
     1
  0
XRECORD
  5
1661
102
{ACAD_REACTORS
330
15FE
102
}
330
15FE
100
AcDbXrecord
280
     1
102
MATERIAL
148
0.0
149
0.0
149
0.0
 93
        0
 94
      127
282
     0
 72
     0
 77
     0
171
     0
175
     0
179
     0
273
     0
  0
XRECORD
  5
1600
102
{ACAD_REACTORS
330
15FE
102
}
330
15FE
100
AcDbXrecord
280
     1
270
     1
271
     1
  0
XRECORD
  5
15FF
102
{ACAD_REACTORS
330
15FE
102
}
330
15FE
100
AcDbXrecord
280
     1
270
     1
271
     1
  0
XRECORD
  5
1603
102
{ACAD_REACTORS
330
15FE
102
}
330
15FE
100
AcDbXrecord
280
     1
270
     1
271
     1
  0
XRECORD
  5
1602
102
{ACAD_REACTORS
330
15FE
102
}
330
15FE
100
AcDbXrecord
280
     1
270
     1
271
     1
  0
XRECORD
  5
1604
102
{ACAD_REACTORS
330
15FE
102
}
330
15FE
100
AcDbXrecord
280
     1
270
     1
271
     1
  0
XRECORD
  5
1601
102
{ACAD_REACTORS
330
15FE
102
}
330
15FE
100
AcDbXrecord
280
     1
270
     1
271
     1
  0
XRECORD
  5
1663
102
{ACAD_REACTORS
330
160E
102
}
330
160E
100
AcDbXrecord
280
     1
102
MATERIAL
148
0.0
149
0.0
149
0.0
 93
        0
 94
      127
282
     0
 72
     0
 77
     0
171
     0
175
     0
179
     0
273
     0
  0
XRECORD
  5
1610
102
{ACAD_REACTORS
330
160E
102
}
330
160E
100
AcDbXrecord
280
     1
270
     1
271
     1
  0
XRECORD
  5
160F
102
{ACAD_REACTORS
330
160E
102
}
330
160E
100
AcDbXrecord
280
     1
270
     1
271
     1
  0
XRECORD
  5
1613
102
{ACAD_REACTORS
330
160E
102
}
330
160E
100
AcDbXrecord
280
     1
270
     1
271
     1
  0
XRECORD
  5
1612
102
{ACAD_REACTORS
330
160E
102
}
330
160E
100
AcDbXrecord
280
     1
270
     1
271
     1
  0
XRECORD
  5
1614
102
{ACAD_REACTORS
330
160E
102
}
330
160E
100
AcDbXrecord
280
     1
270
     1
271
     1
  0
XRECORD
  5
1611
102
{ACAD_REACTORS
330
160E
102
}
330
160E
100
AcDbXrecord
280
     1
270
     1
271
     1
  0
XRECORD
  5
1658
102
{ACAD_REACTORS
330
1657
102
}
330
1657
100
AcDbXrecord
280
     1
102
ACAD_ROUNDTRIP_2012_MLEADER_STYLE
298
     1
  0
CELLSTYLEMAP
  5
1656
102
{ACAD_REACTORS
330
1655
102
}
330
1655
100
AcDbCellStyleMap
 90
        3
300
CELLSTYLE
  1
TABLEFORMAT_BEGIN
 90
        5
170
     1
 91
        0
 92
    32768
 62
   257
 93
        1
300
CONTENTFORMAT
  1
CONTENTFORMAT_BEGIN
 90
        0
 91
        0
 92
      512
 93
        0
300

 40
0.0
140
1.0
 94
        5
 62
     0
340
11
144
6.0
309
CONTENTFORMAT_END
171
     1
301
MARGIN
  1
CELLMARGIN_BEGIN
 40
1.5
 40
1.5
 40
1.5
 40
1.5
 40
4.5
 40
4.5
309
CELLMARGIN_END
 94
        6
 95
        1
302
GRIDFORMAT
  1
GRIDFORMAT_BEGIN
 90
        0
 91
        1
 62
     0
 92
       -2
340
0
 93
        0
 40
1.125
309
GRIDFORMAT_END
 95
        2
302
GRIDFORMAT
  1
GRIDFORMAT_BEGIN
 90
        0
 91
        1
 62
     0
 92
       -2
340
0
 93
        0
 40
1.125
309
GRIDFORMAT_END
 95
        4
302
GRIDFORMAT
  1
GRIDFORMAT_BEGIN
 90
        0
 91
        1
 62
     0
 92
       -2
340
0
 93
        0
 40
1.125
309
GRIDFORMAT_END
 95
        8
302
GRIDFORMAT
  1
GRIDFORMAT_BEGIN
 90
        0
 91
        1
 62
     0
 92
       -2
340
0
 93
        0
 40
1.125
309
GRIDFORMAT_END
 95
       16
302
GRIDFORMAT
  1
GRIDFORMAT_BEGIN
 90
        0
 91
        1
 62
     0
 92
       -2
340
0
 93
        0
 40
1.125
309
GRIDFORMAT_END
 95
       32
302
GRIDFORMAT
  1
GRIDFORMAT_BEGIN
 90
        0
 91
        1
 62
     0
 92
       -2
340
0
 93
        0
 40
1.125
309
GRIDFORMAT_END
309
TABLEFORMAT_END
  1
CELLSTYLE_BEGIN
 90
        1
 91
        1
300
_TITLE
309
CELLSTYLE_END
300
CELLSTYLE
  1
TABLEFORMAT_BEGIN
 90
        5
170
     1
 91
        0
 92
        0
 62
   257
 93
        1
300
CONTENTFORMAT
  1
CONTENTFORMAT_BEGIN
 90
        0
 91
        0
 92
      512
 93
        0
300

 40
0.0
140
1.0
 94
        5
 62
     0
340
11
144
4.5
309
CONTENTFORMAT_END
171
     1
301
MARGIN
  1
CELLMARGIN_BEGIN
 40
1.5
 40
1.5
 40
1.5
 40
1.5
 40
4.5
 40
4.5
309
CELLMARGIN_END
 94
        6
 95
        1
302
GRIDFORMAT
  1
GRIDFORMAT_BEGIN
 90
        0
 91
        1
 62
     0
 92
       -2
340
0
 93
        0
 40
1.125
309
GRIDFORMAT_END
 95
        2
302
GRIDFORMAT
  1
GRIDFORMAT_BEGIN
 90
        0
 91
        1
 62
     0
 92
       -2
340
0
 93
        0
 40
1.125
309
GRIDFORMAT_END
 95
        4
302
GRIDFORMAT
  1
GRIDFORMAT_BEGIN
 90
        0
 91
        1
 62
     0
 92
       -2
340
0
 93
        0
 40
1.125
309
GRIDFORMAT_END
 95
        8
302
GRIDFORMAT
  1
GRIDFORMAT_BEGIN
 90
        0
 91
        1
 62
     0
 92
       -2
340
0
 93
        0
 40
1.125
309
GRIDFORMAT_END
 95
       16
302
GRIDFORMAT
  1
GRIDFORMAT_BEGIN
 90
        0
 91
        1
 62
     0
 92
       -2
340
0
 93
        0
 40
1.125
309
GRIDFORMAT_END
 95
       32
302
GRIDFORMAT
  1
GRIDFORMAT_BEGIN
 90
        0
 91
        1
 62
     0
 92
       -2
340
0
 93
        0
 40
1.125
309
GRIDFORMAT_END
309
TABLEFORMAT_END
  1
CELLSTYLE_BEGIN
 90
        2
 91
        1
300
_HEADER
309
CELLSTYLE_END
300
CELLSTYLE
  1
TABLEFORMAT_BEGIN
 90
        5
170
     1
 91
        0
 92
        0
 62
   257
 93
        1
300
CONTENTFORMAT
  1
CONTENTFORMAT_BEGIN
 90
        0
 91
        0
 92
      512
 93
        0
300

 40
0.0
140
1.0
 94
        2
 62
     0
340
11
144
4.5
309
CONTENTFORMAT_END
171
     1
301
MARGIN
  1
CELLMARGIN_BEGIN
 40
1.5
 40
1.5
 40
1.5
 40
1.5
 40
4.5
 40
4.5
309
CELLMARGIN_END
 94
        6
 95
        1
302
GRIDFORMAT
  1
GRIDFORMAT_BEGIN
 90
        0
 91
        1
 62
     0
 92
       -2
340
0
 93
        0
 40
1.125
309
GRIDFORMAT_END
 95
        2
302
GRIDFORMAT
  1
GRIDFORMAT_BEGIN
 90
        0
 91
        1
 62
     0
 92
       -2
340
0
 93
        0
 40
1.125
309
GRIDFORMAT_END
 95
        4
302
GRIDFORMAT
  1
GRIDFORMAT_BEGIN
 90
        0
 91
        1
 62
     0
 92
       -2
340
0
 93
        0
 40
1.125
309
GRIDFORMAT_END
 95
        8
302
GRIDFORMAT
  1
GRIDFORMAT_BEGIN
 90
        0
 91
        1
 62
     0
 92
       -2
340
0
 93
        0
 40
1.125
309
GRIDFORMAT_END
 95
       16
302
GRIDFORMAT
  1
GRIDFORMAT_BEGIN
 90
        0
 91
        1
 62
     0
 92
       -2
340
0
 93
        0
 40
1.125
309
GRIDFORMAT_END
 95
       32
302
GRIDFORMAT
  1
GRIDFORMAT_BEGIN
 90
        0
 91
        1
 62
     0
 92
       -2
340
0
 93
        0
 40
1.125
309
GRIDFORMAT_END
309
TABLEFORMAT_END
  1
CELLSTYLE_BEGIN
 90
        3
 91
        2
300
_DATA
309
CELLSTYLE_END
  0
XRECORD
  5
1694
102
{ACAD_REACTORS
330
1655
102
}
330
1655
100
AcDbXrecord
280
     1
102
ACAD_ROUNDTRIP_PRE2007_TABLESTYLE
 90
      512
 91
        0
  1

 92
      512
 93
        0
  2

 94
      512
 95
        0
  3

  0
XRECORD
  5
166F
102
{ACAD_REACTORS
330
166E
102
}
330
166E
100
AcDbXrecord
280
     1
102
RTVSPropertyOp0
 70
     1
102
RTVSPropertyOp1
 70
     1
102
RTVSPropertyOp2
 70
     1
102
RTVSPropertyOp3
 70
     1
102
RTVSPropertyOp4
 70
     1
102
RTVSPropertyOp5
 70
     1
102
RTVSPropertyOp6
 70
     1
102
RTVSPropertyOp7
 70
     1
102
RTVSPropertyOp8
 70
     1
102
RTVSPropertyOp9
 70
     1
102
RTVSPropertyOp10
 70
     1
102
RTVSPropertyOp11
 70
     1
102
RTVSPropertyOp12
 70
     1
102
RTVSPropertyOp13
 70
     1
102
RTVSPropertyOp14
 70
     1
102
RTVSPropertyOp15
 70
     1
102
RTVSPropertyOp16
 70
     1
102
RTVSPropertyOp17
 70
     1
102
RTVSPropertyOp18
 70
     1
102
RTVSPropertyOp19
 70
     1
102
RTVSPropertyOp20
 70
     1
102
RTVSPropertyOp21
 70
     1
102
RTVSPropertyOp22
 70
     1
102
RTVSPropertyOp23
 70
     1
102
RTVSPropertyOp24
 70
     1
102
RTVSPropertyOp25
 70
     1
102
RTVSPropertyOp26
 70
     1
102
RTVSPropertyOp27
 70
     1
102
RTVSPropertyOp28
 70
     1
102
RTVSPropertyOp29
 70
     1
102
RTVSPropertyOp30
 70
     1
102
RTVSPropertyOp31
 70
     1
102
RTVSPropertyOp32
 70
     1
  0
XRECORD
  5
166D
102
{ACAD_REACTORS
330
166C
102
}
330
166C
100
AcDbXrecord
280
     1
102
RTVSPropertyOp0
 70
     1
102
RTVSPropertyOp1
 70
     1
102
RTVSPropertyOp2
 70
     1
102
RTVSPropertyOp3
 70
     1
102
RTVSPropertyOp4
 70
     1
102
RTVSPropertyOp5
 70
     1
102
RTVSPropertyOp6
 70
     1
102
RTVSPropertyOp7
 70
     1
102
RTVSPropertyOp8
 70
     1
102
RTVSPropertyOp9
 70
     1
102
RTVSPropertyOp10
 70
     1
102
RTVSPropertyOp11
 70
     1
102
RTVSPropertyOp12
 70
     1
102
RTVSPropertyOp13
 70
     1
102
RTVSPropertyOp14
 70
     1
102
RTVSPropertyOp15
 70
     1
102
RTVSPropertyOp16
 70
     1
102
RTVSPropertyOp17
 70
     1
102
RTVSPropertyOp18
 70
     1
102
RTVSPropertyOp19
 70
     1
102
RTVSPropertyOp20
 70
     1
102
RTVSPropertyOp21
 70
     1
102
RTVSPropertyOp22
 70
     1
102
RTVSPropertyOp23
 70
     1
102
RTVSPropertyOp24
 70
     1
102
RTVSPropertyOp25
 70
     1
102
RTVSPropertyOp26
 70
     1
102
RTVSPropertyOp27
 70
     1
102
RTVSPropertyOp28
 70
     1
102
RTVSPropertyOp29
 70
     1
102
RTVSPropertyOp30
 70
     1
102
RTVSPropertyOp31
 70
     1
102
RTVSPropertyOp32
 70
     1
  0
XRECORD
  5
167B
102
{ACAD_REACTORS
330
167A
102
}
330
167A
100
AcDbXrecord
280
     1
102
RTVSPropertyOp0
 70
     1
102
RTVSPropertyOp1
 70
     1
102
RTVSPropertyOp2
 70
     1
102
RTVSPropertyOp3
 70
     1
102
RTVSPropertyOp4
 70
     1
102
RTVSPropertyOp5
 70
     1
102
RTVSPropertyOp6
 70
     1
102
RTVSPropertyOp7
 70
     1
102
RTVSPropertyOp8
 70
     1
102
RTVSPropertyOp9
 70
     1
102
RTVSPropertyOp10
 70
     1
102
RTVSPropertyOp11
 70
     1
102
RTVSPropertyOp12
 70
     1
102
RTVSPropertyOp13
 70
     1
102
RTVSPropertyOp14
 70
     1
102
RTVSPropertyOp15
 70
     1
102
RTVSPropertyOp16
 70
     1
102
RTVSPropertyOp17
 70
     1
102
RTVSPropertyOp18
 70
     1
102
RTVSPropertyOp19
 70
     1
102
RTVSPropertyOp20
 70
     1
102
RTVSPropertyOp21
 70
     1
102
RTVSPropertyOp22
 70
     1
102
RTVSPropertyOp23
 70
     1
102
RTVSPropertyOp24
 70
     1
102
RTVSPropertyOp25
 70
     1
102
RTVSPropertyOp26
 70
     1
102
RTVSPropertyOp27
 70
     1
102
RTVSPropertyOp28
 70
     1
102
RTVSPropertyOp29
 70
     1
102
RTVSPropertyOp30
 70
     1
102
RTVSPropertyOp31
 70
     1
102
RTVSPropertyOp32
 70
     1
  0
XRECORD
  5
1683
102
{ACAD_REACTORS
330
1682
102
}
330
1682
100
AcDbXrecord
280
     1
102
RTVSPropertyOp0
 70
     1
102
RTVSPropertyOp1
 70
     1
102
RTVSPropertyOp2
 70
     1
102
RTVSPropertyOp3
 70
     1
102
RTVSPropertyOp4
 70
     1
102
RTVSPropertyOp5
 70
     1
102
RTVSPropertyOp6
 70
     1
102
RTVSPropertyOp7
 70
     1
102
RTVSPropertyOp8
 70
     1
102
RTVSPropertyOp9
 70
     1
102
RTVSPropertyOp10
 70
     1
102
RTVSPropertyOp11
 70
     1
102
RTVSPropertyOp12
 70
     1
102
RTVSPropertyOp13
 70
     1
102
RTVSPropertyOp14
 70
     1
102
RTVSPropertyOp15
 70
     1
102
RTVSPropertyOp16
 70
     1
102
RTVSPropertyOp17
 70
     1
102
RTVSPropertyOp18
 70
     1
102
RTVSPropertyOp19
 70
     1
102
RTVSPropertyOp20
 70
     1
102
RTVSPropertyOp21
 70
     1
102
RTVSPropertyOp22
 70
     1
102
RTVSPropertyOp23
 70
     1
102
RTVSPropertyOp24
 70
     1
102
RTVSPropertyOp25
 70
     1
102
RTVSPropertyOp26
 70
     1
102
RTVSPropertyOp27
 70
     1
102
RTVSPropertyOp28
 70
     1
102
RTVSPropertyOp29
 70
     1
102
RTVSPropertyOp30
 70
     1
102
RTVSPropertyOp31
 70
     1
102
RTVSPropertyOp32
 70
     1
  0
XRECORD
  5
1675
102
{ACAD_REACTORS
330
1674
102
}
330
1674
100
AcDbXrecord
280
     1
102
RTVSPropertyOp0
 70
     1
102
RTVSPropertyOp1
 70
     1
102
RTVSPropertyOp2
 70
     1
102
RTVSPropertyOp3
 70
     1
102
RTVSPropertyOp4
 70
     1
102
RTVSPropertyOp5
 70
     1
102
RTVSPropertyOp6
 70
     1
102
RTVSPropertyOp7
 70
     1
102
RTVSPropertyOp8
 70
     1
102
RTVSPropertyOp9
 70
     1
102
RTVSPropertyOp10
 70
     1
102
RTVSPropertyOp11
 70
     1
102
RTVSPropertyOp12
 70
     1
102
RTVSPropertyOp13
 70
     1
102
RTVSPropertyOp14
 70
     1
102
RTVSPropertyOp15
 70
     1
102
RTVSPropertyOp16
 70
     1
102
RTVSPropertyOp17
 70
     1
102
RTVSPropertyOp18
 70
     1
102
RTVSPropertyOp19
 70
     1
102
RTVSPropertyOp20
 70
     1
102
RTVSPropertyOp21
 70
     1
102
RTVSPropertyOp22
 70
     1
102
RTVSPropertyOp23
 70
     1
102
RTVSPropertyOp24
 70
     1
102
RTVSPropertyOp25
 70
     1
102
RTVSPropertyOp26
 70
     1
102
RTVSPropertyOp27
 70
     1
102
RTVSPropertyOp28
 70
     1
102
RTVSPropertyOp29
 70
     1
102
RTVSPropertyOp30
 70
     1
102
RTVSPropertyOp31
 70
     1
102
RTVSPropertyOp32
 70
     1
  0
XRECORD
  5
1679
102
{ACAD_REACTORS
330
1678
102
}
330
1678
100
AcDbXrecord
280
     1
102
RTVSPropertyOp0
 70
     1
102
RTVSPropertyOp1
 70
     1
102
RTVSPropertyOp2
 70
     1
102
RTVSPropertyOp3
 70
     1
102
RTVSPropertyOp4
 70
     1
102
RTVSPropertyOp5
 70
     1
102
RTVSPropertyOp6
 70
     1
102
RTVSPropertyOp7
 70
     1
102
RTVSPropertyOp8
 70
     1
102
RTVSPropertyOp9
 70
     1
102
RTVSPropertyOp10
 70
     1
102
RTVSPropertyOp11
 70
     1
102
RTVSPropertyOp12
 70
     1
102
RTVSPropertyOp13
 70
     1
102
RTVSPropertyOp14
 70
     1
102
RTVSPropertyOp15
 70
     1
102
RTVSPropertyOp16
 70
     1
102
RTVSPropertyOp17
 70
     1
102
RTVSPropertyOp18
 70
     1
102
RTVSPropertyOp19
 70
     1
102
RTVSPropertyOp20
 70
     1
102
RTVSPropertyOp21
 70
     1
102
RTVSPropertyOp22
 70
     1
102
RTVSPropertyOp23
 70
     1
102
RTVSPropertyOp24
 70
     1
102
RTVSPropertyOp25
 70
     1
102
RTVSPropertyOp26
 70
     1
102
RTVSPropertyOp27
 70
     1
102
RTVSPropertyOp28
 70
     1
102
RTVSPropertyOp29
 70
     1
102
RTVSPropertyOp30
 70
     1
102
RTVSPropertyOp31
 70
     1
102
RTVSPropertyOp32
 70
     1
  0
XRECORD
  5
1693
102
{ACAD_REACTORS
330
1692
102
}
330
1692
100
AcDbXrecord
280
     1
102
RTVSPropertyOp0
 70
     0
102
RTVSPropertyOp1
 70
     0
102
RTVSPropertyOp2
 70
     0
102
RTVSPropertyOp3
 70
     0
102
RTVSPropertyOp4
 70
     0
102
RTVSPropertyOp5
 70
     0
102
RTVSPropertyOp6
 70
     0
102
RTVSPropertyOp7
 70
     0
102
RTVSPropertyOp8
 70
     0
102
RTVSPropertyOp9
 70
     0
102
RTVSPropertyOp10
 70
     0
102
RTVSPropertyOp11
 70
     0
102
RTVSPropertyOp12
 70
     0
102
RTVSPropertyOp13
 70
     0
102
RTVSPropertyOp14
 70
     2
102
RTVSPropertyOp15
 70
     0
102
RTVSPropertyOp16
 70
     0
102
RTVSPropertyOp17
 70
     0
102
RTVSPropertyOp18
 70
     0
102
RTVSPropertyOp19
 70
     0
102
RTVSPropertyOp20
 70
     0
102
RTVSPropertyOp21
 70
     0
102
RTVSPropertyOp22
 70
     0
102
RTVSPropertyOp23
 70
     0
102
RTVSPropertyOp24
 70
     0
102
RTVSPropertyOp25
 70
     0
102
RTVSPropertyOp26
 70
     0
102
RTVSPropertyOp27
 70
     0
102
RTVSPropertyOp28
 70
     0
102
RTVSPropertyOp29
 70
     0
102
RTVSPropertyOp30
 70
     0
102
RTVSPropertyOp31
 70
     0
102
RTVSPropertyOp32
 70
     0
  0
XRECORD
  5
1681
102
{ACAD_REACTORS
330
1680
102
}
330
1680
100
AcDbXrecord
280
     1
102
RTVSPropertyOp0
 70
     1
102
RTVSPropertyOp1
 70
     1
102
RTVSPropertyOp2
 70
     1
102
RTVSPropertyOp3
 70
     1
102
RTVSPropertyOp4
 70
     1
102
RTVSPropertyOp5
 70
     1
102
RTVSPropertyOp6
 70
     1
102
RTVSPropertyOp7
 70
     1
102
RTVSPropertyOp8
 70
     1
102
RTVSPropertyOp9
 70
     1
102
RTVSPropertyOp10
 70
     1
102
RTVSPropertyOp11
 70
     1
102
RTVSPropertyOp12
 70
     1
102
RTVSPropertyOp13
 70
     1
102
RTVSPropertyOp14
 70
     1
102
RTVSPropertyOp15
 70
     1
102
RTVSPropertyOp16
 70
     1
102
RTVSPropertyOp17
 70
     1
102
RTVSPropertyOp18
 70
     1
102
RTVSPropertyOp19
 70
     1
102
RTVSPropertyOp20
 70
     1
102
RTVSPropertyOp21
 70
     1
102
RTVSPropertyOp22
 70
     1
102
RTVSPropertyOp23
 70
     1
102
RTVSPropertyOp24
 70
     1
102
RTVSPropertyOp25
 70
     1
102
RTVSPropertyOp26
 70
     1
102
RTVSPropertyOp27
 70
     1
102
RTVSPropertyOp28
 70
     1
102
RTVSPropertyOp29
 70
     1
102
RTVSPropertyOp30
 70
     1
102
RTVSPropertyOp31
 70
     1
102
RTVSPropertyOp32
 70
     1
  0
XRECORD
  5
1665
102
{ACAD_REACTORS
330
1664
102
}
330
1664
100
AcDbXrecord
280
     1
102
RTVSPropertyOp0
 70
     1
102
RTVSPropertyOp1
 70
     1
102
RTVSPropertyOp2
 70
     1
102
RTVSPropertyOp3
 70
     1
102
RTVSPropertyOp4
 70
     1
102
RTVSPropertyOp5
 70
     1
102
RTVSPropertyOp6
 70
     1
102
RTVSPropertyOp7
 70
     1
102
RTVSPropertyOp8
 70
     1
102
RTVSPropertyOp9
 70
     1
102
RTVSPropertyOp10
 70
     1
102
RTVSPropertyOp11
 70
     1
102
RTVSPropertyOp12
 70
     1
102
RTVSPropertyOp13
 70
     1
102
RTVSPropertyOp14
 70
     1
102
RTVSPropertyOp15
 70
     1
102
RTVSPropertyOp16
 70
     1
102
RTVSPropertyOp17
 70
     1
102
RTVSPropertyOp18
 70
     1
102
RTVSPropertyOp19
 70
     1
102
RTVSPropertyOp20
 70
     1
102
RTVSPropertyOp21
 70
     1
102
RTVSPropertyOp22
 70
     1
102
RTVSPropertyOp23
 70
     1
102
RTVSPropertyOp24
 70
     1
102
RTVSPropertyOp25
 70
     1
102
RTVSPropertyOp26
 70
     1
102
RTVSPropertyOp27
 70
     1
102
RTVSPropertyOp28
 70
     1
102
RTVSPropertyOp29
 70
     1
102
RTVSPropertyOp30
 70
     1
102
RTVSPropertyOp31
 70
     1
102
RTVSPropertyOp32
 70
     1
  0
XRECORD
  5
1667
102
{ACAD_REACTORS
330
1666
102
}
330
1666
100
AcDbXrecord
280
     1
102
RTVSPropertyOp0
 70
     1
102
RTVSPropertyOp1
 70
     1
102
RTVSPropertyOp2
 70
     1
102
RTVSPropertyOp3
 70
     1
102
RTVSPropertyOp4
 70
     1
102
RTVSPropertyOp5
 70
     1
102
RTVSPropertyOp6
 70
     1
102
RTVSPropertyOp7
 70
     1
102
RTVSPropertyOp8
 70
     1
102
RTVSPropertyOp9
 70
     1
102
RTVSPropertyOp10
 70
     1
102
RTVSPropertyOp11
 70
     1
102
RTVSPropertyOp12
 70
     1
102
RTVSPropertyOp13
 70
     1
102
RTVSPropertyOp14
 70
     1
102
RTVSPropertyOp15
 70
     1
102
RTVSPropertyOp16
 70
     1
102
RTVSPropertyOp17
 70
     1
102
RTVSPropertyOp18
 70
     1
102
RTVSPropertyOp19
 70
     1
102
RTVSPropertyOp20
 70
     1
102
RTVSPropertyOp21
 70
     1
102
RTVSPropertyOp22
 70
     1
102
RTVSPropertyOp23
 70
     1
102
RTVSPropertyOp24
 70
     1
102
RTVSPropertyOp25
 70
     1
102
RTVSPropertyOp26
 70
     1
102
RTVSPropertyOp27
 70
     1
102
RTVSPropertyOp28
 70
     1
102
RTVSPropertyOp29
 70
     1
102
RTVSPropertyOp30
 70
     1
102
RTVSPropertyOp31
 70
     1
102
RTVSPropertyOp32
 70
     1
  0
XRECORD
  5
1669
102
{ACAD_REACTORS
330
1668
102
}
330
1668
100
AcDbXrecord
280
     1
102
RTVSPropertyOp0
 70
     1
102
RTVSPropertyOp1
 70
     1
102
RTVSPropertyOp2
 70
     1
102
RTVSPropertyOp3
 70
     1
102
RTVSPropertyOp4
 70
     1
102
RTVSPropertyOp5
 70
     1
102
RTVSPropertyOp6
 70
     1
102
RTVSPropertyOp7
 70
     1
102
RTVSPropertyOp8
 70
     1
102
RTVSPropertyOp9
 70
     1
102
RTVSPropertyOp10
 70
     1
102
RTVSPropertyOp11
 70
     1
102
RTVSPropertyOp12
 70
     1
102
RTVSPropertyOp13
 70
     1
102
RTVSPropertyOp14
 70
     1
102
RTVSPropertyOp15
 70
     1
102
RTVSPropertyOp16
 70
     1
102
RTVSPropertyOp17
 70
     1
102
RTVSPropertyOp18
 70
     1
102
RTVSPropertyOp19
 70
     1
102
RTVSPropertyOp20
 70
     1
102
RTVSPropertyOp21
 70
     1
102
RTVSPropertyOp22
 70
     1
102
RTVSPropertyOp23
 70
     1
102
RTVSPropertyOp24
 70
     1
102
RTVSPropertyOp25
 70
     1
102
RTVSPropertyOp26
 70
     1
102
RTVSPropertyOp27
 70
     1
102
RTVSPropertyOp28
 70
     1
102
RTVSPropertyOp29
 70
     1
102
RTVSPropertyOp30
 70
     1
102
RTVSPropertyOp31
 70
     1
102
RTVSPropertyOp32
 70
     1
  0
XRECORD
  5
166B
102
{ACAD_REACTORS
330
166A
102
}
330
166A
100
AcDbXrecord
280
     1
102
RTVSPropertyOp0
 70
     1
102
RTVSPropertyOp1
 70
     1
102
RTVSPropertyOp2
 70
     1
102
RTVSPropertyOp3
 70
     1
102
RTVSPropertyOp4
 70
     1
102
RTVSPropertyOp5
 70
     1
102
RTVSPropertyOp6
 70
     1
102
RTVSPropertyOp7
 70
     1
102
RTVSPropertyOp8
 70
     1
102
RTVSPropertyOp9
 70
     1
102
RTVSPropertyOp10
 70
     1
102
RTVSPropertyOp11
 70
     1
102
RTVSPropertyOp12
 70
     1
102
RTVSPropertyOp13
 70
     1
102
RTVSPropertyOp14
 70
     1
102
RTVSPropertyOp15
 70
     1
102
RTVSPropertyOp16
 70
     1
102
RTVSPropertyOp17
 70
     1
102
RTVSPropertyOp18
 70
     1
102
RTVSPropertyOp19
 70
     1
102
RTVSPropertyOp20
 70
     1
102
RTVSPropertyOp21
 70
     1
102
RTVSPropertyOp22
 70
     1
102
RTVSPropertyOp23
 70
     1
102
RTVSPropertyOp24
 70
     1
102
RTVSPropertyOp25
 70
     1
102
RTVSPropertyOp26
 70
     1
102
RTVSPropertyOp27
 70
     1
102
RTVSPropertyOp28
 70
     1
102
RTVSPropertyOp29
 70
     1
102
RTVSPropertyOp30
 70
     1
102
RTVSPropertyOp31
 70
     1
102
RTVSPropertyOp32
 70
     1
  0
XRECORD
  5
1673
102
{ACAD_REACTORS
330
1672
102
}
330
1672
100
AcDbXrecord
280
     1
102
RTVSPropertyOp0
 70
     1
102
RTVSPropertyOp1
 70
     1
102
RTVSPropertyOp2
 70
     1
102
RTVSPropertyOp3
 70
     1
102
RTVSPropertyOp4
 70
     1
102
RTVSPropertyOp5
 70
     1
102
RTVSPropertyOp6
 70
     1
102
RTVSPropertyOp7
 70
     1
102
RTVSPropertyOp8
 70
     1
102
RTVSPropertyOp9
 70
     1
102
RTVSPropertyOp10
 70
     1
102
RTVSPropertyOp11
 70
     1
102
RTVSPropertyOp12
 70
     1
102
RTVSPropertyOp13
 70
     1
102
RTVSPropertyOp14
 70
     1
102
RTVSPropertyOp15
 70
     1
102
RTVSPropertyOp16
 70
     1
102
RTVSPropertyOp17
 70
     1
102
RTVSPropertyOp18
 70
     1
102
RTVSPropertyOp19
 70
     1
102
RTVSPropertyOp20
 70
     1
102
RTVSPropertyOp21
 70
     1
102
RTVSPropertyOp22
 70
     1
102
RTVSPropertyOp23
 70
     1
102
RTVSPropertyOp24
 70
     1
102
RTVSPropertyOp25
 70
     1
102
RTVSPropertyOp26
 70
     1
102
RTVSPropertyOp27
 70
     1
102
RTVSPropertyOp28
 70
     1
102
RTVSPropertyOp29
 70
     1
102
RTVSPropertyOp30
 70
     1
102
RTVSPropertyOp31
 70
     1
102
RTVSPropertyOp32
 70
     1
  0
XRECORD
  5
168F
102
{ACAD_REACTORS
330
168E
102
}
330
168E
100
AcDbXrecord
280
     1
102
RTVSPropertyOp0
 70
     0
102
RTVSPropertyOp1
 70
     0
102
RTVSPropertyOp2
 70
     0
102
RTVSPropertyOp3
 70
     0
102
RTVSPropertyOp4
 70
     0
102
RTVSPropertyOp5
 70
     0
102
RTVSPropertyOp6
 70
     0
102
RTVSPropertyOp7
 70
     0
102
RTVSPropertyOp8
 70
     0
102
RTVSPropertyOp9
 70
     0
102
RTVSPropertyOp10
 70
     0
102
RTVSPropertyOp11
 70
     0
102
RTVSPropertyOp12
 70
     0
102
RTVSPropertyOp13
 70
     0
102
RTVSPropertyOp14
 70
     2
102
RTVSPropertyOp15
 70
     0
102
RTVSPropertyOp16
 70
     0
102
RTVSPropertyOp17
 70
     0
102
RTVSPropertyOp18
 70
     0
102
RTVSPropertyOp19
 70
     0
102
RTVSPropertyOp20
 70
     0
102
RTVSPropertyOp21
 70
     0
102
RTVSPropertyOp22
 70
     0
102
RTVSPropertyOp23
 70
     0
102
RTVSPropertyOp24
 70
     0
102
RTVSPropertyOp25
 70
     0
102
RTVSPropertyOp26
 70
     0
102
RTVSPropertyOp27
 70
     0
102
RTVSPropertyOp28
 70
     0
102
RTVSPropertyOp29
 70
     0
102
RTVSPropertyOp30
 70
     0
102
RTVSPropertyOp31
 70
     0
102
RTVSPropertyOp32
 70
     0
  0
XRECORD
  5
167F
102
{ACAD_REACTORS
330
167E
102
}
330
167E
100
AcDbXrecord
280
     1
102
RTVSPropertyOp0
 70
     1
102
RTVSPropertyOp1
 70
     1
102
RTVSPropertyOp2
 70
     1
102
RTVSPropertyOp3
 70
     1
102
RTVSPropertyOp4
 70
     1
102
RTVSPropertyOp5
 70
     1
102
RTVSPropertyOp6
 70
     1
102
RTVSPropertyOp7
 70
     1
102
RTVSPropertyOp8
 70
     1
102
RTVSPropertyOp9
 70
     1
102
RTVSPropertyOp10
 70
     1
102
RTVSPropertyOp11
 70
     1
102
RTVSPropertyOp12
 70
     1
102
RTVSPropertyOp13
 70
     1
102
RTVSPropertyOp14
 70
     1
102
RTVSPropertyOp15
 70
     1
102
RTVSPropertyOp16
 70
     1
102
RTVSPropertyOp17
 70
     1
102
RTVSPropertyOp18
 70
     1
102
RTVSPropertyOp19
 70
     1
102
RTVSPropertyOp20
 70
     1
102
RTVSPropertyOp21
 70
     1
102
RTVSPropertyOp22
 70
     1
102
RTVSPropertyOp23
 70
     1
102
RTVSPropertyOp24
 70
     1
102
RTVSPropertyOp25
 70
     1
102
RTVSPropertyOp26
 70
     1
102
RTVSPropertyOp27
 70
     1
102
RTVSPropertyOp28
 70
     1
102
RTVSPropertyOp29
 70
     1
102
RTVSPropertyOp30
 70
     1
102
RTVSPropertyOp31
 70
     1
102
RTVSPropertyOp32
 70
     1
  0
XRECORD
  5
1691
102
{ACAD_REACTORS
330
1690
102
}
330
1690
100
AcDbXrecord
280
     1
102
RTVSPropertyOp0
 70
     0
102
RTVSPropertyOp1
 70
     0
102
RTVSPropertyOp2
 70
     0
102
RTVSPropertyOp3
 70
     0
102
RTVSPropertyOp4
 70
     0
102
RTVSPropertyOp5
 70
     0
102
RTVSPropertyOp6
 70
     0
102
RTVSPropertyOp7
 70
     0
102
RTVSPropertyOp8
 70
     0
102
RTVSPropertyOp9
 70
     0
102
RTVSPropertyOp10
 70
     0
102
RTVSPropertyOp11
 70
     0
102
RTVSPropertyOp12
 70
     0
102
RTVSPropertyOp13
 70
     0
102
RTVSPropertyOp14
 70
     2
102
RTVSPropertyOp15
 70
     0
102
RTVSPropertyOp16
 70
     0
102
RTVSPropertyOp17
 70
     0
102
RTVSPropertyOp18
 70
     0
102
RTVSPropertyOp19
 70
     0
102
RTVSPropertyOp20
 70
     0
102
RTVSPropertyOp21
 70
     0
102
RTVSPropertyOp22
 70
     0
102
RTVSPropertyOp23
 70
     0
102
RTVSPropertyOp24
 70
     0
102
RTVSPropertyOp25
 70
     0
102
RTVSPropertyOp26
 70
     0
102
RTVSPropertyOp27
 70
     0
102
RTVSPropertyOp28
 70
     0
102
RTVSPropertyOp29
 70
     0
102
RTVSPropertyOp30
 70
     0
102
RTVSPropertyOp31
 70
     0
102
RTVSPropertyOp32
 70
     0
  0
XRECORD
  5
1677
102
{ACAD_REACTORS
330
1676
102
}
330
1676
100
AcDbXrecord
280
     1
102
RTVSPropertyOp0
 70
     1
102
RTVSPropertyOp1
 70
     1
102
RTVSPropertyOp2
 70
     1
102
RTVSPropertyOp3
 70
     1
102
RTVSPropertyOp4
 70
     1
102
RTVSPropertyOp5
 70
     1
102
RTVSPropertyOp6
 70
     1
102
RTVSPropertyOp7
 70
     1
102
RTVSPropertyOp8
 70
     1
102
RTVSPropertyOp9
 70
     1
102
RTVSPropertyOp10
 70
     1
102
RTVSPropertyOp11
 70
     1
102
RTVSPropertyOp12
 70
     1
102
RTVSPropertyOp13
 70
     1
102
RTVSPropertyOp14
 70
     1
102
RTVSPropertyOp15
 70
     1
102
RTVSPropertyOp16
 70
     1
102
RTVSPropertyOp17
 70
     1
102
RTVSPropertyOp18
 70
     1
102
RTVSPropertyOp19
 70
     1
102
RTVSPropertyOp20
 70
     1
102
RTVSPropertyOp21
 70
     1
102
RTVSPropertyOp22
 70
     1
102
RTVSPropertyOp23
 70
     1
102
RTVSPropertyOp24
 70
     1
102
RTVSPropertyOp25
 70
     1
102
RTVSPropertyOp26
 70
     1
102
RTVSPropertyOp27
 70
     1
102
RTVSPropertyOp28
 70
     1
102
RTVSPropertyOp29
 70
     1
102
RTVSPropertyOp30
 70
     1
102
RTVSPropertyOp31
 70
     1
102
RTVSPropertyOp32
 70
     1
  0
XRECORD
  5
168D
102
{ACAD_REACTORS
330
168C
102
}
330
168C
100
AcDbXrecord
280
     1
102
RTVSPropertyOp0
 70
     1
102
RTVSPropertyOp1
 70
     1
102
RTVSPropertyOp2
 70
     1
102
RTVSPropertyOp3
 70
     1
102
RTVSPropertyOp4
 70
     1
102
RTVSPropertyOp5
 70
     1
102
RTVSPropertyOp6
 70
     1
102
RTVSPropertyOp7
 70
     1
102
RTVSPropertyOp8
 70
     1
102
RTVSPropertyOp9
 70
     1
102
RTVSPropertyOp10
 70
     1
102
RTVSPropertyOp11
 70
     1
102
RTVSPropertyOp12
 70
     1
102
RTVSPropertyOp13
 70
     1
102
RTVSPropertyOp14
 70
     1
102
RTVSPropertyOp15
 70
     1
102
RTVSPropertyOp16
 70
     1
102
RTVSPropertyOp17
 70
     1
102
RTVSPropertyOp18
 70
     1
102
RTVSPropertyOp19
 70
     1
102
RTVSPropertyOp20
 70
     1
102
RTVSPropertyOp21
 70
     1
102
RTVSPropertyOp22
 70
     1
102
RTVSPropertyOp23
 70
     1
102
RTVSPropertyOp24
 70
     1
102
RTVSPropertyOp25
 70
     1
102
RTVSPropertyOp26
 70
     1
102
RTVSPropertyOp27
 70
     1
102
RTVSPropertyOp28
 70
     1
102
RTVSPropertyOp29
 70
     1
102
RTVSPropertyOp30
 70
     1
102
RTVSPropertyOp31
 70
     1
102
RTVSPropertyOp32
 70
     1
  0
XRECORD
  5
168B
102
{ACAD_REACTORS
330
168A
102
}
330
168A
100
AcDbXrecord
280
     1
102
RTVSPropertyOp0
 70
     1
102
RTVSPropertyOp1
 70
     1
102
RTVSPropertyOp2
 70
     1
102
RTVSPropertyOp3
 70
     1
102
RTVSPropertyOp4
 70
     1
102
RTVSPropertyOp5
 70
     1
102
RTVSPropertyOp6
 70
     1
102
RTVSPropertyOp7
 70
     1
102
RTVSPropertyOp8
 70
     1
102
RTVSPropertyOp9
 70
     1
102
RTVSPropertyOp10
 70
     1
102
RTVSPropertyOp11
 70
     1
102
RTVSPropertyOp12
 70
     1
102
RTVSPropertyOp13
 70
     1
102
RTVSPropertyOp14
 70
     1
102
RTVSPropertyOp15
 70
     1
102
RTVSPropertyOp16
 70
     1
102
RTVSPropertyOp17
 70
     1
102
RTVSPropertyOp18
 70
     1
102
RTVSPropertyOp19
 70
     1
102
RTVSPropertyOp20
 70
     1
102
RTVSPropertyOp21
 70
     1
102
RTVSPropertyOp22
 70
     1
102
RTVSPropertyOp23
 70
     1
102
RTVSPropertyOp24
 70
     1
102
RTVSPropertyOp25
 70
     1
102
RTVSPropertyOp26
 70
     1
102
RTVSPropertyOp27
 70
     1
102
RTVSPropertyOp28
 70
     1
102
RTVSPropertyOp29
 70
     1
102
RTVSPropertyOp30
 70
     1
102
RTVSPropertyOp31
 70
     1
102
RTVSPropertyOp32
 70
     1
  0
XRECORD
  5
1685
102
{ACAD_REACTORS
330
1684
102
}
330
1684
100
AcDbXrecord
280
     1
102
RTVSPropertyOp0
 70
     1
102
RTVSPropertyOp1
 70
     1
102
RTVSPropertyOp2
 70
     1
102
RTVSPropertyOp3
 70
     1
102
RTVSPropertyOp4
 70
     1
102
RTVSPropertyOp5
 70
     1
102
RTVSPropertyOp6
 70
     1
102
RTVSPropertyOp7
 70
     1
102
RTVSPropertyOp8
 70
     1
102
RTVSPropertyOp9
 70
     1
102
RTVSPropertyOp10
 70
     1
102
RTVSPropertyOp11
 70
     1
102
RTVSPropertyOp12
 70
     1
102
RTVSPropertyOp13
 70
     1
102
RTVSPropertyOp14
 70
     1
102
RTVSPropertyOp15
 70
     1
102
RTVSPropertyOp16
 70
     1
102
RTVSPropertyOp17
 70
     1
102
RTVSPropertyOp18
 70
     1
102
RTVSPropertyOp19
 70
     1
102
RTVSPropertyOp20
 70
     1
102
RTVSPropertyOp21
 70
     1
102
RTVSPropertyOp22
 70
     1
102
RTVSPropertyOp23
 70
     1
102
RTVSPropertyOp24
 70
     1
102
RTVSPropertyOp25
 70
     1
102
RTVSPropertyOp26
 70
     1
102
RTVSPropertyOp27
 70
     1
102
RTVSPropertyOp28
 70
     1
102
RTVSPropertyOp29
 70
     1
102
RTVSPropertyOp30
 70
     1
102
RTVSPropertyOp31
 70
     1
102
RTVSPropertyOp32
 70
     1
  0
XRECORD
  5
1687
102
{ACAD_REACTORS
330
1686
102
}
330
1686
100
AcDbXrecord
280
     1
102
RTVSPropertyOp0
 70
     1
102
RTVSPropertyOp1
 70
     1
102
RTVSPropertyOp2
 70
     1
102
RTVSPropertyOp3
 70
     1
102
RTVSPropertyOp4
 70
     1
102
RTVSPropertyOp5
 70
     1
102
RTVSPropertyOp6
 70
     1
102
RTVSPropertyOp7
 70
     1
102
RTVSPropertyOp8
 70
     1
102
RTVSPropertyOp9
 70
     1
102
RTVSPropertyOp10
 70
     1
102
RTVSPropertyOp11
 70
     1
102
RTVSPropertyOp12
 70
     1
102
RTVSPropertyOp13
 70
     1
102
RTVSPropertyOp14
 70
     1
102
RTVSPropertyOp15
 70
     1
102
RTVSPropertyOp16
 70
     1
102
RTVSPropertyOp17
 70
     1
102
RTVSPropertyOp18
 70
     1
102
RTVSPropertyOp19
 70
     1
102
RTVSPropertyOp20
 70
     1
102
RTVSPropertyOp21
 70
     1
102
RTVSPropertyOp22
 70
     1
102
RTVSPropertyOp23
 70
     1
102
RTVSPropertyOp24
 70
     1
102
RTVSPropertyOp25
 70
     1
102
RTVSPropertyOp26
 70
     1
102
RTVSPropertyOp27
 70
     1
102
RTVSPropertyOp28
 70
     1
102
RTVSPropertyOp29
 70
     1
102
RTVSPropertyOp30
 70
     1
102
RTVSPropertyOp31
 70
     1
102
RTVSPropertyOp32
 70
     1
  0
XRECORD
  5
167D
102
{ACAD_REACTORS
330
167C
102
}
330
167C
100
AcDbXrecord
280
     1
102
RTVSPropertyOp0
 70
     1
102
RTVSPropertyOp1
 70
     1
102
RTVSPropertyOp2
 70
     1
102
RTVSPropertyOp3
 70
     1
102
RTVSPropertyOp4
 70
     1
102
RTVSPropertyOp5
 70
     1
102
RTVSPropertyOp6
 70
     1
102
RTVSPropertyOp7
 70
     1
102
RTVSPropertyOp8
 70
     1
102
RTVSPropertyOp9
 70
     1
102
RTVSPropertyOp10
 70
     1
102
RTVSPropertyOp11
 70
     1
102
RTVSPropertyOp12
 70
     1
102
RTVSPropertyOp13
 70
     1
102
RTVSPropertyOp14
 70
     1
102
RTVSPropertyOp15
 70
     1
102
RTVSPropertyOp16
 70
     1
102
RTVSPropertyOp17
 70
     1
102
RTVSPropertyOp18
 70
     1
102
RTVSPropertyOp19
 70
     1
102
RTVSPropertyOp20
 70
     1
102
RTVSPropertyOp21
 70
     1
102
RTVSPropertyOp22
 70
     1
102
RTVSPropertyOp23
 70
     1
102
RTVSPropertyOp24
 70
     1
102
RTVSPropertyOp25
 70
     1
102
RTVSPropertyOp26
 70
     1
102
RTVSPropertyOp27
 70
     1
102
RTVSPropertyOp28
 70
     1
102
RTVSPropertyOp29
 70
     1
102
RTVSPropertyOp30
 70
     1
102
RTVSPropertyOp31
 70
     1
102
RTVSPropertyOp32
 70
     1
  0
XRECORD
  5
1671
102
{ACAD_REACTORS
330
1670
102
}
330
1670
100
AcDbXrecord
280
     1
102
RTVSPropertyOp0
 70
     1
102
RTVSPropertyOp1
 70
     1
102
RTVSPropertyOp2
 70
     1
102
RTVSPropertyOp3
 70
     1
102
RTVSPropertyOp4
 70
     1
102
RTVSPropertyOp5
 70
     1
102
RTVSPropertyOp6
 70
     1
102
RTVSPropertyOp7
 70
     1
102
RTVSPropertyOp8
 70
     1
102
RTVSPropertyOp9
 70
     1
102
RTVSPropertyOp10
 70
     1
102
RTVSPropertyOp11
 70
     1
102
RTVSPropertyOp12
 70
     1
102
RTVSPropertyOp13
 70
     1
102
RTVSPropertyOp14
 70
     1
102
RTVSPropertyOp15
 70
     1
102
RTVSPropertyOp16
 70
     1
102
RTVSPropertyOp17
 70
     1
102
RTVSPropertyOp18
 70
     1
102
RTVSPropertyOp19
 70
     1
102
RTVSPropertyOp20
 70
     1
102
RTVSPropertyOp21
 70
     1
102
RTVSPropertyOp22
 70
     1
102
RTVSPropertyOp23
 70
     1
102
RTVSPropertyOp24
 70
     1
102
RTVSPropertyOp25
 70
     1
102
RTVSPropertyOp26
 70
     1
102
RTVSPropertyOp27
 70
     1
102
RTVSPropertyOp28
 70
     1
102
RTVSPropertyOp29
 70
     1
102
RTVSPropertyOp30
 70
     1
102
RTVSPropertyOp31
 70
     1
102
RTVSPropertyOp32
 70
     1
  0
XRECORD
  5
1689
102
{ACAD_REACTORS
330
1688
102
}
330
1688
100
AcDbXrecord
280
     1
102
RTVSPropertyOp0
 70
     1
102
RTVSPropertyOp1
 70
     1
102
RTVSPropertyOp2
 70
     1
102
RTVSPropertyOp3
 70
     1
102
RTVSPropertyOp4
 70
     1
102
RTVSPropertyOp5
 70
     1
102
RTVSPropertyOp6
 70
     1
102
RTVSPropertyOp7
 70
     1
102
RTVSPropertyOp8
 70
     1
102
RTVSPropertyOp9
 70
     1
102
RTVSPropertyOp10
 70
     1
102
RTVSPropertyOp11
 70
     1
102
RTVSPropertyOp12
 70
     1
102
RTVSPropertyOp13
 70
     1
102
RTVSPropertyOp14
 70
     1
102
RTVSPropertyOp15
 70
     1
102
RTVSPropertyOp16
 70
     1
102
RTVSPropertyOp17
 70
     1
102
RTVSPropertyOp18
 70
     1
102
RTVSPropertyOp19
 70
     1
102
RTVSPropertyOp20
 70
     1
102
RTVSPropertyOp21
 70
     1
102
RTVSPropertyOp22
 70
     1
102
RTVSPropertyOp23
 70
     1
102
RTVSPropertyOp24
 70
     1
102
RTVSPropertyOp25
 70
     1
102
RTVSPropertyOp26
 70
     1
102
RTVSPropertyOp27
 70
     1
102
RTVSPropertyOp28
 70
     1
102
RTVSPropertyOp29
 70
     1
102
RTVSPropertyOp30
 70
     1
102
RTVSPropertyOp31
 70
     1
102
RTVSPropertyOp32
 70
     1
  0
ENDSEC
  0
EOF
