  0
SECTION
  2
HEADER
  9
$ACADVER
  1
AC1015
  9
$ACADMAINTVER
 70
    14
  9
$DWGCODEPAGE
  3
ANSI_932
  9
$INSBASE
 10
0.0
 20
0.0
 30
0.0
  9
$EXTMIN
 10
-315.401094144257
 20
-159.3497850905091
 30
-0.0000000000112498
  9
$EXTMAX
 10
278.0261515550846
 20
114.1326922769776
 30
0.0000000000002956
  9
$LIMMIN
 10
0.0
 20
0.0
  9
$LIMMAX
 10
12.0
 20
9.0
  9
$ORTHOMODE
 70
     0
  9
$REGENMODE
 70
     1
  9
$FILLMODE
 70
     1
  9
$QTEXTMODE
 70
     0
  9
$MIRRTEXT
 70
     1
  9
$LTSCALE
 40
1.0
  9
$ATTMODE
 70
     1
  9
$TEXTSIZE
 40
0.2
  9
$TRACEWID
 40
0.05
  9
$TEXTSTYLE
  7
CONVERTER_7
  9
$CLAYER
  8
0
  9
$CELTYPE
  6
ByLayer
  9
$CECOLOR
 62
   256
  9
$CELTSCALE
 40
1.0
  9
$DISPSILH
 70
     0
  9
$DIMSCALE
 40
1.0
  9
$DIMASZ
 40
0.18
  9
$DIMEXO
 40
0.0625
  9
$DIMDLI
 40
0.38
  9
$DIMRND
 40
0.0
  9
$DIMDLE
 40
0.0
  9
$DIMEXE
 40
0.18
  9
$DIMTP
 40
0.0
  9
$DIMTM
 40
0.0
  9
$DIMTXT
 40
0.18
  9
$DIMCEN
 40
0.09
  9
$DIMTSZ
 40
0.0
  9
$DIMTOL
 70
     0
  9
$DIMLIM
 70
     0
  9
$DIMTIH
 70
     1
  9
$DIMTOH
 70
     1
  9
$DIMSE1
 70
     0
  9
$DIMSE2
 70
     0
  9
$DIMTAD
 70
     0
  9
$DIMZIN
 70
     0
  9
$DIMBLK
  1

  9
$DIMASO
 70
     1
  9
$DIMSHO
 70
     1
  9
$DIMPOST
  1

  9
$DIMAPOST
  1

  9
$DIMALT
 70
     0
  9
$DIMALTD
 70
     2
  9
$DIMALTF
 40
25.4
  9
$DIMLFAC
 40
1.0
  9
$DIMTOFL
 70
     0
  9
$DIMTVP
 40
0.0
  9
$DIMTIX
 70
     0
  9
$DIMSOXD
 70
     0
  9
$DIMSAH
 70
     0
  9
$DIMBLK1
  1

  9
$DIMBLK2
  1

  9
$DIMSTYLE
  2
Standard
  9
$DIMCLRD
 70
     0
  9
$DIMCLRE
 70
     0
  9
$DIMCLRT
 70
     0
  9
$DIMTFAC
 40
1.0
  9
$DIMGAP
 40
0.09
  9
$DIMJUST
 70
     0
  9
$DIMSD1
 70
     0
  9
$DIMSD2
 70
     0
  9
$DIMTOLJ
 70
     1
  9
$DIMTZIN
 70
     0
  9
$DIMALTZ
 70
     0
  9
$DIMALTTZ
 70
     0
  9
$DIMUPT
 70
     0
  9
$DIMDEC
 70
     4
  9
$DIMTDEC
 70
     4
  9
$DIMALTU
 70
     2
  9
$DIMALTTD
 70
     2
  9
$DIMTXSTY
  7
Standard
  9
$DIMAUNIT
 70
     0
  9
$DIMADEC
 70
     0
  9
$DIMALTRND
 40
0.0
  9
$DIMAZIN
 70
     0
  9
$DIMDSEP
 70
    46
  9
$DIMATFIT
 70
     3
  9
$DIMFRAC
 70
     0
  9
$DIMLDRBLK
  1

  9
$DIMLUNIT
 70
     2
  9
$DIMLWD
 70
    -2
  9
$DIMLWE
 70
    -2
  9
$DIMTMOVE
 70
     0
  9
$LUNITS
 70
     2
  9
$LUPREC
 70
     4
  9
$SKETCHINC
 40
0.1
  9
$FILLETRAD
 40
0.5
  9
$AUNITS
 70
     0
  9
$AUPREC
 70
     0
  9
$MENU
  1
.
  9
$ELEVATION
 40
0.0
  9
$PELEVATION
 40
0.0
  9
$THICKNESS
 40
0.0
  9
$LIMCHECK
 70
     0
  9
$CHAMFERA
 40
0.5
  9
$CHAMFERB
 40
0.5
  9
$CHAMFERC
 40
1.0
  9
$CHAMFERD
 40
0.0
  9
$SKPOLY
 70
     0
  9
$TDCREATE
 40
2455132.441905196
  9
$TDUCREATE
 40
2455132.066905196
  9
$TDUPDATE
 40
2456035.892567454
  9
$TDUUPDATE
 40
2456035.517567453
  9
$TDINDWG
 40
0.0200528009
  9
$TDUSRTIMER
 40
0.0200511690
  9
$USRTIMER
 70
     1
  9
$ANGBASE
 50
0.0
  9
$ANGDIR
 70
     0
  9
$PDMODE
 70
     0
  9
$PDSIZE
 40
0.0
  9
$PLINEWID
 40
0.0
  9
$SPLFRAME
 70
     0
  9
$SPLINETYPE
 70
     6
  9
$SPLINESEGS
 70
     8
  9
$HANDSEED
  5
CE7
  9
$SURFTAB1
 70
     6
  9
$SURFTAB2
 70
     6
  9
$SURFTYPE
 70
     6
  9
$SURFU
 70
     6
  9
$SURFV
 70
     6
  9
$UCSBASE
  2

  9
$UCSNAME
  2

  9
$UCSORG
 10
0.0
 20
0.0
 30
0.0
  9
$UCSXDIR
 10
1.0
 20
0.0
 30
0.0
  9
$UCSYDIR
 10
0.0
 20
1.0
 30
0.0
  9
$UCSORTHOREF
  2

  9
$UCSORTHOVIEW
 70
     0
  9
$UCSORGTOP
 10
0.0
 20
0.0
 30
0.0
  9
$UCSORGBOTTOM
 10
0.0
 20
0.0
 30
0.0
  9
$UCSORGLEFT
 10
0.0
 20
0.0
 30
0.0
  9
$UCSORGRIGHT
 10
0.0
 20
0.0
 30
0.0
  9
$UCSORGFRONT
 10
0.0
 20
0.0
 30
0.0
  9
$UCSORGBACK
 10
0.0
 20
0.0
 30
0.0
  9
$PUCSBASE
  2

  9
$PUCSNAME
  2

  9
$PUCSORG
 10
0.0
 20
0.0
 30
0.0
  9
$PUCSXDIR
 10
1.0
 20
0.0
 30
0.0
  9
$PUCSYDIR
 10
0.0
 20
1.0
 30
0.0
  9
$PUCSORTHOREF
  2

  9
$PUCSORTHOVIEW
 70
     0
  9
$PUCSORGTOP
 10
0.0
 20
0.0
 30
0.0
  9
$PUCSORGBOTTOM
 10
0.0
 20
0.0
 30
0.0
  9
$PUCSORGLEFT
 10
0.0
 20
0.0
 30
0.0
  9
$PUCSORGRIGHT
 10
0.0
 20
0.0
 30
0.0
  9
$PUCSORGFRONT
 10
0.0
 20
0.0
 30
0.0
  9
$PUCSORGBACK
 10
0.0
 20
0.0
 30
0.0
  9
$USERI1
 70
     0
  9
$USERI2
 70
     0
  9
$USERI3
 70
     0
  9
$USERI4
 70
     0
  9
$USERI5
 70
     0
  9
$USERR1
 40
14.0
  9
$USERR2
 40
0.0
  9
$USERR3
 40
0.0
  9
$USERR4
 40
0.0
  9
$USERR5
 40
0.0
  9
$WORLDVIEW
 70
     1
  9
$SHADEDGE
 70
     3
  9
$SHADEDIF
 70
    70
  9
$TILEMODE
 70
     1
  9
$MAXACTVP
 70
    64
  9
$PINSBASE
 10
0.0
 20
0.0
 30
0.0
  9
$PLIMCHECK
 70
     0
  9
$PEXTMIN
 10
1.000000000000000E+20
 20
1.000000000000000E+20
 30
1.000000000000000E+20
  9
$PEXTMAX
 10
-1.000000000000000E+20
 20
-1.000000000000000E+20
 30
-1.000000000000000E+20
  9
$PLIMMIN
 10
0.0
 20
0.0
  9
$PLIMMAX
 10
12.0
 20
9.0
  9
$UNITMODE
 70
     0
  9
$VISRETAIN
 70
     1
  9
$PLINEGEN
 70
     0
  9
$PSLTSCALE
 70
     1
  9
$TREEDEPTH
 70
  3020
  9
$CMLSTYLE
  2
Standard
  9
$CMLJUST
 70
     0
  9
$CMLSCALE
 40
1.0
  9
$PROXYGRAPHICS
 70
     1
  9
$MEASUREMENT
 70
     1
  9
$CELWEIGHT
370
    -1
  9
$ENDCAPS
280
     0
  9
$JOINSTYLE
280
     0
  9
$LWDISPLAY
290
     0
  9
$INSUNITS
 70
     1
  9
$HYPERLINKBASE
  1

  9
$STYLESHEET
  1
P社図面.CTB
  9
$XEDIT
290
     1
  9
$CEPSNTYPE
380
     0
  9
$PSTYLEMODE
290
     1
  9
$FINGERPRINTGUID
  2
{A617FFFB-66D6-48D7-902E-1DF41E31CD2F}
  9
$VERSIONGUID
  2
{E681490F-03AE-4419-9275-F670A3D2EB29}
  9
$EXTNAMES
290
     1
  9
$PSVPSCALE
 40
0.0
  9
$OLESTARTUP
290
     0
  0
ENDSEC
  0
SECTION
  2
CLASSES
  0
CLASS
  1
ACDBDICTIONARYWDFLT
  2
AcDbDictionaryWithDefault
  3
AutoCAD 2000
 90
        0
280
     0
281
     0
  0
CLASS
  1

  2
exOdDbSpline
  3

 90
    32768
280
     0
281
     1
  0
CLASS
  1

  2
exOdDbPolyline
  3

 90
    32768
280
     0
281
     1
  0
CLASS
  1

  2
exOdDbCircle
  3

 90
    32768
280
     0
281
     1
  0
CLASS
  1
ACDBPLACEHOLDER
  2
AcDbPlaceHolder
  3
AutoCAD 2000
 90
        0
280
     0
281
     0
  0
CLASS
  1
LAYOUT
  2
AcDbLayout
  3
AutoCAD 2000
 90
        0
280
     0
281
     0
  0
CLASS
  1
MATERIAL
  2
AcDbMaterial
  3
ObjectDBX Classes
 90
     1153
280
     0
281
     0
  0
CLASS
  1
VISUALSTYLE
  2
AcDbVisualStyle
  3
ObjectDBX Classes
 90
     4095
280
     0
281
     0
  0
CLASS
  1
TABLESTYLE
  2
AcDbTableStyle
  3
ObjectDBX Classes
 90
     4095
280
     0
281
     0
  0
CLASS
  1
SCALE
  2
AcDbScale
  3
ObjectDBX Classes
 90
     1153
280
     0
281
     0
  0
CLASS
  1
MLEADERSTYLE
  2
AcDbMLeaderStyle
  3
ACDB_MLEADERSTYLE_CLASS
 90
     4095
280
     0
281
     0
  0
CLASS
  1
DICTIONARYVAR
  2
AcDbDictionaryVar
  3
AutoCAD 2000
 90
        0
280
     0
281
     0
  0
CLASS
  1
CELLSTYLEMAP
  2
AcDbCellStyleMap
  3
ObjectDBX Classes
 90
     1152
280
     0
281
     0
  0
ENDSEC
  0
SECTION
  2
TABLES
  0
TABLE
  2
VPORT
  5
8
330
0
100
AcDbSymbolTable
 70
     3
  0
VPORT
  5
CE6
330
8
100
AcDbSymbolTableRecord
100
AcDbViewportTableRecord
  2
*Active
 70
     0
 10
0.0
 20
0.0
 11
1.0
 21
1.0
 12
-18.6874712945862
 22
-22.60854640676575
 13
0.0
 23
0.0
 14
0.5
 24
0.5
 15
0.5
 25
0.5
 16
0.0
 26
0.0
 36
1.0
 17
0.0
 27
0.0
 37
0.0
 40
302.2783542951111
 41
1.97051597051597
 42
50.0
 43
0.0
 44
0.0
 50
0.0
 51
0.0
 71
     0
 72
   100
 73
     1
 74
     3
 75
     0
 76
     0
 77
     0
 78
     0
281
     0
 65
     1
110
0.0
120
0.0
130
0.0
111
1.0
121
0.0
131
0.0
112
0.0
122
1.0
132
0.0
 79
     0
146
0.0
  0
ENDTAB
  0
TABLE
  2
LTYPE
  5
5
330
0
100
AcDbSymbolTable
 70
     4
  0
LTYPE
  5
14
330
5
100
AcDbSymbolTableRecord
100
AcDbLinetypeTableRecord
  2
ByBlock
 70
     0
  3

 72
    65
 73
     0
 40
0.0
  0
LTYPE
  5
15
330
5
100
AcDbSymbolTableRecord
100
AcDbLinetypeTableRecord
  2
ByLayer
 70
     0
  3

 72
    65
 73
     0
 40
0.0
  0
LTYPE
  5
16
330
5
100
AcDbSymbolTableRecord
100
AcDbLinetypeTableRecord
  2
Continuous
 70
     0
  3
Solid line
 72
    65
 73
     0
 40
0.0
  0
LTYPE
  5
2A
330
5
100
AcDbSymbolTableRecord
100
AcDbLinetypeTableRecord
  2
DASHED
 70
     0
  3
Dashed
 72
    65
 73
     2
 40
15.0
 49
7.0
 74
     0
 49
-8.0
 74
     0
  0
LTYPE
  5
2E
330
5
100
AcDbSymbolTableRecord
100
AcDbLinetypeTableRecord
  2
DASH_CENTER
 70
     0
  3
Dash_Center
 72
    65
 73
     4
 40
14.0
 49
11.0
 74
     0
 49
-1.0
 74
     0
 49
1.0
 74
     0
 49
-1.0
 74
     0
  0
LTYPE
  5
2F
330
5
100
AcDbSymbolTableRecord
100
AcDbLinetypeTableRecord
  2
PHANTOM
 70
     0
  3
Phantom
 72
    65
 73
     6
 40
13.0
 49
10.0
 74
     0
 49
-1.0
 74
     0
 49
0.0
 74
     0
 49
-1.0
 74
     0
 49
0.0
 74
     0
 49
-1.0
 74
     0
  0
ENDTAB
  0
TABLE
  2
LAYER
  5
2
330
0
100
AcDbSymbolTable
 70
    13
  0
LAYER
  5
10
330
2
100
AcDbSymbolTableRecord
100
AcDbLayerTableRecord
  2
0
 70
     0
 62
     7
  6
Continuous
370
    -3
390
F
  0
LAYER
  5
556
330
2
100
AcDbSymbolTableRecord
100
AcDbLayerTableRecord
  2
Defpoints
 70
     0
 62
     7
  6
Continuous
290
     0
370
    -3
390
F
  0
ENDTAB
  0
TABLE
  2
STYLE
  5
3
330
0
100
AcDbSymbolTable
 70
    22
  0
STYLE
  5
11
330
3
100
AcDbSymbolTableRecord
100
AcDbTextStyleTableRecord
  2
Standard
 70
     0
 40
0.0
 41
1.0
 50
0.0
 71
     0
 42
0.2
  3
txt
  4

  0
STYLE
  5
11E
330
3
100
AcDbSymbolTableRecord
100
AcDbTextStyleTableRecord
  2
CONVERTER_1
 70
     0
 40
0.0
 41
0.7565
 50
0.0
 71
     0
 42
0.2
  3
simplex.shx
  4

  0
STYLE
  5
1C5
330
3
100
AcDbSymbolTableRecord
100
AcDbTextStyleTableRecord
  2
CONVERTER_2
 70
     0
 40
0.0
 41
0.7120000000000001
 50
0.0
 71
     0
 42
0.2
  3
simplex.shx
  4

  0
STYLE
  5
1F1
330
3
100
AcDbSymbolTableRecord
100
AcDbTextStyleTableRecord
  2
CONVERTER_3
 70
     0
 40
0.0
 41
0.7565
 50
0.0
 71
     0
 42
0.2
  3
simplex.shx
  4
bigfont.shx
  0
STYLE
  5
1F4
330
3
100
AcDbSymbolTableRecord
100
AcDbTextStyleTableRecord
  2
CONVERTER_4
 70
     0
 40
0.0
 41
0.89
 50
0.0
 71
     0
 42
0.2
  3
simplex.shx
  4
bigfont.shx
  0
STYLE
  5
1F8
330
3
100
AcDbSymbolTableRecord
100
AcDbTextStyleTableRecord
  2
CONVERTER_5
 70
     0
 40
0.0
 41
0.73425
 50
0.0
 71
     0
 42
0.2
  3
simplex.shx
  4

  0
STYLE
  5
3D8
330
3
100
AcDbSymbolTableRecord
100
AcDbTextStyleTableRecord
  2
CONVERTER_7
 70
     0
 40
0.0
 41
0.84605009384506
 50
0.0
 71
     0
 42
0.2
  3
simplex.shx
  4
bigfont.shx
  0
STYLE
  5
43D
330
3
100
AcDbSymbolTableRecord
100
AcDbTextStyleTableRecord
  2
CONVERTER_8
 70
     0
 40
0.0
 41
1.008666666666669
 50
0.0
 71
     0
 42
0.2
  3
txt.shx
  4
bigfont.shx
  0
STYLE
  5
43F
330
3
100
AcDbSymbolTableRecord
100
AcDbTextStyleTableRecord
  2
CONVERTER_9
 70
     0
 40
0.0
 41
0.9761290322580599
 50
0.0
 71
     0
 42
0.2
  3
txt.shx
  4
bigfont.shx
  0
STYLE
  5
443
330
3
100
AcDbSymbolTableRecord
100
AcDbTextStyleTableRecord
  2
CONVERTER_11
 70
     0
 40
0.0
 41
1.0235
 50
0.0
 71
     0
 42
0.2
  3
simplex.shx
  4

  0
STYLE
  5
445
330
3
100
AcDbSymbolTableRecord
100
AcDbTextStyleTableRecord
  2
CONVERTER_12
 70
     0
 40
0.0
 41
0.8009999999999999
 50
0.0
 71
     0
 42
0.2
  3
simplex.shx
  4

  0
STYLE
  5
447
330
3
100
AcDbSymbolTableRecord
100
AcDbTextStyleTableRecord
  2
CONVERTER_13
 70
     0
 40
0.0
 41
0.8009999999999999
 50
0.0
 71
     0
 42
0.2
  3
txt.shx
  4
bigfont.shx
  0
STYLE
  5
44A
330
3
100
AcDbSymbolTableRecord
100
AcDbTextStyleTableRecord
  2
CONVERTER_14
 70
     0
 40
0.0
 41
0.7758974358974399
 50
0.0
 71
     0
 42
0.2
  3
txt.shx
  4
bigfont.shx
  0
STYLE
  5
457
330
3
100
AcDbSymbolTableRecord
100
AcDbTextStyleTableRecord
  2
CONVERTER_17
 70
     0
 40
0.0
 41
1.87368421052632
 50
0.0
 71
     0
 42
0.2
  3
txt.shx
  4

  0
STYLE
  5
459
330
3
100
AcDbSymbolTableRecord
100
AcDbTextStyleTableRecord
  2
CONVERTER_18
 70
     0
 40
0.0
 41
0.7120000000000001
 50
0.0
 71
     0
 42
0.2
  3
simplex.shx
  4
bigfont.shx
  0
STYLE
  5
45C
330
3
100
AcDbSymbolTableRecord
100
AcDbTextStyleTableRecord
  2
CONVERTER_19
 70
     0
 40
0.0
 41
1.080714285714289
 50
0.0
 71
     0
 42
0.2
  3
txt.shx
  4
bigfont.shx
  0
STYLE
  5
462
330
3
100
AcDbSymbolTableRecord
100
AcDbTextStyleTableRecord
  2
CONVERTER_20
 70
     0
 40
0.0
 41
0.945625
 50
0.0
 71
     0
 42
0.2
  3
txt.shx
  4
bigfont.shx
  0
STYLE
  5
467
330
3
100
AcDbSymbolTableRecord
100
AcDbTextStyleTableRecord
  2
CONVERTER_21
 70
     0
 40
0.0
 41
0.73514
 50
0.0
 71
     0
 42
0.2
  3
simplex.shx
  4

  0
STYLE
  5
46A
330
3
100
AcDbSymbolTableRecord
100
AcDbTextStyleTableRecord
  2
CONVERTER_22
 70
     0
 40
0.0
 41
0.6230000000000002
 50
0.0
 71
     0
 42
0.2
  3
simplex.shx
  4

  0
STYLE
  5
470
330
3
100
AcDbSymbolTableRecord
100
AcDbTextStyleTableRecord
  2
CONVERTER_23
 70
     0
 40
0.0
 41
1.62688172043011
 50
0.0
 71
     0
 42
0.2
  3
txt.shx
  4
bigfont.shx
  0
STYLE
  5
473
330
3
100
AcDbSymbolTableRecord
100
AcDbTextStyleTableRecord
  2
CONVERTER_24
 70
     0
 40
0.0
 41
1.68111111111111
 50
0.0
 71
     0
 42
0.2
  3
txt.shx
  4
bigfont.shx
  0
STYLE
  5
593
330
3
100
AcDbSymbolTableRecord
100
AcDbTextStyleTableRecord
  2
社名
 70
     0
 40
2.5
 41
0.8
 50
0.0
 71
     0
 42
2.5
  3
swissk.ttf
  4

1001
ACAD
1000
Swis721 Blk BT
1071
       34
  0
ENDTAB
  0
TABLE
  2
VIEW
  5
6
330
0
100
AcDbSymbolTable
 70
     0
  0
ENDTAB
  0
TABLE
  2
UCS
  5
7
330
0
100
AcDbSymbolTable
 70
     0
  0
ENDTAB
  0
TABLE
  2
APPID
  5
9
330
0
100
AcDbSymbolTable
 70
     3
  0
APPID
  5
12
330
9
100
AcDbSymbolTableRecord
100
AcDbRegAppTableRecord
  2
ACAD
 70
     0
  0
APPID
  5
BB4
330
9
100
AcDbSymbolTableRecord
100
AcDbRegAppTableRecord
  2
ACAD_NAV_VCDISPLAY
 70
     0
  0
APPID
  5
BF5
330
9
100
AcDbSymbolTableRecord
100
AcDbRegAppTableRecord
  2
ACAD_MLEADERVER
 70
     0
  0
ENDTAB
  0
TABLE
  2
DIMSTYLE
  5
A
330
0
100
AcDbSymbolTable
 70
    22
100
AcDbDimStyleTable
 71
     3
340
384
340
3BA
340
27
  0
DIMSTYLE
105
27
330
A
100
AcDbSymbolTableRecord
100
AcDbDimStyleTableRecord
  2
Standard
 70
     0
340
11
  0
DIMSTYLE
105
128
330
A
100
AcDbSymbolTableRecord
100
AcDbDimStyleTableRecord
  2
ME10_DIM_0
 70
     0
 41
4.0
 42
2.35
 44
4.0
 73
     0
 74
     0
 77
     1
 78
     8
140
5.0
147
1.6
172
     1
173
     1
176
     2
177
     2
178
     2
271
     0
340
11E
341
122
343
122
344
122
  0
DIMSTYLE
105
135
330
A
100
AcDbSymbolTableRecord
100
AcDbDimStyleTableRecord
  2
ME10_DIM_1
 70
     0
 41
4.0
 42
2.35
 44
4.0
 73
     0
 74
     0
 77
     1
 78
     8
140
5.0
147
1.6
172
     1
173
     1
176
     2
177
     2
178
     2
271
     0
340
11E
341
122
343
122
344
122
  0
DIMSTYLE
105
142
330
A
100
AcDbSymbolTableRecord
100
AcDbDimStyleTableRecord
  2
ME10_DIM_2
 70
     0
 41
4.0
 42
2.35
 44
4.0
 73
     0
 74
     0
 77
     1
 78
     8
140
5.0
147
1.6
172
     1
173
     1
176
     2
177
     2
178
     2
271
     0
340
11E
341
122
343
122
344
122
  0
DIMSTYLE
105
14F
330
A
100
AcDbSymbolTableRecord
100
AcDbDimStyleTableRecord
  2
ME10_DIM_3
 70
     0
 41
4.0
 42
2.35
 44
4.0
 73
     0
 74
     0
 77
     1
 78
     8
140
5.0
147
1.6
172
     1
173
     1
176
     2
177
     2
178
     2
271
     0
340
11E
341
122
343
122
344
122
  0
DIMSTYLE
105
15C
330
A
100
AcDbSymbolTableRecord
100
AcDbDimStyleTableRecord
  2
ME10_DIM_4
 70
     0
 41
4.0
 42
2.35
 44
4.0
 73
     0
 74
     0
 77
     1
 78
     8
140
5.0
147
1.6
172
     1
173
     1
176
     2
177
     2
178
     2
271
     0
340
11E
341
122
343
122
344
122
  0
DIMSTYLE
105
169
330
A
100
AcDbSymbolTableRecord
100
AcDbDimStyleTableRecord
  2
ME10_DIM_5
 70
     0
 41
4.0
 42
2.35
 44
4.0
 73
     0
 74
     0
 77
     1
 78
     8
140
5.0
147
1.6
172
     1
173
     1
176
     2
177
     2
178
     2
271
     0
340
11E
341
122
343
122
344
122
  0
DIMSTYLE
105
176
330
A
100
AcDbSymbolTableRecord
100
AcDbDimStyleTableRecord
  2
ME10_DIM_6
 70
     0
 41
4.0
 42
2.35
 44
4.0
 73
     0
 74
     0
 77
     1
 78
     8
140
5.0
147
1.6
172
     1
173
     1
176
     2
177
     2
178
     2
271
     0
340
11E
341
122
343
122
344
122
  0
DIMSTYLE
105
183
330
A
100
AcDbSymbolTableRecord
100
AcDbDimStyleTableRecord
  2
ME10_DIM_7
 70
     0
 41
4.0
 42
2.35
 44
4.0
 73
     0
 74
     0
 77
     1
 78
     8
140
5.0
147
1.6
172
     1
173
     1
176
     2
177
     2
178
     2
271
     0
340
11E
341
122
343
122
344
122
  0
DIMSTYLE
105
190
330
A
100
AcDbSymbolTableRecord
100
AcDbDimStyleTableRecord
  2
ME10_DIM_8
 70
     0
 41
4.0
 42
2.35
 44
4.0
 73
     0
 74
     0
 77
     1
 78
     8
140
5.0
147
1.6
172
     1
173
     1
176
     2
177
     2
178
     2
271
     0
340
11E
341
122
343
122
344
122
  0
DIMSTYLE
105
19D
330
A
100
AcDbSymbolTableRecord
100
AcDbDimStyleTableRecord
  2
ME10_DIM_9
 70
     0
 41
4.0
 42
2.35
 44
4.0
 73
     0
 74
     0
 77
     1
 78
     8
140
5.0
147
1.6
172
     1
173
     1
176
     2
177
     2
178
     2
271
     0
340
11E
341
122
343
122
344
122
  0
DIMSTYLE
105
1AA
330
A
100
AcDbSymbolTableRecord
100
AcDbDimStyleTableRecord
  2
ME10_DIM_10
 70
     0
 41
4.0
 42
2.35
 44
4.0
 73
     0
 74
     0
 77
     1
 78
     8
140
5.0
147
1.6
172
     1
173
     1
176
     2
177
     2
178
     2
271
     0
340
11E
341
122
343
122
344
122
  0
DIMSTYLE
105
1B7
330
A
100
AcDbSymbolTableRecord
100
AcDbDimStyleTableRecord
  2
ME10_DIM_11
 70
     0
 41
4.0
 42
2.35
 44
4.0
 73
     0
 74
     0
 77
     1
 78
     8
140
5.0
147
1.6
172
     1
173
     1
176
     2
177
     2
178
     2
271
     0
340
11E
341
122
343
122
344
122
  0
DIMSTYLE
105
350
330
A
100
AcDbSymbolTableRecord
100
AcDbDimStyleTableRecord
  2
ME10_DIM_14
 70
     0
 41
4.0
 42
2.35
 44
4.0
 73
     0
 74
     0
 77
     1
 78
     8
140
5.0
147
1.6
172
     1
173
     1
176
     2
177
     2
178
     2
271
     0
340
11E
341
122
343
122
344
122
  0
DIMSTYLE
105
35D
330
A
100
AcDbSymbolTableRecord
100
AcDbDimStyleTableRecord
  2
ME10_DIM_15
 70
     0
 41
4.0
 42
2.35
 44
4.0
 73
     0
 74
     0
 77
     1
 78
     8
140
5.0
147
1.6
172
     1
173
     1
176
     2
177
     2
178
     2
271
     0
340
11E
341
122
343
122
344
122
  0
DIMSTYLE
105
36A
330
A
100
AcDbSymbolTableRecord
100
AcDbDimStyleTableRecord
  2
ME10_DIM_16
 70
     0
 41
4.0
 42
2.35
 44
4.0
 73
     0
 74
     0
 77
     1
 78
     8
140
5.0
147
1.6
172
     1
173
     1
176
     2
177
     2
178
     2
271
     0
340
11E
341
122
343
122
344
122
  0
DIMSTYLE
105
377
330
A
100
AcDbSymbolTableRecord
100
AcDbDimStyleTableRecord
  2
ME10_DIM_17
 70
     0
 41
4.0
 42
2.35
 44
4.0
 73
     0
 74
     0
 77
     1
 78
     8
140
5.0
147
1.6
172
     1
173
     1
176
     2
177
     2
178
     2
271
     0
340
11E
341
122
343
122
344
122
  0
DIMSTYLE
105
384
330
A
100
AcDbSymbolTableRecord
100
AcDbDimStyleTableRecord
  2
ME10_DIM_18
 70
     0
 41
4.0
 42
2.35
 44
4.0
 73
     0
 74
     0
 77
     1
 78
     8
140
5.0
147
1.6
172
     1
173
     1
176
     2
177
     2
178
     2
271
     0
340
11E
341
122
343
122
344
122
  0
DIMSTYLE
105
393
330
A
100
AcDbSymbolTableRecord
100
AcDbDimStyleTableRecord
  2
ME10_DIM_19
 70
     0
 41
4.0
 42
2.35
 44
4.0
 73
     0
 74
     0
 77
     1
 78
     1
140
5.0
147
1.6
172
     1
173
     1
176
     2
177
     2
178
     2
271
     1
340
11E
341
122
343
122
344
122
  0
DIMSTYLE
105
3A0
330
A
100
AcDbSymbolTableRecord
100
AcDbDimStyleTableRecord
  2
ME10_DIM_20
 70
     0
 41
4.0
 42
2.35
 44
4.0
 48
0.5
 71
     1
 73
     0
 74
     0
 77
     1
 78
     8
140
5.0
146
0.6
147
1.6
172
     1
173
     1
176
     2
177
     2
178
     2
271
     0
272
     0
340
11E
341
122
343
122
344
122
  0
DIMSTYLE
105
3AD
330
A
100
AcDbSymbolTableRecord
100
AcDbDimStyleTableRecord
  2
ME10_DIM_21
 70
     0
 41
4.0
 42
2.35
 44
4.0
 73
     0
 74
     0
 77
     1
 78
     8
140
5.0
147
1.6
172
     1
173
     1
176
     2
177
     2
178
     2
271
     0
340
11E
341
122
343
122
344
122
  0
DIMSTYLE
105
3BA
330
A
100
AcDbSymbolTableRecord
100
AcDbDimStyleTableRecord
  2
ME10_DIM_22
 70
     0
  3
{\Fgdt;%%c}<>
 41
4.0
 42
2.35
 44
4.0
 73
     0
 74
     0
 77
     1
 78
     8
140
5.0
147
1.6
172
     1
173
     1
176
     2
177
     2
178
     2
271
     0
272
     0
340
11E
341
122
343
122
344
122
  0
ENDTAB
  0
TABLE
  2
BLOCK_RECORD
  5
1
330
0
100
AcDbSymbolTable
 70
    28
  0
BLOCK_RECORD
  5
1F
330
1
100
AcDbSymbolTableRecord
100
AcDbBlockTableRecord
  2
*Model_Space
340
22
  0
BLOCK_RECORD
  5
1B
330
1
100
AcDbSymbolTableRecord
100
AcDbBlockTableRecord
  2
*Paper_Space
340
1E
  0
BLOCK_RECORD
  5
23
330
1
100
AcDbSymbolTableRecord
100
AcDbBlockTableRecord
  2
*Paper_Space0
340
26
  0
BLOCK_RECORD
  5
122
330
1
100
AcDbSymbolTableRecord
100
AcDbBlockTableRecord
  2
_Open30
340
0
102
{BLKREFS
331
7F6
331
7F7
331
811
331
812
331
81A
331
81B
331
823
331
824
331
85D
331
85E
331
868
331
869
331
873
331
874
331
87C
331
87D
331
885
331
886
331
897
331
898
331
8A9
331
8AA
331
8E8
331
8E9
331
8FB
331
8FC
331
AE7
331
AE8
331
AF0
331
AF1
331
AF9
331
AFA
331
B02
331
B03
331
B0B
331
B0C
331
B14
331
B15
331
B1D
331
B1E
331
B26
331
B27
331
B2F
331
B30
331
B38
331
B39
331
B41
331
B42
331
B4A
331
B4B
331
BFF
331
C00
331
C08
331
C09
331
C11
331
C12
331
C1A
331
C1B
331
C23
331
C24
331
C2C
331
C2D
331
C35
331
C36
331
C3E
331
C3F
331
C47
331
C48
331
C50
331
C51
331
C59
331
C5A
331
C62
331
C63
331
C6D
331
C6E
331
C76
331
C77
331
C7F
331
C80
331
C88
331
C89
331
C91
331
C92
331
C9C
331
C9D
331
CA5
331
CA6
331
CAE
331
CAF
331
CB7
331
CB8
331
CC0
331
CC1
331
CC9
331
CCA
331
CD3
331
CD4
331
CDE
331
CDF
102
}
  0
BLOCK_RECORD
  5
1B9
330
1
100
AcDbSymbolTableRecord
100
AcDbBlockTableRecord
  2
*D2
340
0
102
{BLKREFS
331
9CE
102
}
  0
BLOCK_RECORD
  5
557
330
1
100
AcDbSymbolTableRecord
100
AcDbBlockTableRecord
  2
*D3
340
0
  0
BLOCK_RECORD
  5
565
330
1
100
AcDbSymbolTableRecord
100
AcDbBlockTableRecord
  2
*D4
340
0
  0
BLOCK_RECORD
  5
6DC
330
1
100
AcDbSymbolTableRecord
100
AcDbBlockTableRecord
  2
*D5
340
0
  0
BLOCK_RECORD
  5
6E9
330
1
100
AcDbSymbolTableRecord
100
AcDbBlockTableRecord
  2
*D6
340
0
  0
BLOCK_RECORD
  5
6F6
330
1
100
AcDbSymbolTableRecord
100
AcDbBlockTableRecord
  2
*D7
340
0
  0
BLOCK_RECORD
  5
703
330
1
100
AcDbSymbolTableRecord
100
AcDbBlockTableRecord
  2
*D8
340
0
  0
BLOCK_RECORD
  5
710
330
1
100
AcDbSymbolTableRecord
100
AcDbBlockTableRecord
  2
*D9
340
0
  0
BLOCK_RECORD
  5
71D
330
1
100
AcDbSymbolTableRecord
100
AcDbBlockTableRecord
  2
*D10
340
0
  0
BLOCK_RECORD
  5
72B
330
1
100
AcDbSymbolTableRecord
100
AcDbBlockTableRecord
  2
*D11
340
0
  0
BLOCK_RECORD
  5
738
330
1
100
AcDbSymbolTableRecord
100
AcDbBlockTableRecord
  2
*D12
340
0
  0
BLOCK_RECORD
  5
745
330
1
100
AcDbSymbolTableRecord
100
AcDbBlockTableRecord
  2
*D13
340
0
  0
BLOCK_RECORD
  5
752
330
1
100
AcDbSymbolTableRecord
100
AcDbBlockTableRecord
  2
*D14
340
0
  0
BLOCK_RECORD
  5
75F
330
1
100
AcDbSymbolTableRecord
100
AcDbBlockTableRecord
  2
*D15
340
0
  0
BLOCK_RECORD
  5
9D0
330
1
100
AcDbSymbolTableRecord
100
AcDbBlockTableRecord
  2
*D16
340
0
  0
BLOCK_RECORD
  5
9DD
330
1
100
AcDbSymbolTableRecord
100
AcDbBlockTableRecord
  2
*D17
340
0
  0
BLOCK_RECORD
  5
9EA
330
1
100
AcDbSymbolTableRecord
100
AcDbBlockTableRecord
  2
*D18
340
0
  0
BLOCK_RECORD
  5
9F7
330
1
100
AcDbSymbolTableRecord
100
AcDbBlockTableRecord
  2
*D19
340
0
  0
BLOCK_RECORD
  5
A04
330
1
100
AcDbSymbolTableRecord
100
AcDbBlockTableRecord
  2
*D20
340
0
  0
BLOCK_RECORD
  5
A11
330
1
100
AcDbSymbolTableRecord
100
AcDbBlockTableRecord
  2
*D21
340
0
  0
BLOCK_RECORD
  5
A1E
330
1
100
AcDbSymbolTableRecord
100
AcDbBlockTableRecord
  2
*D22
340
0
  0
BLOCK_RECORD
  5
A2B
330
1
100
AcDbSymbolTableRecord
100
AcDbBlockTableRecord
  2
*D23
340
0
  0
BLOCK_RECORD
  5
A38
330
1
100
AcDbSymbolTableRecord
100
AcDbBlockTableRecord
  2
*D24
340
0
  0
BLOCK_RECORD
  5
A45
330
1
100
AcDbSymbolTableRecord
100
AcDbBlockTableRecord
  2
*D25
340
0
  0
BLOCK_RECORD
  5
A52
330
1
100
AcDbSymbolTableRecord
100
AcDbBlockTableRecord
  2
*D26
340
0
  0
BLOCK_RECORD
  5
A5F
330
1
100
AcDbSymbolTableRecord
100
AcDbBlockTableRecord
  2
*D27
340
0
  0
ENDTAB
  0
ENDSEC
  0
SECTION
  2
BLOCKS
  0
BLOCK
  5
20
330
1F
100
AcDbEntity
  8
0
100
AcDbBlockBegin
  2
*Model_Space
 70
     0
 10
0.0
 20
0.0
 30
0.0
  3
*Model_Space
  1

  0
ENDBLK
  5
21
330
1F
100
AcDbEntity
  8
0
100
AcDbBlockEnd
  0
BLOCK
  5
1C
330
1B
100
AcDbEntity
 67
     1
  8
0
100
AcDbBlockBegin
  2
*Paper_Space
 70
     0
 10
0.0
 20
0.0
 30
0.0
  3
*Paper_Space
  1

  0
ENDBLK
  5
1D
330
1B
100
AcDbEntity
 67
     1
  8
0
100
AcDbBlockEnd
  0
BLOCK
  5
24
330
23
100
AcDbEntity
  8
0
100
AcDbBlockBegin
  2
*Paper_Space0
 70
     0
 10
0.0
 20
0.0
 30
0.0
  3
*Paper_Space0
  1

  0
ENDBLK
  5
25
330
23
100
AcDbEntity
  8
0
100
AcDbBlockEnd
  0
BLOCK
  5
123
330
122
100
AcDbEntity
  8
0
100
AcDbBlockBegin
  2
_Open30
 70
     0
 10
0.0
 20
0.0
 30
0.0
  3
_Open30
  1

  0
LINE
  5
125
330
122
100
AcDbEntity
  8
0
  6
ByBlock
 62
     0
370
    -2
100
AcDbLine
 10
-1.0
 20
0.267949
 30
0.0
 11
0.0
 21
0.0
 31
0.0
  0
LINE
  5
126
330
122
100
AcDbEntity
  8
0
  6
ByBlock
 62
     0
370
    -2
100
AcDbLine
 10
0.0
 20
0.0
 30
0.0
 11
-1.0
 21
-0.267949
 31
0.0
  0
LINE
  5
127
330
122
100
AcDbEntity
  8
0
  6
ByBlock
 62
     0
370
    -2
100
AcDbLine
 10
0.0
 20
0.0
 30
0.0
 11
-1.0
 21
0.0
 31
0.0
  0
ENDBLK
  5
124
330
122
100
AcDbEntity
  8
0
100
AcDbBlockEnd
  0
BLOCK
  5
1BE
330
1B9
100
AcDbEntity
  8
0
100
AcDbBlockBegin
  2
*D2
 70
     1
 10
0.0
 20
0.0
 30
0.0
  3
*D2
  1

  0
LINE
  5
1BA
330
1B9
100
AcDbEntity
  8
0
  6
Continuous
 62
     2
100
AcDbLine
 10
-96.79269711591201
 20
-3.06412599644158
 30
0.0
 11
-116.6740322334037
 21
24.434342036091
 31
0.0
  0
LINE
  5
1BB
330
1B9
100
AcDbEntity
  8
0
 62
     2
100
AcDbLine
 10
-116.6740322334037
 20
24.434342036091
 30
0.0
 11
-113.4618543564263
 21
21.82078859254932
 31
0.0
  0
LINE
  5
1BC
330
1B9
100
AcDbEntity
  8
0
 62
     2
100
AcDbLine
 10
-116.6740322334037
 20
24.434342036091
 30
0.0
 11
-115.1989813122377
 21
20.56484942134689
 31
0.0
  0
MTEXT
  5
1BD
330
1B9
100
AcDbEntity
  8
0
 62
     2
100
AcDbMText
 10
-104.8843793355362
 20
10.85854586986126
 30
0.0
 40
5.0
 41
0.0
 71
     7
 72
     1
  1
\C2;R\C2;0.6
  7
CONVERTER_1
 11
0.5859035997679296
 21
-0.8103807572857228
 31
0.0
 73
     1
 44
0.6002400960384203
1001
ACAD
1000
MTEXTBEGIN
1070
    73
1070
     1
1070
    44
1040
0.6002400960384203
1070
    74
1070
     0
1000
MTEXTEND
  0
ENDBLK
  5
1BF
330
1B9
100
AcDbEntity
  8
0
100
AcDbBlockEnd
  0
BLOCK
  5
563
330
557
100
AcDbEntity
  8
0
100
AcDbBlockBegin
  2
*D3
 70
     1
 10
0.0
 20
0.0
 30
0.0
  3
*D3
  1

  0
LINE
  5
CD9
330
557
100
AcDbEntity
  8
0
 62
     2
370
    -2
100
AcDbLine
 10
-16.25869056738517
 20
38.49082780890518
 30
0.0
 11
12.22691807611108
 21
38.49082780890517
 31
0.0
  0
LINE
  5
CDA
330
557
100
AcDbEntity
  8
0
 62
     2
370
    -2
100
AcDbLine
 10
-12.65309056738531
 20
37.49082780890518
 30
0.0
 11
12.22691807611108
 21
37.49082780890518
 31
0.0
  0
LINE
  5
CDB
330
557
100
AcDbEntity
  8
0
 62
     2
370
    -2
100
AcDbLine
 10
8.226918076111084
 20
33.49082780890518
 30
0.0
 11
8.226918076111084
 21
29.49082780890517
 31
0.0
  0
LINE
  5
CDC
330
557
100
AcDbEntity
  8
0
 62
     2
370
    -2
100
AcDbLine
 10
8.226918076111086
 20
42.49082780890517
 30
0.0
 11
8.226918076111088
 21
50.59142304700041
 31
0.0
  0
LINE
  5
CDD
330
557
100
AcDbEntity
  8
0
 62
     2
370
    -2
100
AcDbLine
 10
8.226918076111086
 20
37.49082780890518
 30
0.0
 11
8.226918076111086
 21
38.49082780890517
 31
0.0
  0
INSERT
  5
CDE
330
557
100
AcDbEntity
  8
0
 62
     2
370
    -2
100
AcDbBlockReference
  2
_Open30
 10
8.226918076111086
 20
37.49082780890518
 30
0.0
 41
4.0
 42
4.0
 43
4.0
 50
90.0
  0
INSERT
  5
CDF
330
557
100
AcDbEntity
  8
0
 62
     2
370
    -2
100
AcDbBlockReference
  2
_Open30
 10
8.226918076111086
 20
38.49082780890517
 30
0.0
 41
4.0
 42
4.0
 43
4.0
 50
270.0
  0
MTEXT
  5
CE0
330
557
100
AcDbEntity
  8
0
 62
     2
100
AcDbMText
 10
4.12691807611108
 20
48.54112542795279
 30
0.0
 40
5.0
 41
0.0
 71
     5
 72
     1
  1
\A1;1
  7
CONVERTER_1
 11
0.0000000000000001
 21
1.0
 31
0.0
 73
     1
 44
1.0
  0
POINT
  5
CE1
330
557
100
AcDbEntity
  8
Defpoints
 62
     0
100
AcDbPoint
 10
-18.60869056738517
 20
38.49082780890518
 30
0.0
  0
POINT
  5
CE2
330
557
100
AcDbEntity
  8
Defpoints
 62
     0
100
AcDbPoint
 10
-15.00309056738531
 20
37.49082780890518
 30
0.0
  0
POINT
  5
CE3
330
557
100
AcDbEntity
  8
Defpoints
 62
     0
100
AcDbPoint
 10
8.226918076111086
 20
37.49082780890518
 30
0.0
  0
ENDBLK
  5
564
330
557
100
AcDbEntity
  8
0
100
AcDbBlockEnd
  0
BLOCK
  5
570
330
565
100
AcDbEntity
  8
0
100
AcDbBlockBegin
  2
*D4
 70
     1
 10
0.0
 20
0.0
 30
0.0
  3
*D4
  1

  0
LINE
  5
CCF
330
565
100
AcDbEntity
  8
0
 62
     2
370
    -2
100
AcDbLine
 10
-11.60869056738517
 20
27.96832780890528
 30
0.0
 11
-11.60869056738517
 21
4.253651084824589
 31
0.0
  0
LINE
  5
CD0
330
565
100
AcDbEntity
  8
0
 62
     2
370
    -2
100
AcDbLine
 10
-25.60869056738518
 20
27.96832780890528
 30
0.0
 11
-25.60869056738518
 21
4.253651084824589
 31
0.0
  0
LINE
  5
CD1
330
565
100
AcDbEntity
  8
0
 62
     2
370
    -2
100
AcDbLine
 10
-21.60869056738517
 20
8.253651084824587
 30
0.0
 11
-15.60869056738517
 21
8.253651084824587
 31
0.0
  0
LINE
  5
CD2
330
565
100
AcDbEntity
  8
0
 62
     2
370
    -2
100
AcDbLine
 10
-11.60869056738517
 20
8.253651084824587
 30
0.0
 11
11.26166657547197
 21
8.253651084824587
 31
0.0
  0
INSERT
  5
CD3
330
565
100
AcDbEntity
  8
0
 62
     2
370
    -2
100
AcDbBlockReference
  2
_Open30
 10
-25.60869056738518
 20
8.253651084824587
 30
0.0
 41
4.0
 42
4.0
 43
4.0
 50
180.0
  0
INSERT
  5
CD4
330
565
100
AcDbEntity
  8
0
 62
     2
370
    -2
100
AcDbBlockReference
  2
_Open30
 10
-11.60869056738517
 20
8.253651084824587
 30
0.0
 41
4.0
 42
4.0
 43
4.0
  0
MTEXT
  5
CD5
330
565
100
AcDbEntity
  8
0
 62
     2
100
AcDbMText
 10
1.826488004043399
 20
12.35365108482458
 30
0.0
 40
5.0
 41
0.0
 71
     5
 72
     1
  1
\A1;%%c14h6
  7
CONVERTER_1
 73
     1
 44
1.0
  0
POINT
  5
CD6
330
565
100
AcDbEntity
  8
Defpoints
 62
     0
100
AcDbPoint
 10
-11.60869056738517
 20
30.31832780890528
 30
0.0
  0
POINT
  5
CD7
330
565
100
AcDbEntity
  8
Defpoints
 62
     0
100
AcDbPoint
 10
-25.60869056738518
 20
30.31832780890528
 30
0.0
  0
POINT
  5
CD8
330
565
100
AcDbEntity
  8
Defpoints
 62
     0
100
AcDbPoint
 10
-25.60869056738518
 20
8.253651084824587
 30
0.0
  0
ENDBLK
  5
571
330
565
100
AcDbEntity
  8
0
100
AcDbBlockEnd
  0
BLOCK
  5
6E7
330
6DC
100
AcDbEntity
  8
0
100
AcDbBlockBegin
  2
*D5
 70
     1
 10
0.0
 20
0.0
 30
0.0
  3
*D5
  1

  0
LINE
  5
CC6
330
6DC
100
AcDbEntity
  8
0
 62
     2
370
    -2
100
AcDbLine
 10
198.8011388465266
 20
-56.26183932802476
 30
0.0
 11
198.8011388465266
 21
-83.50505160338483
 31
0.0
  0
LINE
  5
CC7
330
6DC
100
AcDbEntity
  8
0
 62
     2
370
    -2
100
AcDbLine
 10
142.8011388465265
 20
-48.99057219109479
 30
0.0
 11
142.8011388465265
 21
-83.50505160338483
 31
0.0
  0
LINE
  5
CC8
330
6DC
100
AcDbEntity
  8
0
 62
     2
370
    -2
100
AcDbLine
 10
194.8011388465266
 20
-79.50505160338483
 30
0.0
 11
146.8011388465265
 21
-79.50505160338483
 31
0.0
  0
INSERT
  5
CC9
330
6DC
100
AcDbEntity
  8
0
 62
     2
370
    -2
100
AcDbBlockReference
  2
_Open30
 10
198.8011388465266
 20
-79.50505160338483
 30
0.0
 41
4.0
 42
4.0
 43
4.0
  0
INSERT
  5
CCA
330
6DC
100
AcDbEntity
  8
0
 62
     2
370
    -2
100
AcDbBlockReference
  2
_Open30
 10
142.8011388465265
 20
-79.50505160338483
 30
0.0
 41
4.0
 42
4.0
 43
4.0
 50
180.0
  0
MTEXT
  5
CCB
330
6DC
100
AcDbEntity
  8
0
 62
     2
100
AcDbMText
 10
170.8011388465266
 20
-75.40505160338483
 30
0.0
 40
5.0
 41
0.0
 71
     5
 72
     1
  1
\A1;56
  7
CONVERTER_1
 73
     1
 44
1.0
  0
POINT
  5
CCC
330
6DC
100
AcDbEntity
  8
Defpoints
 62
     0
100
AcDbPoint
 10
198.8011388465266
 20
-53.91183932802476
 30
0.0
  0
POINT
  5
CCD
330
6DC
100
AcDbEntity
  8
Defpoints
 62
     0
100
AcDbPoint
 10
142.8011388465265
 20
-46.64057219109479
 30
0.0
  0
POINT
  5
CCE
330
6DC
100
AcDbEntity
  8
Defpoints
 62
     0
100
AcDbPoint
 10
142.8011388465265
 20
-79.50505160338483
 30
0.0
  0
ENDBLK
  5
6E8
330
6DC
100
AcDbEntity
  8
0
100
AcDbBlockEnd
  0
BLOCK
  5
6F4
330
6E9
100
AcDbEntity
  8
0
100
AcDbBlockBegin
  2
*D6
 70
     1
 10
0.0
 20
0.0
 30
0.0
  3
*D6
  1

  0
LINE
  5
CBD
330
6E9
100
AcDbEntity
  8
0
 62
     2
370
    -2
100
AcDbLine
 10
254.8011388465266
 20
-48.99057219109479
 30
0.0
 11
254.8011388465266
 21
-83.50448107735271
 31
0.0
  0
LINE
  5
CBE
330
6E9
100
AcDbEntity
  8
0
 62
     2
370
    -2
100
AcDbLine
 10
198.8011388465266
 20
-56.26183932802476
 30
0.0
 11
198.8011388465266
 21
-83.50448107735271
 31
0.0
  0
LINE
  5
CBF
330
6E9
100
AcDbEntity
  8
0
 62
     2
370
    -2
100
AcDbLine
 10
250.8011388465266
 20
-79.50448107735271
 30
0.0
 11
202.8011388465266
 21
-79.50448107735271
 31
0.0
  0
INSERT
  5
CC0
330
6E9
100
AcDbEntity
  8
0
 62
     2
370
    -2
100
AcDbBlockReference
  2
_Open30
 10
254.8011388465266
 20
-79.50448107735271
 30
0.0
 41
4.0
 42
4.0
 43
4.0
  0
INSERT
  5
CC1
330
6E9
100
AcDbEntity
  8
0
 62
     2
370
    -2
100
AcDbBlockReference
  2
_Open30
 10
198.8011388465266
 20
-79.50448107735271
 30
0.0
 41
4.0
 42
4.0
 43
4.0
 50
180.0
  0
MTEXT
  5
CC2
330
6E9
100
AcDbEntity
  8
0
 62
     2
100
AcDbMText
 10
226.8011388465266
 20
-75.40448107735271
 30
0.0
 40
5.0
 41
0.0
 71
     5
 72
     1
  1
\A1;56
  7
CONVERTER_1
 73
     1
 44
1.0
  0
POINT
  5
CC3
330
6E9
100
AcDbEntity
  8
Defpoints
 62
     0
100
AcDbPoint
 10
254.8011388465266
 20
-46.64057219109479
 30
0.0
  0
POINT
  5
CC4
330
6E9
100
AcDbEntity
  8
Defpoints
 62
     0
100
AcDbPoint
 10
198.8011388465266
 20
-53.91183932802476
 30
0.0
  0
POINT
  5
CC5
330
6E9
100
AcDbEntity
  8
Defpoints
 62
     0
100
AcDbPoint
 10
198.8011388465266
 20
-79.50448107735271
 30
0.0
  0
ENDBLK
  5
6F5
330
6E9
100
AcDbEntity
  8
0
100
AcDbBlockEnd
  0
BLOCK
  5
701
330
6F6
100
AcDbEntity
  8
0
100
AcDbBlockBegin
  2
*D7
 70
     1
 10
0.0
 20
0.0
 30
0.0
  3
*D7
  1

  0
LINE
  5
CB4
330
6F6
100
AcDbEntity
  8
0
 62
     2
370
    -2
100
AcDbLine
 10
168.8011388465265
 20
-41.85877219109469
 30
0.0
 11
168.8011388465265
 21
-68.50526645259268
 31
0.0
  0
LINE
  5
CB5
330
6F6
100
AcDbEntity
  8
0
 62
     2
370
    -2
100
AcDbLine
 10
123.8013388465267
 20
-41.85877219109469
 30
0.0
 11
123.8013388465267
 21
-68.50526645259268
 31
0.0
  0
LINE
  5
CB6
330
6F6
100
AcDbEntity
  8
0
 62
     2
370
    -2
100
AcDbLine
 10
164.8011388465265
 20
-64.50526645259268
 30
0.0
 11
127.8013388465267
 21
-64.50526645259268
 31
0.0
  0
INSERT
  5
CB7
330
6F6
100
AcDbEntity
  8
0
 62
     2
370
    -2
100
AcDbBlockReference
  2
_Open30
 10
168.8011388465265
 20
-64.50526645259268
 30
0.0
 41
4.0
 42
4.0
 43
4.0
  0
INSERT
  5
CB8
330
6F6
100
AcDbEntity
  8
0
 62
     2
370
    -2
100
AcDbBlockReference
  2
_Open30
 10
123.8013388465267
 20
-64.50526645259268
 30
0.0
 41
4.0
 42
4.0
 43
4.0
 50
180.0
  0
MTEXT
  5
CB9
330
6F6
100
AcDbEntity
  8
0
 62
     2
100
AcDbMText
 10
147.9508886810463
 20
-60.40526645259268
 30
0.0
 40
5.0
 41
0.0
 71
     5
 72
     1
  1
\A1;45
  7
CONVERTER_1
 73
     1
 44
1.0
  0
POINT
  5
CBA
330
6F6
100
AcDbEntity
  8
Defpoints
 62
     0
100
AcDbPoint
 10
168.8011388465265
 20
-39.50877219109469
 30
0.0
  0
POINT
  5
CBB
330
6F6
100
AcDbEntity
  8
Defpoints
 62
     0
100
AcDbPoint
 10
123.8013388465267
 20
-39.50877219109469
 30
0.0
  0
POINT
  5
CBC
330
6F6
100
AcDbEntity
  8
Defpoints
 62
     0
100
AcDbPoint
 10
123.8013388465267
 20
-64.50526645259268
 30
0.0
  0
ENDBLK
  5
702
330
6F6
100
AcDbEntity
  8
0
100
AcDbBlockEnd
  0
BLOCK
  5
70E
330
703
100
AcDbEntity
  8
0
100
AcDbBlockBegin
  2
*D8
 70
     1
 10
0.0
 20
0.0
 30
0.0
  3
*D8
  1

  0
LINE
  5
CAB
330
703
100
AcDbEntity
  8
0
 62
     2
370
    -2
100
AcDbLine
 10
273.8009388465267
 20
-41.85877219109469
 30
0.0
 11
273.8009388465267
 21
-68.50426442118581
 31
0.0
  0
LINE
  5
CAC
330
703
100
AcDbEntity
  8
0
 62
     2
370
    -2
100
AcDbLine
 10
228.8011388465266
 20
-41.85877219109469
 30
0.0
 11
228.8011388465266
 21
-68.50426442118581
 31
0.0
  0
LINE
  5
CAD
330
703
100
AcDbEntity
  8
0
 62
     2
370
    -2
100
AcDbLine
 10
269.8009388465267
 20
-64.50426442118581
 30
0.0
 11
232.8011388465266
 21
-64.50426442118581
 31
0.0
  0
INSERT
  5
CAE
330
703
100
AcDbEntity
  8
0
 62
     2
370
    -2
100
AcDbBlockReference
  2
_Open30
 10
273.8009388465267
 20
-64.50426442118581
 30
0.0
 41
4.0
 42
4.0
 43
4.0
  0
INSERT
  5
CAF
330
703
100
AcDbEntity
  8
0
 62
     2
370
    -2
100
AcDbBlockReference
  2
_Open30
 10
228.8011388465266
 20
-64.50426442118581
 30
0.0
 41
4.0
 42
4.0
 43
4.0
 50
180.0
  0
MTEXT
  5
CB0
330
703
100
AcDbEntity
  8
0
 62
     2
100
AcDbMText
 10
249.5544945829715
 20
-60.4042644211858
 30
0.0
 40
5.0
 41
0.0
 71
     5
 72
     1
  1
\A1;45
  7
CONVERTER_1
 73
     1
 44
1.0
  0
POINT
  5
CB1
330
703
100
AcDbEntity
  8
Defpoints
 62
     0
100
AcDbPoint
 10
273.8009388465267
 20
-39.50877219109469
 30
0.0
  0
POINT
  5
CB2
330
703
100
AcDbEntity
  8
Defpoints
 62
     0
100
AcDbPoint
 10
228.8011388465266
 20
-39.50877219109469
 30
0.0
  0
POINT
  5
CB3
330
703
100
AcDbEntity
  8
Defpoints
 62
     0
100
AcDbPoint
 10
228.8011388465266
 20
-64.50426442118581
 30
0.0
  0
ENDBLK
  5
70F
330
703
100
AcDbEntity
  8
0
100
AcDbBlockEnd
  0
BLOCK
  5
71B
330
710
100
AcDbEntity
  8
0
100
AcDbBlockBegin
  2
*D9
 70
     1
 10
0.0
 20
0.0
 30
0.0
  3
*D9
  1

  0
LINE
  5
CA2
330
710
100
AcDbEntity
  8
0
 62
     2
370
    -2
100
AcDbLine
 10
273.8009388465267
 20
-41.85877219109469
 30
0.0
 11
273.8009388465267
 21
-98.50476634102676
 31
0.0
  0
LINE
  5
CA3
330
710
100
AcDbEntity
  8
0
 62
     2
370
    -2
100
AcDbLine
 10
123.8013388465267
 20
-41.85877219109469
 30
0.0
 11
123.8013388465267
 21
-98.50476634102676
 31
0.0
  0
LINE
  5
CA4
330
710
100
AcDbEntity
  8
0
 62
     2
370
    -2
100
AcDbLine
 10
269.8009388465267
 20
-94.50476634102676
 30
0.0
 11
127.8013388465267
 21
-94.50476634102676
 31
0.0
  0
INSERT
  5
CA5
330
710
100
AcDbEntity
  8
0
 62
     2
370
    -2
100
AcDbBlockReference
  2
_Open30
 10
273.8009388465267
 20
-94.50476634102676
 30
0.0
 41
4.0
 42
4.0
 43
4.0
  0
INSERT
  5
CA6
330
710
100
AcDbEntity
  8
0
 62
     2
370
    -2
100
AcDbBlockReference
  2
_Open30
 10
123.8013388465267
 20
-94.50476634102676
 30
0.0
 41
4.0
 42
4.0
 43
4.0
 50
180.0
  0
MTEXT
  5
CA7
330
710
100
AcDbEntity
  8
0
 62
     2
100
AcDbMText
 10
198.8011388465267
 20
-90.40476634102677
 30
0.0
 40
5.0
 41
0.0
 71
     5
 72
     1
  1
\A1;150
  7
CONVERTER_1
 73
     1
 44
1.0
  0
POINT
  5
CA8
330
710
100
AcDbEntity
  8
Defpoints
 62
     0
100
AcDbPoint
 10
273.8009388465267
 20
-39.50877219109469
 30
0.0
  0
POINT
  5
CA9
330
710
100
AcDbEntity
  8
Defpoints
 62
     0
100
AcDbPoint
 10
123.8013388465267
 20
-39.50877219109469
 30
0.0
  0
POINT
  5
CAA
330
710
100
AcDbEntity
  8
Defpoints
 62
     0
100
AcDbPoint
 10
123.8013388465267
 20
-94.50476634102676
 30
0.0
  0
ENDBLK
  5
71C
330
710
100
AcDbEntity
  8
0
100
AcDbBlockEnd
  0
BLOCK
  5
729
330
71D
100
AcDbEntity
  8
0
100
AcDbBlockBegin
  2
*D10
 70
     1
 10
0.0
 20
0.0
 30
0.0
  3
*D10
  1

  0
LINE
  5
C97
330
71D
100
AcDbEntity
  8
0
 62
     2
370
    -2
100
AcDbLine
 10
276.1509388465268
 20
-36.30877219109464
 30
0.0
 11
302.8009388465266
 21
-36.30877219109464
 31
0.0
  0
LINE
  5
C98
330
71D
100
AcDbEntity
  8
0
 62
     2
370
    -2
100
AcDbLine
 10
276.1509388465268
 20
-39.50877219109469
 30
0.0
 11
302.8009388465266
 21
-39.50877219109469
 31
0.0
  0
LINE
  5
C99
330
71D
100
AcDbEntity
  8
0
 62
     2
370
    -2
100
AcDbLine
 10
298.8009388465266
 20
-43.50877219109469
 30
0.0
 11
298.8009388465266
 21
-47.50877219109469
 31
0.0
  0
LINE
  5
C9A
330
71D
100
AcDbEntity
  8
0
 62
     2
370
    -2
100
AcDbLine
 10
298.8009388465266
 20
-32.30877219109464
 30
0.0
 11
298.8009388465266
 21
-17.18353409585654
 31
0.0
  0
LINE
  5
C9B
330
71D
100
AcDbEntity
  8
0
 62
     2
370
    -2
100
AcDbLine
 10
298.8009388465266
 20
-39.50877219109469
 30
0.0
 11
298.8009388465266
 21
-36.30877219109464
 31
0.0
  0
INSERT
  5
C9C
330
71D
100
AcDbEntity
  8
0
 62
     2
370
    -2
100
AcDbBlockReference
  2
_Open30
 10
298.8009388465266
 20
-39.50877219109469
 30
0.0
 41
4.0
 42
4.0
 43
4.0
 50
90.0
  0
INSERT
  5
C9D
330
71D
100
AcDbEntity
  8
0
 62
     2
370
    -2
100
AcDbBlockReference
  2
_Open30
 10
298.8009388465266
 20
-36.30877219109464
 30
0.0
 41
4.0
 42
4.0
 43
4.0
 50
270.0
  0
MTEXT
  5
C9E
330
71D
100
AcDbEntity
  8
0
 62
     2
100
AcDbMText
 10
294.7009388465266
 20
-22.74615314347554
 30
0.0
 40
5.0
 41
0.0
 71
     5
 72
     1
  1
\A1;3.2
  7
CONVERTER_1
 11
0.0000000000000001
 21
1.0
 31
0.0
 73
     1
 44
1.0
  0
POINT
  5
C9F
330
71D
100
AcDbEntity
  8
Defpoints
 62
     0
100
AcDbPoint
 10
273.8009388465267
 20
-36.30877219109464
 30
0.0
  0
POINT
  5
CA0
330
71D
100
AcDbEntity
  8
Defpoints
 62
     0
100
AcDbPoint
 10
273.8009388465267
 20
-39.50877219109469
 30
0.0
  0
POINT
  5
CA1
330
71D
100
AcDbEntity
  8
Defpoints
 62
     0
100
AcDbPoint
 10
298.8009388465266
 20
-39.50877219109469
 30
0.0
  0
ENDBLK
  5
72A
330
71D
100
AcDbEntity
  8
0
100
AcDbBlockEnd
  0
BLOCK
  5
736
330
72B
100
AcDbEntity
  8
0
100
AcDbBlockBegin
  2
*D11
 70
     1
 10
0.0
 20
0.0
 30
0.0
  3
*D11
  1

  0
LINE
  5
C8E
330
72B
100
AcDbEntity
  8
0
 62
     2
370
    -2
100
AcDbLine
 10
275.6331822956968
 20
31.49102780890535
 30
0.0
 11
317.8009388465266
 21
31.49102780890534
 31
0.0
  0
LINE
  5
C8F
330
72B
100
AcDbEntity
  8
0
 62
     2
370
    -2
100
AcDbLine
 10
276.1509388465268
 20
-39.50877219109469
 30
0.0
 11
317.8009388465266
 21
-39.5087721910947
 31
0.0
  0
LINE
  5
C90
330
72B
100
AcDbEntity
  8
0
 62
     2
370
    -2
100
AcDbLine
 10
313.8009388465266
 20
27.49102780890534
 30
0.0
 11
313.8009388465266
 21
-35.50877219109469
 31
0.0
  0
INSERT
  5
C91
330
72B
100
AcDbEntity
  8
0
 62
     2
370
    -2
100
AcDbBlockReference
  2
_Open30
 10
313.8009388465266
 20
31.49102780890534
 30
0.0
 41
4.0
 42
4.0
 43
4.0
 50
90.0
  0
INSERT
  5
C92
330
72B
100
AcDbEntity
  8
0
 62
     2
370
    -2
100
AcDbBlockReference
  2
_Open30
 10
313.8009388465266
 20
-39.5087721910947
 30
0.0
 41
4.0
 42
4.0
 43
4.0
 50
270.0
  0
MTEXT
  5
C93
330
72B
100
AcDbEntity
  8
0
 62
     2
100
AcDbMText
 10
308.7009388465266
 20
-4.008872191094625
 30
0.0
 40
5.0
 41
0.0
 71
     5
 72
     1
  1
\A1;71{\H3.000000;\S 0^ -0.5;}
  7
CONVERTER_1
 11
0.0000000000000001
 21
1.0
 31
0.0
 73
     1
 44
1.0
  0
POINT
  5
C94
330
72B
100
AcDbEntity
  8
Defpoints
 62
     0
100
AcDbPoint
 10
273.2831822956967
 20
31.49102780890535
 30
0.0
  0
POINT
  5
C95
330
72B
100
AcDbEntity
  8
Defpoints
 62
     0
100
AcDbPoint
 10
273.8009388465267
 20
-39.50877219109469
 30
0.0
  0
POINT
  5
C96
330
72B
100
AcDbEntity
  8
Defpoints
 62
     0
100
AcDbPoint
 10
313.8009388465266
 20
-39.5087721910947
 30
0.0
  0
ENDBLK
  5
737
330
72B
100
AcDbEntity
  8
0
100
AcDbBlockEnd
  0
BLOCK
  5
743
330
738
100
AcDbEntity
  8
0
100
AcDbBlockBegin
  2
*D12
 70
     1
 10
0.0
 20
0.0
 30
0.0
  3
*D12
  1

  0
LINE
  5
C85
330
738
100
AcDbEntity
  8
0
 62
     2
370
    -2
100
AcDbLine
 10
201.1511388465266
 20
97.09122780890522
 30
0.0
 11
332.8009388465266
 21
97.09122780890517
 31
0.0
  0
LINE
  5
C86
330
738
100
AcDbEntity
  8
0
 62
     2
370
    -2
100
AcDbLine
 10
276.1509388465268
 20
-39.50877219109469
 30
0.0
 11
332.8009388465266
 21
-39.5087721910947
 31
0.0
  0
LINE
  5
C87
330
738
100
AcDbEntity
  8
0
 62
     2
370
    -2
100
AcDbLine
 10
328.8009388465266
 20
93.09122780890517
 30
0.0
 11
328.8009388465266
 21
-35.50877219109469
 31
0.0
  0
INSERT
  5
C88
330
738
100
AcDbEntity
  8
0
 62
     2
370
    -2
100
AcDbBlockReference
  2
_Open30
 10
328.8009388465266
 20
97.09122780890517
 30
0.0
 41
4.0
 42
4.0
 43
4.0
 50
90.0
  0
INSERT
  5
C89
330
738
100
AcDbEntity
  8
0
 62
     2
370
    -2
100
AcDbBlockReference
  2
_Open30
 10
328.8009388465266
 20
-39.5087721910947
 30
0.0
 41
4.0
 42
4.0
 43
4.0
 50
270.0
  0
MTEXT
  5
C8A
330
738
100
AcDbEntity
  8
0
 62
     2
100
AcDbMText
 10
324.7009388465266
 20
28.79122780890528
 30
0.0
 40
5.0
 41
0.0
 71
     5
 72
     1
  1
\A1;137
  7
CONVERTER_1
 11
0.0000000000000001
 21
1.0
 31
0.0
 73
     1
 44
1.0
  0
POINT
  5
C8B
330
738
100
AcDbEntity
  8
Defpoints
 62
     0
100
AcDbPoint
 10
198.8011388465266
 20
97.09122780890522
 30
0.0
  0
POINT
  5
C8C
330
738
100
AcDbEntity
  8
Defpoints
 62
     0
100
AcDbPoint
 10
273.8009388465267
 20
-39.50877219109469
 30
0.0
  0
POINT
  5
C8D
330
738
100
AcDbEntity
  8
Defpoints
 62
     0
100
AcDbPoint
 10
328.8009388465266
 20
-39.5087721910947
 30
0.0
  0
ENDBLK
  5
744
330
738
100
AcDbEntity
  8
0
100
AcDbBlockEnd
  0
BLOCK
  5
750
330
745
100
AcDbEntity
  8
0
100
AcDbBlockBegin
  2
*D13
 70
     1
 10
0.0
 20
0.0
 30
0.0
  3
*D13
  1

  0
LINE
  5
C7C
330
745
100
AcDbEntity
  8
0
 62
     2
370
    -2
100
AcDbLine
 10
133.2011388465268
 20
33.8412278089053
 30
0.0
 11
133.2011388465268
 21
143.0109580567853
 31
0.0
  0
LINE
  5
C7D
330
745
100
AcDbEntity
  8
0
 62
     2
370
    -2
100
AcDbLine
 10
264.4011388462216
 20
33.84102780890536
 30
0.0
 11
264.4011388462216
 21
143.0109580567853
 31
0.0
  0
LINE
  5
C7E
330
745
100
AcDbEntity
  8
0
 62
     2
370
    -2
100
AcDbLine
 10
137.2011388465267
 20
139.0109580567852
 30
0.0
 11
260.4011388462216
 21
139.0109580567852
 31
0.0
  0
INSERT
  5
C7F
330
745
100
AcDbEntity
  8
0
 62
     2
370
    -2
100
AcDbBlockReference
  2
_Open30
 10
133.2011388465268
 20
139.0109580567852
 30
0.0
 41
4.0
 42
4.0
 43
4.0
 50
180.0
  0
INSERT
  5
C80
330
745
100
AcDbEntity
  8
0
 62
     2
370
    -2
100
AcDbBlockReference
  2
_Open30
 10
264.4011388462216
 20
139.0109580567852
 30
0.0
 41
4.0
 42
4.0
 43
4.0
  0
MTEXT
  5
C81
330
745
100
AcDbEntity
  8
0
 62
     2
100
AcDbMText
 10
198.8011388463742
 20
143.1109580567852
 30
0.0
 40
5.0
 41
0.0
 71
     5
 72
     1
  1
\A1;{\Fgdt;%%c}131
  7
CONVERTER_1
 73
     1
 44
1.0
  0
POINT
  5
C82
330
745
100
AcDbEntity
  8
Defpoints
 62
     0
100
AcDbPoint
 10
133.2011388465268
 20
31.49122780890531
 30
0.0
  0
POINT
  5
C83
330
745
100
AcDbEntity
  8
Defpoints
 62
     0
100
AcDbPoint
 10
264.4011388462216
 20
31.49102780890535
 30
0.0
  0
POINT
  5
C84
330
745
100
AcDbEntity
  8
Defpoints
 62
     0
100
AcDbPoint
 10
264.4011388462216
 20
139.0109580567852
 30
0.0
  0
ENDBLK
  5
751
330
745
100
AcDbEntity
  8
0
100
AcDbBlockEnd
  0
BLOCK
  5
75D
330
752
100
AcDbEntity
  8
0
100
AcDbBlockBegin
  2
*D14
 70
     1
 10
0.0
 20
0.0
 30
0.0
  3
*D14
  1

  0
LINE
  5
C73
330
752
100
AcDbEntity
  8
0
 62
     2
370
    -2
100
AcDbLine
 10
241.3009388465268
 20
-143.0812134387388
 30
0.0
 11
241.3009388465268
 21
-120.2194329747947
 31
0.0
  0
LINE
  5
C74
330
752
100
AcDbEntity
  8
0
 62
     2
370
    -2
100
AcDbLine
 10
268.3009388465267
 20
-143.0812134387388
 30
0.0
 11
268.3009388465267
 21
-120.2194329747947
 31
0.0
  0
LINE
  5
C75
330
752
100
AcDbEntity
  8
0
 62
     2
370
    -2
100
AcDbLine
 10
245.3009388465268
 20
-124.2194329747947
 30
0.0
 11
264.3009388465267
 21
-124.2194329747947
 31
0.0
  0
INSERT
  5
C76
330
752
100
AcDbEntity
  8
0
 62
     2
370
    -2
100
AcDbBlockReference
  2
_Open30
 10
241.3009388465268
 20
-124.2194329747947
 30
0.0
 41
4.0
 42
4.0
 43
4.0
 50
180.0
  0
INSERT
  5
C77
330
752
100
AcDbEntity
  8
0
 62
     2
370
    -2
100
AcDbBlockReference
  2
_Open30
 10
268.3009388465267
 20
-124.2194329747947
 30
0.0
 41
4.0
 42
4.0
 43
4.0
  0
MTEXT
  5
C78
330
752
100
AcDbEntity
  8
0
 62
     2
100
AcDbMText
 10
254.8009388465267
 20
-120.1194329747947
 30
0.0
 40
5.0
 41
0.0
 71
     5
 72
     1
  1
\A1;27
  7
CONVERTER_1
 73
     1
 44
1.0
  0
POINT
  5
C79
330
752
100
AcDbEntity
  8
Defpoints
 62
     0
100
AcDbPoint
 10
241.3009388465268
 20
-145.4312134387389
 30
0.0
  0
POINT
  5
C7A
330
752
100
AcDbEntity
  8
Defpoints
 62
     0
100
AcDbPoint
 10
268.3009388465267
 20
-145.4312134387389
 30
0.0
  0
POINT
  5
C7B
330
752
100
AcDbEntity
  8
Defpoints
 62
     0
100
AcDbPoint
 10
268.3009388465267
 20
-124.2194329747947
 30
0.0
  0
ENDBLK
  5
75E
330
752
100
AcDbEntity
  8
0
100
AcDbBlockEnd
  0
BLOCK
  5
76C
330
75F
100
AcDbEntity
  8
0
100
AcDbBlockBegin
  2
*D15
 70
     1
 10
0.0
 20
0.0
 30
0.0
  3
*D15
  1

  0
LINE
  5
C68
330
75F
100
AcDbEntity
  8
0
 62
     2
370
    -2
100
AcDbLine
 10
242.4509388465267
 20
-144.2762134387399
 30
0.0
 11
219.3154531034151
 21
-144.2762134387399
 31
0.0
  0
LINE
  5
C69
330
75F
100
AcDbEntity
  8
0
 62
     2
370
    -2
100
AcDbLine
 10
242.4509388465267
 20
-151.2762134387399
 30
0.0
 11
219.3154531034151
 21
-151.2762134387399
 31
0.0
  0
LINE
  5
C6A
330
75F
100
AcDbEntity
  8
0
 62
     2
370
    -2
100
AcDbLine
 10
223.3154531034151
 20
-140.2762134387399
 30
0.0
 11
223.3154531034151
 21
-136.2762134387399
 31
0.0
  0
LINE
  5
C6B
330
75F
100
AcDbEntity
  8
0
 62
     2
370
    -2
100
AcDbLine
 10
223.3154531034151
 20
-155.2762134387399
 30
0.0
 11
223.3154531034151
 21
-159.2762134387399
 31
0.0
  0
LINE
  5
C6C
330
75F
100
AcDbEntity
  8
0
 62
     2
370
    -2
100
AcDbLine
 10
223.3154531034151
 20
-144.2762134387399
 30
0.0
 11
223.3154531034151
 21
-151.2762134387399
 31
0.0
  0
INSERT
  5
C6D
330
75F
100
AcDbEntity
  8
0
 62
     2
370
    -2
100
AcDbBlockReference
  2
_Open30
 10
223.3154531034151
 20
-144.2762134387399
 30
0.0
 41
4.0
 42
4.0
 43
4.0
 50
270.0
  0
INSERT
  5
C6E
330
75F
100
AcDbEntity
  8
0
 62
     2
370
    -2
100
AcDbBlockReference
  2
_Open30
 10
223.3154531034151
 20
-151.2762134387399
 30
0.0
 41
4.0
 42
4.0
 43
4.0
 50
90.0
  0
MTEXT
  5
C6F
330
75F
100
AcDbEntity
  8
0
 62
     2
100
AcDbMText
 10
219.2154531034151
 20
-147.7762134387398
 30
0.0
 40
5.0
 41
0.0
 71
     5
 72
     1
  1
\A1;7
  7
CONVERTER_1
 11
0.0000000000000001
 21
1.0
 31
0.0
 73
     1
 44
1.0
  0
POINT
  5
C70
330
75F
100
AcDbEntity
  8
Defpoints
 62
     0
100
AcDbPoint
 10
244.8009388465268
 20
-144.2762134387399
 30
0.0
  0
POINT
  5
C71
330
75F
100
AcDbEntity
  8
Defpoints
 62
     0
100
AcDbPoint
 10
244.8009388465268
 20
-151.2762134387399
 30
0.0
  0
POINT
  5
C72
330
75F
100
AcDbEntity
  8
Defpoints
 62
     0
100
AcDbPoint
 10
223.3154531034151
 20
-151.2762134387399
 30
0.0
  0
ENDBLK
  5
76D
330
75F
100
AcDbEntity
  8
0
100
AcDbBlockEnd
  0
BLOCK
  5
9DB
330
9D0
100
AcDbEntity
  8
0
100
AcDbBlockBegin
  2
*D16
 70
     1
 10
0.0
 20
0.0
 30
0.0
  3
*D16
  1

  0
LINE
  5
C5F
330
9D0
100
AcDbEntity
  8
0
 62
     2
370
    -2
100
AcDbLine
 10
-231.7981611534734
 20
-41.85857219109474
 30
0.0
 11
-231.7981611534734
 21
-68.50921540819971
 31
0.0
  0
LINE
  5
C60
330
9D0
100
AcDbEntity
  8
0
 62
     2
370
    -2
100
AcDbLine
 10
-261.7981611534734
 20
-41.85827219109483
 30
0.0
 11
-261.7981611534734
 21
-68.50921540819971
 31
0.0
  0
LINE
  5
C61
330
9D0
100
AcDbEntity
  8
0
 62
     2
370
    -2
100
AcDbLine
 10
-235.7981611534734
 20
-64.50921540819971
 30
0.0
 11
-257.7981611534734
 21
-64.50921540819971
 31
0.0
  0
INSERT
  5
C62
330
9D0
100
AcDbEntity
  8
0
 62
     2
370
    -2
100
AcDbBlockReference
  2
_Open30
 10
-231.7981611534734
 20
-64.50921540819971
 30
0.0
 41
4.0
 42
4.0
 43
4.0
  0
INSERT
  5
C63
330
9D0
100
AcDbEntity
  8
0
 62
     2
370
    -2
100
AcDbBlockReference
  2
_Open30
 10
-261.7981611534734
 20
-64.50921540819971
 30
0.0
 41
4.0
 42
4.0
 43
4.0
 50
180.0
  0
MTEXT
  5
C64
330
9D0
100
AcDbEntity
  8
0
 62
     2
100
AcDbMText
 10
-246.7981611534734
 20
-60.40921540819971
 30
0.0
 40
5.0
 41
0.0
 71
     5
 72
     1
  1
\A1;30
  7
CONVERTER_1
 73
     1
 44
1.0
  0
POINT
  5
C65
330
9D0
100
AcDbEntity
  8
Defpoints
 62
     0
100
AcDbPoint
 10
-231.7981611534734
 20
-39.50857219109474
 30
0.0
  0
POINT
  5
C66
330
9D0
100
AcDbEntity
  8
Defpoints
 62
     0
100
AcDbPoint
 10
-261.7981611534734
 20
-39.50827219109482
 30
0.0
  0
POINT
  5
C67
330
9D0
100
AcDbEntity
  8
Defpoints
 62
     0
100
AcDbPoint
 10
-261.7981611534734
 20
-64.50921540819971
 30
0.0
  0
ENDBLK
  5
9DC
330
9D0
100
AcDbEntity
  8
0
100
AcDbBlockEnd
  0
BLOCK
  5
9E8
330
9DD
100
AcDbEntity
  8
0
100
AcDbBlockBegin
  2
*D17
 70
     1
 10
0.0
 20
0.0
 30
0.0
  3
*D17
  1

  0
LINE
  5
C56
330
9DD
100
AcDbEntity
  8
0
 62
     2
370
    -2
100
AcDbLine
 10
-151.7981611534734
 20
-41.85827219109483
 30
0.0
 11
-151.7981611534734
 21
-68.50843686028364
 31
0.0
  0
LINE
  5
C57
330
9DD
100
AcDbEntity
  8
0
 62
     2
370
    -2
100
AcDbLine
 10
-181.7981611534733
 20
-41.85857219109474
 30
0.0
 11
-181.7981611534733
 21
-68.50843686028364
 31
0.0
  0
LINE
  5
C58
330
9DD
100
AcDbEntity
  8
0
 62
     2
370
    -2
100
AcDbLine
 10
-155.7981611534734
 20
-64.50843686028363
 30
0.0
 11
-177.7981611534733
 21
-64.50843686028363
 31
0.0
  0
INSERT
  5
C59
330
9DD
100
AcDbEntity
  8
0
 62
     2
370
    -2
100
AcDbBlockReference
  2
_Open30
 10
-151.7981611534734
 20
-64.50843686028363
 30
0.0
 41
4.0
 42
4.0
 43
4.0
  0
INSERT
  5
C5A
330
9DD
100
AcDbEntity
  8
0
 62
     2
370
    -2
100
AcDbBlockReference
  2
_Open30
 10
-181.7981611534733
 20
-64.50843686028363
 30
0.0
 41
4.0
 42
4.0
 43
4.0
 50
180.0
  0
MTEXT
  5
C5B
330
9DD
100
AcDbEntity
  8
0
 62
     2
100
AcDbMText
 10
-166.7981611534733
 20
-60.40843686028363
 30
0.0
 40
5.0
 41
0.0
 71
     5
 72
     1
  1
\A1;30
  7
CONVERTER_1
 73
     1
 44
1.0
  0
POINT
  5
C5C
330
9DD
100
AcDbEntity
  8
Defpoints
 62
     0
100
AcDbPoint
 10
-151.7981611534734
 20
-39.50827219109482
 30
0.0
  0
POINT
  5
C5D
330
9DD
100
AcDbEntity
  8
Defpoints
 62
     0
100
AcDbPoint
 10
-181.7981611534733
 20
-39.50857219109474
 30
0.0
  0
POINT
  5
C5E
330
9DD
100
AcDbEntity
  8
Defpoints
 62
     0
100
AcDbPoint
 10
-181.7981611534733
 20
-64.50843686028363
 30
0.0
  0
ENDBLK
  5
9E9
330
9DD
100
AcDbEntity
  8
0
100
AcDbBlockEnd
  0
BLOCK
  5
9F5
330
9EA
100
AcDbEntity
  8
0
100
AcDbBlockBegin
  2
*D18
 70
     1
 10
0.0
 20
0.0
 30
0.0
  3
*D18
  1

  0
LINE
  5
C4D
330
9EA
100
AcDbEntity
  8
0
 62
     2
370
    -2
100
AcDbLine
 10
-261.7981611534734
 20
-41.85827219109483
 30
0.0
 11
-261.7981611534734
 21
-98.50881828294271
 31
0.0
  0
LINE
  5
C4E
330
9EA
100
AcDbEntity
  8
0
 62
     2
370
    -2
100
AcDbLine
 10
-151.7981611534734
 20
-41.85827219109483
 30
0.0
 11
-151.7981611534734
 21
-98.50881828294271
 31
0.0
  0
LINE
  5
C4F
330
9EA
100
AcDbEntity
  8
0
 62
     2
370
    -2
100
AcDbLine
 10
-257.7981611534734
 20
-94.50881828294271
 30
0.0
 11
-155.7981611534734
 21
-94.50881828294271
 31
0.0
  0
INSERT
  5
C50
330
9EA
100
AcDbEntity
  8
0
 62
     2
370
    -2
100
AcDbBlockReference
  2
_Open30
 10
-261.7981611534734
 20
-94.50881828294271
 30
0.0
 41
4.0
 42
4.0
 43
4.0
 50
180.0
  0
INSERT
  5
C51
330
9EA
100
AcDbEntity
  8
0
 62
     2
370
    -2
100
AcDbBlockReference
  2
_Open30
 10
-151.7981611534734
 20
-94.50881828294271
 30
0.0
 41
4.0
 42
4.0
 43
4.0
  0
MTEXT
  5
C52
330
9EA
100
AcDbEntity
  8
0
 62
     2
100
AcDbMText
 10
-206.7981611534734
 20
-90.40881828294272
 30
0.0
 40
5.0
 41
0.0
 71
     5
 72
     1
  1
\A1;110
  7
CONVERTER_1
 73
     1
 44
1.0
  0
POINT
  5
C53
330
9EA
100
AcDbEntity
  8
Defpoints
 62
     0
100
AcDbPoint
 10
-261.7981611534734
 20
-39.50827219109482
 30
0.0
  0
POINT
  5
C54
330
9EA
100
AcDbEntity
  8
Defpoints
 62
     0
100
AcDbPoint
 10
-151.7981611534734
 20
-39.50827219109482
 30
0.0
  0
POINT
  5
C55
330
9EA
100
AcDbEntity
  8
Defpoints
 62
     0
100
AcDbPoint
 10
-151.7981611534734
 20
-94.50881828294271
 30
0.0
  0
ENDBLK
  5
9F6
330
9EA
100
AcDbEntity
  8
0
100
AcDbBlockEnd
  0
BLOCK
  5
A02
330
9F7
100
AcDbEntity
  8
0
100
AcDbBlockBegin
  2
*D19
 70
     1
 10
0.0
 20
0.0
 30
0.0
  3
*D19
  1

  0
LINE
  5
C44
330
9F7
100
AcDbEntity
  8
0
 62
     2
370
    -2
100
AcDbLine
 10
-113.7982611534733
 20
40.84082780890518
 30
0.0
 11
-113.7982611534733
 21
113.0109580567852
 31
0.0
  0
LINE
  5
C45
330
9F7
100
AcDbEntity
  8
0
 62
     2
370
    -2
100
AcDbLine
 10
-86.79826115347331
 20
39.84082780890518
 30
0.0
 11
-86.79826115347331
 21
113.0109580567852
 31
0.0
  0
LINE
  5
C46
330
9F7
100
AcDbEntity
  8
0
 62
     2
370
    -2
100
AcDbLine
 10
-109.7982611534733
 20
109.0109580567853
 30
0.0
 11
-90.79826115347332
 21
109.0109580567853
 31
0.0
  0
INSERT
  5
C47
330
9F7
100
AcDbEntity
  8
0
 62
     2
370
    -2
100
AcDbBlockReference
  2
_Open30
 10
-113.7982611534733
 20
109.0109580567853
 30
0.0
 41
4.0
 42
4.0
 43
4.0
 50
180.0
  0
INSERT
  5
C48
330
9F7
100
AcDbEntity
  8
0
 62
     2
370
    -2
100
AcDbBlockReference
  2
_Open30
 10
-86.79826115347331
 20
109.0109580567853
 30
0.0
 41
4.0
 42
4.0
 43
4.0
  0
MTEXT
  5
C49
330
9F7
100
AcDbEntity
  8
0
 62
     2
100
AcDbMText
 10
-100.2982611534733
 20
113.1109580567853
 30
0.0
 40
5.0
 41
0.0
 71
     5
 72
     1
  1
\A1;27
  7
CONVERTER_1
 73
     1
 44
1.0
  0
POINT
  5
C4A
330
9F7
100
AcDbEntity
  8
Defpoints
 62
     0
100
AcDbPoint
 10
-113.7982611534733
 20
38.49082780890518
 30
0.0
  0
POINT
  5
C4B
330
9F7
100
AcDbEntity
  8
Defpoints
 62
     0
100
AcDbPoint
 10
-86.79826115347331
 20
37.49082780890518
 30
0.0
  0
POINT
  5
C4C
330
9F7
100
AcDbEntity
  8
Defpoints
 62
     0
100
AcDbPoint
 10
-86.79826115347331
 20
109.0109580567853
 30
0.0
  0
ENDBLK
  5
A03
330
9F7
100
AcDbEntity
  8
0
100
AcDbBlockEnd
  0
BLOCK
  5
A0F
330
A04
100
AcDbEntity
  8
0
100
AcDbBlockBegin
  2
*D20
 70
     1
 10
0.0
 20
0.0
 30
0.0
  3
*D20
  1

  0
LINE
  5
C3B
330
A04
100
AcDbEntity
  8
0
 62
     2
370
    -2
100
AcDbLine
 10
-116.7982611534733
 20
41.24092780890524
 30
0.0
 11
-116.7982611534733
 21
128.0109580567852
 31
0.0
  0
LINE
  5
C3C
330
A04
100
AcDbEntity
  8
0
 62
     2
370
    -2
100
AcDbLine
 10
-86.79826115347331
 20
39.84082780890518
 30
0.0
 11
-86.79826115347331
 21
128.0109580567852
 31
0.0
  0
LINE
  5
C3D
330
A04
100
AcDbEntity
  8
0
 62
     2
370
    -2
100
AcDbLine
 10
-112.7982611534733
 20
124.0109580567853
 30
0.0
 11
-90.79826115347332
 21
124.0109580567853
 31
0.0
  0
INSERT
  5
C3E
330
A04
100
AcDbEntity
  8
0
 62
     2
370
    -2
100
AcDbBlockReference
  2
_Open30
 10
-116.7982611534733
 20
124.0109580567853
 30
0.0
 41
4.0
 42
4.0
 43
4.0
 50
180.0
  0
INSERT
  5
C3F
330
A04
100
AcDbEntity
  8
0
 62
     2
370
    -2
100
AcDbBlockReference
  2
_Open30
 10
-86.79826115347331
 20
124.0109580567853
 30
0.0
 41
4.0
 42
4.0
 43
4.0
  0
MTEXT
  5
C40
330
A04
100
AcDbEntity
  8
0
 62
     2
100
AcDbMText
 10
-101.7982611534733
 20
128.1109580567853
 30
0.0
 40
5.0
 41
0.0
 71
     5
 72
     1
  1
\A1;30
  7
CONVERTER_1
 73
     1
 44
1.0
  0
POINT
  5
C41
330
A04
100
AcDbEntity
  8
Defpoints
 62
     0
100
AcDbPoint
 10
-116.7982611534733
 20
38.89092780890524
 30
0.0
  0
POINT
  5
C42
330
A04
100
AcDbEntity
  8
Defpoints
 62
     0
100
AcDbPoint
 10
-86.79826115347331
 20
37.49082780890518
 30
0.0
  0
POINT
  5
C43
330
A04
100
AcDbEntity
  8
Defpoints
 62
     0
100
AcDbPoint
 10
-86.79826115347331
 20
124.0109580567853
 30
0.0
  0
ENDBLK
  5
A10
330
A04
100
AcDbEntity
  8
0
100
AcDbBlockEnd
  0
BLOCK
  5
A1C
330
A11
100
AcDbEntity
  8
0
100
AcDbBlockBegin
  2
*D21
 70
     1
 10
0.0
 20
0.0
 30
0.0
  3
*D21
  1

  0
LINE
  5
C32
330
A11
100
AcDbEntity
  8
0
 62
     2
370
    -2
100
AcDbLine
 10
-301.9980572517968
 20
33.84082780890518
 30
0.0
 11
-301.9980572517968
 21
128.0109580567852
 31
0.0
  0
LINE
  5
C33
330
A11
100
AcDbEntity
  8
0
 62
     2
370
    -2
100
AcDbLine
 10
-206.7982611534733
 20
116.4776278089052
 30
0.0
 11
-206.7982611534733
 21
128.0109580567852
 31
0.0
  0
LINE
  5
C34
330
A11
100
AcDbEntity
  8
0
 62
     2
370
    -2
100
AcDbLine
 10
-297.9980572517968
 20
124.0109580567853
 30
0.0
 11
-210.7982611534733
 21
124.0109580567853
 31
0.0
  0
INSERT
  5
C35
330
A11
100
AcDbEntity
  8
0
 62
     2
370
    -2
100
AcDbBlockReference
  2
_Open30
 10
-301.9980572517968
 20
124.0109580567853
 30
0.0
 41
4.0
 42
4.0
 43
4.0
 50
180.0
  0
INSERT
  5
C36
330
A11
100
AcDbEntity
  8
0
 62
     2
370
    -2
100
AcDbBlockReference
  2
_Open30
 10
-206.7982611534733
 20
124.0109580567853
 30
0.0
 41
4.0
 42
4.0
 43
4.0
  0
MTEXT
  5
C37
330
A11
100
AcDbEntity
  8
0
 62
     2
100
AcDbMText
 10
-254.3981592026351
 20
128.1109580567853
 30
0.0
 40
5.0
 41
0.0
 71
     5
 72
     1
  1
\A1;95
  7
CONVERTER_1
 73
     1
 44
1.0
  0
POINT
  5
C38
330
A11
100
AcDbEntity
  8
Defpoints
 62
     0
100
AcDbPoint
 10
-301.9980572517968
 20
31.49082780890518
 30
0.0
  0
POINT
  5
C39
330
A11
100
AcDbEntity
  8
Defpoints
 62
     0
100
AcDbPoint
 10
-206.7982611534733
 20
114.1276278089051
 30
0.0
  0
POINT
  5
C3A
330
A11
100
AcDbEntity
  8
Defpoints
 62
     0
100
AcDbPoint
 10
-206.7982611534733
 20
124.0109580567853
 30
0.0
  0
ENDBLK
  5
A1D
330
A11
100
AcDbEntity
  8
0
100
AcDbBlockEnd
  0
BLOCK
  5
A29
330
A1E
100
AcDbEntity
  8
0
100
AcDbBlockBegin
  2
*D22
 70
     1
 10
0.0
 20
0.0
 30
0.0
  3
*D22
  1

  0
LINE
  5
C29
330
A1E
100
AcDbEntity
  8
0
 62
     2
370
    -2
100
AcDbLine
 10
-86.79826115347331
 20
39.84082780890518
 30
0.0
 11
-86.79826115347331
 21
143.0109580567853
 31
0.0
  0
LINE
  5
C2A
330
A1E
100
AcDbEntity
  8
0
 62
     2
370
    -2
100
AcDbLine
 10
-206.7982611534733
 20
116.4776278089052
 30
0.0
 11
-206.7982611534733
 21
143.0109580567853
 31
0.0
  0
LINE
  5
C2B
330
A1E
100
AcDbEntity
  8
0
 62
     2
370
    -2
100
AcDbLine
 10
-90.79826115347332
 20
139.0109580567852
 30
0.0
 11
-202.7982611534733
 21
139.0109580567852
 31
0.0
  0
INSERT
  5
C2C
330
A1E
100
AcDbEntity
  8
0
 62
     2
370
    -2
100
AcDbBlockReference
  2
_Open30
 10
-86.79826115347331
 20
139.0109580567852
 30
0.0
 41
4.0
 42
4.0
 43
4.0
  0
INSERT
  5
C2D
330
A1E
100
AcDbEntity
  8
0
 62
     2
370
    -2
100
AcDbBlockReference
  2
_Open30
 10
-206.7982611534733
 20
139.0109580567852
 30
0.0
 41
4.0
 42
4.0
 43
4.0
 50
180.0
  0
MTEXT
  5
C2E
330
A1E
100
AcDbEntity
  8
0
 62
     2
100
AcDbMText
 10
-146.7982611534733
 20
143.1109580567852
 30
0.0
 40
5.0
 41
0.0
 71
     5
 72
     1
  1
\A1;120
  7
CONVERTER_1
 73
     1
 44
1.0
  0
POINT
  5
C2F
330
A1E
100
AcDbEntity
  8
Defpoints
 62
     0
100
AcDbPoint
 10
-86.79826115347331
 20
37.49082780890518
 30
0.0
  0
POINT
  5
C30
330
A1E
100
AcDbEntity
  8
Defpoints
 62
     0
100
AcDbPoint
 10
-206.7982611534733
 20
114.1276278089051
 30
0.0
  0
POINT
  5
C31
330
A1E
100
AcDbEntity
  8
Defpoints
 62
     0
100
AcDbPoint
 10
-206.7982611534733
 20
139.0109580567852
 30
0.0
  0
ENDBLK
  5
A2A
330
A1E
100
AcDbEntity
  8
0
100
AcDbBlockEnd
  0
BLOCK
  5
A36
330
A2B
100
AcDbEntity
  8
0
100
AcDbBlockBegin
  2
*D23
 70
     1
 10
0.0
 20
0.0
 30
0.0
  3
*D23
  1

  0
LINE
  5
C20
330
A2B
100
AcDbEntity
  8
0
 62
     2
370
    -2
100
AcDbLine
 10
-301.9980572517968
 20
33.84082780890518
 30
0.0
 11
-301.9980572517968
 21
158.0109580567853
 31
0.0
  0
LINE
  5
C21
330
A2B
100
AcDbEntity
  8
0
 62
     2
370
    -2
100
AcDbLine
 10
-86.79826115347331
 20
39.84082780890518
 30
0.0
 11
-86.7982611534733
 21
158.0109580567853
 31
0.0
  0
LINE
  5
C22
330
A2B
100
AcDbEntity
  8
0
 62
     2
370
    -2
100
AcDbLine
 10
-297.9980572517968
 20
154.0109580567853
 30
0.0
 11
-90.7982611534733
 21
154.0109580567853
 31
0.0
  0
INSERT
  5
C23
330
A2B
100
AcDbEntity
  8
0
 62
     2
370
    -2
100
AcDbBlockReference
  2
_Open30
 10
-301.9980572517968
 20
154.0109580567853
 30
0.0
 41
4.0
 42
4.0
 43
4.0
 50
180.0
  0
INSERT
  5
C24
330
A2B
100
AcDbEntity
  8
0
 62
     2
370
    -2
100
AcDbBlockReference
  2
_Open30
 10
-86.7982611534733
 20
154.0109580567853
 30
0.0
 41
4.0
 42
4.0
 43
4.0
  0
MTEXT
  5
C25
330
A2B
100
AcDbEntity
  8
0
 62
     2
100
AcDbMText
 10
-194.398159202635
 20
158.1109580567853
 30
0.0
 40
5.0
 41
0.0
 71
     5
 72
     1
  1
\A1;215
  7
CONVERTER_1
 73
     1
 44
1.0
  0
POINT
  5
C26
330
A2B
100
AcDbEntity
  8
Defpoints
 62
     0
100
AcDbPoint
 10
-301.9980572517968
 20
31.49082780890518
 30
0.0
  0
POINT
  5
C27
330
A2B
100
AcDbEntity
  8
Defpoints
 62
     0
100
AcDbPoint
 10
-86.79826115347331
 20
37.49082780890518
 30
0.0
  0
POINT
  5
C28
330
A2B
100
AcDbEntity
  8
Defpoints
 62
     0
100
AcDbPoint
 10
-86.7982611534733
 20
154.0109580567853
 30
0.0
  0
ENDBLK
  5
A37
330
A2B
100
AcDbEntity
  8
0
100
AcDbBlockEnd
  0
BLOCK
  5
A43
330
A38
100
AcDbEntity
  8
0
100
AcDbBlockBegin
  2
*D24
 70
     1
 10
0.0
 20
0.0
 30
0.0
  3
*D24
  1

  0
LINE
  5
C17
330
A38
100
AcDbEntity
  8
0
 62
     2
370
    -2
100
AcDbLine
 10
-206.7982611534733
 20
116.4776278089052
 30
0.0
 11
-206.7982611534733
 21
128.0143732840442
 31
0.0
  0
LINE
  5
C18
330
A38
100
AcDbEntity
  8
0
 62
     2
370
    -2
100
AcDbLine
 10
-119.0982611534733
 20
33.84082780890518
 30
0.0
 11
-119.0982611534733
 21
128.0143732840442
 31
0.0
  0
LINE
  5
C19
330
A38
100
AcDbEntity
  8
0
 62
     2
370
    -2
100
AcDbLine
 10
-202.7982611534733
 20
124.0143732840442
 30
0.0
 11
-123.0982611534733
 21
124.0143732840442
 31
0.0
  0
INSERT
  5
C1A
330
A38
100
AcDbEntity
  8
0
 62
     2
370
    -2
100
AcDbBlockReference
  2
_Open30
 10
-206.7982611534733
 20
124.0143732840442
 30
0.0
 41
4.0
 42
4.0
 43
4.0
 50
180.0
  0
INSERT
  5
C1B
330
A38
100
AcDbEntity
  8
0
 62
     2
370
    -2
100
AcDbBlockReference
  2
_Open30
 10
-119.0982611534733
 20
124.0143732840442
 30
0.0
 41
4.0
 42
4.0
 43
4.0
  0
MTEXT
  5
C1C
330
A38
100
AcDbEntity
  8
0
 62
     2
100
AcDbMText
 10
-162.9482611534733
 20
128.1143732840442
 30
0.0
 40
5.0
 41
0.0
 71
     5
 72
     1
  1
\A1;88
  7
CONVERTER_1
 73
     1
 44
1.0
  0
POINT
  5
C1D
330
A38
100
AcDbEntity
  8
Defpoints
 62
     0
100
AcDbPoint
 10
-206.7982611534733
 20
114.1276278089051
 30
0.0
  0
POINT
  5
C1E
330
A38
100
AcDbEntity
  8
Defpoints
 62
     0
100
AcDbPoint
 10
-119.0982611534733
 20
31.49082780890518
 30
0.0
  0
POINT
  5
C1F
330
A38
100
AcDbEntity
  8
Defpoints
 62
     0
100
AcDbPoint
 10
-119.0982611534733
 20
124.0143732840442
 30
0.0
  0
ENDBLK
  5
A44
330
A38
100
AcDbEntity
  8
0
100
AcDbBlockEnd
  0
BLOCK
  5
A50
330
A45
100
AcDbEntity
  8
0
100
AcDbBlockBegin
  2
*D25
 70
     1
 10
0.0
 20
0.0
 30
0.0
  3
*D25
  1

  0
LINE
  5
C0E
330
A45
100
AcDbEntity
  8
0
 62
     2
370
    -2
100
AcDbLine
 10
-116.7982611534733
 20
21.74062780890537
 30
0.0
 11
-116.7982611534733
 21
-83.50814911244972
 31
0.0
  0
LINE
  5
C0F
330
A45
100
AcDbEntity
  8
0
 62
     2
370
    -2
100
AcDbLine
 10
-161.7981611534734
 20
-45.34217219109475
 30
0.0
 11
-161.7981611534734
 21
-83.50814911244972
 31
0.0
  0
LINE
  5
C10
330
A45
100
AcDbEntity
  8
0
 62
     2
370
    -2
100
AcDbLine
 10
-120.7982611534733
 20
-79.50814911244973
 30
0.0
 11
-157.7981611534734
 21
-79.50814911244973
 31
0.0
  0
INSERT
  5
C11
330
A45
100
AcDbEntity
  8
0
 62
     2
370
    -2
100
AcDbBlockReference
  2
_Open30
 10
-116.7982611534733
 20
-79.50814911244973
 30
0.0
 41
4.0
 42
4.0
 43
4.0
  0
INSERT
  5
C12
330
A45
100
AcDbEntity
  8
0
 62
     2
370
    -2
100
AcDbBlockReference
  2
_Open30
 10
-161.7981611534734
 20
-79.50814911244973
 30
0.0
 41
4.0
 42
4.0
 43
4.0
 50
180.0
  0
MTEXT
  5
C13
330
A45
100
AcDbEntity
  8
0
 62
     2
100
AcDbMText
 10
-139.2982111534733
 20
-75.40814911244973
 30
0.0
 40
5.0
 41
0.0
 71
     5
 72
     1
  1
\A1;45
  7
CONVERTER_1
 73
     1
 44
1.0
  0
POINT
  5
C14
330
A45
100
AcDbEntity
  8
Defpoints
 62
     0
100
AcDbPoint
 10
-116.7982611534733
 20
24.09062780890538
 30
0.0
  0
POINT
  5
C15
330
A45
100
AcDbEntity
  8
Defpoints
 62
     0
100
AcDbPoint
 10
-161.7981611534734
 20
-42.99217219109475
 30
0.0
  0
POINT
  5
C16
330
A45
100
AcDbEntity
  8
Defpoints
 62
     0
100
AcDbPoint
 10
-161.7981611534734
 20
-79.50814911244973
 30
0.0
  0
ENDBLK
  5
A51
330
A45
100
AcDbEntity
  8
0
100
AcDbBlockEnd
  0
BLOCK
  5
A5D
330
A52
100
AcDbEntity
  8
0
100
AcDbBlockBegin
  2
*D26
 70
     1
 10
0.0
 20
0.0
 30
0.0
  3
*D26
  1

  0
LINE
  5
C05
330
A52
100
AcDbEntity
  8
0
 62
     2
370
    -2
100
AcDbLine
 10
-206.7982611534733
 20
-58.15727219109479
 30
0.0
 11
-206.7982611534733
 21
-83.5090538658558
 31
0.0
  0
LINE
  5
C06
330
A52
100
AcDbEntity
  8
0
 62
     2
370
    -2
100
AcDbLine
 10
-251.7981611534733
 20
-45.34217219109475
 30
0.0
 11
-251.7981611534733
 21
-83.5090538658558
 31
0.0
  0
LINE
  5
C07
330
A52
100
AcDbEntity
  8
0
 62
     2
370
    -2
100
AcDbLine
 10
-210.7982611534733
 20
-79.5090538658558
 30
0.0
 11
-247.7981611534733
 21
-79.5090538658558
 31
0.0
  0
INSERT
  5
C08
330
A52
100
AcDbEntity
  8
0
 62
     2
370
    -2
100
AcDbBlockReference
  2
_Open30
 10
-206.7982611534733
 20
-79.5090538658558
 30
0.0
 41
4.0
 42
4.0
 43
4.0
  0
INSERT
  5
C09
330
A52
100
AcDbEntity
  8
0
 62
     2
370
    -2
100
AcDbBlockReference
  2
_Open30
 10
-251.7981611534733
 20
-79.5090538658558
 30
0.0
 41
4.0
 42
4.0
 43
4.0
 50
180.0
  0
MTEXT
  5
C0A
330
A52
100
AcDbEntity
  8
0
 62
     2
100
AcDbMText
 10
-229.2982111534733
 20
-75.40905386585581
 30
0.0
 40
5.0
 41
0.0
 71
     5
 72
     1
  1
\A1;45
  7
CONVERTER_1
 73
     1
 44
1.0
  0
POINT
  5
C0B
330
A52
100
AcDbEntity
  8
Defpoints
 62
     0
100
AcDbPoint
 10
-206.7982611534733
 20
-55.8072721910948
 30
0.0
  0
POINT
  5
C0C
330
A52
100
AcDbEntity
  8
Defpoints
 62
     0
100
AcDbPoint
 10
-251.7981611534733
 20
-42.99217219109475
 30
0.0
  0
POINT
  5
C0D
330
A52
100
AcDbEntity
  8
Defpoints
 62
     0
100
AcDbPoint
 10
-251.7981611534733
 20
-79.5090538658558
 30
0.0
  0
ENDBLK
  5
A5E
330
A52
100
AcDbEntity
  8
0
100
AcDbBlockEnd
  0
BLOCK
  5
A6A
330
A5F
100
AcDbEntity
  8
0
100
AcDbBlockBegin
  2
*D27
 70
     1
 10
0.0
 20
0.0
 30
0.0
  3
*D27
  1

  0
LINE
  5
BFC
330
A5F
100
AcDbEntity
  8
0
 62
     2
370
    -2
100
AcDbLine
 10
-161.7981611534734
 20
-45.34217219109475
 30
0.0
 11
-161.7981611534734
 21
-83.50858606401473
 31
0.0
  0
LINE
  5
BFD
330
A5F
100
AcDbEntity
  8
0
 62
     2
370
    -2
100
AcDbLine
 10
-206.7982611534733
 20
-58.15727219109479
 30
0.0
 11
-206.7982611534733
 21
-83.50858606401473
 31
0.0
  0
LINE
  5
BFE
330
A5F
100
AcDbEntity
  8
0
 62
     2
370
    -2
100
AcDbLine
 10
-165.7981611534734
 20
-79.50858606401474
 30
0.0
 11
-202.7982611534733
 21
-79.50858606401474
 31
0.0
  0
INSERT
  5
BFF
330
A5F
100
AcDbEntity
  8
0
 62
     2
370
    -2
100
AcDbBlockReference
  2
_Open30
 10
-161.7981611534734
 20
-79.50858606401474
 30
0.0
 41
4.0
 42
4.0
 43
4.0
  0
INSERT
  5
C00
330
A5F
100
AcDbEntity
  8
0
 62
     2
370
    -2
100
AcDbBlockReference
  2
_Open30
 10
-206.7982611534733
 20
-79.50858606401474
 30
0.0
 41
4.0
 42
4.0
 43
4.0
 50
180.0
  0
MTEXT
  5
C01
330
A5F
100
AcDbEntity
  8
0
 62
     2
100
AcDbMText
 10
-184.2982111534733
 20
-75.40858606401474
 30
0.0
 40
5.0
 41
0.0
 71
     5
 72
     1
  1
\A1;45
  7
CONVERTER_1
 73
     1
 44
1.0
  0
POINT
  5
C02
330
A5F
100
AcDbEntity
  8
Defpoints
 62
     0
100
AcDbPoint
 10
-161.7981611534734
 20
-42.99217219109475
 30
0.0
  0
POINT
  5
C03
330
A5F
100
AcDbEntity
  8
Defpoints
 62
     0
100
AcDbPoint
 10
-206.7982611534733
 20
-55.8072721910948
 30
0.0
  0
POINT
  5
C04
330
A5F
100
AcDbEntity
  8
Defpoints
 62
     0
100
AcDbPoint
 10
-206.7982611534733
 20
-79.50858606401474
 30
0.0
  0
ENDBLK
  5
A6B
330
A5F
100
AcDbEntity
  8
0
100
AcDbBlockEnd
  0
ENDSEC
  0
SECTION
  2
ENTITIES
  0
POINT
  5
522
330
1F
100
AcDbEntity
  8
0
 62
     2
100
AcDbPoint
 10
-11.60869056738516
 20
30.31832780890528
 30
0.0
  0
POINT
  5
523
330
1F
100
AcDbEntity
  8
0
 62
     2
100
AcDbPoint
 10
-25.60869056738517
 20
30.31832780890528
 30
0.0
  0
LINE
  5
529
330
1F
100
AcDbEntity
  8
0
  6
Continuous
 62
     7
100
AcDbLine
 10
-22.21419056738529
 20
37.49082780890518
 30
0.0
 11
-15.00309056738531
 21
37.49082780890518
 31
0.0
  0
LINE
  5
52A
330
1F
100
AcDbEntity
  8
0
  6
DASH_CENTER
 62
    30
100
AcDbLine
 10
-30.72739056738539
 20
31.49082780890518
 30
0.0
 11
-6.19359056738524
 21
31.49082780890518
 31
0.0
  0
LINE
  5
52B
330
1F
100
AcDbEntity
  8
0
  6
DASH_CENTER
 62
    30
100
AcDbLine
 10
-18.60869056738517
 20
42.87072780890531
 30
0.0
 11
-18.60869056738517
 21
19.31822780890531
 31
0.0
  0
ARC
  5
535
330
1F
100
AcDbEntity
  8
0
  6
Continuous
 62
     7
100
AcDbCircle
 10
-18.60869056738517
 20
31.49082780890518
 30
0.0
 40
7.0
100
AcDbArc
 50
90.0
 51
0.0
  0
ARC
  5
536
330
1F
100
AcDbEntity
  8
0
  6
Continuous
 62
     7
100
AcDbCircle
 10
-18.60869056738517
 20
31.49082780890518
 30
0.0
 40
7.000000000000002
100
AcDbArc
 50
0.0
 51
90.0
  0
POINT
  5
5B1
330
1F
100
AcDbEntity
  8
0
 62
     2
100
AcDbPoint
 10
197.6282388465266
 20
97.09062780890532
 30
0.0
  0
POINT
  5
5B2
330
1F
100
AcDbEntity
  8
0
 62
     2
100
AcDbPoint
 10
264.4007388465266
 20
32.66352780890526
 30
0.0
  0
POINT
  5
5B3
330
1F
100
AcDbEntity
  8
0
 62
     2
100
AcDbPoint
 10
133.2008388465266
 20
32.66352780890526
 30
0.0
  0
LINE
  5
5B6
330
1F
100
AcDbEntity
  8
0
  6
Continuous
 62
     7
100
AcDbLine
 10
240.8866388465266
 20
78.53682780890524
 30
0.0
 11
244.7923388465266
 21
77.48262780890519
 31
0.0
  0
LINE
  5
5B7
330
1F
100
AcDbEntity
  8
0
  6
Continuous
 62
     7
100
AcDbLine
 10
244.7923388465266
 20
77.48262780890519
 30
0.0
 11
245.8385388465266
 21
73.57882780890516
 31
0.0
  0
LINE
  5
5B8
330
1F
100
AcDbEntity
  8
0
  6
Continuous
 62
     7
100
AcDbLine
 10
238.0309388465267
 20
75.67082780890524
 30
0.0
 11
240.8866388465266
 21
78.53682780890524
 31
0.0
  0
LINE
  5
5B9
330
1F
100
AcDbEntity
  8
0
  6
Continuous
 62
     7
100
AcDbLine
 10
239.0770388465267
 20
71.76712780890517
 30
0.0
 11
238.0309388465267
 21
75.67082780890524
 31
0.0
  0
LINE
  5
5BA
330
1F
100
AcDbEntity
  8
0
  6
Continuous
 62
     7
100
AcDbLine
 10
242.9830388465267
 20
70.71282780890514
 30
0.0
 11
239.0770388465267
 21
71.76712780890517
 31
0.0
  0
LINE
  5
5BB
330
1F
100
AcDbEntity
  8
0
  6
Continuous
 62
     7
100
AcDbLine
 10
245.8385388465266
 20
73.57882780890516
 30
0.0
 11
242.9830388465267
 21
70.71282780890514
 31
0.0
  0
LINE
  5
5BC
330
1F
100
AcDbEntity
  8
0
  6
Continuous
 62
    30
100
AcDbLine
 10
237.6830388465267
 20
70.37322780890514
 30
0.0
 11
246.9486388465267
 21
79.63882780890532
 31
0.0
  0
LINE
  5
5BD
330
1F
100
AcDbEntity
  8
0
  6
Continuous
 62
     7
100
AcDbLine
 10
245.8467388465265
 20
-10.59417219109484
 30
0.0
 11
244.7925388465268
 21
-14.49997219109485
 31
0.0
  0
LINE
  5
5BE
330
1F
100
AcDbEntity
  8
0
  6
Continuous
 62
     7
100
AcDbLine
 10
244.7925388465268
 20
-14.49997219109485
 30
0.0
 11
240.8887388465267
 21
-15.54617219109484
 31
0.0
  0
LINE
  5
5BF
330
1F
100
AcDbEntity
  8
0
  6
Continuous
 62
     7
100
AcDbLine
 10
242.9807388465266
 20
-7.738472191094778
 30
0.0
 11
245.8467388465265
 21
-10.59417219109484
 31
0.0
  0
LINE
  5
5C0
330
1F
100
AcDbEntity
  8
0
  6
Continuous
 62
     7
100
AcDbLine
 10
239.0770388465267
 20
-8.784672191094779
 30
0.0
 11
242.9807388465266
 21
-7.738472191094778
 31
0.0
  0
LINE
  5
5C1
330
1F
100
AcDbEntity
  8
0
  6
Continuous
 62
     7
100
AcDbLine
 10
238.0227388465268
 20
-12.69067219109473
 30
0.0
 11
239.0770388465267
 21
-8.784672191094779
 31
0.0
  0
LINE
  5
5C2
330
1F
100
AcDbEntity
  8
0
  6
Continuous
 62
     7
100
AcDbLine
 10
240.8887388465267
 20
-15.54617219109484
 30
0.0
 11
238.0227388465268
 21
-12.69067219109473
 31
0.0
  0
LINE
  5
5C3
330
1F
100
AcDbEntity
  8
0
  6
Continuous
 62
    30
100
AcDbLine
 10
237.6831388465268
 20
-7.3905721910948
 30
0.0
 11
246.9488388465266
 21
-16.65627219109472
 31
0.0
  0
LINE
  5
5C4
330
1F
100
AcDbEntity
  8
0
  6
Continuous
 62
     7
100
AcDbLine
 10
156.7157388465268
 20
-15.55437219109484
 30
0.0
 11
152.8099388465268
 21
-14.50007219109483
 31
0.0
  0
LINE
  5
5C5
330
1F
100
AcDbEntity
  8
0
  6
Continuous
 62
     7
100
AcDbLine
 10
152.8099388465268
 20
-14.50007219109483
 30
0.0
 11
151.7638388465268
 21
-10.59637219109476
 31
0.0
  0
LINE
  5
5C6
330
1F
100
AcDbEntity
  8
0
  6
Continuous
 62
     7
100
AcDbLine
 10
159.5714388465265
 20
-12.68837219109484
 30
0.0
 11
156.7157388465268
 21
-15.55437219109484
 31
0.0
  0
LINE
  5
5C7
330
1F
100
AcDbEntity
  8
0
  6
Continuous
 62
     7
100
AcDbLine
 10
158.5252388465265
 20
-8.784672191094779
 30
0.0
 11
159.5714388465265
 21
-12.68837219109484
 31
0.0
  0
LINE
  5
5C8
330
1F
100
AcDbEntity
  8
0
  6
Continuous
 62
     7
100
AcDbLine
 10
154.6192388465266
 20
-7.730372191094768
 30
0.0
 11
158.5252388465265
 21
-8.784672191094779
 31
0.0
  0
LINE
  5
5C9
330
1F
100
AcDbEntity
  8
0
  6
Continuous
 62
     7
100
AcDbLine
 10
151.7638388465268
 20
-10.59637219109476
 30
0.0
 11
154.6192388465266
 21
-7.730372191094768
 31
0.0
  0
LINE
  5
5CA
330
1F
100
AcDbEntity
  8
0
  6
Continuous
 62
    30
100
AcDbLine
 10
159.9193388465264
 20
-7.390772191094749
 30
0.0
 11
150.6537388465266
 21
-16.6563721910947
 31
0.0
  0
LINE
  5
5CB
330
1F
100
AcDbEntity
  8
0
  6
Continuous
 62
     7
100
AcDbLine
 10
202.4063388465267
 20
37.49102780890535
 30
0.0
 11
195.1952388465266
 21
37.49102780890535
 31
0.0
  0
LINE
  5
5CC
330
1F
100
AcDbEntity
  8
0
  6
Continuous
 62
     7
100
AcDbLine
 10
151.7555388465268
 20
73.57672780890522
 30
0.0
 11
152.8098388465268
 21
77.48242780890524
 31
0.0
  0
LINE
  5
5CD
330
1F
100
AcDbEntity
  8
0
  6
Continuous
 62
     7
100
AcDbLine
 10
152.8098388465268
 20
77.48242780890524
 30
0.0
 11
156.7135388465267
 21
78.52862780890524
 31
0.0
  0
LINE
  5
5CE
330
1F
100
AcDbEntity
  8
0
  6
Continuous
 62
     7
100
AcDbLine
 10
154.6215388465268
 20
70.72102780890515
 30
0.0
 11
151.7555388465268
 21
73.57672780890522
 31
0.0
  0
LINE
  5
5CF
330
1F
100
AcDbEntity
  8
0
  6
Continuous
 62
     7
100
AcDbLine
 10
158.5252388465265
 20
71.76712780890517
 30
0.0
 11
154.6215388465268
 21
70.72102780890515
 31
0.0
  0
LINE
  5
5D0
330
1F
100
AcDbEntity
  8
0
  6
Continuous
 62
     7
100
AcDbLine
 10
159.5795388465266
 20
75.67312780890535
 30
0.0
 11
158.5252388465265
 21
71.76712780890517
 31
0.0
  0
LINE
  5
5D1
330
1F
100
AcDbEntity
  8
0
  6
Continuous
 62
     7
100
AcDbLine
 10
156.7135388465267
 20
78.52862780890524
 30
0.0
 11
159.5795388465266
 21
75.67312780890535
 31
0.0
  0
LINE
  5
5D2
330
1F
100
AcDbEntity
  8
0
  6
Continuous
 62
     7
100
AcDbLine
 10
257.7725388465266
 20
62.00732780890536
 30
0.0
 11
257.0620388465266
 21
61.63972780890532
 31
0.0
  0
LINE
  5
5D3
330
1F
100
AcDbEntity
  8
0
  6
Continuous
 62
     7
100
AcDbLine
 10
228.9490388465266
 20
89.75242780890523
 30
0.0
 11
229.3167388465267
 21
90.46312780890531
 31
0.0
  0
LINE
  5
5D4
330
1F
100
AcDbEntity
  8
0
  6
Continuous
 62
    30
100
AcDbLine
 10
159.9191388465266
 20
70.37312780890515
 30
0.0
 11
150.6535388465266
 21
79.63872780890534
 31
0.0
  0
LINE
  5
5D5
330
1F
100
AcDbEntity
  8
0
  6
Continuous
 62
     7
100
AcDbLine
 10
183.4416388465266
 20
-27.80147219109466
 30
0.0
 11
182.2828388465268
 21
-30.59907219109476
 31
0.0
  0
LINE
  5
5D6
330
1F
100
AcDbEntity
  8
0
  6
Continuous
 62
     7
100
AcDbLine
 10
139.5083388465267
 20
16.13162780890531
 30
0.0
 11
136.7109388465265
 21
14.97292780890535
 31
0.0
  0
LINE
  5
5D7
330
1F
100
AcDbEntity
  8
0
  6
Continuous
 62
     7
100
AcDbLine
 10
249.3182388465266
 20
27.49122780890531
 30
0.0
 11
220.2368388465266
 21
27.49122780890531
 31
0.0
  0
LINE
  5
5D8
330
1F
100
AcDbEntity
  8
0
  6
Continuous
 62
     7
100
AcDbLine
 10
249.3183388465266
 20
35.49122780890531
 30
0.0
 11
220.2370388465266
 21
35.49122780890531
 31
0.0
  0
LINE
  5
5D9
330
1F
100
AcDbEntity
  8
0
  6
Continuous
 62
     7
100
AcDbLine
 10
146.0140388465266
 20
0.4258278089053599
 30
0.0
 11
143.2165388465268
 21
-0.73307219109478
 31
0.0
  0
LINE
  5
5DA
330
1F
100
AcDbEntity
  8
0
  6
Continuous
 62
     7
100
AcDbLine
 10
146.0139388465266
 20
62.55662780890526
 30
0.0
 11
143.2165388465268
 21
63.71532780890522
 31
0.0
  0
LINE
  5
5DB
330
1F
100
AcDbEntity
  8
0
  6
Continuous
 62
     7
100
AcDbLine
 10
139.5084388465267
 20
46.85082780890531
 30
0.0
 11
136.7109388465265
 21
48.00952780890526
 31
0.0
  0
LINE
  5
5DC
330
1F
100
AcDbEntity
  8
0
  6
Continuous
 62
     7
100
AcDbLine
 10
183.4416388465266
 20
90.78392780890528
 30
0.0
 11
182.2828388465268
 21
93.58132780890519
 31
0.0
  0
LINE
  5
5DD
330
1F
100
AcDbEntity
  8
0
  6
Continuous
 62
     7
100
AcDbLine
 10
202.8009388465267
 20
10.05492780890522
 30
0.0
 11
202.8009388465267
 21
-19.02607219109467
 31
0.0
  0
LINE
  5
5DE
330
1F
100
AcDbEntity
  8
0
  6
Continuous
 62
     7
100
AcDbLine
 10
167.7357388465267
 20
84.27832780890531
 30
0.0
 11
166.5769388465266
 21
87.07592780890518
 31
0.0
  0
LINE
  5
5DF
330
1F
100
AcDbEntity
  8
0
  6
Continuous
 62
     7
100
AcDbLine
 10
194.8009388465268
 20
82.00862780890528
 30
0.0
 11
194.8009388465268
 21
52.92702780890528
 31
0.0
  0
LINE
  5
5E0
330
1F
100
AcDbEntity
  8
0
  6
Continuous
 62
     7
100
AcDbLine
 10
194.8010388465266
 20
10.05492780890522
 30
0.0
 11
194.8010388465266
 21
-19.02607219109467
 31
0.0
  0
LINE
  5
5E1
330
1F
100
AcDbEntity
  8
0
  6
Continuous
 62
     7
100
AcDbLine
 10
148.2836388465268
 20
35.49122780890531
 30
0.0
 11
177.3649388465265
 21
35.49122780890531
 31
0.0
  0
LINE
  5
5E2
330
1F
100
AcDbEntity
  8
0
  6
Continuous
 62
     7
100
AcDbLine
 10
202.8009388465267
 20
82.00862780890528
 30
0.0
 11
202.8009388465267
 21
52.92702780890528
 31
0.0
  0
LINE
  5
5E3
330
1F
100
AcDbEntity
  8
0
  6
Continuous
 62
     7
100
AcDbLine
 10
167.7356388465268
 20
-21.29607219109464
 30
0.0
 11
166.5769388465266
 21
-24.0934721910948
 31
0.0
  0
LINE
  5
5E4
330
1F
100
AcDbEntity
  8
0
  6
Continuous
 62
     7
100
AcDbLine
 10
229.8662388465266
 20
84.27832780890531
 30
0.0
 11
231.0250388465266
 21
87.07592780890518
 31
0.0
  0
LINE
  5
5E5
330
1F
100
AcDbEntity
  8
0
  6
Continuous
 62
     7
100
AcDbLine
 10
214.1603388465267
 20
90.78392780890528
 30
0.0
 11
215.3191388465266
 21
93.58132780890519
 31
0.0
  0
LINE
  5
5E6
330
1F
100
AcDbEntity
  8
0
  6
Continuous
 62
     7
100
AcDbLine
 10
258.0935388465267
 20
46.85082780890531
 30
0.0
 11
260.8910388465266
 21
48.00952780890526
 31
0.0
  0
LINE
  5
5E7
330
1F
100
AcDbEntity
  8
0
  6
Continuous
 62
     7
100
AcDbLine
 10
251.5879388465267
 20
62.55662780890526
 30
0.0
 11
254.3854388465266
 21
63.71532780890522
 31
0.0
  0
LINE
  5
5E8
330
1F
100
AcDbEntity
  8
0
  6
Continuous
 62
     7
100
AcDbLine
 10
251.5879388465267
 20
0.4258278089053599
 30
0.0
 11
254.3854388465266
 21
-0.73307219109478
 31
0.0
  0
LINE
  5
5E9
330
1F
100
AcDbEntity
  8
0
  6
Continuous
 62
     7
100
AcDbLine
 10
258.0936388465266
 20
16.13162780890531
 30
0.0
 11
260.8910388465266
 21
14.97292780890535
 31
0.0
  0
LINE
  5
5EA
330
1F
100
AcDbEntity
  8
0
  6
Continuous
 62
     7
100
AcDbLine
 10
214.1603388465267
 20
-27.80147219109466
 30
0.0
 11
215.3191388465266
 21
-30.59907219109476
 31
0.0
  0
LINE
  5
5EB
330
1F
100
AcDbEntity
  8
0
  6
Continuous
 62
     7
100
AcDbLine
 10
229.8663388465266
 20
-21.29607219109464
 30
0.0
 11
231.0250388465266
 21
-24.0934721910948
 31
0.0
  0
LINE
  5
5EC
330
1F
100
AcDbEntity
  8
0
  6
Continuous
 62
     7
100
AcDbLine
 10
148.2837388465268
 20
27.49122780890531
 30
0.0
 11
177.3650388465268
 21
27.49122780890531
 31
0.0
  0
LINE
  5
5ED
330
1F
100
AcDbEntity
  8
0
  6
Continuous
 62
     7
100
AcDbLine
 10
233.3875388465266
 20
-34.85667219109466
 30
0.0
 11
232.4539388465268
 21
-31.57837219109473
 31
0.0
  0
LINE
  5
5EE
330
1F
100
AcDbEntity
  8
0
  6
Continuous
 62
     7
100
AcDbLine
 10
164.2147388465268
 20
-34.85667219109466
 30
0.0
 11
165.1483388465265
 21
-31.57837219109473
 31
0.0
  0
LINE
  5
5EF
330
1F
100
AcDbEntity
  8
0
  6
Continuous
 62
     7
100
AcDbLine
 10
228.8011388465266
 20
-38.50877219109469
 30
0.0
 11
168.8011388465265
 21
-38.50877219109469
 31
0.0
  0
LINE
  5
5F0
330
1F
100
AcDbEntity
  8
0
  6
Continuous
 62
     7
100
AcDbLine
 10
127.3724388465268
 20
-34.27857219109471
 30
0.0
 11
136.7826388465267
 21
-17.30227219109468
 31
0.0
  0
LINE
  5
5F1
330
1F
100
AcDbEntity
  8
0
  6
Continuous
 62
     7
100
AcDbLine
 10
123.8013388465267
 20
-35.30877219109464
 30
0.0
 11
125.6232388465267
 21
-35.30877219109464
 31
0.0
  0
LINE
  5
5F2
330
1F
100
AcDbEntity
  8
0
  6
Continuous
 62
     7
100
AcDbLine
 10
166.2762388465267
 20
-36.30877219109464
 30
0.0
 11
123.8013388465267
 21
-36.30877219109464
 31
0.0
  0
LINE
  5
5F3
330
1F
100
AcDbEntity
  8
0
  6
Continuous
 62
     7
100
AcDbLine
 10
168.8011388465265
 20
-38.50877219109469
 30
0.0
 11
168.8011388465265
 21
-39.50877219109469
 31
0.0
  0
LINE
  5
5F4
330
1F
100
AcDbEntity
  8
0
  6
Continuous
 62
     7
100
AcDbLine
 10
123.8013388465267
 20
-35.30877219109464
 30
0.0
 11
123.8013388465267
 21
-39.50877219109469
 31
0.0
  0
LINE
  5
5F5
330
1F
100
AcDbEntity
  8
0
  6
Continuous
 62
     7
100
AcDbLine
 10
230.3260388465266
 20
-35.30877219109464
 30
0.0
 11
167.2762388465268
 21
-35.30877219109464
 31
0.0
  0
LINE
  5
5F6
330
1F
100
AcDbEntity
  8
0
  6
Continuous
 62
     7
100
AcDbLine
 10
168.8011388465265
 20
-39.50877219109469
 30
0.0
 11
123.8013388465267
 21
-39.50877219109469
 31
0.0
  0
LINE
  5
5F7
330
1F
100
AcDbEntity
  8
0
  6
Continuous
 62
     7
100
AcDbLine
 10
190.5306388465266
 20
-35.0988721910948
 30
0.0
 11
188.3277388465266
 21
-33.38967219109479
 31
0.0
  0
LINE
  5
5F8
330
1F
100
AcDbEntity
  8
0
  6
Continuous
 62
     7
100
AcDbLine
 10
231.3260388465266
 20
-36.30877219109464
 30
0.0
 11
273.8009388465267
 21
-36.30877219109464
 31
0.0
  0
LINE
  5
5F9
330
1F
100
AcDbEntity
  8
0
  6
Continuous
 62
     7
100
AcDbLine
 10
228.8011388465266
 20
-39.50877219109469
 30
0.0
 11
273.8009388465267
 21
-39.50877219109469
 31
0.0
  0
LINE
  5
5FA
330
1F
100
AcDbEntity
  8
0
  6
Continuous
 62
     7
100
AcDbLine
 10
273.8009388465267
 20
-35.30877219109464
 30
0.0
 11
273.8009388465267
 21
-39.50877219109469
 31
0.0
  0
LINE
  5
5FB
330
1F
100
AcDbEntity
  8
0
  6
Continuous
 62
     7
100
AcDbLine
 10
207.0716388465267
 20
-35.0988721910948
 30
0.0
 11
209.2745388465267
 21
-33.38967219109479
 31
0.0
  0
LINE
  5
5FC
330
1F
100
AcDbEntity
  8
0
  6
DASH_CENTER
 62
    30
100
AcDbLine
 10
254.8011388465266
 20
-32.06567219109473
 30
0.0
 11
254.8011388465266
 21
-46.64057219109479
 31
0.0
  0
LINE
  5
5FD
330
1F
100
AcDbEntity
  8
0
  6
Continuous
 62
     7
100
AcDbLine
 10
273.8009388465267
 20
-35.30877219109464
 30
0.0
 11
271.9791388465267
 21
-35.30877219109464
 31
0.0
  0
LINE
  5
5FE
330
1F
100
AcDbEntity
  8
0
  6
Continuous
 62
     7
100
AcDbLine
 10
270.2298388465266
 20
-34.27857219109471
 30
0.0
 11
260.8197388465267
 21
-17.30227219109468
 31
0.0
  0
LINE
  5
5FF
330
1F
100
AcDbEntity
  8
0
  6
Continuous
 62
     7
100
AcDbLine
 10
228.8011388465266
 20
-38.50877219109469
 30
0.0
 11
228.8011388465266
 21
-39.50877219109469
 31
0.0
  0
LINE
  5
600
330
1F
100
AcDbEntity
  8
0
  6
DASH_CENTER
 62
    30
100
AcDbLine
 10
142.8011388465265
 20
-32.06567219109473
 30
0.0
 11
142.8011388465265
 21
-46.64057219109479
 31
0.0
  0
LINE
  5
601
330
1F
100
AcDbEntity
  8
0
  6
DASH_CENTER
 62
    30
100
AcDbLine
 10
198.8011388465266
 20
-53.91183932802476
 30
0.0
 11
198.8011388465266
 21
105.1144278089052
 31
0.0
  0
LINE
  5
602
330
1F
100
AcDbEntity
  8
0
  6
DASH_CENTER
 62
    30
100
AcDbLine
 10
273.2831822956967
 20
31.49102780890535
 30
0.0
 11
105.7128927417547
 21
31.49102780890535
 31
0.0
  0
LINE
  5
603
330
1F
100
AcDbEntity
  8
0
  6
Continuous
 62
     7
100
AcDbLine
 10
244.8009388465268
 20
-151.2762134387399
 30
0.0
 11
264.8009388465268
 21
-151.2762134387399
 31
0.0
  0
LINE
  5
604
330
1F
100
AcDbEntity
  8
0
  6
Continuous
 62
     7
100
AcDbLine
 10
244.8009388465268
 20
-144.2762134387399
 30
0.0
 11
264.8009388465268
 21
-144.2762134387399
 31
0.0
  0
LINE
  5
605
330
1F
100
AcDbEntity
  8
0
  6
Continuous
 62
     7
100
AcDbLine
 10
273.8009388465267
 20
-147.7765134387388
 30
0.0
 11
273.8009388465267
 21
-159.3311134387388
 31
0.0
  0
LINE
  5
606
330
1F
100
AcDbEntity
  8
0
  6
Continuous
 62
     7
100
AcDbLine
 10
235.5977388465265
 20
-137.7762134387399
 30
0.0
 11
263.8011388465266
 21
-137.7762134387399
 31
0.0
  0
LINE
  5
607
330
1F
100
AcDbEntity
  8
0
  6
DASH_CENTER
 62
    30
100
AcDbLine
 10
271.3683388465266
 20
-147.7762134387399
 30
0.0
 11
235.5053388465266
 21
-147.7762134387399
 31
0.0
  0
LINE
  5
608
330
1F
100
AcDbEntity
  8
0
  6
DASH_CENTER
 62
    30
100
AcDbLine
 10
254.8009388465267
 20
-140.1793134387399
 30
0.0
 11
254.8009388465267
 21
-155.8018134387386
 31
0.0
  0
LINE
  5
609
330
1F
100
AcDbEntity
  8
0
  6
Continuous
 62
     7
100
AcDbLine
 10
134.061912444528
 20
42.08700970748274
 30
0.0
 11
133.598345025484
 21
42.16288484655961
 31
0.0
  0
LINE
  5
60A
330
1F
100
AcDbEntity
  8
0
  6
Continuous
 62
     7
100
AcDbLine
 10
133.598345025484
 20
20.81877077125108
 30
0.0
 11
134.061912444528
 21
20.89464591032885
 31
0.0
  0
LINE
  5
60B
330
1F
100
AcDbEntity
  8
0
  6
Continuous
 62
     7
100
AcDbLine
 10
131.0113857907788
 20
24.99082780890585
 30
0.0
 11
126.5924060523144
 21
24.99082780890585
 31
0.0
  0
LINE
  5
60C
330
1F
100
AcDbEntity
  8
0
  6
Continuous
 62
     7
100
AcDbLine
 10
124.123737583174
 20
27.99082780890586
 30
0.0
 11
130.7904710903592
 21
27.99082780890586
 31
0.0
  0
LINE
  5
60D
330
1F
100
AcDbEntity
  8
0
  6
Continuous
 62
     7
100
AcDbLine
 10
127.3162111991639
 20
29.99082780890585
 30
0.0
 11
130.7169921491482
 21
29.99082780890585
 31
0.0
  0
LINE
  5
60E
330
1F
100
AcDbEntity
  8
0
  6
Continuous
 62
     7
100
AcDbLine
 10
113.5060153594283
 20
32.99082780890585
 30
0.0
 11
130.7169921491482
 21
32.99082780890585
 31
0.0
  0
LINE
  5
60F
330
1F
100
AcDbEntity
  8
0
  6
Continuous
 62
     7
100
AcDbLine
 10
127.386190952007
 20
34.99082780890585
 30
0.0
 11
130.7904710903592
 21
34.99082780890585
 31
0.0
  0
LINE
  5
610
330
1F
100
AcDbEntity
  8
0
  6
Continuous
 62
     7
100
AcDbLine
 10
114.5060153594282
 20
37.99082780890585
 30
0.0
 11
131.0113857907788
 21
37.99082780890585
 31
0.0
  0
LINE
  5
611
330
1F
100
AcDbEntity
  8
0
  6
Continuous
 62
     7
100
AcDbLine
 10
114.5060153594282
 20
34.99082780890585
 30
0.0
 11
126.3849708855311
 21
34.99082780890585
 31
0.0
  0
LINE
  5
612
330
1F
100
AcDbEntity
  8
0
  6
Continuous
 62
     7
100
AcDbLine
 10
126.3849708855311
 20
34.99082780890585
 30
0.0
 11
127.386190952007
 21
34.99082780890585
 31
0.0
  0
LINE
  5
613
330
1F
100
AcDbEntity
  8
0
  6
Continuous
 62
     7
100
AcDbLine
 10
126.3159577487783
 20
29.99082780890585
 30
0.0
 11
127.3162111991639
 21
29.99082780890585
 31
0.0
  0
LINE
  5
614
330
1F
100
AcDbEntity
  8
0
  6
Continuous
 62
     7
100
AcDbLine
 10
125.5060153594282
 20
29.99082780890585
 30
0.0
 11
113.6316732723904
 21
29.99082780890585
 31
0.0
  0
LINE
  5
615
330
1F
100
AcDbEntity
  8
0
  6
Continuous
 62
     7
100
AcDbLine
 10
125.5060153594282
 20
29.99082780890585
 30
0.0
 11
126.3159577487783
 21
29.99082780890585
 31
0.0
  0
LINE
  5
616
330
1F
100
AcDbEntity
  8
0
  6
Continuous
 62
     7
100
AcDbLine
 10
124.123737583174
 20
27.99082780890586
 30
0.0
 11
116.3408639695169
 21
27.99082780890586
 31
0.0
  0
LINE
  5
617
330
1F
100
AcDbEntity
  8
0
  6
Continuous
 62
     7
100
AcDbLine
 10
123.9821449779561
 20
24.99082780890585
 30
0.0
 11
126.5921769375532
 21
24.99082780890585
 31
0.0
  0
LINE
  5
618
330
1F
100
AcDbEntity
  8
0
  6
Continuous
 62
     7
100
AcDbLine
 10
111.5417753156595
 20
24.99082780890585
 30
0.0
 11
123.9821449779561
 21
24.99082780890585
 31
0.0
  0
LINE
  5
619
330
1F
100
AcDbEntity
  8
0
  6
Continuous
 62
     7
100
AcDbLine
 10
103.5060153594282
 20
-6.672924895693768
 30
0.0
 11
103.5060153594282
 21
7.99082780890581
 31
0.0
  0
LINE
  5
61A
330
1F
100
AcDbEntity
  8
0
  6
Continuous
 62
     7
100
AcDbLine
 10
100.5060153594282
 20
-6.672924895693768
 30
0.0
 11
100.5060153594282
 21
7.99082780890581
 31
0.0
  0
LINE
  5
61B
330
1F
100
AcDbEntity
  8
0
  6
Continuous
 62
     7
100
AcDbLine
 10
97.50601535942827
 20
-6.672924895693768
 30
0.0
 11
97.50601535942827
 21
13.99082780890585
 31
0.0
  0
LINE
  5
61C
330
1F
100
AcDbEntity
  8
0
  6
Continuous
 62
     7
100
AcDbLine
 10
94.50601535942828
 20
14.99082780890585
 30
0.0
 11
94.50601535942828
 21
-6.672924895693768
 31
0.0
  0
LINE
  5
61D
330
1F
100
AcDbEntity
  8
0
  6
Continuous
 62
     7
100
AcDbLine
 10
91.50601535942827
 20
14.99082780890585
 30
0.0
 11
91.50601535942827
 21
-6.672924895693768
 31
0.0
  0
LINE
  5
61E
330
1F
100
AcDbEntity
  8
0
  6
Continuous
 62
     7
100
AcDbLine
 10
116.3408639695169
 20
27.99082780890586
 30
0.0
 11
111.5060153594283
 21
27.99082780890586
 31
0.0
  0
LINE
  5
61F
330
1F
100
AcDbEntity
  8
0
  6
Continuous
 62
     7
100
AcDbLine
 10
113.6316732723904
 20
29.99082780890585
 30
0.0
 11
113.5060153594283
 21
29.99082780890585
 31
0.0
  0
LINE
  5
620
330
1F
100
AcDbEntity
  8
0
  6
Continuous
 62
     7
100
AcDbLine
 10
100.5060153594282
 20
13.99082780890585
 30
0.0
 11
100.5060153594282
 21
7.99082780890581
 31
0.0
  0
LINE
  5
621
330
1F
100
AcDbEntity
  8
0
  6
Continuous
 62
     7
100
AcDbLine
 10
111.5060153594283
 20
24.99082780890585
 30
0.0
 11
111.5417753156595
 21
24.99082780890585
 31
0.0
  0
LINE
  5
622
330
1F
100
AcDbEntity
  8
0
  6
Continuous
 62
     7
100
AcDbLine
 10
94.70601535942812
 20
-24.64896847489058
 30
0.0
 11
91.50601535942827
 21
-24.64896847489058
 31
0.0
  0
LINE
  5
623
330
1F
100
AcDbEntity
  8
0
  6
Continuous
 62
     7
100
AcDbLine
 10
94.70601535942812
 20
-13.7918687408212
 30
0.0
 11
94.70601535942812
 21
-24.64896847489058
 31
0.0
  0
LINE
  5
624
330
1F
100
AcDbEntity
  8
0
  6
Continuous
 62
     7
100
AcDbLine
 10
91.50601535942827
 20
-24.64896847489058
 30
0.0
 11
91.05611535942868
 21
-24.64896847489058
 31
0.0
  0
LINE
  5
625
330
1F
100
AcDbEntity
  8
0
  6
Continuous
 62
     7
100
AcDbLine
 10
91.50601535942827
 20
-24.64896847489058
 30
0.0
 11
91.50601535942827
 21
-13.7918687408212
 31
0.0
  0
LINE
  5
626
330
1F
100
AcDbEntity
  8
0
  6
Continuous
 62
     7
100
AcDbLine
 10
95.15591535942863
 20
-24.64896847489058
 30
0.0
 11
94.70601535942812
 21
-24.64896847489058
 31
0.0
  0
LINE
  5
627
330
1F
100
AcDbEntity
  8
0
  6
Continuous
 62
     7
100
AcDbLine
 10
91.05611535942868
 20
-29.44896847489076
 30
0.0
 11
95.15591535942863
 21
-29.44896847489076
 31
0.0
  0
LINE
  5
628
330
1F
100
AcDbEntity
  8
0
  6
Continuous
 62
     7
100
AcDbLine
 10
95.15591535942863
 20
-24.64896847489058
 30
0.0
 11
95.15591535942863
 21
-29.44896847489076
 31
0.0
  0
LINE
  5
629
330
1F
100
AcDbEntity
  8
0
  6
Continuous
 62
     7
100
AcDbLine
 10
91.05611535942868
 20
-24.64896847489058
 30
0.0
 11
91.05611535942868
 21
-29.44896847489076
 31
0.0
  0
LINE
  5
62A
330
1F
100
AcDbEntity
  8
0
  6
Continuous
 62
     7
100
AcDbLine
 10
95.15591535942863
 20
-29.44896847489076
 30
0.0
 11
96.33561535942831
 21
-35.07126847489077
 31
0.0
  0
LINE
  5
62B
330
1F
100
AcDbEntity
  8
0
  6
Continuous
 62
     7
100
AcDbLine
 10
91.05611535942868
 20
-29.44896847489076
 30
0.0
 11
89.87641535942808
 21
-35.07126847489077
 31
0.0
  0
LINE
  5
62C
330
1F
100
AcDbEntity
  8
0
  6
DASH_CENTER
 62
    30
100
AcDbLine
 10
93.10611535942888
 20
-31.17173972646219
 30
0.0
 11
93.10611535942888
 21
-41.61633923081922
 31
0.0
  0
LINE
  5
62D
330
1F
100
AcDbEntity
  8
0
  6
DASH_CENTER
 62
    30
100
AcDbLine
 10
98.80253111080008
 20
-35.74876847489054
 30
0.0
 11
95.25611535942848
 21
-35.74876847489054
 31
0.0
  0
LINE
  5
62E
330
1F
100
AcDbEntity
  8
0
  6
DASH_CENTER
 62
    30
100
AcDbLine
 10
95.25611535942848
 20
-35.74876847489054
 30
0.0
 11
87.34512195753328
 21
-35.74876847489054
 31
0.0
  0
ARC
  5
62F
330
1F
100
AcDbEntity
  8
0
  6
Continuous
 62
    30
100
AcDbCircle
 10
198.8012984581908
 20
31.49106804859521
 30
0.0
 40
61.00003187637693
100
AcDbArc
 50
39.68596544126414
 51
50.26069995853125
  0
ARC
  5
630
330
1F
100
AcDbEntity
  8
0
  6
Continuous
 62
    30
100
AcDbCircle
 10
198.8010290861954
 20
31.49111815069853
 30
0.0
 40
60.99996143380689
100
AcDbArc
 50
309.6859593180361
 51
320.2607060817578
  0
ARC
  5
631
330
1F
100
AcDbEntity
  8
0
  6
Continuous
 62
    30
100
AcDbCircle
 10
198.8010291883188
 20
31.49133756923752
 30
0.0
 40
60.99996143380693
100
AcDbArc
 50
219.6859593180376
 51
230.2607060817591
  0
ARC
  5
632
330
1F
100
AcDbEntity
  8
0
  6
Continuous
 62
     7
100
AcDbCircle
 10
198.8003847012059
 20
31.49108195441755
 30
0.0
 40
66.39993552563989
100
AcDbArc
 50
27.46991300345008
 51
62.52988442522672
  0
ARC
  5
633
330
1F
100
AcDbEntity
  8
0
  6
Continuous
 62
     7
100
AcDbCircle
 10
198.8011580566011
 20
31.49124701909294
 30
0.0
 40
40.99999039864829
100
AcDbArc
 50
99.15440713152555
 51
170.845930349137
  0
ARC
  5
634
330
1F
100
AcDbEntity
  8
0
  6
Continuous
 62
     7
100
AcDbCircle
 10
198.8011165708553
 20
31.49120553307217
 30
0.0
 40
36.0000074887354
100
AcDbArc
 50
102.2470358064307
 51
167.7533802199666
  0
ARC
  5
635
330
1F
100
AcDbEntity
  8
0
  6
Continuous
 62
     7
100
AcDbCircle
 10
198.8014521086603
 20
31.49109804942238
 30
0.0
 40
61.24997582215879
100
AcDbArc
 50
239.5226869080295
 51
255.4766703386778
  0
ARC
  5
636
330
1F
100
AcDbEntity
  8
0
  6
Continuous
 62
     7
100
AcDbCircle
 10
198.8011692830353
 20
31.4912580173561
 30
0.0
 40
27.00000906792737
100
AcDbArc
 50
103.0624040874492
 51
166.5066717198799
  0
ARC
  5
637
330
1F
100
AcDbEntity
  8
0
  6
Continuous
 62
     7
100
AcDbCircle
 10
198.8011388465266
 20
31.49122780890531
 30
0.0
 40
40.99999039853535
100
AcDbArc
 50
189.1542383912595
 51
260.8457616087404
  0
ARC
  5
638
330
1F
100
AcDbEntity
  8
0
  6
Continuous
 62
     7
100
AcDbCircle
 10
198.8008196364523
 20
31.49124701909294
 30
0.0
 40
40.99999039864829
100
AcDbArc
 50
9.15406965086294
 51
80.84559286847447
  0
ARC
  5
639
330
1F
100
AcDbEntity
  8
0
  6
Continuous
 62
     7
100
AcDbCircle
 10
198.8008111225611
 20
31.49125553307227
 30
0.0
 40
35.99994802021874
100
AcDbArc
 50
12.24655889346614
 51
77.75302508013652
  0
ARC
  5
63A
330
1F
100
AcDbEntity
  8
0
  6
Continuous
 62
     7
100
AcDbCircle
 10
198.8007926619202
 20
31.49127364768423
 30
0.0
 40
26.99999740131036
100
AcDbArc
 50
13.49308188037597
 51
76.9375558622624
  0
ARC
  5
63B
330
1F
100
AcDbEntity
  8
0
  6
Continuous
 62
     7
100
AcDbCircle
 10
198.8010085362091
 20
31.49128178488908
 30
0.0
 40
64.24999600591518
100
AcDbArc
 50
239.8978283405528
 51
255.1024096185488
  0
ARC
  5
63C
330
1F
100
AcDbEntity
  8
0
  6
Continuous
 62
     7
100
AcDbCircle
 10
198.8008388465267
 20
31.49122780890531
 30
0.0
 40
40.99999039853557
100
AcDbArc
 50
279.1542383912597
 51
350.8457616087401
  0
ARC
  5
63D
330
1F
100
AcDbEntity
  8
0
  6
Continuous
 62
     7
100
AcDbCircle
 10
198.8008230606468
 20
31.49121202294621
 30
0.0
 40
26.99999818693511
100
AcDbArc
 50
283.4936524249675
 51
346.5066347049968
  0
ARC
  5
63E
330
1F
100
AcDbEntity
  8
0
  6
Continuous
 62
     7
100
AcDbCircle
 10
198.8008249844028
 20
31.49121394673096
 30
0.0
 40
35.99995862629032
100
AcDbArc
 50
282.2469486801675
 51
347.7532593334086
  0
ARC
  5
63F
330
1F
100
AcDbEntity
  8
0
  6
Continuous
 62
     7
100
AcDbCircle
 10
249.3182378158696
 20
24.49122899223941
 30
0.0
 40
2.99999881666609
100
AcDbArc
 50
352.110263312995
 51
89.99998031589315
  0
ARC
  5
640
330
1F
100
AcDbEntity
  8
0
  6
Continuous
 62
     7
100
AcDbCircle
 10
242.2405895098815
 20
24.49127096119278
 30
0.0
 40
2.999956848118218
100
AcDbArc
 50
89.99905772593031
 51
170.8460411028459
  0
ARC
  5
641
330
1F
100
AcDbEntity
  8
0
  6
Continuous
 62
     7
100
AcDbCircle
 10
231.0499301024613
 20
24.49123865480339
 30
0.0
 40
2.999989154114666
100
AcDbArc
 50
347.7523426735078
 51
89.99983300004885
  0
ARC
  5
642
330
1F
100
AcDbEntity
  8
0
  6
Continuous
 62
     7
100
AcDbCircle
 10
227.9729329445054
 20
24.49122315559076
 30
0.0
 40
3.000004653320361
100
AcDbArc
 50
89.99988727986922
 51
166.5065311094233
  0
ARC
  5
643
330
1F
100
AcDbEntity
  8
0
  6
Continuous
 62
     7
100
AcDbCircle
 10
220.2368948415795
 20
24.49126842780064
 30
0.0
 40
2.999959381427413
100
AcDbArc
 50
89.99915955603615
 51
161.9152156496231
  0
ARC
  5
644
330
1F
100
AcDbEntity
  8
0
  6
Continuous
 62
     7
100
AcDbCircle
 10
220.2370507153408
 20
38.49121919883361
 30
0.0
 40
2.999991389951775
100
AcDbArc
 50
198.0832187034463
 51
269.9997733216982
  0
ARC
  5
645
330
1F
100
AcDbEntity
  8
0
  6
Continuous
 62
     7
100
AcDbCircle
 10
227.9729329445054
 20
38.49123246221985
 30
0.0
 40
3.000004653320361
100
AcDbArc
 50
193.4934688905768
 51
270.0001127201308
  0
ARC
  5
646
330
1F
100
AcDbEntity
  8
0
  6
Continuous
 62
     7
100
AcDbCircle
 10
231.0500215513109
 20
38.49120635698543
 30
0.0
 40
2.999978548129977
100
AcDbArc
 50
270.0003303166539
 51
12.24595422833336
  0
ARC
  5
647
330
1F
100
AcDbEntity
  8
0
  6
Continuous
 62
     7
100
AcDbCircle
 10
249.3183318385509
 20
38.49121976303407
 30
0.0
 40
2.99999195413695
100
AcDbArc
 50
270.000133842837
 51
7.88795905547816
  0
ARC
  5
648
330
1F
100
AcDbEntity
  8
0
  6
Continuous
 62
     7
100
AcDbCircle
 10
242.2405895091751
 20
38.49118465576238
 30
0.0
 40
2.999956847284871
100
AcDbArc
 50
189.15395888317
 51
269.999032400769
  0
ARC
  5
649
330
1F
100
AcDbEntity
  8
0
  6
Continuous
 62
     7
100
AcDbCircle
 10
198.8010790197185
 20
31.49137224222529
 30
0.0
 40
61.25000118253515
100
AcDbArc
 50
194.5231603732958
 51
210.4772244229939
  0
ARC
  5
64A
330
1F
100
AcDbEntity
  8
0
  6
Continuous
 62
     7
100
AcDbCircle
 10
198.8011928225104
 20
31.49109749858799
 30
0.0
 40
64.24999600591521
100
AcDbArc
 50
194.8975903814512
 51
210.1021716594473
  0
ARC
  5
64B
330
1F
100
AcDbEntity
  8
0
  6
Continuous
 62
     7
100
AcDbCircle
 10
198.8010790197183
 20
31.49108337558493
 30
0.0
 40
61.25000118253508
100
AcDbArc
 50
149.5227755770057
 51
165.4768396267038
  0
ARC
  5
64C
330
1F
100
AcDbEntity
  8
0
  6
Continuous
 62
     7
100
AcDbCircle
 10
198.8011928225103
 20
31.49135811922221
 30
0.0
 40
64.24999600591513
100
AcDbArc
 50
149.8978283405525
 51
165.1024096185483
  0
ARC
  5
64D
330
1F
100
AcDbEntity
  8
0
  6
Continuous
 62
     7
100
AcDbCircle
 10
198.800996404057
 20
31.49116880764907
 30
0.0
 40
61.25004427415722
100
AcDbArc
 50
104.5228727180703
 51
120.4768893228288
  0
ARC
  5
64E
330
1F
100
AcDbEntity
  8
0
  6
Continuous
 62
     7
100
AcDbCircle
 10
198.8010085362091
 20
31.4911738329215
 30
0.0
 40
64.24999600591497
100
AcDbArc
 50
104.8975903814512
 51
120.1021716594472
  0
ARC
  5
64F
330
1F
100
AcDbEntity
  8
0
  6
Continuous
 62
    30
100
AcDbCircle
 10
198.8014937221616
 20
31.49158235881075
 30
0.0
 40
60.99999336084682
100
AcDbArc
 50
129.6863556624168
 51
140.2610301441933
  0
ARC
  5
650
330
1F
100
AcDbEntity
  8
0
  6
Continuous
 62
     7
100
AcDbCircle
 10
205.8009302364552
 20
10.05521594009125
 30
0.0
 40
2.999991389951884
100
AcDbArc
 50
108.0832187034483
 51
179.9997733217013
  0
ARC
  5
651
330
1F
100
AcDbEntity
  8
0
  6
Continuous
 62
     7
100
AcDbCircle
 10
205.8009434998414
 20
2.319333710926668
 30
0.0
 40
3.000004653320366
100
AcDbArc
 50
103.4934688905781
 51
180.0001127201309
  0
ARC
  5
652
330
1F
100
AcDbEntity
  8
0
  6
Continuous
 62
     7
100
AcDbCircle
 10
205.8009173946071
 20
-0.75775489587895
 30
0.0
 40
2.999978548130118
100
AcDbArc
 50
180.0003303166516
 51
282.2459542283299
  0
ARC
  5
653
330
1F
100
AcDbEntity
  8
0
  6
Continuous
 62
     7
100
AcDbCircle
 10
205.8009308006556
 20
-19.02606518311888
 30
0.0
 40
2.999991954136929
100
AcDbArc
 50
180.0001338428376
 51
277.8879590554785
  0
ARC
  5
654
330
1F
100
AcDbEntity
  8
0
  6
Continuous
 62
     7
100
AcDbCircle
 10
205.8009450573295
 20
-11.94846489924258
 30
0.0
 40
3.000006210811633
100
AcDbArc
 50
99.15476190739171
 51
180.0001392638311
  0
ARC
  5
655
330
1F
100
AcDbEntity
  8
0
  6
Continuous
 62
     7
100
AcDbCircle
 10
191.8009326357239
 20
74.93072051705301
 30
0.0
 40
3.000006210811631
100
AcDbArc
 50
279.1547619073912
 51
0.00013926383112
  0
ARC
  5
656
330
1F
100
AcDbEntity
  8
0
  6
Continuous
 62
     7
100
AcDbCircle
 10
191.8009008306551
 20
63.74025845870533
 30
0.0
 40
3.000038016028288
100
AcDbArc
 50
359.9994146393565
 51
102.2464998420404
  0
ARC
  5
657
330
1F
100
AcDbEntity
  8
0
  6
Continuous
 62
     7
100
AcDbCircle
 10
191.8009319357396
 20
52.92701828206104
 30
0.0
 40
3.000006910802231
100
AcDbArc
 50
288.0854428454361
 51
0.00018194890303
  0
ARC
  5
658
330
1F
100
AcDbEntity
  8
0
  6
Continuous
 62
     7
100
AcDbCircle
 10
191.8009341932122
 20
60.66312190688396
 30
0.0
 40
3.000004653320363
100
AcDbArc
 50
283.4934688905758
 51
0.00011272013062
  0
ARC
  5
659
330
1F
100
AcDbEntity
  8
0
  6
Continuous
 62
     7
100
AcDbCircle
 10
191.8010326357239
 20
-11.94846489924258
 30
0.0
 40
3.000006210811641
100
AcDbArc
 50
359.9998607361689
 51
80.84523809260666
  0
ARC
  5
65A
330
1F
100
AcDbEntity
  8
0
  6
Continuous
 62
     7
100
AcDbCircle
 10
191.8010468923979
 20
-19.02606518311889
 30
0.0
 40
2.999991954136937
100
AcDbArc
 50
262.112040944518
 51
359.9998661571627
  0
ARC
  5
65B
330
1F
100
AcDbEntity
  8
0
  6
Continuous
 62
     7
100
AcDbCircle
 10
191.8010496924247
 20
-0.7577634470294
 30
0.0
 40
2.999989154114771
100
AcDbArc
 50
257.7523426735104
 51
359.9998330000503
  0
ARC
  5
65C
330
1F
100
AcDbEntity
  8
0
  6
Continuous
 62
     7
100
AcDbCircle
 10
191.801034193212
 20
2.319333710926668
 30
0.0
 40
3.000004653320368
100
AcDbArc
 50
359.999887279869
 51
76.50653110942194
  0
ARC
  5
65D
330
1F
100
AcDbEntity
  8
0
  6
Continuous
 62
     7
100
AcDbCircle
 10
191.8010474565983
 20
10.05521594009126
 30
0.0
 40
2.999991389951875
100
AcDbArc
 50
0.00022667829843
 51
71.91678129655159
  0
ARC
  5
65E
330
1F
100
AcDbEntity
  8
0
  6
Continuous
 62
     7
100
AcDbCircle
 10
155.3613461383789
 20
38.4912340197081
 30
0.0
 40
3.000006210811664
100
AcDbArc
 50
269.9998607361681
 51
350.8452380926076
  0
ARC
  5
65F
330
1F
100
AcDbEntity
  8
0
  6
Continuous
 62
     7
100
AcDbCircle
 10
205.8009434998414
 20
60.66312190688393
 30
0.0
 40
3.000004653320368
100
AcDbArc
 50
179.9998872798689
 51
256.5065311094219
  0
ARC
  5
660
330
1F
100
AcDbEntity
  8
0
  6
Continuous
 62
     7
100
AcDbCircle
 10
205.800930236455
 20
52.92703967771933
 30
0.0
 40
2.999991389951761
100
AcDbArc
 50
180.0002266783015
 51
251.9167812965532
  0
ARC
  5
661
330
1F
100
AcDbEntity
  8
0
  6
Continuous
 62
     7
100
AcDbCircle
 10
148.2836458545025
 20
38.49121976303406
 30
0.0
 40
2.999991954136966
100
AcDbArc
 50
172.1120409445216
 51
269.9998661571624
  0
ARC
  5
662
330
1F
100
AcDbEntity
  8
0
  6
Continuous
 62
     7
100
AcDbCircle
 10
205.8009768623985
 20
63.74025845870531
 30
0.0
 40
3.000038016028252
100
AcDbArc
 50
77.75350015796504
 51
180.0005853606428
  0
ARC
  5
663
330
1F
100
AcDbEntity
  8
0
  6
Continuous
 62
     7
100
AcDbCircle
 10
205.8009371031911
 20
74.93072985560407
 30
0.0
 40
2.999998256664968
100
AcDbArc
 50
180.0000390890904
 51
260.8473019798239
  0
ARC
  5
664
330
1F
100
AcDbEntity
  8
0
  6
Continuous
 62
     7
100
AcDbCircle
 10
166.5519561417425
 20
38.49120635698552
 30
0.0
 40
2.999978548130076
100
AcDbArc
 50
167.7540457716688
 51
269.9996696833476
  0
ARC
  5
665
330
1F
100
AcDbEntity
  8
0
  6
Continuous
 62
     7
100
AcDbCircle
 10
169.629044748548
 20
38.49123246221985
 30
0.0
 40
3.000004653320361
100
AcDbArc
 50
269.9998872798693
 51
346.5065311094233
  0
ARC
  5
666
330
1F
100
AcDbEntity
  8
0
  6
Continuous
 62
     7
100
AcDbCircle
 10
177.3649269777125
 20
38.49121919883372
 30
0.0
 40
2.999991389951903
100
AcDbArc
 50
270.0002266782977
 51
341.9167812965517
  0
ARC
  5
667
330
1F
100
AcDbEntity
  8
0
  6
Continuous
 62
     7
100
AcDbCircle
 10
177.3650483733709
 20
24.4912208981182
 30
0.0
 40
3.000006910802227
100
AcDbArc
 50
18.08544284543724
 51
90.00018194890342
  0
ARC
  5
668
330
1F
100
AcDbEntity
  8
0
  6
Continuous
 62
     7
100
AcDbCircle
 10
169.629044748548
 20
24.49122315559076
 30
0.0
 40
3.000004653320357
100
AcDbArc
 50
13.49346889057672
 51
90.00011272013074
  0
ARC
  5
669
330
1F
100
AcDbEntity
  8
0
  6
Continuous
 62
     7
100
AcDbCircle
 10
166.5520475905919
 20
24.49123865480329
 30
0.0
 40
2.999989154114767
100
AcDbArc
 50
90.00016699994956
 51
192.2476573264895
  0
ARC
  5
66A
330
1F
100
AcDbEntity
  8
0
  6
Continuous
 62
     7
100
AcDbCircle
 10
191.8009400298609
 20
82.00862677824821
 30
0.0
 40
2.999998816666085
100
AcDbArc
 50
0.00001968410684
 51
97.88973668700528
  0
ARC
  5
66B
330
1F
100
AcDbEntity
  8
0
  6
Continuous
 62
     7
100
AcDbCircle
 10
198.800879386761
 20
31.49121101658221
 30
0.0
 40
64.25000886080136
100
AcDbArc
 50
59.89774245286877
 51
75.10223755203563
  0
ARC
  5
66C
330
1F
100
AcDbEntity
  8
0
  6
Continuous
 62
     7
100
AcDbCircle
 10
198.8006944132063
 20
31.49128763571372
 30
0.0
 40
61.2500011825351
100
AcDbArc
 50
59.52277557700565
 51
75.47683962670369
  0
ARC
  5
66D
330
1F
100
AcDbEntity
  8
0
  6
Continuous
 62
     7
100
AcDbCircle
 10
198.8007848705431
 20
31.49135811922267
 30
0.0
 40
64.2499960059149
100
AcDbArc
 50
14.89759038145138
 51
30.10217165944718
  0
ARC
  5
66E
330
1F
100
AcDbEntity
  8
0
  6
Continuous
 62
     7
100
AcDbCircle
 10
198.8009686060094
 20
31.49091454677255
 30
0.0
 40
61.24997582215868
100
AcDbArc
 50
14.52332966132138
 51
30.47731309196949
  0
ARC
  5
66F
330
1F
100
AcDbEntity
  8
0
  6
Continuous
 62
     7
100
AcDbCircle
 10
198.8009099958537
 20
31.49139957694377
 30
0.0
 40
64.24995274924656
100
AcDbArc
 50
329.8974945998208
 51
345.1021206038895
  0
ARC
  5
670
330
1F
100
AcDbEntity
  8
0
  6
Continuous
 62
     7
100
AcDbCircle
 10
198.8008351312194
 20
31.4912188393646
 30
0.0
 40
61.24992742073175
100
AcDbArc
 50
329.5230100163625
 51
345.4769699885429
  0
ARC
  5
671
330
1F
100
AcDbEntity
  8
0
  6
Continuous
 62
     7
100
AcDbCircle
 10
198.800794031434
 20
31.49120924587701
 30
0.0
 40
64.24997092880784
100
AcDbArc
 50
284.8977579332126
 51
300.1022620618828
  0
ARC
  5
672
330
1F
100
AcDbEntity
  8
0
  6
Continuous
 62
     7
100
AcDbCircle
 10
198.8006090581039
 20
31.49113262652005
 30
0.0
 40
61.2499632841779
100
AcDbArc
 50
284.5231554053753
 51
300.4772293909166
  0
ARC
  5
673
330
1F
100
AcDbEntity
  8
0
  6
Continuous
 62
     7
100
AcDbCircle
 10
155.3613461383789
 20
24.49122159810251
 30
0.0
 40
3.000006210811652
100
AcDbArc
 50
9.154761907392039
 51
90.00013926383195
  0
ARC
  5
674
330
1F
100
AcDbEntity
  8
0
  6
Continuous
 62
     7
100
AcDbCircle
 10
148.2837398771838
 20
24.4912289922394
 30
0.0
 40
2.999998816666088
100
AcDbArc
 50
90.00001968410686
 51
187.8897366870047
  0
ARC
  5
675
330
1F
100
AcDbEntity
  8
0
  6
Continuous
 62
     7
100
AcDbCircle
 10
198.8011527086508
 20
31.49121394673092
 30
0.0
 40
35.99995862629035
100
AcDbArc
 50
192.2467406665913
 51
257.7530513198319
  0
ARC
  5
676
330
1F
100
AcDbEntity
  8
0
  6
Continuous
 62
     7
100
AcDbCircle
 10
205.8009376631926
 20
82.00862677824821
 30
0.0
 40
2.99999881666605
100
AcDbArc
 50
82.11026331300017
 51
179.9999803158925
  0
ARC
  5
677
330
1F
100
AcDbEntity
  8
0
  6
Continuous
 62
     7
100
AcDbCircle
 10
198.8011546324066
 20
31.49121202294616
 30
0.0
 40
26.99999818693505
100
AcDbArc
 50
193.493365295003
 51
256.5063475750321
  0
ARC
  5
678
330
1F
100
AcDbEntity
  8
0
  6
Continuous
 62
     7
100
AcDbCircle
 10
271.978960633388
 20
-33.30872612787486
 30
0.0
 40
2.00004607115955
100
AcDbArc
 50
209.0034224157446
 51
270.0051053127558
  0
ARC
  5
679
330
1F
100
AcDbEntity
  8
0
  6
Continuous
 62
     7
100
AcDbCircle
 10
206.4586585655179
 20
-34.30876543902896
 30
0.0
 40
1.000006752260091
100
AcDbArc
 50
269.998870192656
 51
307.8050099118111
  0
ARC
  5
67A
330
1F
100
AcDbEntity
  8
0
  6
Continuous
 62
     7
100
AcDbCircle
 10
231.3260388515265
 20
-35.80877219609365
 30
0.0
 40
0.500000005000004
100
AcDbArc
 50
179.9999994271566
 51
270.0114585829294
  0
ARC
  5
67B
330
1F
100
AcDbEntity
  8
0
  6
Continuous
 62
     7
100
AcDbCircle
 10
166.2762388415267
 20
-35.80877219609365
 30
0.0
 40
0.500000004999998
100
AcDbArc
 50
269.9885414170706
 51
0.00000057284344
  0
ARC
  5
67C
330
1F
100
AcDbEntity
  8
0
  6
Continuous
 62
     7
100
AcDbCircle
 10
191.1436296286374
 20
-34.30873479942123
 30
0.0
 40
1.000037397637453
100
AcDbArc
 50
232.195590778345
 51
270.0062574901031
  0
ARC
  5
67D
330
1F
100
AcDbEntity
  8
0
  6
Continuous
 62
     7
100
AcDbCircle
 10
125.6233428191521
 20
-33.30876985130387
 30
0.0
 40
2.000002342493333
100
AcDbArc
 50
269.9970214071764
 51
330.9973152755396
  0
ARC
  5
67E
330
1F
100
AcDbEntity
  8
0
  6
Continuous
 62
     7
100
AcDbCircle
 10
187.7148409781239
 20
-34.17971700090407
 30
0.0
 40
0.999986308686809
100
AcDbArc
 50
52.20005755706822
 51
80.42141850554449
  0
ARC
  5
67F
330
1F
100
AcDbEntity
  8
0
  6
Continuous
 62
     7
100
AcDbCircle
 10
167.2762388515268
 20
-35.80877218609364
 30
0.0
 40
0.5000000050000013
100
AcDbArc
 50
90.01145972884584
 51
180.0000005730722
  0
ARC
  5
680
330
1F
100
AcDbEntity
  8
0
  6
Continuous
 62
     7
100
AcDbCircle
 10
145.528713545502
 20
-22.15037579140591
 30
0.0
 40
9.999984019204735
100
AcDbArc
 50
45.19762225190667
 51
150.9999007826469
  0
ARC
  5
681
330
1F
100
AcDbEntity
  8
0
  6
Continuous
 62
     7
100
AcDbCircle
 10
169.9571569408689
 20
-32.94776375555442
 30
0.0
 40
5.000023860903216
100
AcDbArc
 50
65.88594125756879
 51
164.1037063012196
  0
ARC
  5
682
330
1F
100
AcDbEntity
  8
0
  6
Continuous
 62
     7
100
AcDbCircle
 10
162.2912284305463
 20
-34.30878005492976
 30
0.0
 40
1.999992136192014
100
AcDbArc
 50
270.0002983970331
 51
344.1036980077038
  0
ARC
  5
683
330
1F
100
AcDbEntity
  8
0
  6
Continuous
 62
     7
100
AcDbCircle
 10
235.3110855670033
 20
-34.30873196832289
 30
0.0
 40
2.000040223481414
100
AcDbArc
 50
195.8973420051878
 51
270.0015263152134
  0
ARC
  5
684
330
1F
100
AcDbEntity
  8
0
  6
Continuous
 62
     7
100
AcDbCircle
 10
252.0736204138463
 20
-22.15036956815906
 30
0.0
 40
10.00001925246427
100
AcDbArc
 50
28.99994654985594
 51
134.8026316169929
  0
ARC
  5
685
330
1F
100
AcDbEntity
  8
0
  6
Continuous
 62
     7
100
AcDbCircle
 10
227.6451207521843
 20
-32.94776375555438
 30
0.0
 40
5.000023860903162
100
AcDbArc
 50
15.89629369877996
 51
114.1140587424317
  0
ARC
  5
686
330
1F
100
AcDbEntity
  8
0
  6
Continuous
 62
     7
100
AcDbCircle
 10
209.8874367149295
 20
-34.17971700090409
 30
0.0
 40
0.9999863086868195
100
AcDbArc
 50
99.57858149445705
 51
127.7999424429328
  0
ARC
  5
687
330
1F
100
AcDbEntity
  8
0
  6
Continuous
 62
     7
100
AcDbCircle
 10
230.3260388415266
 20
-35.80877218609364
 30
0.0
 40
0.500000005000004
100
AcDbArc
 50
359.9999994269277
 51
89.98854027115415
  0
ARC
  5
688
330
1F
100
AcDbEntity
  8
0
  6
Continuous
 62
     7
100
AcDbCircle
 10
198.8011388465266
 20
31.49122780890531
 30
0.0
 40
65.59999999999991
100
AcDbArc
 50
180.0
 51
359.9998253177453
  0
ARC
  5
689
330
1F
100
AcDbEntity
  8
0
  6
Continuous
 62
     7
100
AcDbCircle
 10
198.8011388465266
 20
31.49122780890531
 30
0.0
 40
65.59999999999991
100
AcDbArc
 50
90.0
 51
180.0
  0
ARC
  5
68A
330
1F
100
AcDbEntity
  8
0
  6
Continuous
 62
     7
100
AcDbCircle
 10
198.8011388465266
 20
31.49122780890531
 30
0.0
 40
65.59999999999991
100
AcDbArc
 50
359.9998253177453
 51
90.0
  0
ARC
  5
68B
330
1F
100
AcDbEntity
  8
0
  6
Continuous
 62
     7
100
AcDbCircle
 10
263.8009388455267
 20
-147.7765134377388
 30
0.0
 40
10.00000000099999
100
AcDbArc
 50
359.9999999942703
 51
89.99885407868056
  0
ARC
  5
68C
330
1F
100
AcDbEntity
  8
0
  6
Continuous
 62
     7
100
AcDbCircle
 10
264.8009388465268
 20
-147.7762134387399
 30
0.0
 40
3.5
100
AcDbArc
 50
270.0
 51
90.0
  0
ARC
  5
68D
330
1F
100
AcDbEntity
  8
0
  6
Continuous
 62
     7
100
AcDbCircle
 10
244.8009388465268
 20
-147.7762134387399
 30
0.0
 40
3.5
100
AcDbArc
 50
90.0
 51
270.0
  0
ARC
  5
68E
330
1F
100
AcDbEntity
  8
0
  6
Continuous
 62
     7
100
AcDbCircle
 10
198.8004388465266
 20
31.49082780890585
 30
0.0
 40
68.09996853299491
100
AcDbArc
 50
172.4383206712307
 51
174.5228994039253
  0
ARC
  5
68F
330
1F
100
AcDbEntity
  8
0
  6
Continuous
 62
     7
100
AcDbCircle
 10
198.8004388465266
 20
31.49082780890585
 30
0.0
 40
68.09996853299569
100
AcDbArc
 50
174.5228994039253
 51
177.0539836998625
  0
ARC
  5
690
330
1F
100
AcDbEntity
  8
0
  6
Continuous
 62
     7
100
AcDbCircle
 10
198.8004388465266
 20
31.49082780890585
 30
0.0
 40
68.09996853299525
100
AcDbArc
 50
177.0539836998625
 51
178.7378757714096
  0
ARC
  5
691
330
1F
100
AcDbEntity
  8
0
  6
Continuous
 62
     7
100
AcDbCircle
 10
198.8004388465266
 20
31.49082780890585
 30
0.0
 40
68.09996853299397
100
AcDbArc
 50
178.7378757714096
 51
181.2621242285903
  0
ARC
  5
692
330
1F
100
AcDbEntity
  8
0
  6
Continuous
 62
     7
100
AcDbCircle
 10
198.8004388465266
 20
31.49082780890585
 30
0.0
 40
68.09996853299397
100
AcDbArc
 50
181.2621242285903
 51
182.9460163001374
  0
ARC
  5
693
330
1F
100
AcDbEntity
  8
0
  6
Continuous
 62
     7
100
AcDbCircle
 10
198.8004388465266
 20
31.49082780890585
 30
0.0
 40
68.09996853299525
100
AcDbArc
 50
182.9460163001374
 51
187.5616793287699
  0
ARC
  5
694
330
1F
100
AcDbEntity
  8
0
  6
Continuous
 62
     7
100
AcDbCircle
 10
125.5060153594282
 20
7.99082780890581
 30
0.0
 40
22.00000000000005
100
AcDbArc
 50
90.0
 51
114.6199773286564
  0
ARC
  5
695
330
1F
100
AcDbEntity
  8
0
  6
Continuous
 62
    30
100
AcDbCircle
 10
101.2560153594282
 20
-5.37388679001765
 30
0.0
 40
1.499999999999532
100
AcDbArc
 50
239.9999999999897
 51
300.0000000000103
  0
ARC
  5
696
330
1F
100
AcDbEntity
  8
0
  6
Continuous
 62
    30
100
AcDbCircle
 10
102.7560153594282
 20
-5.37388679001765
 30
0.0
 40
1.499999999999532
100
AcDbArc
 50
239.9999999999897
 51
300.0000000000103
  0
ARC
  5
697
330
1F
100
AcDbEntity
  8
0
  6
Continuous
 62
    30
100
AcDbCircle
 10
101.2560153594282
 20
-7.971963001370798
 30
0.0
 40
1.500000000000319
100
AcDbArc
 50
60.00000000000706
 51
119.9999999999929
  0
ARC
  5
698
330
1F
100
AcDbEntity
  8
0
  6
Continuous
 62
    30
100
AcDbCircle
 10
98.25601535942828
 20
-5.37388679001765
 30
0.0
 40
1.499999999999532
100
AcDbArc
 50
239.9999999999897
 51
300.0000000000103
  0
ARC
  5
699
330
1F
100
AcDbEntity
  8
0
  6
Continuous
 62
    30
100
AcDbCircle
 10
99.75601535942828
 20
-5.37388679001765
 30
0.0
 40
1.499999999999532
100
AcDbArc
 50
239.9999999999897
 51
300.0000000000107
  0
ARC
  5
69A
330
1F
100
AcDbEntity
  8
0
  6
Continuous
 62
    30
100
AcDbCircle
 10
98.25601535942828
 20
-7.971963001370798
 30
0.0
 40
1.500000000000319
100
AcDbArc
 50
60.00000000000706
 51
119.9999999999929
  0
ARC
  5
69B
330
1F
100
AcDbEntity
  8
0
  6
Continuous
 62
    30
100
AcDbCircle
 10
95.25601535942827
 20
-5.37388679001765
 30
0.0
 40
1.499999999999532
100
AcDbArc
 50
239.9999999999897
 51
300.0000000000103
  0
ARC
  5
69C
330
1F
100
AcDbEntity
  8
0
  6
Continuous
 62
    30
100
AcDbCircle
 10
96.75601535942828
 20
-5.37388679001765
 30
0.0
 40
1.499999999999532
100
AcDbArc
 50
239.9999999999897
 51
300.0000000000103
  0
ARC
  5
69D
330
1F
100
AcDbEntity
  8
0
  6
Continuous
 62
    30
100
AcDbCircle
 10
95.25601535942827
 20
-7.971963001370798
 30
0.0
 40
1.500000000000319
100
AcDbArc
 50
60.00000000000706
 51
119.9999999999929
  0
ARC
  5
69E
330
1F
100
AcDbEntity
  8
0
  6
Continuous
 62
    30
100
AcDbCircle
 10
92.25601535942827
 20
-5.37388679001765
 30
0.0
 40
1.499999999999532
100
AcDbArc
 50
239.9999999999897
 51
300.0000000000103
  0
ARC
  5
69F
330
1F
100
AcDbEntity
  8
0
  6
Continuous
 62
    30
100
AcDbCircle
 10
93.75601535942827
 20
-5.37388679001765
 30
0.0
 40
1.499999999999532
100
AcDbArc
 50
239.9999999999897
 51
300.0000000000103
  0
ARC
  5
6A0
330
1F
100
AcDbEntity
  8
0
  6
Continuous
 62
    30
100
AcDbCircle
 10
92.25601535942827
 20
-7.971963001370798
 30
0.0
 40
1.500000000000319
100
AcDbArc
 50
60.00000000000706
 51
119.9999999999929
  0
ARC
  5
6A1
330
1F
100
AcDbEntity
  8
0
  6
Continuous
 62
     7
100
AcDbCircle
 10
125.5060153594282
 20
7.99082780890581
 30
0.0
 40
21.99999999999994
100
AcDbArc
 50
129.4005687537373
 51
180.0
  0
ARC
  5
6A2
330
1F
100
AcDbEntity
  8
0
  6
Continuous
 62
     7
100
AcDbCircle
 10
125.5060153594282
 20
7.99082780890581
 30
0.0
 40
25.00000000000012
100
AcDbArc
 50
141.910161587509
 51
180.0
  0
ARC
  5
6A3
330
1F
100
AcDbEntity
  8
0
  6
Continuous
 62
     7
100
AcDbCircle
 10
125.5060153594282
 20
7.99082780890581
 30
0.0
 40
24.99999999999999
100
AcDbArc
 50
118.3576365763277
 51
127.0210223494105
  0
ARC
  5
6A4
330
1F
100
AcDbEntity
  8
0
  6
Continuous
 62
    30
100
AcDbCircle
 10
93.90601535942884
 20
-15.17750938687755
 30
0.0
 40
1.600000000000714
100
AcDbArc
 50
60.00000000004489
 51
119.9999999999832
  0
ARC
  5
6A5
330
1F
100
AcDbEntity
  8
0
  6
Continuous
 62
    30
100
AcDbCircle
 10
93.90601535942884
 20
-12.40622809476757
 30
0.0
 40
1.599999999998809
100
AcDbArc
 50
239.9999999999678
 51
300.0000000000038
  0
ARC
  5
6A6
330
1F
100
AcDbEntity
  8
0
  6
Continuous
 62
    30
100
AcDbCircle
 10
92.30601535942849
 20
-15.17750938687755
 30
0.0
 40
1.60000000000117
100
AcDbArc
 50
60.00000000001667
 51
119.9999999999832
  0
ARC
  5
6A7
330
1F
100
AcDbEntity
  8
0
  6
Continuous
 62
     7
100
AcDbCircle
 10
93.1061653594285
 20
-35.74876847489054
 30
0.0
 40
3.299966800211993
100
AcDbArc
 50
168.1508663061898
 51
11.8491336938101
  0
CIRCLE
  5
6A8
330
1F
100
AcDbEntity
  8
0
  6
Continuous
 62
    30
100
AcDbCircle
 10
241.9347388465266
 20
74.62482780890519
 30
0.0
 40
1.599999999999909
  0
CIRCLE
  5
6A9
330
1F
100
AcDbEntity
  8
0
  6
Continuous
 62
     7
100
AcDbCircle
 10
241.9347388465266
 20
74.62482780890519
 30
0.0
 40
2.0
  0
CIRCLE
  5
6AA
330
1F
100
AcDbEntity
  8
0
  6
Continuous
 62
     7
100
AcDbCircle
 10
241.9347388465266
 20
74.62482780890519
 30
0.0
 40
3.5
  0
CIRCLE
  5
6AB
330
1F
100
AcDbEntity
  8
0
  6
Continuous
 62
    30
100
AcDbCircle
 10
241.9347388465266
 20
-11.64227219109483
 30
0.0
 40
1.599999999999909
  0
CIRCLE
  5
6AC
330
1F
100
AcDbEntity
  8
0
  6
Continuous
 62
     7
100
AcDbCircle
 10
241.9347388465266
 20
-11.64227219109483
 30
0.0
 40
2.0
  0
CIRCLE
  5
6AD
330
1F
100
AcDbEntity
  8
0
  6
Continuous
 62
     7
100
AcDbCircle
 10
241.9347388465266
 20
-11.64227219109483
 30
0.0
 40
3.5
  0
CIRCLE
  5
6AE
330
1F
100
AcDbEntity
  8
0
  6
Continuous
 62
    30
100
AcDbCircle
 10
155.6676388465268
 20
-11.64237219109481
 30
0.0
 40
1.600000000000139
  0
CIRCLE
  5
6AF
330
1F
100
AcDbEntity
  8
0
  6
Continuous
 62
     7
100
AcDbCircle
 10
155.6676388465268
 20
-11.64237219109481
 30
0.0
 40
1.999999999999998
  0
CIRCLE
  5
6B0
330
1F
100
AcDbEntity
  8
0
  6
Continuous
 62
     7
100
AcDbCircle
 10
155.6676388465268
 20
-11.64237219109481
 30
0.0
 40
3.499999999999998
  0
CIRCLE
  5
6B1
330
1F
100
AcDbEntity
  8
0
  6
Continuous
 62
     7
100
AcDbCircle
 10
198.8008388465267
 20
31.49102780890535
 30
0.0
 40
7.399999999999892
  0
CIRCLE
  5
6B2
330
1F
100
AcDbEntity
  8
0
  6
Continuous
 62
    30
100
AcDbCircle
 10
155.6675388465268
 20
74.62482780890519
 30
0.0
 40
1.599999999999879
  0
CIRCLE
  5
6B3
330
1F
100
AcDbEntity
  8
0
  6
Continuous
 62
     7
100
AcDbCircle
 10
155.6675388465268
 20
74.62482780890519
 30
0.0
 40
2.0
  0
CIRCLE
  5
6B4
330
1F
100
AcDbEntity
  8
0
  6
Continuous
 62
     7
100
AcDbCircle
 10
155.6675388465268
 20
74.62482780890519
 30
0.0
 40
3.5
  0
CIRCLE
  5
6B5
330
1F
100
AcDbEntity
  8
0
  6
Continuous
 62
     7
100
AcDbCircle
 10
198.8008388465267
 20
31.49102780890535
 30
0.0
 40
7.0
  0
CIRCLE
  5
6B6
330
1F
100
AcDbEntity
  8
0
  6
Continuous
 62
     7
100
AcDbCircle
 10
198.8008388465267
 20
31.49122780890531
 30
0.0
 40
17.25
  0
CIRCLE
  5
6B7
330
1F
100
AcDbEntity
  8
0
  6
Continuous
 62
     7
100
AcDbCircle
 10
198.8008388465267
 20
31.49122780890531
 30
0.0
 40
19.54990000000001
  0
CIRCLE
  5
6B8
330
1F
100
AcDbEntity
  8
0
  6
Continuous
 62
     7
100
AcDbCircle
 10
198.8008388465267
 20
31.49122780890531
 30
0.0
 40
7.75
  0
CIRCLE
  5
6B9
330
1F
100
AcDbEntity
  8
0
  6
Continuous
 62
     7
100
AcDbCircle
 10
198.8008388465267
 20
31.49122780890531
 30
0.0
 40
54.0
  0
CIRCLE
  5
6BA
330
1F
100
AcDbEntity
  8
0
  6
Continuous
 62
     7
100
AcDbCircle
 10
93.10611535942888
 20
-35.74876847489054
 30
0.0
 40
2.149999999999636
  0
SPLINE
  5
6BB
330
1F
100
AcDbEntity
  8
0
  6
Continuous
 62
    54
100
AcDbSpline
210
0.0
220
0.0
230
1.0
 70
     8
 71
     3
 72
   141
 73
   137
 74
   135
 42
0.0000000001
 43
0.0000000001
 44
0.00000001
 40
0.0
 40
0.0
 40
0.0
 40
0.0
 40
0.2626125722552768
 40
0.5252229897640282
 40
0.7878464660566536
 40
1.075428894538358
 40
1.363038469517741
 40
1.650586370737162
 40
1.931165997058319
 40
2.211798652446482
 40
2.492417660816398
 40
2.793855024798078
 40
3.095312440914874
 40
3.396867360776563
 40
3.698451587454406
 40
4.131419367173728
 40
4.564261333664341
 40
4.997082101088667
 40
5.504456529644761
 40
6.011845427821803
 40
6.017628938580511
 40
6.023412446105805
 40
6.029184323753074
 40
6.034956207770055
 40
6.392597960614832
 40
6.750241790400278
 40
7.107879068242035
 40
7.458869678834052
 40
7.809872634915703
 40
8.160857351961498
 40
8.662250235285425
 40
9.163667674269147
 40
9.665963731559015
 40
10.16826034608039
 40
10.67057205969123
 40
11.53513511739652
 40
12.3996672744228
 40
13.15108807270355
 40
13.90254681865546
 40
14.34352127109253
 40
14.78447779930967
 40
15.22546558312039
 40
15.66670408180176
 40
15.94520950941987
 40
16.22377830584744
 40
16.50228001026634
 40
16.78067696223622
 40
17.05903809259496
 40
17.33755265406568
 40
17.60555161429053
 40
17.87365499845003
 40
18.14164887677168
 40
18.40945504999442
 40
18.67714768750741
 40
18.95195816673649
 40
19.22705363335513
 40
19.50247915331793
 40
19.77817141596864
 40
20.0539719455857
 40
20.32963988899172
 40
20.62920858574782
 40
20.92853756368644
 40
21.22780795498952
 40
21.52710147147615
 40
21.82640832152134
 40
22.12563524598784
 40
22.45504233936309
 40
22.78431214062602
 40
23.11352656920964
 40
23.44269033167593
 40
23.7717368164603
 40
24.13304127693781
 40
24.49434029182028
 40
24.85579325322686
 40
25.21743423172724
 40
25.57918777449541
 40
25.94088462366806
 40
26.51623964039977
 40
27.09123668120899
 40
27.66612082861328
 40
28.24100476126294
 40
29.19453933397102
 40
30.14813028236434
 40
30.86917923654552
 40
31.59022136773085
 40
32.31126706812885
 40
32.81978126287591
 40
33.32830297845307
 40
33.83682121827254
 40
34.34537023208765
 40
34.8876894593363
 40
35.42995946351243
 40
35.97207848225599
 40
36.45475494073454
 40
36.9375107657844
 40
37.42039946419994
 40
37.9033595223684
 40
38.41333129220638
 40
38.92320624963219
 40
39.43298700024074
 40
39.94276972224133
 40
40.41621510374445
 40
40.88973934494173
 40
41.36324863011895
 40
41.83667380712258
 40
42.35248327591791
 40
42.86833599801297
 40
43.38431243746252
 40
43.90038956571917
 40
44.41646096010017
 40
45.30530436082286
 40
46.19393822957703
 40
47.08256538739851
 40
47.76074793111808
 40
48.43893529127583
 40
49.11712161447479
 40
49.61240291207175
 40
50.10770005288018
 40
50.60300444592151
 40
51.09835660715096
 40
51.47019034914702
 40
51.84200607556409
 40
52.21375512448329
 40
52.58544661174294
 40
52.88720975880588
 40
53.18899926557897
 40
53.49091296168175
 40
53.67862654352673
 40
53.86630490942537
 40
54.05389867814411
 40
54.24150005309823
 40
54.41175084459153
 40
54.58197677432695
 40
54.75206400148847
 40
54.92310382909676
 40
55.09419135664021
 40
55.09419135664021
 40
55.09419135664021
 40
55.09419135664021
 10
235.5976388465265
 20
-137.7762134387399
 30
0.0
 10
235.580400050797
 20
-137.8620369993192
 30
0.0
 10
235.545922608533
 20
-138.0336834178293
 30
0.0
 10
235.4972236796532
 20
-138.2917557539377
 30
0.0
 10
235.4529168160062
 20
-138.5590828717866
 30
0.0
 10
235.4168173874941
 20
-138.8360832259903
 30
0.0
 10
235.3910669195336
 20
-139.1225902951785
 30
0.0
 10
235.3780136285042
 20
-139.4076416649376
 30
0.0
 10
235.3784485649247
 20
-139.6906590212732
 30
0.0
 10
235.3909020491949
 20
-139.9710703960461
 30
0.0
 10
235.4148702875542
 20
-140.2576996327152
 30
0.0
 10
235.4501724749145
 20
-140.5501424131546
 30
0.0
 10
235.4957702636571
 20
-140.848197759325
 30
0.0
 10
235.5488923353485
 20
-141.1450386796609
 30
0.0
 10
235.6161528105532
 20
-141.4838078153114
 30
0.0
 10
235.6977785248573
 20
-141.864299622405
 30
0.0
 10
235.7946138157061
 20
-142.28621725734
 30
0.0
 10
235.9016594393821
 20
-142.7312077596805
 30
0.0
 10
236.0179006789426
 20
-143.1995265505388
 30
0.0
 10
236.1001458068494
 20
-143.5296173628658
 30
0.0
 10
236.1414582192507
 20
-143.6975971283161
 30
0.0
 10
236.1428380161427
 20
-143.703209641652
 30
0.0
 10
236.1442162792699
 20
-143.7088185411562
 30
0.0
 10
236.1735715297251
 20
-143.8283278882555
 30
0.0
 10
236.2303649158792
 20
-144.0618762641064
 30
0.0
 10
236.3115433100158
 20
-144.4101905946828
 30
0.0
 10
236.3871615425359
 20
-144.7574959836224
 30
0.0
 10
236.4555921564386
 20
-145.1040379214116
 30
0.0
 10
236.5167415674823
 20
-145.4496868323117
 30
0.0
 10
236.5785164875171
 20
-145.8460579592396
 30
0.0
 10
236.6365467484702
 20
-146.2936369753643
 30
0.0
 10
236.6894383902864
 20
-146.7925732826961
 30
0.0
 10
236.7341329651036
 20
-147.2925992145048
 30
0.0
 10
236.773042143517
 20
-147.7933981785259
 30
0.0
 10
236.8171231595499
 20
-148.4148954629328
 30
0.0
 10
236.8678749943892
 20
-149.1569638378265
 30
0.0
 10
236.9256755380961
 20
-149.9817819761554
 30
0.0
 10
236.9856542208074
 20
-150.7686435578124
 30
0.0
 10
237.0409700016025
 20
-151.4142436337842
 30
0.0
 10
237.0930850817194
 20
-151.9562158055079
 30
0.0
 10
237.1414416212374
 20
-152.394551367971
 30
0.0
 10
237.1987181783272
 20
-152.8319162106768
 30
0.0
 10
237.2591822577254
 20
-153.2141363940674
 30
0.0
 10
237.3199856346612
 20
-153.541332137016
 30
0.0
 10
237.3775936180035
 20
-153.8138683919629
 30
0.0
 10
237.4429270735112
 20
-154.0846294203844
 30
0.0
 10
237.5169802984797
 20
-154.3530773567435
 30
0.0
 10
237.6007488650598
 20
-154.6186723086731
 30
0.0
 10
237.6939911125656
 20
-154.8774259964994
 30
0.0
 10
237.7970674375214
 20
-155.1287348942252
 30
0.0
 10
237.9100198847112
 20
-155.3719146065014
 30
0.0
 10
238.0347175012408
 20
-155.6092306713404
 30
0.0
 10
238.1716426251193
 20
-155.8395677266429
 30
0.0
 10
238.3225865842572
 20
-156.0637449897421
 30
0.0
 10
238.4883706238922
 20
-156.2802683206967
 30
0.0
 10
238.6683061941697
 20
-156.4885766468502
 30
0.0
 10
238.8599157886685
 20
-156.6865942016338
 30
0.0
 10
239.0621377633683
 20
-156.8740904099378
 30
0.0
 10
239.2739147178414
 20
-157.0508355625255
 30
0.0
 10
239.5006731754667
 20
-157.2214801273676
 30
0.0
 10
239.7423532070518
 20
-157.3847404284842
 30
0.0
 10
239.9987524134135
 20
-157.5395530986541
 30
0.0
 10
240.2622796297961
 20
-157.6816792964559
 30
0.0
 10
240.5320931801864
 20
-157.8114343246343
 30
0.0
 10
240.8073541123878
 20
-157.9291339767548
 30
0.0
 10
241.0967095155613
 20
-158.0386852771366
 30
0.0
 10
241.3999331025881
 20
-158.1390532557064
 30
0.0
 10
241.7167406306436
 20
-158.2292259166894
 30
0.0
 10
242.0368447923767
 20
-158.306509465497
 30
0.0
 10
242.3596052754881
 20
-158.3714002765898
 30
0.0
 10
242.6950787508675
 20
-158.4261412692809
 30
0.0
 10
243.0429680656132
 20
-158.4698955063074
 30
0.0
 10
243.4029055968609
 20
-158.502552246636
 30
0.0
 10
243.7637782422664
 20
-158.5240930380346
 30
0.0
 10
244.1252410416572
 20
-158.5358495817741
 30
0.0
 10
244.4869513077552
 20
-158.5391519086671
 30
0.0
 10
244.9198834515172
 20
-158.5345750054812
 30
0.0
 10
245.4237005277728
 20
-158.5187531765408
 30
0.0
 10
245.9980252537344
 20
-158.4887107355564
 30
0.0
 10
246.5716216926513
 20
-158.4494352701927
 30
0.0
 10
247.2705068512146
 20
-158.3936174730175
 30
0.0
 10
248.094612764993
 20
-158.3205633287828
 30
0.0
 10
248.9674192713773
 20
-158.2450176681112
 30
0.0
 10
249.7638687027341
 20
-158.1866555558423
 30
0.0
 10
250.4836928144998
 20
-158.1442224508806
 30
0.0
 10
251.1333686364694
 20
-158.1171140307223
 30
0.0
 10
251.7125748662976
 20
-158.1028782771493
 30
0.0
 10
252.2210973463605
 20
-158.0984413593362
 30
0.0
 10
252.7296359677694
 20
-158.1029230977467
 30
0.0
 10
253.2492612811609
 20
-158.117499655194
 30
0.0
 10
253.7797013601934
 20
-158.1438631028934
 30
0.0
 10
254.3205119501828
 20
-158.1839211237921
 30
0.0
 10
254.8403161958952
 20
-158.2361887355931
 30
0.0
 10
255.3388297043066
 20
-158.2998343636522
 30
0.0
 10
255.8165022527818
 20
-158.3699546652832
 30
0.0
 10
256.2933568909474
 20
-158.4459639106457
 30
0.0
 10
256.778701559509
 20
-158.5262489994842
 30
0.0
 10
257.2729694784417
 20
-158.6077115486823
 30
0.0
 10
257.7765513204196
 20
-158.6876175102672
 30
0.0
 10
258.2809559760827
 20
-158.7617869292624
 30
0.0
 10
258.7745079126427
 20
-158.8259326100883
 30
0.0
 10
259.2573038557842
 20
-158.8782342570735
 30
0.0
 10
259.7290582955424
 20
-158.9192004991641
 30
0.0
 10
260.2015978225023
 20
-158.9497474076069
 30
0.0
 10
260.6888005088982
 20
-158.9700708005279
 30
0.0
 10
261.1904751636771
 20
-158.9785703471819
 30
0.0
 10
261.7063824269869
 20
-158.9758445666753
 30
0.0
 10
262.222228068881
 20
-158.963509753803
 30
0.0
 10
262.7378934996762
 20
-158.9434195779334
 30
0.0
 10
263.3774203752305
 20
-158.9111647240021
 30
0.0
 10
264.1405264287246
 20
-158.8644585408772
 30
0.0
 10
265.027052538128
 20
-158.8022394488696
 30
0.0
 10
265.8432728823663
 20
-158.7414458037615
 30
0.0
 10
266.5895578660028
 20
-158.6861170832435
 30
0.0
 10
267.2661891191095
 20
-158.6401163878343
 30
0.0
 10
267.8824675419594
 20
-158.6056140332138
 30
0.0
 10
268.4382833086329
 20
-158.5830667635556
 30
0.0
 10
268.9334360820065
 20
-158.5703822642472
 30
0.0
 10
269.4287610404614
 20
-158.5660608160563
 30
0.0
 10
269.8829322458311
 20
-158.5706583880724
 30
0.0
 10
270.2957853851453
 20
-158.5823570173192
 30
0.0
 10
270.6672076836751
 20
-158.599614411181
 30
0.0
 10
271.0381538445721
 20
-158.6245203556014
 30
0.0
 10
271.3851747312529
 20
-158.6558987158368
 30
0.0
 10
271.7081936896795
 20
-158.6926957136895
 30
0.0
 10
272.0071800837722
 20
-158.7342254628668
 30
0.0
 10
272.2673845807989
 20
-158.7779211626458
 30
0.0
 10
272.4890059873844
 20
-158.8210905410059
 30
0.0
 10
272.6721935201118
 20
-158.8619632124779
 30
0.0
 10
272.8538429284075
 20
-158.9091136829343
 30
0.0
 10
273.0278253190569
 20
-158.9621253535177
 30
0.0
 10
273.1936867845461
 20
-159.0212689552939
 30
0.0
 10
273.351033998353
 20
-159.0863158823051
 30
0.0
 10
273.5048380408352
 20
-159.1600292398885
 30
0.0
 10
273.6541370624228
 20
-159.2430107341294
 30
0.0
 10
273.7519337043564
 20
-159.3016764816347
 30
0.0
 10
273.8008388465268
 20
-159.3310134387388
 30
0.0
 11
235.5976388465265
 21
-137.7762134387399
 31
0.0
 11
235.546425460466
 21
-138.0337839276162
 31
0.0
 11
235.4981833028677
 21
-138.2919252185256
 31
0.0
 11
235.4557092312206
 21
-138.5510912730555
 31
0.0
 11
235.4187222989233
 21
-138.8362852772763
 31
0.0
 11
235.3931639145126
 21
-139.1227569798981
 31
0.0
 11
235.3802019240758
 21
-139.4100125838635
 31
0.0
 11
235.3804518161537
 21
-139.6905920983979
 31
0.0
 11
235.392724988492
 21
-139.970956247786
 31
0.0
 11
235.4159388465268
 21
-140.2506134387388
 31
0.0
 11
235.4517479001986
 21
-140.5499162885391
 31
0.0
 11
235.4970176547261
 21
-140.8479552506305
 31
0.0
 11
235.549824180607
 21
-141.1448505864425
 31
0.0
 11
235.6082435483386
 21
-141.4407225574039
 31
0.0
 11
235.6987932440606
 21
-141.8641158153119
 31
0.0
 11
235.7953502611623
 21
-142.2860505382556
 31
0.0
 11
235.8963127931988
 21
-142.7069310247359
 31
0.0
 11
236.0179728662156
 21
-143.1995034940356
 31
0.0
 11
236.1400769419316
 21
-143.6919809948899
 31
0.0
 11
236.1414581432025
 21
-143.6975971572601
 31
0.0
 11
236.1428388465266
 21
-143.7032134387388
 31
0.0
 11
236.1442162003004
 21
-143.7088185674778
 31
0.0
 11
236.1455930455526
 21
-143.7144238277108
 31
0.0
 11
236.2298098713879
 21
-144.0620085651733
 31
0.0
 11
236.3106957182928
 21
-144.4103856437195
 31
0.0
 11
236.3864888136296
 21
-144.7598993477608
 31
0.0
 11
236.4544494612174
 21
-145.1042476586584
 31
0.0
 11
236.515560014268
 21
-145.4498899240171
 31
0.0
 11
236.5695712928805
 21
-145.7966939803666
 31
0.0
 11
236.6346095145015
 21
-146.2938507498114
 31
0.0
 11
236.6880388465266
 21
-146.7924134387399
 31
0.0
 11
236.7331643059376
 21
-147.2926783907708
 31
0.0
 11
236.7724798405265
 21
-147.7934339976255
 31
0.0
 11
236.8084252703008
 21
-148.2944579329379
 31
0.0
 11
236.868116699226
 21
-149.1569579120881
 31
0.0
 11
236.9292516900038
 21
-150.0193257937166
 31
0.0
 11
236.9868260560906
 21
-150.7685376517866
 31
0.0
 11
237.0514388465266
 21
-151.5172134387389
 31
0.0
 11
237.0941102380241
 21
-151.9561184626051
 31
0.0
 11
237.1429251330475
 21
-152.3943647012961
 31
0.0
 11
237.2006480857061
 21
-152.8315583496203
 31
0.0
 11
237.2700436501087
 21
-153.2673056023858
 31
0.0
 11
237.3211009443555
 21
-153.5410909670281
 31
0.0
 11
237.3788875895396
 21
-153.8136001924845
 31
0.0
 11
237.4443919650918
 21
-154.0842888995406
 31
0.0
 11
237.5186024504428
 21
-154.3526127089818
 31
0.0
 11
237.6025074250235
 21
-154.6180272415935
 31
0.0
 11
237.6970952682647
 21
-154.8799881181617
 31
0.0
 11
237.7989215167453
 21
-155.1278890213401
 31
0.0
 11
237.9119986992279
 21
-155.3709794888584
 31
0.0
 11
238.0367971152966
 21
-155.6081420368455
 31
0.0
 11
238.1737870645349
 21
-155.8382591814295
 31
0.0
 11
238.3234388465267
 21
-156.0602134387385
 31
0.0
 11
238.4904067175324
 21
-156.2784851262381
 31
0.0
 11
238.6701445715754
 21
-156.4867441466927
 31
0.0
 11
238.8615932085595
 21
-156.6847508043336
 31
0.0
 11
239.0636934283886
 21
-156.8722654033925
 31
0.0
 11
239.275386030967
 21
-157.0490482481004
 31
0.0
 11
239.4956118161986
 21
-157.2148596426889
 31
0.0
 11
239.7437869484815
 21
-157.3826407734378
 31
0.0
 11
239.999970472947
 21
-157.5374562728899
 31
0.0
 11
240.2633215346049
 21
-157.6796145842181
 31
0.0
 11
240.5329992784651
 21
-157.8094241505962
 31
0.0
 11
240.8081628495377
 21
-157.927193415197
 31
0.0
 11
241.0879713928327
 21
-158.0332308211939
 31
0.0
 11
241.4006588337979
 21
-158.1368435495784
 31
0.0
 11
241.7173209696755
 21
-158.2270859663166
 31
0.0
 11
242.03731613044
 21
-158.3044502806173
 31
0.0
 11
242.3600026460655
 21
-158.3694287016884
 31
0.0
 11
242.6847388465266
 21
-158.4225134387389
 31
0.0
 11
243.0431911784844
 21
-158.4678217043305
 31
0.0
 11
243.402991618444
 21
-158.5006945139619
 31
0.0
 11
243.7637887674572
 21
-158.5224582595919
 31
0.0
 11
244.1252312265759
 21
-158.5344393331795
 31
0.0
 11
244.4869675968521
 21
-158.5379641266835
 31
0.0
 11
244.8486464793377
 21
-158.5343590320628
 31
0.0
 11
245.4237319525399
 21
-158.5167495491751
 31
0.0
 11
245.9979675680364
 21
-158.487168221915
 31
0.0
 11
246.5715398201318
 21
-158.4483525724746
 31
0.0
 11
247.1446352031318
 21
-158.4030401230459
 31
0.0
 11
248.0946247321228
 21
-158.3208934473746
 31
0.0
 11
249.0448388465266
 21
-158.240713438739
 31
0.0
 11
249.7639851088816
 21
-158.1883660631091
 31
0.0
 11
250.4837981986667
 21
-158.1462843476196
 31
0.0
 11
251.2042315190286
 21
-158.1165735242259
 31
0.0
 11
251.7125956700856
 21
-158.1042213502558
 31
0.0
 11
252.2210992597138
 21
-158.0999278006226
 31
0.0
 11
252.7295964672956
 21
-158.1045527468235
 31
0.0
 11
253.2379414722139
 21
-158.1189560603559
 31
0.0
 11
253.7795832678961
 21
-158.1460542046755
 31
0.0
 11
254.3203583526356
 21
-158.1862918134761
 31
0.0
 11
254.8597388465267
 21
-158.240713438739
 31
0.0
 11
255.3385943816322
 21
-158.3013264741911
 31
0.0
 11
255.8163065774492
 21
-158.3709270818182
 31
0.0
 11
256.2932566816702
 21
-158.4464260429516
 31
0.0
 11
256.7698259419878
 21
-158.5247341389228
 31
0.0
 11
257.2730834570293
 21
-158.6072149219575
 31
0.0
 11
257.776729874236
 21
-158.6866677924321
 31
0.0
 11
258.2811536454896
 21
-158.7603771721991
 31
0.0
 11
258.7867432226715
 21
-158.8256274831108
 31
0.0
 11
259.2574410583732
 21
-158.8765595625184
 31
0.0
 11
259.7291952403309
 21
-158.9174643151231
 31
0.0
 11
260.2017223194225
 21
-158.9479471406289
 31
0.0
 11
260.6747388465266
 21
-158.9676134387389
 31
0.0
 11
261.190468985807
 21
-158.9766595153355
 31
0.0
 11
261.7063160520498
 21
-158.9742439197969
 31
0.0
 11
262.2221523413451
 21
-158.9622185853698
 31
0.0
 11
262.7378501497835
 21
-158.9424354453005
 31
0.0
 11
263.2532817734555
 21
-158.9167464328359
 31
0.0
 11
264.1405067615593
 21
-158.8631328962473
 31
0.0
 11
265.0270081971614
 21
-158.8016076400036
 31
0.0
 11
265.9132317429235
 21
-158.7362926164319
 31
0.0
 11
266.5896064790463
 21
-158.6868074795205
 31
0.0
 11
267.2662763640236
 21
-158.6414647617047
 31
0.0
 11
267.9434388465267
 21
-158.6042134387388
 31
0.0
 11
268.4383196147745
 21
-158.5842989000331
 31
0.0
 11
268.9334584233944
 21
-158.5717762099091
 31
0.0
 11
269.4287453511723
 21
-158.5676167861438
 31
0.0
 11
269.9240704768945
 21
-158.5727920465148
 31
0.0
 11
270.2957506292189
 21
-158.5834782978574
 31
0.0
 11
270.6671584041056
 21
-158.600890910264
 31
0.0
 11
271.0380618245873
 21
-158.6259509969633
 31
0.0
 11
271.4082289136958
 21
-158.6595796711838
 31
0.0
 11
271.7080315146755
 21
-158.6939220253306
 31
0.0
 11
272.0069250861141
 21
-158.7356298094707
 31
0.0
 11
272.3046388465267
 21
-158.7858134387388
 31
0.0
 11
272.4888462413543
 21
-158.8219247174471
 31
0.0
 11
272.6719706456008
 21
-158.8630175579303
 31
0.0
 11
272.8534891849121
 21
-158.9103719862835
 31
0.0
 11
273.0328789849347
 21
-158.9652680286028
 31
0.0
 11
273.1931921469819
 21
-159.0225831401903
 31
0.0
 11
273.3504462594209
 21
-159.087759909143
 31
0.0
 11
273.5037627219587
 21
-159.1614058669909
 31
0.0
 11
273.6536418433879
 21
-159.2438126124342
 31
0.0
 11
273.8008388465268
 21
-159.3310134387388
 31
0.0
  0
ARC
  5
6BC
330
1F
100
AcDbEntity
  8
0
  6
Continuous
 62
     7
100
AcDbCircle
 10
133.2752905443455
 20
40.18914833876152
 30
0.0
 40
1.999999999999686
100
AcDbArc
 50
80.70444615504191
 51
172.4383206712301
  0
ARC
  5
6BD
330
1F
100
AcDbEntity
  8
0
  6
Continuous
 62
     7
100
AcDbCircle
 10
133.2752905443455
 20
22.79250727904918
 30
0.0
 40
1.999999999999741
100
AcDbArc
 50
187.5616793287665
 51
279.295553844958
  0
ARC
  5
6BE
330
1F
100
AcDbEntity
  8
0
  6
Continuous
 62
     7
100
AcDbCircle
 10
111.5060153594283
 20
13.99082780890585
 30
0.0
 40
11.0
100
AcDbArc
 50
90.0
 51
121.0649952274494
  0
ARC
  5
6BF
330
1F
100
AcDbEntity
  8
0
  6
Continuous
 62
     7
100
AcDbCircle
 10
111.5060153594283
 20
13.99082780890585
 30
0.0
 40
14.0
100
AcDbArc
 50
90.0
 51
94.31230445598918
  0
ARC
  5
6C0
330
1F
100
AcDbEntity
  8
0
  6
Continuous
 62
     7
100
AcDbCircle
 10
111.5060153594283
 20
13.99082780890585
 30
0.0
 40
11.00000000000002
100
AcDbArc
 50
121.0649952274494
 51
180.0
  0
ARC
  5
6C1
330
1F
100
AcDbEntity
  8
0
  6
Continuous
 62
     7
100
AcDbCircle
 10
111.5060153594283
 20
13.99082780890585
 30
0.0
 40
13.9999999999996
100
AcDbArc
 50
94.31230445598918
 51
180.0
  0
ARC
  5
6C2
330
1F
100
AcDbEntity
  8
0
  6
Continuous
 62
     7
100
AcDbCircle
 10
114.5060153594282
 20
14.99082780890585
 30
0.0
 40
23.0
100
AcDbArc
 50
90.0
 51
180.0
  0
ARC
  5
6C3
330
1F
100
AcDbEntity
  8
0
  6
Continuous
 62
     7
100
AcDbCircle
 10
114.5060153594282
 20
14.99082780890585
 30
0.0
 40
20.0
100
AcDbArc
 50
90.0
 51
180.0
  0
ARC
  5
6C4
330
1F
100
AcDbEntity
  8
0
  6
Continuous
 62
     7
100
AcDbCircle
 10
113.5060153594283
 20
13.99082780890585
 30
0.0
 40
16.0
100
AcDbArc
 50
90.0
 51
180.0
  0
ARC
  5
6C5
330
1F
100
AcDbEntity
  8
0
  6
Continuous
 62
     7
100
AcDbCircle
 10
113.5060153594283
 20
13.99082780890585
 30
0.0
 40
19.0
100
AcDbArc
 50
90.0
 51
180.0
  0
LINE
  5
901
330
1F
100
AcDbEntity
  8
0
  6
Continuous
 62
     7
100
AcDbLine
 10
-187.6167611534731
 20
-12.50857219109474
 30
0.0
 11
-225.9795611534733
 21
-12.50857219109474
 31
0.0
  0
LINE
  5
902
330
1F
100
AcDbEntity
  8
0
  6
Continuous
 62
     7
100
AcDbLine
 10
-177.7083611534731
 20
-21.15497219109482
 30
0.0
 11
-176.1289611534733
 21
-33.68337219109476
 31
0.0
  0
LINE
  5
903
330
1F
100
AcDbEntity
  8
0
  6
Continuous
 62
     7
100
AcDbLine
 10
-235.8880611534733
 20
-21.15497219109482
 30
0.0
 11
-237.4673611534732
 21
-33.68337219109476
 31
0.0
  0
LINE
  5
904
330
1F
100
AcDbEntity
  8
0
  6
Continuous
 62
     7
100
AcDbLine
 10
-181.7981611534733
 20
-38.50857219109474
 30
0.0
 11
-181.7981611534733
 21
-39.50857219109474
 31
0.0
  0
LINE
  5
905
330
1F
100
AcDbEntity
  8
0
  6
Continuous
 62
     7
100
AcDbLine
 10
-151.7981611534734
 20
-36.30837219109475
 30
0.0
 11
-151.7981611534734
 21
-39.50827219109482
 31
0.0
  0
LINE
  5
906
330
1F
100
AcDbEntity
  8
0
  6
DASH_CENTER
 62
    30
100
AcDbLine
 10
-251.7981611534733
 20
-32.67207219109486
 30
0.0
 11
-251.7981611534733
 21
-42.99217219109475
 31
0.0
  0
LINE
  5
907
330
1F
100
AcDbEntity
  8
0
  6
DASH_CENTER
 62
    30
100
AcDbLine
 10
-161.7981611534734
 20
-32.67207219109486
 30
0.0
 11
-161.7981611534734
 21
-42.99217219109475
 31
0.0
  0
LINE
  5
908
330
1F
100
AcDbEntity
  8
0
  6
Continuous
 62
     7
100
AcDbLine
 10
-261.7981611534734
 20
-36.30837219109475
 30
0.0
 11
-261.7981611534734
 21
-39.50827219109482
 31
0.0
  0
LINE
  5
909
330
1F
100
AcDbEntity
  8
0
  6
Continuous
 62
     7
100
AcDbLine
 10
-231.7981611534734
 20
-38.50857219109474
 30
0.0
 11
-231.7981611534734
 21
-39.50857219109474
 31
0.0
  0
LINE
  5
90A
330
1F
100
AcDbEntity
  8
0
  6
Continuous
 62
     7
100
AcDbLine
 10
-234.2981611534733
 20
-36.30837219109475
 30
0.0
 11
-261.7981611534734
 21
-36.30837219109475
 31
0.0
  0
LINE
  5
90B
330
1F
100
AcDbEntity
  8
0
  6
Continuous
 62
     7
100
AcDbLine
 10
-162.2363611534732
 20
-28.00827219109482
 30
0.0
 11
-170.2305611534733
 21
-28.00827219109482
 31
0.0
  0
LINE
  5
90C
330
1F
100
AcDbEntity
  8
0
  6
Continuous
 62
     7
100
AcDbLine
 10
-181.7981611534733
 20
-39.50857219109474
 30
0.0
 11
-151.7981611534734
 21
-39.50827219109482
 31
0.0
  0
LINE
  5
90D
330
1F
100
AcDbEntity
  8
0
  6
Continuous
 62
     7
100
AcDbLine
 10
-256.2207611534732
 20
-31.83687219109464
 30
0.0
 11
-256.9290611534731
 21
-34.77687219109469
 31
0.0
  0
LINE
  5
90E
330
1F
100
AcDbEntity
  8
0
  6
Continuous
 62
     7
100
AcDbLine
 10
-157.3755611534733
 20
-31.83687219109464
 30
0.0
 11
-156.6672611534733
 21
-34.77687219109469
 31
0.0
  0
LINE
  5
90F
330
1F
100
AcDbEntity
  8
0
  6
Continuous
 62
     7
100
AcDbLine
 10
-231.7981611534734
 20
-39.50857219109474
 30
0.0
 11
-261.7981611534734
 21
-39.50827219109482
 31
0.0
  0
LINE
  5
910
330
1F
100
AcDbEntity
  8
0
  6
Continuous
 62
     7
100
AcDbLine
 10
-251.3599611534733
 20
-28.00827219109482
 30
0.0
 11
-243.3657611534732
 21
-28.00827219109482
 31
0.0
  0
LINE
  5
911
330
1F
100
AcDbEntity
  8
0
  6
Continuous
 62
     7
100
AcDbLine
 10
-179.2981611534733
 20
-36.30837219109475
 30
0.0
 11
-151.7981611534734
 21
-36.30837219109475
 31
0.0
  0
LINE
  5
912
330
1F
100
AcDbEntity
  8
0
  6
Continuous
 62
     7
100
AcDbLine
 10
-233.2981611534733
 20
-35.30877219109464
 30
0.0
 11
-180.2981611534733
 21
-35.30837219109475
 31
0.0
  0
LINE
  5
913
330
1F
100
AcDbEntity
  8
0
  6
Continuous
 62
     7
100
AcDbLine
 10
-231.7981611534734
 20
-38.50857219109474
 30
0.0
 11
-181.7981611534733
 21
-38.50857219109474
 31
0.0
  0
LINE
  5
914
330
1F
100
AcDbEntity
  8
0
  6
DASH_CENTER
 62
    30
100
AcDbLine
 10
-206.7982611534733
 20
114.1276278089051
 30
0.0
 11
-206.7982611534733
 21
-55.8072721910948
 31
0.0
  0
LINE
  5
915
330
1F
100
AcDbEntity
  8
0
  6
Continuous
 62
     7
100
AcDbLine
 10
-86.79826115347331
 20
25.49082780890518
 30
0.0
 11
-86.79826115347331
 21
37.49082780890518
 31
0.0
  0
LINE
  5
916
330
1F
100
AcDbEntity
  8
0
  6
Continuous
 62
     7
100
AcDbLine
 10
-113.7982611534733
 20
37.49082780890518
 30
0.0
 11
-113.7982611534733
 21
38.49082780890518
 31
0.0
  0
LINE
  5
917
330
1F
100
AcDbEntity
  8
0
  6
DASH_CENTER
 62
    30
100
AcDbLine
 10
-71.69396115347338
 20
31.49082780890518
 30
0.0
 11
-116.7982611534733
 21
31.49082780890518
 31
0.0
  0
LINE
  5
918
330
1F
100
AcDbEntity
  8
0
  6
Continuous
 62
     7
100
AcDbLine
 10
-289.5979611534731
 20
-15.14227219109483
 30
0.0
 11
-291.0110611534731
 21
-15.01877219109467
 31
0.0
  0
LINE
  5
919
330
1F
100
AcDbEntity
  8
0
  6
Continuous
 62
     7
100
AcDbLine
 10
-292.1978611534731
 20
-13.72357219109466
 30
0.0
 11
-292.1978611534731
 21
-9.560972191094768
 31
0.0
  0
LINE
  5
91A
330
1F
100
AcDbEntity
  8
0
  6
Continuous
 62
     7
100
AcDbLine
 10
-289.5979611534731
 20
-8.14227219109483
 30
0.0
 11
-291.0110611534731
 21
-8.266072191094679
 31
0.0
  0
LINE
  5
91B
330
1F
100
AcDbEntity
  8
0
  6
Continuous
 62
     7
100
AcDbLine
 10
-125.5981611534733
 20
-9.992272191094739
 30
0.0
 11
-125.9482611534732
 21
-9.642172191094859
 31
0.0
  0
LINE
  5
91C
330
1F
100
AcDbEntity
  8
0
  6
Continuous
 62
     7
100
AcDbLine
 10
-125.9482611534732
 20
-13.64217219109486
 30
0.0
 11
-125.5981611534733
 21
-13.29227219109468
 31
0.0
  0
LINE
  5
91D
330
1F
100
AcDbEntity
  8
0
  6
Continuous
 62
     7
100
AcDbLine
 10
-125.9482611534732
 20
-9.642172191094859
 30
0.0
 11
-125.9482611534732
 21
-13.64217219109486
 31
0.0
  0
LINE
  5
91E
330
1F
100
AcDbEntity
  8
0
  6
Continuous
 62
     7
100
AcDbLine
 10
-125.5981611534733
 20
-13.29227219109468
 30
0.0
 11
-125.5981611534733
 21
-9.992272191094739
 31
0.0
  0
LINE
  5
91F
330
1F
100
AcDbEntity
  8
0
  6
Continuous
 62
     7
100
AcDbLine
 10
-125.9482611534732
 20
-13.64217219109486
 30
0.0
 11
-128.2982611534733
 21
-13.64217219109486
 31
0.0
  0
LINE
  5
920
330
1F
100
AcDbEntity
  8
0
  6
Continuous
 62
    30
100
AcDbLine
 10
-128.2982611534733
 20
-13.29227219109468
 30
0.0
 11
-125.5981611534733
 21
-13.29227219109468
 31
0.0
  0
LINE
  5
921
330
1F
100
AcDbEntity
  8
0
  6
Continuous
 62
    30
100
AcDbLine
 10
-125.5981611534733
 20
-9.992272191094739
 30
0.0
 11
-128.2982611534733
 21
-9.992272191094739
 31
0.0
  0
LINE
  5
922
330
1F
100
AcDbEntity
  8
0
  6
Continuous
 62
     7
100
AcDbLine
 10
-131.1806611534732
 20
-9.621372191094847
 30
0.0
 11
-128.6157611534732
 21
-9.621372191094847
 31
0.0
  0
LINE
  5
923
330
1F
100
AcDbEntity
  8
0
  6
Continuous
 62
     7
100
AcDbLine
 10
-131.1806611534732
 20
-13.66287219109466
 30
0.0
 11
-128.6157611534732
 21
-13.66287219109466
 31
0.0
  0
LINE
  5
924
330
1F
100
AcDbEntity
  8
0
  6
Continuous
 62
     7
100
AcDbLine
 10
-128.2982611534733
 20
-15.14217219109486
 30
0.0
 11
-128.2982611534733
 21
-8.142172191094859
 31
0.0
  0
LINE
  5
925
330
1F
100
AcDbEntity
  8
0
  6
Continuous
 62
     7
100
AcDbLine
 10
-125.9482611534732
 20
-9.642172191094859
 30
0.0
 11
-128.2982611534733
 21
-9.642172191094859
 31
0.0
  0
LINE
  5
926
330
1F
100
AcDbEntity
  8
0
  6
Continuous
 62
     7
100
AcDbLine
 10
-128.2982611534733
 20
-15.14217219109486
 30
0.0
 11
-128.6158611534732
 21
-15.69217219109481
 31
0.0
  0
LINE
  5
927
330
1F
100
AcDbEntity
  8
0
  6
Continuous
 62
     7
100
AcDbLine
 10
-131.4982611534734
 20
-15.14217219109486
 30
0.0
 11
-131.1806611534732
 21
-15.69217219109481
 31
0.0
  0
LINE
  5
928
330
1F
100
AcDbEntity
  8
0
  6
Continuous
 62
     7
100
AcDbLine
 10
-128.2982611534733
 20
-8.142172191094859
 30
0.0
 11
-128.6158611534732
 21
-7.592072191094699
 31
0.0
  0
LINE
  5
929
330
1F
100
AcDbEntity
  8
0
  6
Continuous
 62
     7
100
AcDbLine
 10
-131.1806611534732
 20
-7.592372191094849
 30
0.0
 11
-128.6158611534732
 21
-7.592372191094849
 31
0.0
  0
LINE
  5
92A
330
1F
100
AcDbEntity
  8
0
  6
Continuous
 62
     7
100
AcDbLine
 10
-128.2982611534733
 20
-8.142172191094859
 30
0.0
 11
-128.2982611534733
 21
-15.14217219109486
 31
0.0
  0
LINE
  5
92B
330
1F
100
AcDbEntity
  8
0
  6
Continuous
 62
     7
100
AcDbLine
 10
-128.6158611534732
 20
-15.69217219109481
 30
0.0
 11
-131.1806611534732
 21
-15.69217219109481
 31
0.0
  0
LINE
  5
92C
330
1F
100
AcDbEntity
  8
0
  6
Continuous
 62
     7
100
AcDbLine
 10
-131.4982611534734
 20
-8.142172191094859
 30
0.0
 11
-131.1806611534732
 21
-7.592072191094699
 31
0.0
  0
LINE
  5
92D
330
1F
100
AcDbEntity
  8
0
  6
DASH_CENTER
 62
    30
100
AcDbLine
 10
-119.7100611534732
 20
-11.64237219109481
 30
0.0
 11
-137.2821611534733
 21
-11.64237219109481
 31
0.0
  0
LINE
  5
92E
330
1F
100
AcDbEntity
  8
0
  6
Continuous
 62
     7
100
AcDbLine
 10
-87.79826115347331
 20
24.49082780890518
 30
0.0
 11
-86.79826115347331
 21
25.49082780890518
 31
0.0
  0
LINE
  5
92F
330
1F
100
AcDbEntity
  8
0
  6
Continuous
 62
     7
100
AcDbLine
 10
-87.79826115347331
 20
24.49082780890518
 30
0.0
 11
-116.4982611534734
 21
24.49082780890518
 31
0.0
  0
LINE
  5
930
330
1F
100
AcDbEntity
  8
0
  6
DASH_CENTER
 62
    30
100
AcDbLine
 10
-283.4423611534731
 20
-11.64237219109481
 30
0.0
 11
-296.8165611534733
 21
-11.64237219109481
 31
0.0
  0
LINE
  5
931
330
1F
100
AcDbEntity
  8
0
  6
Continuous
 62
     7
100
AcDbLine
 10
-119.3223611534732
 20
24.09062780890538
 30
0.0
 11
-116.7982611534733
 21
24.09062780890538
 31
0.0
  0
LINE
  5
932
330
1F
100
AcDbEntity
  8
0
  6
Continuous
 62
     7
100
AcDbLine
 10
-116.7982611534733
 20
31.49082780890518
 30
0.0
 11
-116.7982611534733
 21
24.09062780890538
 31
0.0
  0
LINE
  5
933
330
1F
100
AcDbEntity
  8
0
  6
Continuous
 62
     7
100
AcDbLine
 10
-289.5979611534731
 20
31.49082780890518
 30
0.0
 11
-289.5979611534731
 21
-34.00917219109482
 31
0.0
  0
LINE
  5
934
330
1F
100
AcDbEntity
  8
0
  6
Continuous
 62
     7
100
AcDbLine
 10
-289.5979611534731
 20
-34.00917219109482
 30
0.0
 11
-287.2979611534731
 21
-34.00917219109482
 31
0.0
  0
LINE
  5
935
330
1F
100
AcDbEntity
  8
0
  6
Continuous
 62
     7
100
AcDbLine
 10
-256.7681611534733
 20
-34.10917219109473
 30
0.0
 11
-287.2982611534731
 21
-34.10927219109469
 31
0.0
  0
LINE
  5
936
330
1F
100
AcDbEntity
  8
0
  6
Continuous
 62
     7
100
AcDbLine
 10
-133.7982611534733
 20
-34.10897219109477
 30
0.0
 11
-156.8281611534733
 21
-34.10907219109475
 31
0.0
  0
LINE
  5
937
330
1F
100
AcDbEntity
  8
0
  6
Continuous
 62
     7
100
AcDbLine
 10
-121.3982611534732
 20
12.44102780890518
 30
0.0
 11
-121.3982611534732
 21
31.49082780890518
 31
0.0
  0
LINE
  5
938
330
1F
100
AcDbEntity
  8
0
  6
Continuous
 62
     7
100
AcDbLine
 10
-299.1978611534731
 20
11.94072780890525
 30
0.0
 11
-289.5980611534731
 21
11.94072780890525
 31
0.0
  0
LINE
  5
939
330
1F
100
AcDbEntity
  8
0
  6
Continuous
 62
     7
100
AcDbLine
 10
-131.4982611534734
 20
-34.00917219109482
 30
0.0
 11
-133.7982611534733
 21
-34.00917219109482
 31
0.0
  0
LINE
  5
93A
330
1F
100
AcDbEntity
  8
0
  6
Continuous
 62
     7
100
AcDbLine
 10
-299.6978611534732
 20
12.44072780890525
 30
0.0
 11
-299.6978611534732
 21
31.49082780890518
 31
0.0
  0
LINE
  5
93B
330
1F
100
AcDbEntity
  8
0
  6
Continuous
 62
     7
100
AcDbLine
 10
-87.79826115347331
 20
24.49082780890518
 30
0.0
 11
-87.79826115347331
 21
37.49082780890518
 31
0.0
  0
LINE
  5
93C
330
1F
100
AcDbEntity
  8
0
  6
Continuous
 62
     7
100
AcDbLine
 10
-113.7982611534733
 20
37.49082780890518
 30
0.0
 11
-86.79826115347331
 21
37.49082780890518
 31
0.0
  0
LINE
  5
93D
330
1F
100
AcDbEntity
  8
0
  6
Continuous
 62
     7
100
AcDbLine
 10
-116.4982611534734
 20
38.49082780890518
 30
0.0
 11
-113.7982611534733
 21
38.49082780890518
 31
0.0
  0
LINE
  5
93E
330
1F
100
AcDbEntity
  8
0
  6
Continuous
 62
     7
100
AcDbLine
 10
-287.2982611534731
 20
-34.10927219109469
 30
0.0
 11
-287.2982611534731
 21
31.49102780890535
 31
0.0
  0
LINE
  5
93F
330
1F
100
AcDbEntity
  8
0
  6
Continuous
 62
     7
100
AcDbLine
 10
-133.7982611534733
 20
-34.10897219109477
 30
0.0
 11
-133.7982611534733
 21
31.49102780890535
 31
0.0
  0
LINE
  5
940
330
1F
100
AcDbEntity
  8
0
  6
Continuous
 62
     7
100
AcDbLine
 10
-131.4982611534734
 20
31.49082780890518
 30
0.0
 11
-131.4982611534734
 21
-34.00917219109482
 31
0.0
  0
LINE
  5
941
330
1F
100
AcDbEntity
  8
0
  6
Continuous
 62
     7
100
AcDbLine
 10
-121.8982611534731
 20
11.94102780890518
 30
0.0
 11
-131.4982611534734
 21
11.94102780890518
 31
0.0
  0
LINE
  5
942
330
1F
100
AcDbEntity
  8
0
  6
Continuous
 62
     7
100
AcDbLine
 10
-133.9982611534734
 20
97.09062780890535
 30
0.0
 11
-287.0982611534732
 21
97.09092780890529
 31
0.0
  0
LINE
  5
943
330
1F
100
AcDbEntity
  8
0
  6
Continuous
 62
     7
100
AcDbLine
 10
-125.9482611534732
 20
72.62382780890522
 30
0.0
 11
-125.5981611534733
 21
72.97392780890533
 31
0.0
  0
LINE
  5
944
330
1F
100
AcDbEntity
  8
0
  6
Continuous
 62
     7
100
AcDbLine
 10
-125.5981611534733
 20
76.2739278089053
 30
0.0
 11
-125.9482611534732
 21
76.62382780890522
 31
0.0
  0
LINE
  5
945
330
1F
100
AcDbEntity
  8
0
  6
Continuous
 62
     7
100
AcDbLine
 10
-125.9482611534732
 20
76.62382780890522
 30
0.0
 11
-125.9482611534732
 21
72.62382780890522
 31
0.0
  0
LINE
  5
946
330
1F
100
AcDbEntity
  8
0
  6
Continuous
 62
     7
100
AcDbLine
 10
-125.5981611534733
 20
72.97392780890533
 30
0.0
 11
-125.5981611534733
 21
76.2739278089053
 31
0.0
  0
LINE
  5
947
330
1F
100
AcDbEntity
  8
0
  6
Continuous
 62
     7
100
AcDbLine
 10
-128.2982611534733
 20
76.62382780890522
 30
0.0
 11
-125.9482611534732
 21
76.62382780890522
 31
0.0
  0
LINE
  5
948
330
1F
100
AcDbEntity
  8
0
  6
Continuous
 62
    30
100
AcDbLine
 10
-125.5981611534733
 20
76.2739278089053
 30
0.0
 11
-128.2982611534733
 21
76.2739278089053
 31
0.0
  0
LINE
  5
949
330
1F
100
AcDbEntity
  8
0
  6
Continuous
 62
    30
100
AcDbLine
 10
-128.2982611534733
 20
72.97392780890533
 30
0.0
 11
-125.5981611534733
 21
72.97392780890533
 31
0.0
  0
LINE
  5
94A
330
1F
100
AcDbEntity
  8
0
  6
Continuous
 62
     7
100
AcDbLine
 10
-128.6157611534732
 20
72.60302780890519
 30
0.0
 11
-131.1806611534732
 21
72.60302780890519
 31
0.0
  0
LINE
  5
94B
330
1F
100
AcDbEntity
  8
0
  6
Continuous
 62
     7
100
AcDbLine
 10
-128.6157611534732
 20
76.64452780890525
 30
0.0
 11
-131.1806611534732
 21
76.64452780890525
 31
0.0
  0
LINE
  5
94C
330
1F
100
AcDbEntity
  8
0
  6
Continuous
 62
     7
100
AcDbLine
 10
-128.2982611534733
 20
71.12382780890522
 30
0.0
 11
-128.2982611534733
 21
78.12382780890522
 31
0.0
  0
LINE
  5
94D
330
1F
100
AcDbEntity
  8
0
  6
Continuous
 62
     7
100
AcDbLine
 10
-128.2982611534733
 20
72.62382780890522
 30
0.0
 11
-125.9482611534732
 21
72.62382780890522
 31
0.0
  0
LINE
  5
94E
330
1F
100
AcDbEntity
  8
0
  6
Continuous
 62
     7
100
AcDbLine
 10
-128.6158611534732
 20
78.67382780890517
 30
0.0
 11
-128.2982611534733
 21
78.12382780890522
 31
0.0
  0
LINE
  5
94F
330
1F
100
AcDbEntity
  8
0
  6
Continuous
 62
     7
100
AcDbLine
 10
-131.1806611534732
 20
78.67382780890517
 30
0.0
 11
-131.4982611534734
 21
78.12382780890522
 31
0.0
  0
LINE
  5
950
330
1F
100
AcDbEntity
  8
0
  6
Continuous
 62
     7
100
AcDbLine
 10
-128.6158611534732
 20
70.57372780890529
 30
0.0
 11
-128.2982611534733
 21
71.12382780890522
 31
0.0
  0
LINE
  5
951
330
1F
100
AcDbEntity
  8
0
  6
Continuous
 62
     7
100
AcDbLine
 10
-128.6158611534732
 20
70.57402780890519
 30
0.0
 11
-131.1806611534732
 21
70.57402780890519
 31
0.0
  0
LINE
  5
952
330
1F
100
AcDbEntity
  8
0
  6
Continuous
 62
     7
100
AcDbLine
 10
-128.2982611534733
 20
78.12382780890522
 30
0.0
 11
-128.2982611534733
 21
71.12382780890522
 31
0.0
  0
LINE
  5
953
330
1F
100
AcDbEntity
  8
0
  6
Continuous
 62
     7
100
AcDbLine
 10
-131.1806611534732
 20
78.67382780890517
 30
0.0
 11
-128.6158611534732
 21
78.67382780890517
 31
0.0
  0
LINE
  5
954
330
1F
100
AcDbEntity
  8
0
  6
Continuous
 62
     7
100
AcDbLine
 10
-131.1806611534732
 20
70.57372780890529
 30
0.0
 11
-131.4982611534734
 21
71.12382780890522
 31
0.0
  0
LINE
  5
955
330
1F
100
AcDbEntity
  8
0
  6
Continuous
 62
     7
100
AcDbLine
 10
-133.7982611534733
 20
96.9908278089052
 30
0.0
 11
-131.4982611534734
 21
96.9908278089052
 31
0.0
  0
LINE
  5
956
330
1F
100
AcDbEntity
  8
0
  6
Continuous
 62
     7
100
AcDbLine
 10
-133.7982611534733
 20
31.49062780890523
 30
0.0
 11
-133.7982611534733
 21
97.09062780890535
 31
0.0
  0
LINE
  5
957
330
1F
100
AcDbEntity
  8
0
  6
Continuous
 62
     7
100
AcDbLine
 10
-131.4982611534734
 20
96.9908278089052
 30
0.0
 11
-131.4982611534734
 21
31.49082780890518
 31
0.0
  0
LINE
  5
958
330
1F
100
AcDbEntity
  8
0
  6
DASH_CENTER
 62
    30
100
AcDbLine
 10
-137.2821611534733
 20
74.62402780890517
 30
0.0
 11
-119.7100611534732
 21
74.62402780890517
 31
0.0
  0
LINE
  5
959
330
1F
100
AcDbEntity
  8
0
  6
Continuous
 62
     7
100
AcDbLine
 10
-131.4982611534734
 20
51.04062780890519
 30
0.0
 11
-121.8982611534731
 21
51.04062780890519
 31
0.0
  0
LINE
  5
95A
330
1F
100
AcDbEntity
  8
0
  6
Continuous
 62
     7
100
AcDbLine
 10
-121.3982611534732
 20
31.49082780890518
 30
0.0
 11
-121.3982611534732
 21
50.54062780890519
 31
0.0
  0
LINE
  5
95B
330
1F
100
AcDbEntity
  8
0
  6
Continuous
 62
     7
100
AcDbLine
 10
-119.3223482140652
 20
38.89092780890524
 30
0.0
 11
-116.7982611534733
 21
38.89092780890524
 31
0.0
  0
LINE
  5
95C
330
1F
100
AcDbEntity
  8
0
  6
Continuous
 62
     7
100
AcDbLine
 10
-116.7982611534733
 20
38.89092780890524
 30
0.0
 11
-116.7982611534733
 21
31.49082780890518
 31
0.0
  0
LINE
  5
95D
330
1F
100
AcDbEntity
  8
0
  6
DASH_CENTER
 62
    30
100
AcDbLine
 10
-301.9980572517968
 20
31.49082780890518
 30
0.0
 11
-315.3741611534732
 21
31.49082780890518
 31
0.0
  0
LINE
  5
95E
330
1F
100
AcDbEntity
  8
0
  6
Continuous
 62
     7
100
AcDbLine
 10
-291.0110611534731
 20
78.00042780890527
 30
0.0
 11
-289.5979611534731
 21
78.12392780890519
 31
0.0
  0
LINE
  5
95F
330
1F
100
AcDbEntity
  8
0
  6
Continuous
 62
     7
100
AcDbLine
 10
-292.1978611534731
 20
72.54262780890538
 30
0.0
 11
-292.1978611534731
 21
76.70522780890525
 31
0.0
  0
LINE
  5
960
330
1F
100
AcDbEntity
  8
0
  6
Continuous
 62
     7
100
AcDbLine
 10
-291.0110611534731
 20
71.24772780890527
 30
0.0
 11
-289.5979611534731
 21
71.1239278089052
 31
0.0
  0
LINE
  5
961
330
1F
100
AcDbEntity
  8
0
  6
DASH_CENTER
 62
    30
100
AcDbLine
 10
-296.8165611534733
 20
74.62402780890517
 30
0.0
 11
-283.4423611534731
 21
74.62402780890517
 31
0.0
  0
LINE
  5
962
330
1F
100
AcDbEntity
  8
0
  6
Continuous
 62
     7
100
AcDbLine
 10
-289.5979611534731
 20
96.9908278089052
 30
0.0
 11
-289.5979611534731
 21
31.49082780890518
 31
0.0
  0
LINE
  5
963
330
1F
100
AcDbEntity
  8
0
  6
Continuous
 62
     7
100
AcDbLine
 10
-287.2979611534731
 20
96.9908278089052
 30
0.0
 11
-289.5979611534731
 21
96.9908278089052
 31
0.0
  0
LINE
  5
964
330
1F
100
AcDbEntity
  8
0
  6
Continuous
 62
     7
100
AcDbLine
 10
-289.5980611534731
 20
51.04092780890534
 30
0.0
 11
-299.1978611534731
 21
51.04092780890534
 31
0.0
  0
LINE
  5
965
330
1F
100
AcDbEntity
  8
0
  6
Continuous
 62
     7
100
AcDbLine
 10
-299.6978611534732
 20
31.49082780890518
 30
0.0
 11
-299.6978611534732
 21
50.54092780890535
 31
0.0
  0
LINE
  5
966
330
1F
100
AcDbEntity
  8
0
  6
Continuous
 62
     7
100
AcDbLine
 10
-287.2982611534731
 20
31.49062780890523
 30
0.0
 11
-287.2982611534731
 21
97.09092780890529
 31
0.0
  0
LINE
  5
967
330
1F
100
AcDbEntity
  8
0
  6
DASHED
 62
    30
100
AcDbLine
 10
-238.2982611534733
 20
90.40452780890523
 30
0.0
 11
-175.2982611534733
 21
90.40452780890523
 31
0.0
  0
LINE
  5
968
330
1F
100
AcDbEntity
  8
0
  6
DASHED
 62
    30
100
AcDbLine
 10
-175.2982611534733
 20
90.40452780890523
 30
0.0
 11
-175.2982611534733
 21
62.00732780890536
 31
0.0
  0
LINE
  5
969
330
1F
100
AcDbEntity
  8
0
  6
DASHED
 62
    30
100
AcDbLine
 10
-175.2982611534733
 20
62.00732780890536
 30
0.0
 11
-238.2982611534733
 21
62.00732780890536
 31
0.0
  0
LINE
  5
96A
330
1F
100
AcDbEntity
  8
0
  6
DASHED
 62
    30
100
AcDbLine
 10
-238.2982611534733
 20
62.00732780890536
 30
0.0
 11
-238.2982611534733
 21
90.40452780890523
 31
0.0
  0
LINE
  5
96B
330
1F
100
AcDbEntity
  8
0
  6
Continuous
 62
     7
100
AcDbLine
 10
-250.2982611534733
 20
36.49082780890518
 30
0.0
 11
-250.2982611534733
 21
26.77743382566683
 31
0.0
  0
LINE
  5
96C
330
1F
100
AcDbEntity
  8
0
  6
Continuous
 62
     7
100
AcDbLine
 10
-252.2982611534733
 20
21.73483908033455
 30
0.0
 11
-250.2982611534733
 21
26.77743382566683
 31
0.0
  0
LINE
  5
96D
330
1F
100
AcDbEntity
  8
0
  6
Continuous
 62
     7
100
AcDbLine
 10
-252.2982611534733
 20
21.73483908033455
 30
0.0
 11
-252.2982611534733
 21
31.49082780890518
 31
0.0
  0
LINE
  5
96E
330
1F
100
AcDbEntity
  8
0
  6
Continuous
 62
     7
100
AcDbLine
 10
-252.2982611534733
 20
13.59773492881146
 30
0.0
 11
-250.2982611534733
 21
18.64032967414464
 31
0.0
  0
LINE
  5
96F
330
1F
100
AcDbEntity
  8
0
  6
Continuous
 62
     7
100
AcDbLine
 10
-252.2982611534733
 20
13.59773492881146
 30
0.0
 11
-252.2982611534733
 21
21.73483908033455
 31
0.0
  0
LINE
  5
970
330
1F
100
AcDbEntity
  8
0
  6
Continuous
 62
     7
100
AcDbLine
 10
-250.2982611534733
 20
18.64032967414464
 30
0.0
 11
-250.2982611534733
 21
26.77743382566683
 31
0.0
  0
LINE
  5
971
330
1F
100
AcDbEntity
  8
0
  6
Continuous
 62
     7
100
AcDbLine
 10
-247.2982611534733
 20
36.49082780890518
 30
0.0
 11
-247.2982611534733
 21
20.59358045005415
 31
0.0
  0
LINE
  5
972
330
1F
100
AcDbEntity
  8
0
  6
Continuous
 62
     7
100
AcDbLine
 10
-255.2982611534734
 20
22.61670813425648
 30
0.0
 11
-255.2982611534734
 21
14.17094696233567
 31
0.0
  0
LINE
  5
973
330
1F
100
AcDbEntity
  8
0
  6
Continuous
 62
     7
100
AcDbLine
 10
-245.2982611534733
 20
21.06250100159837
 30
0.0
 11
-245.2982611534733
 21
31.49082780890518
 31
0.0
  0
LINE
  5
974
330
1F
100
AcDbEntity
  8
0
  6
Continuous
 62
     7
100
AcDbLine
 10
-255.2982611534734
 20
22.61670813425648
 30
0.0
 11
-255.2982611534734
 21
31.49082780890518
 31
0.0
  0
LINE
  5
975
330
1F
100
AcDbEntity
  8
0
  6
Continuous
 62
     7
100
AcDbLine
 10
-258.7044611456693
 20
5.58290387123548
 30
0.0
 11
-255.2982611534734
 21
14.17094696233567
 31
0.0
  0
LINE
  5
976
330
1F
100
AcDbEntity
  8
0
  6
Continuous
 62
     7
100
AcDbLine
 10
-255.2982611534734
 20
14.17094696233567
 30
0.0
 11
-255.2982611534734
 21
6.03384281081258
 31
0.0
  0
LINE
  5
977
330
1F
100
AcDbEntity
  8
0
  6
Continuous
 62
     7
100
AcDbLine
 10
-255.9157938346141
 20
4.476859284314788
 30
0.0
 11
-255.2982611534734
 21
6.03384281081258
 31
0.0
  0
LINE
  5
978
330
1F
100
AcDbEntity
  8
0
  6
Continuous
 62
     7
100
AcDbLine
 10
-255.2982611534734
 20
6.03384281081258
 30
0.0
 11
-255.2982611534734
 21
1.71109263668137
 31
0.0
  0
LINE
  5
979
330
1F
100
AcDbEntity
  8
0
  6
Continuous
 62
     7
100
AcDbLine
 10
-250.2982611534733
 20
1.71109263668137
 30
0.0
 11
-250.2982611534733
 21
18.64032967414464
 31
0.0
  0
LINE
  5
97A
330
1F
100
AcDbEntity
  8
0
  6
Continuous
 62
     7
100
AcDbLine
 10
-252.2982611534733
 20
1.71109263668137
 30
0.0
 11
-252.2982611534733
 21
13.59773492881146
 31
0.0
  0
LINE
  5
97B
330
1F
100
AcDbEntity
  8
0
  6
Continuous
 62
     7
100
AcDbLine
 10
-247.2982611534733
 20
1.71109263668137
 30
0.0
 11
-247.2982611534733
 21
20.59358045005415
 31
0.0
  0
LINE
  5
97C
330
1F
100
AcDbEntity
  8
0
  6
Continuous
 62
     7
100
AcDbLine
 10
-245.2982611534733
 20
1.71109263668137
 30
0.0
 11
-245.2982611534733
 21
21.06250100159837
 31
0.0
  0
LINE
  5
97D
330
1F
100
AcDbEntity
  8
0
  6
Continuous
 62
     7
100
AcDbLine
 10
-242.2982611534733
 20
1.71109263668137
 30
0.0
 11
-242.2982611534733
 21
22.61670813425648
 31
0.0
  0
LINE
  5
97E
330
1F
100
AcDbEntity
  8
0
  6
Continuous
 62
     7
100
AcDbLine
 10
-242.2982611534733
 20
31.49082780890518
 30
0.0
 11
-242.2982611534733
 21
22.61670813425648
 31
0.0
  0
LINE
  5
97F
330
1F
100
AcDbEntity
  8
0
  6
DASH_CENTER
 62
    30
100
AcDbLine
 10
-116.7982611534733
 20
31.49082780890518
 30
0.0
 11
-301.9980572517968
 21
31.49082780890518
 31
0.0
  0
ARC
  5
980
330
1F
100
AcDbEntity
  8
0
  6
Continuous
 62
     7
100
AcDbCircle
 10
-225.9795799461577
 20
-22.5085887632819
 30
0.0
 40
10.00001657220483
100
AcDbArc
 50
89.99989232602784
 51
172.8145405651354
  0
ARC
  5
981
330
1F
100
AcDbEntity
  8
0
  6
Continuous
 62
     7
100
AcDbCircle
 10
-170.2302540926055
 20
-20.50827841786746
 30
0.0
 40
7.499993773991513
100
AcDbArc
 50
187.1845637623877
 51
269.9991821145375
  0
ARC
  5
982
330
1F
100
AcDbEntity
  8
0
  6
Continuous
 62
     7
100
AcDbCircle
 10
-187.6167565436325
 20
-22.50857625634092
 30
0.0
 40
10.00000406524722
100
AcDbArc
 50
7.184241258198427
 51
90.00002641243083
  0
ARC
  5
983
330
1F
100
AcDbEntity
  8
0
  6
Continuous
 62
     7
100
AcDbCircle
 10
-243.3660682139514
 20
-20.50827841743998
 30
0.0
 40
7.499993773658168
100
AcDbArc
 50
270.0000539381239
 51
352.8154362339997
  0
ARC
  5
984
330
1F
100
AcDbEntity
  8
0
  6
Continuous
 62
     7
100
AcDbCircle
 10
-180.2981611534733
 20
-35.80837219109475
 30
0.0
 40
0.5
100
AcDbArc
 50
0.0
 51
90.0
  0
ARC
  5
985
330
1F
100
AcDbEntity
  8
0
  6
Continuous
 62
     7
100
AcDbCircle
 10
-179.2981611484733
 20
-35.80837219609374
 30
0.0
 40
0.500000005000004
100
AcDbArc
 50
179.9999994271566
 51
270.0114585829033
  0
ARC
  5
986
330
1F
100
AcDbEntity
  8
0
  6
Continuous
 62
     7
100
AcDbCircle
 10
-251.3599180082987
 20
-33.00823820699148
 30
0.0
 40
4.999966016082799
100
AcDbArc
 50
90.00049441064129
 51
166.4523004070618
  0
ARC
  5
987
330
1F
100
AcDbEntity
  8
0
  6
Continuous
 62
     7
100
AcDbCircle
 10
-258.8733937277788
 20
-34.30839784945437
 30
0.0
 40
1.999974341905657
100
AcDbArc
 50
270.0009331970806
 51
346.4531620128799
  0
ARC
  5
988
330
1F
100
AcDbEntity
  8
0
  6
Continuous
 62
     7
100
AcDbCircle
 10
-173.1526429195349
 20
-33.30808827045852
 30
0.0
 40
2.999983920691732
100
AcDbArc
 50
187.1862598851348
 51
269.9996517555621
  0
ARC
  5
989
330
1F
100
AcDbEntity
  8
0
  6
Continuous
 62
     7
100
AcDbCircle
 10
-154.7229902916208
 20
-34.30834924053273
 30
0.0
 40
2.000022950774274
100
AcDbArc
 50
193.5479348472115
 51
270.0008347368562
  0
ARC
  5
98A
330
1F
100
AcDbEntity
  8
0
  6
Continuous
 62
     7
100
AcDbCircle
 10
-240.4436793874115
 20
-33.30808827045852
 30
0.0
 40
2.999983920691716
100
AcDbArc
 50
270.0003482444377
 51
352.8137401148651
  0
ARC
  5
98B
330
1F
100
AcDbEntity
  8
0
  6
Continuous
 62
     7
100
AcDbCircle
 10
-234.2981611584733
 20
-35.80837219609374
 30
0.0
 40
0.5000000049999979
100
AcDbArc
 50
269.9885414171033
 51
0.00000057284344
  0
ARC
  5
98C
330
1F
100
AcDbEntity
  8
0
  6
Continuous
 62
     7
100
AcDbCircle
 10
-233.2981611534733
 20
-35.80837219109475
 30
0.0
 40
0.5
100
AcDbArc
 50
90.0
 51
180.0
  0
ARC
  5
98D
330
1F
100
AcDbEntity
  8
0
  6
Continuous
 62
     7
100
AcDbCircle
 10
-162.2364042986476
 20
-33.00823820699148
 30
0.0
 40
4.999966016082829
100
AcDbArc
 50
13.54769959293811
 51
89.9995055893587
  0
ARC
  5
98E
330
1F
100
AcDbEntity
  8
0
  6
Continuous
 62
     7
100
AcDbCircle
 10
-116.4982611534734
 20
24.19122780890536
 30
0.0
 40
0.2999999999999616
100
AcDbArc
 50
90.0
 51
180.0
  0
ARC
  5
98F
330
1F
100
AcDbEntity
  8
0
  6
Continuous
 62
     7
100
AcDbCircle
 10
-290.8980379043841
 20
-13.72359756388907
 30
0.0
 40
1.300023249336724
100
AcDbArc
 50
179.998881747665
 51
264.9991701575231
  0
ARC
  5
990
330
1F
100
AcDbEntity
  8
0
  6
Continuous
 62
     7
100
AcDbCircle
 10
-290.8980877142774
 20
-9.561001175877446
 30
0.0
 40
1.299973439518927
100
AcDbArc
 50
94.99881820689742
 51
179.9987225079626
  0
ARC
  5
991
330
1F
100
AcDbEntity
  8
0
  6
Continuous
 62
     7
100
AcDbCircle
 10
-116.4982611534734
 20
38.79112780890528
 30
0.0
 40
0.2999999999999119
100
AcDbArc
 50
180.0
 51
270.0
  0
ARC
  5
992
330
1F
100
AcDbEntity
  8
0
  6
Continuous
 62
     7
100
AcDbCircle
 10
-134.8865611534731
 20
-11.64212219109476
 30
0.0
 40
6.588350567668642
100
AcDbArc
 50
342.1385907380364
 51
17.86140926196341
  0
ARC
  5
993
330
1F
100
AcDbEntity
  8
0
  6
Continuous
 62
     7
100
AcDbCircle
 10
-134.8866292766634
 20
-15.68332615547367
 30
0.0
 40
6.588324615607422
100
AcDbArc
 50
4.415736038230338
 51
17.85877714712968
  0
ARC
  5
994
330
1F
100
AcDbEntity
  8
0
  6
Continuous
 62
     7
100
AcDbCircle
 10
-134.8866292766634
 20
-7.601018226715809
 30
0.0
 40
6.588324615607422
100
AcDbArc
 50
342.1412228528703
 51
355.5842639617697
  0
ARC
  5
995
330
1F
100
AcDbEntity
  8
0
  6
Continuous
 62
     7
100
AcDbCircle
 10
-124.9099611560753
 20
-11.64227735007033
 30
0.0
 40
6.588302977166511
100
AcDbArc
 50
162.1370396760802
 51
197.860124951929
  0
ARC
  5
996
330
1F
100
AcDbEntity
  8
0
  6
Continuous
 62
     7
100
AcDbCircle
 10
-124.9099715721677
 20
-15.68372509568692
 30
0.0
 40
6.588277034786285
100
AcDbArc
 50
162.137444419688
 51
175.5807522366362
  0
ARC
  5
997
330
1F
100
AcDbEntity
  8
0
  6
Continuous
 62
     7
100
AcDbCircle
 10
-124.9099715721677
 20
-7.600619286502559
 30
0.0
 40
6.588277034786285
100
AcDbArc
 50
184.4192477633637
 51
197.862555580312
  0
ARC
  5
998
330
1F
100
AcDbEntity
  8
0
  6
Continuous
 62
     7
100
AcDbCircle
 10
-299.1978611534731
 20
12.44072780890525
 30
0.0
 40
0.5
100
AcDbArc
 50
180.0
 51
270.0
  0
ARC
  5
999
330
1F
100
AcDbEntity
  8
0
  6
Continuous
 62
     7
100
AcDbCircle
 10
-300.1978785561386
 20
13.79915720901546
 30
0.0
 40
0.500017403529885
100
AcDbArc
 50
359.9966311128023
 51
61.24808559019241
  0
ARC
  5
99A
330
1F
100
AcDbEntity
  8
0
  6
Continuous
 62
     7
100
AcDbCircle
 10
-298.9952609121679
 20
15.99082745546638
 30
0.0
 40
1.999972238557113
100
AcDbArc
 50
187.4032364050419
 51
241.2422862378982
  0
ARC
  5
99B
330
1F
100
AcDbEntity
  8
0
  6
Continuous
 62
     7
100
AcDbCircle
 10
-121.8982611534731
 20
12.44102780890518
 30
0.0
 40
0.5
100
AcDbArc
 50
270.0
 51
0.0
  0
ARC
  5
99C
330
1F
100
AcDbEntity
  8
0
  6
Continuous
 62
     7
100
AcDbCircle
 10
-120.8982437508075
 20
13.79915720901555
 30
0.0
 40
0.5000174035299442
100
AcDbArc
 50
118.7519144098377
 51
180.0033688872067
  0
ARC
  5
99D
330
1F
100
AcDbEntity
  8
0
  6
Continuous
 62
     7
100
AcDbCircle
 10
-122.1009613947785
 20
15.99082745546663
 30
0.0
 40
1.99997223855724
100
AcDbArc
 50
298.7577137620927
 51
352.5967635949517
  0
ARC
  5
99E
330
1F
100
AcDbEntity
  8
0
  6
Continuous
 62
     7
100
AcDbCircle
 10
-241.3982592026278
 20
31.49085796472085
 30
0.0
 40
122.2999980491582
100
AcDbArc
 50
352.5971517948442
 51
359.9999858724367
  0
ARC
  5
99F
330
1F
100
AcDbEntity
  8
0
  6
Continuous
 62
     7
100
AcDbCircle
 10
-134.8865611534731
 20
74.62377780890524
 30
0.0
 40
6.588350567668677
100
AcDbArc
 50
342.1385907380356
 51
17.86140926196439
  0
ARC
  5
9A0
330
1F
100
AcDbEntity
  8
0
  6
Continuous
 62
     7
100
AcDbCircle
 10
-134.8866292766634
 20
78.66498177328427
 30
0.0
 40
6.588324615607426
100
AcDbArc
 50
342.1412228528703
 51
355.5842639617697
  0
ARC
  5
9A1
330
1F
100
AcDbEntity
  8
0
  6
Continuous
 62
     7
100
AcDbCircle
 10
-134.8866292766633
 20
70.58267384452609
 30
0.0
 40
6.588324615607419
100
AcDbArc
 50
4.41573603823303
 51
17.8587771471304
  0
ARC
  5
9A2
330
1F
100
AcDbEntity
  8
0
  6
Continuous
 62
     7
100
AcDbCircle
 10
-124.9099611560753
 20
74.62393296788079
 30
0.0
 40
6.588302977166545
100
AcDbArc
 50
162.1398750480699
 51
197.8629603239208
  0
ARC
  5
9A3
330
1F
100
AcDbEntity
  8
0
  6
Continuous
 62
     7
100
AcDbCircle
 10
-124.9099715721677
 20
78.66538071349751
 30
0.0
 40
6.588277034786285
100
AcDbArc
 50
184.4192477633637
 51
197.862555580312
  0
ARC
  5
9A4
330
1F
100
AcDbEntity
  8
0
  6
Continuous
 62
     7
100
AcDbCircle
 10
-124.9099715721677
 20
70.58227490431284
 30
0.0
 40
6.588277034786293
100
AcDbArc
 50
162.1374444196873
 51
175.5807522366336
  0
ARC
  5
9A5
330
1F
100
AcDbEntity
  8
0
  6
Continuous
 62
     7
100
AcDbCircle
 10
-121.8982611534731
 20
50.54062780890519
 30
0.0
 40
0.5
100
AcDbArc
 50
0.0
 51
90.0
  0
ARC
  5
9A6
330
1F
100
AcDbEntity
  8
0
  6
Continuous
 62
     7
100
AcDbCircle
 10
-120.8982437508075
 20
49.18249840879504
 30
0.0
 40
0.5000174035299418
100
AcDbArc
 50
179.9966311127931
 51
241.2480855901623
  0
ARC
  5
9A7
330
1F
100
AcDbEntity
  8
0
  6
Continuous
 62
     7
100
AcDbCircle
 10
-122.1009613947787
 20
46.9908281623439
 30
0.0
 40
1.999972238557363
100
AcDbArc
 50
7.40323640504951
 51
61.24228623790531
  0
ARC
  5
9A8
330
1F
100
AcDbEntity
  8
0
  6
Continuous
 62
     7
100
AcDbCircle
 10
-241.3982557690713
 20
31.49077122655207
 30
0.0
 40
122.2999980491485
100
AcDbArc
 50
3.468985286572099
 51
7.402860689668488
  0
ARC
  5
9A9
330
1F
100
AcDbEntity
  8
0
  6
Continuous
 62
     7
100
AcDbCircle
 10
-241.3982611534733
 20
31.49082780890518
 30
0.0
 40
122.3
100
AcDbArc
 50
0.0
 51
3.468958674496588
  0
ARC
  5
9AA
330
1F
100
AcDbEntity
  8
0
  6
Continuous
 62
     7
100
AcDbCircle
 10
-179.6980611534733
 20
31.49082780890518
 30
0.0
 40
122.2999960983235
100
AcDbArc
 50
180.0
 51
187.402834077592
  0
ARC
  5
9AB
330
1F
100
AcDbEntity
  8
0
  6
Continuous
 62
     7
100
AcDbCircle
 10
-290.8980379043841
 20
76.70525318169966
 30
0.0
 40
1.300023249336694
100
AcDbArc
 50
95.00082984247429
 51
180.0011182523345
  0
ARC
  5
9AC
330
1F
100
AcDbEntity
  8
0
  6
Continuous
 62
     7
100
AcDbCircle
 10
-290.8980877142774
 20
72.54265679368805
 30
0.0
 40
1.299973439518939
100
AcDbArc
 50
180.001277492037
 51
265.0011817931026
  0
ARC
  5
9AD
330
1F
100
AcDbEntity
  8
0
  6
Continuous
 62
     7
100
AcDbCircle
 10
-299.1978611534731
 20
50.54092780890535
 30
0.0
 40
0.5
100
AcDbArc
 50
90.0
 51
180.0
  0
ARC
  5
9AE
330
1F
100
AcDbEntity
  8
0
  6
Continuous
 62
     7
100
AcDbCircle
 10
-300.1978785561386
 20
49.18249840879512
 30
0.0
 40
0.5000174035298912
100
AcDbArc
 50
298.7519144098076
 51
0.0033688871978
  0
ARC
  5
9AF
330
1F
100
AcDbEntity
  8
0
  6
Continuous
 62
     7
100
AcDbCircle
 10
-298.9952609121676
 20
46.99082816234413
 30
0.0
 40
1.999972238557255
100
AcDbArc
 50
118.7577137621037
 51
172.5967635949569
  0
ARC
  5
9B0
330
1F
100
AcDbEntity
  8
0
  6
Continuous
 62
     7
100
AcDbCircle
 10
-179.6980611534733
 20
31.49082780890518
 30
0.0
 40
122.2999960983235
100
AcDbArc
 50
172.5971659224079
 51
180.0
  0
ARC
  5
9B1
330
1F
100
AcDbEntity
  8
0
  6
Continuous
 62
     7
100
AcDbCircle
 10
-253.7982611534733
 20
31.49082780890518
 30
0.0
 40
1.5
100
AcDbArc
 50
0.0
 51
180.0
  0
ARC
  5
9B2
330
1F
100
AcDbEntity
  8
0
  6
Continuous
 62
     7
100
AcDbCircle
 10
-243.7982611534733
 20
31.49082780890518
 30
0.0
 40
1.5
100
AcDbArc
 50
0.0
 51
180.0
  0
ARC
  5
9B3
330
1F
100
AcDbEntity
  8
0
  6
Continuous
 62
     7
100
AcDbCircle
 10
-248.7982611534733
 20
36.49082780890518
 30
0.0
 40
1.5
100
AcDbArc
 50
0.0
 51
180.0
  0
ARC
  5
9B4
330
1F
100
AcDbEntity
  8
0
  6
Continuous
 62
     7
100
AcDbCircle
 10
-248.7982611534733
 20
31.49082780890518
 30
0.0
 40
10.99999999999935
100
AcDbArc
 50
277.8374797630846
 51
288.5530045350212
  0
ARC
  5
9B5
330
1F
100
AcDbEntity
  8
0
  6
Continuous
 62
     7
100
AcDbCircle
 10
-248.7982611534733
 20
31.49082780890518
 30
0.0
 40
10.99999999999941
100
AcDbArc
 50
306.2215466198372
 51
233.7784533801625
  0
ARC
  5
9B6
330
1F
100
AcDbEntity
  8
0
  6
Continuous
 62
    30
100
AcDbCircle
 10
-258.4862256729018
 20
4.098864357466529
 30
0.0
 40
1.500000000000246
100
AcDbArc
 50
38.36567327914631
 51
98.36567327910946
  0
ARC
  5
9B7
330
1F
100
AcDbEntity
  8
0
  6
Continuous
 62
    30
100
AcDbCircle
 10
-256.1340293073832
 20
5.960898798082828
 30
0.0
 40
1.499999999999718
100
AcDbArc
 50
218.3656732791173
 51
278.3656732791778
  0
ARC
  5
9B8
330
1F
100
AcDbEntity
  8
0
  6
Continuous
 62
    30
100
AcDbCircle
 10
-257.52836296291
 20
6.513921091543178
 30
0.0
 40
1.499999999999728
100
AcDbArc
 50
218.3656732791177
 51
278.3656732791123
  0
ARC
  5
9B9
330
1F
100
AcDbEntity
  8
0
  6
Continuous
 62
    30
100
AcDbCircle
 10
-249.5482611534733
 20
0.4120545310043401
 30
0.0
 40
1.500000000000323
100
AcDbArc
 50
60.00000000000714
 51
119.9999999999929
  0
ARC
  5
9BA
330
1F
100
AcDbEntity
  8
0
  6
Continuous
 62
    30
100
AcDbCircle
 10
-248.0482611534733
 20
3.01013074235748
 30
0.0
 40
1.499999999999525
100
AcDbArc
 50
239.9999999999895
 51
300.0000000000105
  0
ARC
  5
9BB
330
1F
100
AcDbEntity
  8
0
  6
Continuous
 62
    30
100
AcDbCircle
 10
-249.5482611534733
 20
3.01013074235748
 30
0.0
 40
1.499999999999525
100
AcDbArc
 50
239.9999999999895
 51
300.0000000000105
  0
ARC
  5
9BC
330
1F
100
AcDbEntity
  8
0
  6
Continuous
 62
    30
100
AcDbCircle
 10
-254.5482611534733
 20
0.4120545310043401
 30
0.0
 40
1.500000000000323
100
AcDbArc
 50
60.00000000000714
 51
119.9999999999929
  0
ARC
  5
9BD
330
1F
100
AcDbEntity
  8
0
  6
Continuous
 62
    30
100
AcDbCircle
 10
-253.0482611534733
 20
3.01013074235748
 30
0.0
 40
1.499999999999525
100
AcDbArc
 50
239.9999999999895
 51
300.0000000000105
  0
ARC
  5
9BE
330
1F
100
AcDbEntity
  8
0
  6
Continuous
 62
    30
100
AcDbCircle
 10
-254.5482611534733
 20
3.01013074235748
 30
0.0
 40
1.499999999999525
100
AcDbArc
 50
239.9999999999895
 51
300.0000000000105
  0
ARC
  5
9BF
330
1F
100
AcDbEntity
  8
0
  6
Continuous
 62
    30
100
AcDbCircle
 10
-244.5482611534733
 20
0.4120545310043401
 30
0.0
 40
1.500000000000323
100
AcDbArc
 50
60.00000000000714
 51
119.9999999999929
  0
ARC
  5
9C0
330
1F
100
AcDbEntity
  8
0
  6
Continuous
 62
    30
100
AcDbCircle
 10
-243.0482611534733
 20
3.01013074235748
 30
0.0
 40
1.499999999999525
100
AcDbArc
 50
239.9999999999895
 51
300.0000000000105
  0
ARC
  5
9C1
330
1F
100
AcDbEntity
  8
0
  6
Continuous
 62
    30
100
AcDbCircle
 10
-244.5482611534733
 20
3.01013074235748
 30
0.0
 40
1.499999999999525
100
AcDbArc
 50
239.9999999999895
 51
300.0000000000105
  0
MTEXT
  5
CE4
330
1F
100
AcDbEntity
  8
0
100
AcDbMText
 10
-37.05780997005177
 20
-120.3390320295272
 30
0.0
 40
8.0
 41
97.41846266593967
 71
     1
 72
     1
  1
AES-TBF 4P 0.1kW
  7
CONVERTER_7
 73
     1
 44
1.0
  0
ENDSEC
  0
SECTION
  2
OBJECTS
  0
DICTIONARY
  5
C
330
0
100
AcDbDictionary
281
     1
  3
ACAD_CIP_PREVIOUS_PRODUCT_INFO
350
BA9
  3
ACAD_COLOR
350
486
  3
ACAD_GROUP
350
D
  3
ACAD_LAYOUT
350
1A
  3
ACAD_MATERIAL
350
485
  3
ACAD_MLEADERSTYLE
350
BA1
  3
ACAD_MLINESTYLE
350
17
  3
ACAD_PLOTSETTINGS
350
19
  3
ACAD_PLOTSTYLENAME
350
E
  3
ACAD_SCALELIST
350
B8F
  3
ACAD_TABLESTYLE
350
B8D
  3
ACAD_VISUALSTYLE
350
B74
  3
ACDB_RECOMPOSE_DATA
350
BB9
  3
AcDbVariableDictionary
350
BAC
  3
DWGPROPS
350
BBA
  0
XRECORD
  5
BA9
102
{ACAD_REACTORS
330
C
102
}
330
C
100
AcDbXrecord
280
     1
300
ACDLT
300
2012
300
ACDLT_F_S
  0
DICTIONARY
  5
486
102
{ACAD_REACTORS
330
C
102
}
330
C
100
AcDbDictionary
281
     1
  0
DICTIONARY
  5
D
102
{ACAD_REACTORS
330
C
102
}
330
C
100
AcDbDictionary
281
     1
  0
DICTIONARY
  5
1A
102
{ACAD_REACTORS
330
C
102
}
330
C
100
AcDbDictionary
281
     1
  3
Layout1
350
1E
  3
Layout2
350
26
  3
Model
350
22
  0
DICTIONARY
  5
485
102
{ACAD_REACTORS
330
C
102
}
330
C
100
AcDbDictionary
281
     1
  3
ByBlock
350
B64
  3
ByLayer
350
B5C
  3
Global
350
B6C
  0
DICTIONARY
  5
BA1
102
{ACAD_REACTORS
330
C
102
}
330
C
100
AcDbDictionary
281
     1
  3
Standard
350
BA2
  0
DICTIONARY
  5
17
102
{ACAD_REACTORS
330
C
102
}
330
C
100
AcDbDictionary
281
     1
  3
Standard
350
18
  0
DICTIONARY
  5
19
102
{ACAD_REACTORS
330
C
102
}
330
C
100
AcDbDictionary
281
     1
  0
ACDBDICTIONARYWDFLT
  5
E
102
{ACAD_REACTORS
330
C
102
}
330
C
100
AcDbDictionary
281
     1
  3
Normal
350
F
100
AcDbDictionaryWithDefault
340
F
  0
DICTIONARY
  5
B8F
102
{ACAD_REACTORS
330
C
102
}
330
C
100
AcDbDictionary
281
     1
  3
A0
350
B90
  3
A1
350
B91
  3
A2
350
B92
  3
A3
350
B93
  3
A4
350
B94
  3
A5
350
B95
  3
A6
350
B96
  3
A7
350
B97
  3
A8
350
B98
  3
A9
350
B99
  3
B0
350
B9A
  3
B1
350
B9B
  3
B2
350
B9C
  3
B3
350
B9D
  3
B4
350
B9E
  3
B5
350
B9F
  3
B6
350
BA0
  0
DICTIONARY
  5
B8D
102
{ACAD_REACTORS
330
C
102
}
330
C
100
AcDbDictionary
281
     1
  3
Standard
350
B8E
  0
DICTIONARY
  5
B74
102
{ACAD_REACTORS
330
C
102
}
330
C
100
AcDbDictionary
281
     1
  3
2dWireframe
350
B7A
  3
Basic
350
B79
  3
Brighten
350
B80
  3
ColorChange
350
B84
  3
Conceptual
350
B7D
  3
Dim
350
B7F
  3
EdgeColorOff
350
B8C
  3
Facepattern
350
B83
  3
Flat
350
B75
  3
FlatWithEdges
350
B76
  3
Gouraud
350
B77
  3
GouraudWithEdges
350
B78
  3
Hidden
350
B7C
  3
JitterOff
350
B8A
  3
Linepattern
350
B82
  3
OverhangOff
350
B8B
  3
Realistic
350
B7E
  3
Shaded
350
B89
  3
Shaded with edges
350
B88
  3
Shades of Gray
350
B85
  3
Sketchy
350
B86
  3
Thicken
350
B81
  3
Wireframe
350
B7B
  3
X-Ray
350
B87
  0
XRECORD
  5
BB9
102
{ACAD_REACTORS
330
C
102
}
330
C
100
AcDbXrecord
280
     1
 90
        1
330
B8E
  0
DICTIONARY
  5
BAC
102
{ACAD_REACTORS
330
C
102
}
330
C
100
AcDbDictionary
281
     1
  3
CANNOSCALE
350
BAF
  3
CMLEADERSTYLE
350
BAE
  3
CTABLESTYLE
350
BAD
  3
DIMASSOC
350
BB3
  3
INDEXCTL
350
BB1
  3
SORTENTS
350
BB0
  3
XCLIPFRAME
350
BB2
  0
XRECORD
  5
BBA
102
{ACAD_REACTORS
330
C
102
}
330
C
100
AcDbXrecord
280
     1
  1
DWGPROPS COOKIE
  2

  3

  4

  6

  7

  8
越智　仁勇
  9

300
=
301
=
302
=
303
=
304
=
305
=
306
=
307
=
308
=
309
=
 40
0.0177027314814815
 41
2455132.441905196
 42
2456013.767623148
  1

 90
        0
  0
LAYOUT
  5
1E
102
{ACAD_XDICTIONARY
360
BBB
102
}
102
{ACAD_REACTORS
330
1A
102
}
330
1A
100
AcDbPlotSettings
  1

  2

  4

  6

 40
0.0
 41
0.0
 42
0.0
 43
0.0
 44
0.0
 45
0.0
 46
0.0
 47
0.0
 48
0.0
 49
0.0
140
0.0
141
0.0
142
1.0
143
1.0
 70
   688
 72
     0
 73
     0
 74
     5
  7
P社図面.ctb
 75
    16
147
1.0
148
0.0
149
0.0
100
AcDbLayout
  1
Layout1
 70
     1
 71
     1
 10
0.0
 20
0.0
 11
12.0
 21
9.0
 12
0.0
 22
0.0
 32
0.0
 14
1.000000000000000E+20
 24
1.000000000000000E+20
 34
1.000000000000000E+20
 15
-1.000000000000000E+20
 25
-1.000000000000000E+20
 35
-1.000000000000000E+20
146
0.0
 13
0.0
 23
0.0
 33
0.0
 16
1.0
 26
0.0
 36
0.0
 17
0.0
 27
1.0
 37
0.0
 76
     0
330
1B
  0
LAYOUT
  5
26
102
{ACAD_XDICTIONARY
360
BBF
102
}
102
{ACAD_REACTORS
330
1A
102
}
330
1A
100
AcDbPlotSettings
  1

  2

  4

  6

 40
0.0
 41
0.0
 42
0.0
 43
0.0
 44
0.0
 45
0.0
 46
0.0
 47
0.0
 48
0.0
 49
0.0
140
0.0
141
0.0
142
1.0
143
1.0
 70
   688
 72
     0
 73
     0
 74
     5
  7
P社図面.ctb
 75
    16
147
1.0
148
0.0
149
0.0
100
AcDbLayout
  1
Layout2
 70
     1
 71
     2
 10
0.0
 20
0.0
 11
0.0
 21
0.0
 12
0.0
 22
0.0
 32
0.0
 14
0.0
 24
0.0
 34
0.0
 15
0.0
 25
0.0
 35
0.0
146
0.0
 13
0.0
 23
0.0
 33
0.0
 16
1.0
 26
0.0
 36
0.0
 17
0.0
 27
1.0
 37
0.0
 76
     0
330
23
  0
LAYOUT
  5
22
102
{ACAD_XDICTIONARY
360
BBD
102
}
102
{ACAD_REACTORS
330
1A
102
}
330
1A
100
AcDbPlotSettings
  1

  2
Acrobat Distiller
  4
A3
  6

 40
3.174999952316283
 41
3.174999952316283
 42
3.17498779296875
 43
3.17498779296875
 44
297.0318298339843
 45
420.1583251953125
 46
0.0
 47
0.0
 48
0.0
 49
0.0
140
0.0
141
0.0
142
1.0
143
1.979296968291565
 70
 11952
 72
     1
 73
     1
 74
     1
  7
P社図面.ctb
 75
     0
147
0.5052298952709214
148
428.024791977424
149
286.0176547229163
100
AcDbLayout
  1
Model
 70
     1
 71
     0
 10
0.0
 20
0.0
 11
0.0
 21
0.0
 12
0.0
 22
0.0
 32
0.0
 14
-427.9997999999998
 24
-286.0002
 34
0.0
 15
390.9997999999999
 25
285.9998
 35
0.0
146
0.0
 13
0.0
 23
0.0
 33
0.0
 16
1.0
 26
0.0
 36
0.0
 17
0.0
 27
1.0
 37
0.0
 76
     0
330
1F
331
B5A
  0
MATERIAL
  5
B64
102
{ACAD_XDICTIONARY
360
B65
102
}
102
{ACAD_REACTORS
330
485
102
}
330
485
100
AcDbMaterial
  1
ByBlock
 72
     0
 43
0.0208333333333333
 43
0.0
 43
0.0
 43
0.0
 43
0.0
 43
0.0208333333333333
 43
0.0
 43
0.0
 43
0.0
 43
0.0
 43
1.0
 43
0.0
 43
0.0
 43
0.0
 43
0.0
 43
1.0
 77
     0
 47
0.0208333333333333
 47
0.0
 47
0.0
 47
0.0
 47
0.0
 47
0.0208333333333333
 47
0.0
 47
0.0
 47
0.0
 47
0.0
 47
1.0
 47
0.0
 47
0.0
 47
0.0
 47
0.0
 47
1.0
171
     0
 49
0.0208333333333333
 49
0.0
 49
0.0
 49
0.0
 49
0.0
 49
0.0208333333333333
 49
0.0
 49
0.0
 49
0.0
 49
0.0
 49
1.0
 49
0.0
 49
0.0
 49
0.0
 49
0.0
 49
1.0
175
     0
142
0.0208333333333333
142
0.0
142
0.0
142
0.0
142
0.0
142
0.0208333333333333
142
0.0
142
0.0
142
0.0
142
0.0
142
1.0
142
0.0
142
0.0
142
0.0
142
0.0
142
1.0
179
     0
144
0.0208333333333333
144
0.0
144
0.0
144
0.0
144
0.0
144
0.0208333333333333
144
0.0
144
0.0
144
0.0
144
0.0
144
1.0
144
0.0
144
0.0
144
0.0
144
0.0
144
1.0
147
0.0208333333333333
147
0.0
147
0.0
147
0.0
147
0.0
147
0.0208333333333333
147
0.0
147
0.0
147
0.0
147
0.0
147
1.0
147
0.0
147
0.0
147
0.0
147
0.0
147
1.0
  0
MATERIAL
  5
B5C
102
{ACAD_XDICTIONARY
360
B5D
102
}
102
{ACAD_REACTORS
330
485
102
}
330
485
100
AcDbMaterial
  1
ByLayer
 72
     0
 43
0.0208333333333333
 43
0.0
 43
0.0
 43
0.0
 43
0.0
 43
0.0208333333333333
 43
0.0
 43
0.0
 43
0.0
 43
0.0
 43
1.0
 43
0.0
 43
0.0
 43
0.0
 43
0.0
 43
1.0
 77
     0
 47
0.0208333333333333
 47
0.0
 47
0.0
 47
0.0
 47
0.0
 47
0.0208333333333333
 47
0.0
 47
0.0
 47
0.0
 47
0.0
 47
1.0
 47
0.0
 47
0.0
 47
0.0
 47
0.0
 47
1.0
171
     0
 49
0.0208333333333333
 49
0.0
 49
0.0
 49
0.0
 49
0.0
 49
0.0208333333333333
 49
0.0
 49
0.0
 49
0.0
 49
0.0
 49
1.0
 49
0.0
 49
0.0
 49
0.0
 49
0.0
 49
1.0
175
     0
142
0.0208333333333333
142
0.0
142
0.0
142
0.0
142
0.0
142
0.0208333333333333
142
0.0
142
0.0
142
0.0
142
0.0
142
1.0
142
0.0
142
0.0
142
0.0
142
0.0
142
1.0
179
     0
144
0.0208333333333333
144
0.0
144
0.0
144
0.0
144
0.0
144
0.0208333333333333
144
0.0
144
0.0
144
0.0
144
0.0
144
1.0
144
0.0
144
0.0
144
0.0
144
0.0
144
1.0
147
0.0208333333333333
147
0.0
147
0.0
147
0.0
147
0.0
147
0.0208333333333333
147
0.0
147
0.0
147
0.0
147
0.0
147
1.0
147
0.0
147
0.0
147
0.0
147
0.0
147
1.0
  0
MATERIAL
  5
B6C
102
{ACAD_XDICTIONARY
360
B6D
102
}
102
{ACAD_REACTORS
330
485
102
}
330
485
100
AcDbMaterial
  1
Global
 72
     0
 43
0.0208333333333333
 43
0.0
 43
0.0
 43
0.0
 43
0.0
 43
0.0208333333333333
 43
0.0
 43
0.0
 43
0.0
 43
0.0
 43
1.0
 43
0.0
 43
0.0
 43
0.0
 43
0.0
 43
1.0
 77
     0
 47
0.0208333333333333
 47
0.0
 47
0.0
 47
0.0
 47
0.0
 47
0.0208333333333333
 47
0.0
 47
0.0
 47
0.0
 47
0.0
 47
1.0
 47
0.0
 47
0.0
 47
0.0
 47
0.0
 47
1.0
171
     0
 49
0.0208333333333333
 49
0.0
 49
0.0
 49
0.0
 49
0.0
 49
0.0208333333333333
 49
0.0
 49
0.0
 49
0.0
 49
0.0
 49
1.0
 49
0.0
 49
0.0
 49
0.0
 49
0.0
 49
1.0
175
     0
142
0.0208333333333333
142
0.0
142
0.0
142
0.0
142
0.0
142
0.0208333333333333
142
0.0
142
0.0
142
0.0
142
0.0
142
1.0
142
0.0
142
0.0
142
0.0
142
0.0
142
1.0
179
     0
144
0.0208333333333333
144
0.0
144
0.0
144
0.0
144
0.0
144
0.0208333333333333
144
0.0
144
0.0
144
0.0
144
0.0
144
1.0
144
0.0
144
0.0
144
0.0
144
0.0
144
1.0
147
0.0208333333333333
147
0.0
147
0.0
147
0.0
147
0.0
147
0.0208333333333333
147
0.0
147
0.0
147
0.0
147
0.0
147
1.0
147
0.0
147
0.0
147
0.0
147
0.0
147
1.0
  0
MLEADERSTYLE
  5
BA2
102
{ACAD_XDICTIONARY
360
BB7
102
}
102
{ACAD_REACTORS
330
BA1
102
}
330
BA1
100
AcDbMLeaderStyle
170
     2
171
     1
172
     0
 90
        2
 40
0.0
 41
0.0
173
     1
 91
-1056964608
340
14
 92
       -2
290
     1
 42
2.0
291
     1
 43
0.36
  3
Standard
 44
4.0
300

342
11
174
     1
178
     6
175
     1
176
     0
 93
-1056964608
 45
4.0
292
     0
297
     0
 46
4.0
 94
-1056964608
 47
1.0
 49
1.0
140
1.0
293
     1
141
0.0
294
     1
177
     0
142
1.0
295
     0
296
     0
143
0.125
1001
ACAD_MLEADERVER
1070
     2
  0
MLINESTYLE
  5
18
102
{ACAD_REACTORS
330
17
102
}
330
17
100
AcDbMlineStyle
  2
STANDARD
 70
     0
  3

 62
   256
 51
90.0
 52
90.0
 71
     2
 49
0.5
 62
   256
  6
BYLAYER
 49
-0.5
 62
   256
  6
BYLAYER
  0
ACDBPLACEHOLDER
  5
F
102
{ACAD_REACTORS
330
E
102
}
330
E
  0
SCALE
  5
B90
102
{ACAD_REACTORS
330
B8F
102
}
330
B8F
100
AcDbScale
 70
     0
300
1:1
140
1.0
141
1.0
290
     1
  0
SCALE
  5
B91
102
{ACAD_REACTORS
330
B8F
102
}
330
B8F
100
AcDbScale
 70
     0
300
1:2
140
1.0
141
2.0
290
     0
  0
SCALE
  5
B92
102
{ACAD_REACTORS
330
B8F
102
}
330
B8F
100
AcDbScale
 70
     0
300
1:4
140
1.0
141
4.0
290
     0
  0
SCALE
  5
B93
102
{ACAD_REACTORS
330
B8F
102
}
330
B8F
100
AcDbScale
 70
     0
300
1:5
140
1.0
141
5.0
290
     0
  0
SCALE
  5
B94
102
{ACAD_REACTORS
330
B8F
102
}
330
B8F
100
AcDbScale
 70
     0
300
1:8
140
1.0
141
8.0
290
     0
  0
SCALE
  5
B95
102
{ACAD_REACTORS
330
B8F
102
}
330
B8F
100
AcDbScale
 70
     0
300
1:10
140
1.0
141
10.0
290
     0
  0
SCALE
  5
B96
102
{ACAD_REACTORS
330
B8F
102
}
330
B8F
100
AcDbScale
 70
     0
300
1:16
140
1.0
141
16.0
290
     0
  0
SCALE
  5
B97
102
{ACAD_REACTORS
330
B8F
102
}
330
B8F
100
AcDbScale
 70
     0
300
1:20
140
1.0
141
20.0
290
     0
  0
SCALE
  5
B98
102
{ACAD_REACTORS
330
B8F
102
}
330
B8F
100
AcDbScale
 70
     0
300
1:30
140
1.0
141
30.0
290
     0
  0
SCALE
  5
B99
102
{ACAD_REACTORS
330
B8F
102
}
330
B8F
100
AcDbScale
 70
     0
300
1:40
140
1.0
141
40.0
290
     0
  0
SCALE
  5
B9A
102
{ACAD_REACTORS
330
B8F
102
}
330
B8F
100
AcDbScale
 70
     0
300
1:50
140
1.0
141
50.0
290
     0
  0
SCALE
  5
B9B
102
{ACAD_REACTORS
330
B8F
102
}
330
B8F
100
AcDbScale
 70
     0
300
1:100
140
1.0
141
100.0
290
     0
  0
SCALE
  5
B9C
102
{ACAD_REACTORS
330
B8F
102
}
330
B8F
100
AcDbScale
 70
     0
300
2:1
140
2.0
141
1.0
290
     0
  0
SCALE
  5
B9D
102
{ACAD_REACTORS
330
B8F
102
}
330
B8F
100
AcDbScale
 70
     0
300
4:1
140
4.0
141
1.0
290
     0
  0
SCALE
  5
B9E
102
{ACAD_REACTORS
330
B8F
102
}
330
B8F
100
AcDbScale
 70
     0
300
8:1
140
8.0
141
1.0
290
     0
  0
SCALE
  5
B9F
102
{ACAD_REACTORS
330
B8F
102
}
330
B8F
100
AcDbScale
 70
     0
300
10:1
140
10.0
141
1.0
290
     0
  0
SCALE
  5
BA0
102
{ACAD_REACTORS
330
B8F
102
}
330
B8F
100
AcDbScale
 70
     0
300
100:1
140
100.0
141
1.0
290
     0
  0
TABLESTYLE
  5
B8E
102
{ACAD_XDICTIONARY
360
BB5
102
}
102
{ACAD_REACTORS
330
B8D
102
}
330
B8D
100
AcDbTableStyle
  3
Standard
 70
     0
 71
     0
 40
1.5
 41
1.5
280
     0
281
     0
  7
Standard
140
4.5
170
     2
 62
     0
 63
     7
283
     0
274
    -2
284
     1
 64
     0
275
    -2
285
     1
 65
     0
276
    -2
286
     1
 66
     0
277
    -2
287
     1
 67
     0
278
    -2
288
     1
 68
     0
279
    -2
289
     1
 69
     0
  7
Standard
140
6.0
170
     5
 62
     0
 63
     7
283
     0
274
    -2
284
     1
 64
     0
275
    -2
285
     1
 65
     0
276
    -2
286
     1
 66
     0
277
    -2
287
     1
 67
     0
278
    -2
288
     1
 68
     0
279
    -2
289
     1
 69
     0
  7
Standard
140
4.5
170
     5
 62
     0
 63
     7
283
     0
274
    -2
284
     1
 64
     0
275
    -2
285
     1
 65
     0
276
    -2
286
     1
 66
     0
277
    -2
287
     1
 67
     0
278
    -2
288
     1
 68
     0
279
    -2
289
     1
 69
     0
  0
VISUALSTYLE
  5
B7A
102
{ACAD_XDICTIONARY
360
BCE
102
}
102
{ACAD_REACTORS
330
B74
102
}
330
B74
100
AcDbVisualStyle
  2
2dWireframe
 70
     4
 71
     0
 72
     2
 73
     0
 90
        0
 40
-0.6
 41
-30.0
 62
     5
 63
     7
 74
     1
 91
        4
 64
     7
 65
   257
 75
     1
175
     1
 42
1.0
 92
        0
 66
   257
 43
1.0
 76
     1
 77
     6
 78
     2
 67
     7
 79
     5
170
     0
171
     0
290
     0
174
     0
 93
        1
 44
0.0
173
     0
291
     0
 45
0.0
1001
ACAD
1000
AcDbSavedByObjectVersion
1070
     0
  0
VISUALSTYLE
  5
B79
102
{ACAD_XDICTIONARY
360
BCC
102
}
102
{ACAD_REACTORS
330
B74
102
}
330
B74
100
AcDbVisualStyle
  2
Basic
 70
     7
 71
     1
 72
     0
 73
     1
 90
        0
 40
-0.6
 41
-30.0
 62
     5
 63
     7
 74
     0
 91
        4
 64
     7
 65
   257
 75
     1
175
     1
 42
1.0
 92
        8
 66
     7
 43
1.0
 76
     1
 77
     6
 78
     2
 67
     7
 79
     5
170
     0
171
     0
290
     0
174
     0
 93
        1
 44
0.0
173
     0
291
     1
 45
0.0
1001
ACAD
1000
AcDbSavedByObjectVersion
1070
     0
  0
VISUALSTYLE
  5
B80
102
{ACAD_XDICTIONARY
360
BDA
102
}
102
{ACAD_REACTORS
330
B74
102
}
330
B74
100
AcDbVisualStyle
  2
Brighten
 70
    12
 71
     2
 72
     2
 73
     0
 90
        0
 40
-0.6
 41
-30.0
 62
     5
 63
     7
 74
     1
 91
        4
 64
     7
 65
   257
 75
     1
175
     1
 42
1.0
 92
        8
 66
     7
 43
1.0
 76
     1
 77
     6
 78
     2
 67
     7
 79
     5
170
     0
171
     0
290
     0
174
     0
 93
        1
 44
50.0
173
     0
291
     1
 45
0.0
1001
ACAD
1000
AcDbSavedByObjectVersion
1070
     0
  0
VISUALSTYLE
  5
B84
102
{ACAD_XDICTIONARY
360
BE2
102
}
102
{ACAD_REACTORS
330
B74
102
}
330
B74
100
AcDbVisualStyle
  2
ColorChange
 70
    16
 71
     2
 72
     2
 73
     3
 90
        0
 40
-0.6
 41
-30.0
 62
     5
 63
     8
 74
     1
 91
        4
 64
     7
 65
   257
 75
     1
175
     1
 42
1.0
 92
        8
 66
     8
 43
1.0
 76
     1
 77
     6
 78
     2
 67
     7
 79
     5
170
     0
171
     0
290
     0
174
     0
 93
        1
 44
0.0
173
     0
291
     1
 45
0.0
1001
ACAD
1000
AcDbSavedByObjectVersion
1070
     0
  0
VISUALSTYLE
  5
B7D
102
{ACAD_XDICTIONARY
360
BD4
102
}
102
{ACAD_REACTORS
330
B74
102
}
330
B74
100
AcDbVisualStyle
  2
Conceptual
 70
     9
 71
     3
 72
     2
 73
     0
 90
        0
 40
-0.6
 41
-30.0
 62
     5
 63
     7
 74
     2
 91
        2
 64
     7
 65
   257
 75
     1
175
     1
 42
179.0
 92
        8
 66
     7
 43
1.0
 76
     1
 77
     6
 78
     2
 67
     7
 79
     3
170
     0
171
     0
290
     0
174
     0
 93
        1
 44
0.0
173
     0
291
     0
 45
0.0
1001
ACAD
1000
AcDbSavedByObjectVersion
1070
     0
  0
VISUALSTYLE
  5
B7F
102
{ACAD_XDICTIONARY
360
BD8
102
}
102
{ACAD_REACTORS
330
B74
102
}
330
B74
100
AcDbVisualStyle
  2
Dim
 70
    11
 71
     2
 72
     2
 73
     0
 90
        0
 40
-0.6
 41
-30.0
 62
     5
 63
     7
 74
     1
 91
        4
 64
     7
 65
   257
 75
     1
175
     1
 42
1.0
 92
        8
 66
     7
 43
1.0
 76
     1
 77
     6
 78
     2
 67
     7
 79
     5
170
     0
171
     0
290
     0
174
     0
 93
        1
 44
-50.0
173
     0
291
     1
 45
0.0
1001
ACAD
1000
AcDbSavedByObjectVersion
1070
     0
  0
VISUALSTYLE
  5
B8C
102
{ACAD_XDICTIONARY
360
BF2
102
}
102
{ACAD_REACTORS
330
B74
102
}
330
B74
100
AcDbVisualStyle
  2
EdgeColorOff
 70
    22
 71
     2
 72
     2
 73
     0
 90
        0
 40
-0.6
 41
-30.0
 62
     5
 63
     7
 74
     1
 91
        4
 64
     7
 65
   257
 75
     1
175
     1
 42
1.0
 92
        8
 66
     7
 43
1.0
 76
     1
 77
     6
 78
     2
 67
     7
 79
     5
170
     0
171
     0
290
     0
174
     0
 93
        1
 44
0.0
173
     0
291
     1
 45
0.0
1001
ACAD
1000
AcDbSavedByObjectVersion
1070
     0
  0
VISUALSTYLE
  5
B83
102
{ACAD_XDICTIONARY
360
BE0
102
}
102
{ACAD_REACTORS
330
B74
102
}
330
B74
100
AcDbVisualStyle
  2
Facepattern
 70
    15
 71
     2
 72
     2
 73
     0
 90
        0
 40
-0.6
 41
-30.0
 62
     5
 63
     7
 74
     1
 91
        4
 64
     7
 65
   257
 75
     1
175
     1
 42
1.0
 92
        8
 66
     7
 43
1.0
 76
     1
 77
     6
 78
     2
 67
     7
 79
     5
170
     0
171
     0
290
     0
174
     0
 93
        1
 44
0.0
173
     0
291
     1
 45
0.0
1001
ACAD
1000
AcDbSavedByObjectVersion
1070
     0
  0
VISUALSTYLE
  5
B75
102
{ACAD_XDICTIONARY
360
BC4
102
}
102
{ACAD_REACTORS
330
B74
102
}
330
B74
100
AcDbVisualStyle
  2
Flat
 70
     0
 71
     2
 72
     1
 73
     1
 90
        2
 40
-0.6
 41
30.0
 62
     5
 63
     7
 74
     0
 91
        0
 64
     7
 65
   257
 75
     1
175
     1
 42
1.0
 92
        8
 66
     7
 43
1.0
 76
     1
 77
     6
 78
     2
 67
     7
 79
     5
170
     0
171
     0
290
     0
174
     0
 93
       13
 44
0.0
173
     0
291
     1
 45
0.0
1001
ACAD
1000
AcDbSavedByObjectVersion
1070
     0
  0
VISUALSTYLE
  5
B76
102
{ACAD_XDICTIONARY
360
BC6
102
}
102
{ACAD_REACTORS
330
B74
102
}
330
B74
100
AcDbVisualStyle
  2
FlatWithEdges
 70
     1
 71
     2
 72
     1
 73
     1
 90
        2
 40
-0.6
 41
30.0
 62
     5
 63
     7
 74
     1
 91
        0
 64
     7
 65
   257
 75
     1
175
     1
 42
1.0
 92
        0
 66
   257
 43
1.0
 76
     1
 77
     6
 78
     2
 67
     7
 79
     5
170
     0
171
     0
290
     0
174
     0
 93
       13
 44
0.0
173
     0
291
     1
 45
0.0
1001
ACAD
1000
AcDbSavedByObjectVersion
1070
     0
  0
VISUALSTYLE
  5
B77
102
{ACAD_XDICTIONARY
360
BC8
102
}
102
{ACAD_REACTORS
330
B74
102
}
330
B74
100
AcDbVisualStyle
  2
Gouraud
 70
     2
 71
     2
 72
     2
 73
     1
 90
        2
 40
-0.6
 41
30.0
 62
     5
 63
     7
 74
     0
 91
        0
 64
     7
 65
   257
 75
     1
175
     1
 42
1.0
 92
        0
 66
     7
 43
1.0
 76
     1
 77
     6
 78
     2
 67
     7
 79
     5
170
     0
171
     0
290
     0
174
     0
 93
       13
 44
0.0
173
     0
291
     1
 45
0.0
1001
ACAD
1000
AcDbSavedByObjectVersion
1070
     0
  0
VISUALSTYLE
  5
B78
102
{ACAD_XDICTIONARY
360
BCA
102
}
102
{ACAD_REACTORS
330
B74
102
}
330
B74
100
AcDbVisualStyle
  2
GouraudWithEdges
 70
     3
 71
     2
 72
     2
 73
     1
 90
        2
 40
-0.6
 41
30.0
 62
     5
 63
     7
 74
     1
 91
        0
 64
     7
 65
   257
 75
     1
175
     1
 42
1.0
 92
        0
 66
   257
 43
1.0
 76
     1
 77
     6
 78
     2
 67
     7
 79
     5
170
     0
171
     0
290
     0
174
     0
 93
       13
 44
0.0
173
     0
291
     1
 45
0.0
1001
ACAD
1000
AcDbSavedByObjectVersion
1070
     0
  0
VISUALSTYLE
  5
B7C
102
{ACAD_XDICTIONARY
360
BD2
102
}
102
{ACAD_REACTORS
330
B74
102
}
330
B74
100
AcDbVisualStyle
  2
Hidden
 70
     6
 71
     1
 72
     2
 73
     2
 90
        0
 40
-0.6
 41
-30.0
 62
     5
 63
     7
 74
     2
 91
        2
 64
     7
 65
   257
 75
     2
175
     1
 42
40.0
 92
        0
 66
   257
 43
1.0
 76
     1
 77
     6
 78
     2
 67
     7
 79
     3
170
     0
171
     0
290
     0
174
     0
 93
        1
 44
0.0
173
     0
291
     0
 45
0.0
1001
ACAD
1000
AcDbSavedByObjectVersion
1070
     0
  0
VISUALSTYLE
  5
B8A
102
{ACAD_XDICTIONARY
360
BEE
102
}
102
{ACAD_REACTORS
330
B74
102
}
330
B74
100
AcDbVisualStyle
  2
JitterOff
 70
    20
 71
     2
 72
     2
 73
     0
 90
        0
 40
-0.6
 41
-30.0
 62
     5
 63
     7
 74
     1
 91
        4
 64
     7
 65
   257
 75
     1
175
     1
 42
1.0
 92
       10
 66
     7
 43
1.0
 76
     1
 77
     6
 78
     2
 67
     7
 79
     5
170
     0
171
     0
290
     0
174
     0
 93
        1
 44
0.0
173
     0
291
     1
 45
0.0
1001
ACAD
1000
AcDbSavedByObjectVersion
1070
     0
  0
VISUALSTYLE
  5
B82
102
{ACAD_XDICTIONARY
360
BDE
102
}
102
{ACAD_REACTORS
330
B74
102
}
330
B74
100
AcDbVisualStyle
  2
Linepattern
 70
    14
 71
     2
 72
     2
 73
     0
 90
        0
 40
-0.6
 41
-30.0
 62
     5
 63
     7
 74
     1
 91
        4
 64
     7
 65
   257
 75
     7
175
     7
 42
1.0
 92
        8
 66
     7
 43
1.0
 76
     1
 77
     6
 78
     2
 67
     7
 79
     5
170
     0
171
     0
290
     0
174
     0
 93
        1
 44
0.0
173
     0
291
     1
 45
0.0
1001
ACAD
1000
AcDbSavedByObjectVersion
1070
     0
  0
VISUALSTYLE
  5
B8B
102
{ACAD_XDICTIONARY
360
BF0
102
}
102
{ACAD_REACTORS
330
B74
102
}
330
B74
100
AcDbVisualStyle
  2
OverhangOff
 70
    21
 71
     2
 72
     2
 73
     0
 90
        0
 40
-0.6
 41
-30.0
 62
     5
 63
     7
 74
     1
 91
        4
 64
     7
 65
   257
 75
     1
175
     1
 42
1.0
 92
        9
 66
     7
 43
1.0
 76
     1
 77
     6
 78
     2
 67
     7
 79
     5
170
     0
171
     0
290
     0
174
     0
 93
        1
 44
0.0
173
     0
291
     1
 45
0.0
1001
ACAD
1000
AcDbSavedByObjectVersion
1070
     0
  0
VISUALSTYLE
  5
B7E
102
{ACAD_XDICTIONARY
360
BD6
102
}
102
{ACAD_REACTORS
330
B74
102
}
330
B74
100
AcDbVisualStyle
  2
Realistic
 70
     8
 71
     2
 72
     3
 73
     0
 90
        2
 40
-0.6
 41
30.0
 62
     5
 63
     7
 74
     0
 91
        0
 64
     7
 65
   257
 75
     1
175
     1
 42
1.0
 92
        8
 66
   257
 43
1.0
 76
     1
 77
     6
 78
     2
 67
     7
 79
     3
170
     0
171
     0
290
     0
174
     0
 93
       13
 44
0.0
173
     0
291
     0
 45
0.0
1001
ACAD
1000
AcDbSavedByObjectVersion
1070
     0
  0
VISUALSTYLE
  5
B89
102
{ACAD_XDICTIONARY
360
BEC
102
}
102
{ACAD_REACTORS
330
B74
102
}
330
B74
100
AcDbVisualStyle
  2
Shaded
 70
    27
 71
     2
 72
     2
 73
     1
 90
        2
 40
-0.6
 41
30.0
 62
     5
 63
     7
 74
     0
 91
        4
 64
     7
 65
   257
 75
     1
175
     1
 42
1.0
 92
        8
 66
   257
 43
1.0
 76
     1
 77
     6
 78
     2
 67
     8
 79
     3
170
     0
171
     0
290
     0
174
     0
 93
        5
 44
0.0
173
     0
291
     0
 45
0.0
1001
ACAD
1000
AcDbSavedByObjectVersion
1070
     0
  0
VISUALSTYLE
  5
B88
102
{ACAD_XDICTIONARY
360
BEA
102
}
102
{ACAD_REACTORS
330
B74
102
}
330
B74
100
AcDbVisualStyle
  2
Shaded with edges
 70
    26
 71
     2
 72
     2
 73
     1
 90
        2
 40
-0.6
 41
30.0
 62
     5
 63
     7
 74
     1
 91
       10
 64
     7
 65
   257
 75
     2
175
     1
 42
1.0
 92
        8
 66
   257
 43
1.0
 76
     1
 77
     6
 78
     2
 67
     7
 79
     3
170
     0
171
     0
290
     0
174
     0
 93
        5
 44
0.0
173
     0
291
     0
 45
0.0
1001
ACAD
1000
AcDbSavedByObjectVersion
1070
     0
  0
VISUALSTYLE
  5
B85
102
{ACAD_XDICTIONARY
360
BE4
102
}
102
{ACAD_REACTORS
330
B74
102
}
330
B74
100
AcDbVisualStyle
  2
Shades of Gray
 70
    23
 71
     2
 72
     2
 73
     3
 90
        0
 40
-0.6
 41
-30.0
 62
     5
 63
     7
 74
     2
 91
        2
 64
     7
 65
     7
 75
     1
175
     1
 42
40.0
 92
        8
 66
     7
 43
1.0
 76
     1
 77
     6
 78
     2
 67
     7
 79
     3
170
     0
171
     0
290
     0
174
     0
 93
        1
 44
0.0
173
     0
291
     0
 45
0.0
1001
ACAD
1000
AcDbSavedByObjectVersion
1070
     0
  0
VISUALSTYLE
  5
B86
102
{ACAD_XDICTIONARY
360
BE6
102
}
102
{ACAD_REACTORS
330
B74
102
}
330
B74
100
AcDbVisualStyle
  2
Sketchy
 70
    24
 71
     1
 72
     2
 73
     2
 90
        0
 40
-0.6
 41
-30.0
 62
     5
 63
     7
 74
     2
 91
        2
 64
     7
 65
     7
 75
     1
175
     1
 42
40.0
 92
       11
 66
     7
 43
1.0
 76
     1
 77
     6
 78
     2
 67
     7
 79
     6
170
     0
171
     0
290
     0
174
     0
 93
        1
 44
0.0
173
     0
291
     0
 45
0.0
1001
ACAD
1000
AcDbSavedByObjectVersion
1070
     0
  0
VISUALSTYLE
  5
B81
102
{ACAD_XDICTIONARY
360
BDC
102
}
102
{ACAD_REACTORS
330
B74
102
}
330
B74
100
AcDbVisualStyle
  2
Thicken
 70
    13
 71
     2
 72
     2
 73
     0
 90
        0
 40
-0.6
 41
-30.0
 62
     5
 63
     7
 74
     1
 91
        4
 64
     7
 65
   257
 75
     1
175
     1
 42
1.0
 92
       12
 66
     7
 43
1.0
 76
     1
 77
     6
 78
     2
 67
     7
 79
     5
170
     0
171
     0
290
     0
174
     0
 93
        1
 44
0.0
173
     0
291
     1
 45
0.0
1001
ACAD
1000
AcDbSavedByObjectVersion
1070
     0
  0
VISUALSTYLE
  5
B7B
102
{ACAD_XDICTIONARY
360
BD0
102
}
102
{ACAD_REACTORS
330
B74
102
}
330
B74
100
AcDbVisualStyle
  2
Wireframe
 70
     5
 71
     0
 72
     2
 73
     0
 90
        0
 40
-0.6
 41
-30.0
 62
     5
 63
     7
 74
     1
 91
        4
 64
     7
 65
   257
 75
     1
175
     1
 42
1.0
 92
        0
 66
   257
 43
1.0
 76
     1
 77
     6
 78
     2
 67
     7
 79
     3
170
     0
171
     0
290
     0
174
     0
 93
        1
 44
0.0
173
     0
291
     0
 45
0.0
1001
ACAD
1000
AcDbSavedByObjectVersion
1070
     0
  0
VISUALSTYLE
  5
B87
102
{ACAD_XDICTIONARY
360
BE8
102
}
102
{ACAD_REACTORS
330
B74
102
}
330
B74
100
AcDbVisualStyle
  2
X-Ray
 70
    25
 71
     2
 72
     2
 73
     1
 90
        1
 40
0.5
 41
-30.0
 62
     5
 63
     7
 74
     1
 91
        0
 64
     7
 65
   257
 75
     1
175
     1
 42
1.0
 92
        8
 66
     7
 43
1.0
 76
     1
 77
     6
 78
     2
 67
     7
 79
     3
170
     0
171
     0
290
     0
174
     0
 93
       13
 44
0.0
173
     0
291
     0
 45
0.0
1001
ACAD
1000
AcDbSavedByObjectVersion
1070
     0
  0
DICTIONARYVAR
  5
BAF
102
{ACAD_REACTORS
330
BAC
102
}
330
BAC
100
DictionaryVariables
280
     0
  1
1:1
  0
DICTIONARYVAR
  5
BAE
102
{ACAD_REACTORS
330
BAC
102
}
330
BAC
100
DictionaryVariables
280
     0
  1
STANDARD
  0
DICTIONARYVAR
  5
BAD
102
{ACAD_REACTORS
330
BAC
102
}
330
BAC
100
DictionaryVariables
280
     0
  1
STANDARD
  0
DICTIONARYVAR
  5
BB3
102
{ACAD_REACTORS
330
BAC
102
}
330
BAC
100
DictionaryVariables
280
     0
  1
1
  0
DICTIONARYVAR
  5
BB1
102
{ACAD_REACTORS
330
BAC
102
}
330
BAC
100
DictionaryVariables
280
     0
  1
0
  0
DICTIONARYVAR
  5
BB0
102
{ACAD_REACTORS
330
BAC
102
}
330
BAC
100
DictionaryVariables
280
     0
  1
127
  0
DICTIONARYVAR
  5
BB2
102
{ACAD_REACTORS
330
BAC
102
}
330
BAC
100
DictionaryVariables
280
     0
  1
0
  0
DICTIONARY
  5
BBB
330
1E
100
AcDbDictionary
280
     1
281
     1
  3
ACAD_XREC_ROUNDTRIP
360
BBC
  0
DICTIONARY
  5
BBF
330
26
100
AcDbDictionary
280
     1
281
     1
  3
ACAD_XREC_ROUNDTRIP
360
BC0
  0
DICTIONARY
  5
BBD
330
22
100
AcDbDictionary
280
     1
281
     1
  3
ACAD_XREC_ROUNDTRIP
360
BBE
  0
DICTIONARY
  5
B65
330
B64
100
AcDbDictionary
280
     1
281
     1
  3
ACAD_XREC_ROUNDTRIP
360
BC2
  3
BUMPTILE
360
B67
  3
DIFFUSETILE
360
B66
  3
OPACITYTILE
360
B6A
  3
REFLECTIONTILE
360
B69
  3
REFRACTIONTILE
360
B6B
  3
SPECULARTILE
360
B68
  0
DICTIONARY
  5
B5D
330
B5C
100
AcDbDictionary
280
     1
281
     1
  3
ACAD_XREC_ROUNDTRIP
360
BC1
  3
BUMPTILE
360
B5F
  3
DIFFUSETILE
360
B5E
  3
OPACITYTILE
360
B62
  3
REFLECTIONTILE
360
B61
  3
REFRACTIONTILE
360
B63
  3
SPECULARTILE
360
B60
  0
DICTIONARY
  5
B6D
330
B6C
100
AcDbDictionary
280
     1
281
     1
  3
ACAD_XREC_ROUNDTRIP
360
BC3
  3
BUMPTILE
360
B6F
  3
DIFFUSETILE
360
B6E
  3
OPACITYTILE
360
B72
  3
REFLECTIONTILE
360
B71
  3
REFRACTIONTILE
360
B73
  3
SPECULARTILE
360
B70
  0
DICTIONARY
  5
BB7
330
BA2
100
AcDbDictionary
280
     1
281
     1
  3
ACAD_XREC_ROUNDTRIP
360
BB8
  0
DICTIONARY
  5
BB5
330
B8E
100
AcDbDictionary
280
     1
281
     1
  3
ACAD_ROUNDTRIP_2008_TABLESTYLE_CELLSTYLEMAP
360
BB6
  3
ACAD_XREC_ROUNDTRIP
360
BF4
  0
DICTIONARY
  5
BCE
330
B7A
100
AcDbDictionary
280
     1
281
     1
  3
ACAD_XREC_ROUNDTRIP
360
BCF
  0
DICTIONARY
  5
BCC
330
B79
100
AcDbDictionary
280
     1
281
     1
  3
ACAD_XREC_ROUNDTRIP
360
BCD
  0
DICTIONARY
  5
BDA
330
B80
100
AcDbDictionary
280
     1
281
     1
  3
ACAD_XREC_ROUNDTRIP
360
BDB
  0
DICTIONARY
  5
BE2
330
B84
100
AcDbDictionary
280
     1
281
     1
  3
ACAD_XREC_ROUNDTRIP
360
BE3
  0
DICTIONARY
  5
BD4
330
B7D
100
AcDbDictionary
280
     1
281
     1
  3
ACAD_XREC_ROUNDTRIP
360
BD5
  0
DICTIONARY
  5
BD8
330
B7F
100
AcDbDictionary
280
     1
281
     1
  3
ACAD_XREC_ROUNDTRIP
360
BD9
  0
DICTIONARY
  5
BF2
330
B8C
100
AcDbDictionary
280
     1
281
     1
  3
ACAD_XREC_ROUNDTRIP
360
BF3
  0
DICTIONARY
  5
BE0
330
B83
100
AcDbDictionary
280
     1
281
     1
  3
ACAD_XREC_ROUNDTRIP
360
BE1
  0
DICTIONARY
  5
BC4
330
B75
100
AcDbDictionary
280
     1
281
     1
  3
ACAD_XREC_ROUNDTRIP
360
BC5
  0
DICTIONARY
  5
BC6
330
B76
100
AcDbDictionary
280
     1
281
     1
  3
ACAD_XREC_ROUNDTRIP
360
BC7
  0
DICTIONARY
  5
BC8
330
B77
100
AcDbDictionary
280
     1
281
     1
  3
ACAD_XREC_ROUNDTRIP
360
BC9
  0
DICTIONARY
  5
BCA
330
B78
100
AcDbDictionary
280
     1
281
     1
  3
ACAD_XREC_ROUNDTRIP
360
BCB
  0
DICTIONARY
  5
BD2
330
B7C
100
AcDbDictionary
280
     1
281
     1
  3
ACAD_XREC_ROUNDTRIP
360
BD3
  0
DICTIONARY
  5
BEE
330
B8A
100
AcDbDictionary
280
     1
281
     1
  3
ACAD_XREC_ROUNDTRIP
360
BEF
  0
DICTIONARY
  5
BDE
330
B82
100
AcDbDictionary
280
     1
281
     1
  3
ACAD_XREC_ROUNDTRIP
360
BDF
  0
DICTIONARY
  5
BF0
330
B8B
100
AcDbDictionary
280
     1
281
     1
  3
ACAD_XREC_ROUNDTRIP
360
BF1
  0
DICTIONARY
  5
BD6
330
B7E
100
AcDbDictionary
280
     1
281
     1
  3
ACAD_XREC_ROUNDTRIP
360
BD7
  0
DICTIONARY
  5
BEC
330
B89
100
AcDbDictionary
280
     1
281
     1
  3
ACAD_XREC_ROUNDTRIP
360
BED
  0
DICTIONARY
  5
BEA
330
B88
100
AcDbDictionary
280
     1
281
     1
  3
ACAD_XREC_ROUNDTRIP
360
BEB
  0
DICTIONARY
  5
BE4
330
B85
100
AcDbDictionary
280
     1
281
     1
  3
ACAD_XREC_ROUNDTRIP
360
BE5
  0
DICTIONARY
  5
BE6
330
B86
100
AcDbDictionary
280
     1
281
     1
  3
ACAD_XREC_ROUNDTRIP
360
BE7
  0
DICTIONARY
  5
BDC
330
B81
100
AcDbDictionary
280
     1
281
     1
  3
ACAD_XREC_ROUNDTRIP
360
BDD
  0
DICTIONARY
  5
BD0
330
B7B
100
AcDbDictionary
280
     1
281
     1
  3
ACAD_XREC_ROUNDTRIP
360
BD1
  0
DICTIONARY
  5
BE8
330
B87
100
AcDbDictionary
280
     1
281
     1
  3
ACAD_XREC_ROUNDTRIP
360
BE9
  0
XRECORD
  5
BBC
102
{ACAD_REACTORS
330
BBB
102
}
330
BBB
100
AcDbXrecord
280
     1
102
SHADEPLOT
 70
     0
102
SHADEPLOTRESLEVEL
 70
     2
102
SHADEPLOTCUSTOMDPI
 70
   300
  0
XRECORD
  5
BC0
102
{ACAD_REACTORS
330
BBF
102
}
330
BBF
100
AcDbXrecord
280
     1
102
SHADEPLOT
 70
     0
102
SHADEPLOTRESLEVEL
 70
     2
102
SHADEPLOTCUSTOMDPI
 70
   300
  0
XRECORD
  5
BBE
102
{ACAD_REACTORS
330
BBD
102
}
330
BBD
100
AcDbXrecord
280
     1
102
SHADEPLOT
 70
     0
102
SHADEPLOTRESLEVEL
 70
     2
102
SHADEPLOTCUSTOMDPI
 70
   300
  0
XRECORD
  5
BC2
102
{ACAD_REACTORS
330
B65
102
}
330
B65
100
AcDbXrecord
280
     1
102
MATERIAL
148
0.0
149
0.0
149
0.0
 93
        0
 94
      127
282
     0
 72
     0
 77
     0
171
     0
175
     0
179
     0
273
     0
  0
XRECORD
  5
B67
102
{ACAD_REACTORS
330
B65
102
}
330
B65
100
AcDbXrecord
280
     1
270
     1
271
     1
  0
XRECORD
  5
B66
102
{ACAD_REACTORS
330
B65
102
}
330
B65
100
AcDbXrecord
280
     1
270
     1
271
     1
  0
XRECORD
  5
B6A
102
{ACAD_REACTORS
330
B65
102
}
330
B65
100
AcDbXrecord
280
     1
270
     1
271
     1
  0
XRECORD
  5
B69
102
{ACAD_REACTORS
330
B65
102
}
330
B65
100
AcDbXrecord
280
     1
270
     1
271
     1
  0
XRECORD
  5
B6B
102
{ACAD_REACTORS
330
B65
102
}
330
B65
100
AcDbXrecord
280
     1
270
     1
271
     1
  0
XRECORD
  5
B68
102
{ACAD_REACTORS
330
B65
102
}
330
B65
100
AcDbXrecord
280
     1
270
     1
271
     1
  0
XRECORD
  5
BC1
102
{ACAD_REACTORS
330
B5D
102
}
330
B5D
100
AcDbXrecord
280
     1
102
MATERIAL
148
0.0
149
0.0
149
0.0
 93
        0
 94
      127
282
     0
 72
     0
 77
     0
171
     0
175
     0
179
     0
273
     0
  0
XRECORD
  5
B5F
102
{ACAD_REACTORS
330
B5D
102
}
330
B5D
100
AcDbXrecord
280
     1
270
     1
271
     1
  0
XRECORD
  5
B5E
102
{ACAD_REACTORS
330
B5D
102
}
330
B5D
100
AcDbXrecord
280
     1
270
     1
271
     1
  0
XRECORD
  5
B62
102
{ACAD_REACTORS
330
B5D
102
}
330
B5D
100
AcDbXrecord
280
     1
270
     1
271
     1
  0
XRECORD
  5
B61
102
{ACAD_REACTORS
330
B5D
102
}
330
B5D
100
AcDbXrecord
280
     1
270
     1
271
     1
  0
XRECORD
  5
B63
102
{ACAD_REACTORS
330
B5D
102
}
330
B5D
100
AcDbXrecord
280
     1
270
     1
271
     1
  0
XRECORD
  5
B60
102
{ACAD_REACTORS
330
B5D
102
}
330
B5D
100
AcDbXrecord
280
     1
270
     1
271
     1
  0
XRECORD
  5
BC3
102
{ACAD_REACTORS
330
B6D
102
}
330
B6D
100
AcDbXrecord
280
     1
102
MATERIAL
148
0.0
149
0.0
149
0.0
 93
        0
 94
      127
282
     0
 72
     0
 77
     0
171
     0
175
     0
179
     0
273
     0
  0
XRECORD
  5
B6F
102
{ACAD_REACTORS
330
B6D
102
}
330
B6D
100
AcDbXrecord
280
     1
270
     1
271
     1
  0
XRECORD
  5
B6E
102
{ACAD_REACTORS
330
B6D
102
}
330
B6D
100
AcDbXrecord
280
     1
270
     1
271
     1
  0
XRECORD
  5
B72
102
{ACAD_REACTORS
330
B6D
102
}
330
B6D
100
AcDbXrecord
280
     1
270
     1
271
     1
  0
XRECORD
  5
B71
102
{ACAD_REACTORS
330
B6D
102
}
330
B6D
100
AcDbXrecord
280
     1
270
     1
271
     1
  0
XRECORD
  5
B73
102
{ACAD_REACTORS
330
B6D
102
}
330
B6D
100
AcDbXrecord
280
     1
270
     1
271
     1
  0
XRECORD
  5
B70
102
{ACAD_REACTORS
330
B6D
102
}
330
B6D
100
AcDbXrecord
280
     1
270
     1
271
     1
  0
XRECORD
  5
BB8
102
{ACAD_REACTORS
330
BB7
102
}
330
BB7
100
AcDbXrecord
280
     1
102
ACAD_ROUNDTRIP_2012_MLEADER_STYLE
298
     1
  0
CELLSTYLEMAP
  5
BB6
102
{ACAD_REACTORS
330
BB5
102
}
330
BB5
100
AcDbCellStyleMap
 90
        3
300
CELLSTYLE
  1
TABLEFORMAT_BEGIN
 90
        5
170
     1
 91
        0
 92
    32768
 62
   257
 93
        1
300
CONTENTFORMAT
  1
CONTENTFORMAT_BEGIN
 90
        0
 91
        0
 92
      512
 93
        0
300

 40
0.0
140
1.0
 94
        5
 62
     0
340
11
144
6.0
309
CONTENTFORMAT_END
171
     1
301
MARGIN
  1
CELLMARGIN_BEGIN
 40
1.5
 40
1.5
 40
1.5
 40
1.5
 40
4.5
 40
4.5
309
CELLMARGIN_END
 94
        6
 95
        1
302
GRIDFORMAT
  1
GRIDFORMAT_BEGIN
 90
        0
 91
        1
 62
     0
 92
       -2
340
0
 93
        0
 40
1.125
309
GRIDFORMAT_END
 95
        2
302
GRIDFORMAT
  1
GRIDFORMAT_BEGIN
 90
        0
 91
        1
 62
     0
 92
       -2
340
0
 93
        0
 40
1.125
309
GRIDFORMAT_END
 95
        4
302
GRIDFORMAT
  1
GRIDFORMAT_BEGIN
 90
        0
 91
        1
 62
     0
 92
       -2
340
0
 93
        0
 40
1.125
309
GRIDFORMAT_END
 95
        8
302
GRIDFORMAT
  1
GRIDFORMAT_BEGIN
 90
        0
 91
        1
 62
     0
 92
       -2
340
0
 93
        0
 40
1.125
309
GRIDFORMAT_END
 95
       16
302
GRIDFORMAT
  1
GRIDFORMAT_BEGIN
 90
        0
 91
        1
 62
     0
 92
       -2
340
0
 93
        0
 40
1.125
309
GRIDFORMAT_END
 95
       32
302
GRIDFORMAT
  1
GRIDFORMAT_BEGIN
 90
        0
 91
        1
 62
     0
 92
       -2
340
0
 93
        0
 40
1.125
309
GRIDFORMAT_END
309
TABLEFORMAT_END
  1
CELLSTYLE_BEGIN
 90
        1
 91
        1
300
_TITLE
309
CELLSTYLE_END
300
CELLSTYLE
  1
TABLEFORMAT_BEGIN
 90
        5
170
     1
 91
        0
 92
        0
 62
   257
 93
        1
300
CONTENTFORMAT
  1
CONTENTFORMAT_BEGIN
 90
        0
 91
        0
 92
      512
 93
        0
300

 40
0.0
140
1.0
 94
        5
 62
     0
340
11
144
4.5
309
CONTENTFORMAT_END
171
     1
301
MARGIN
  1
CELLMARGIN_BEGIN
 40
1.5
 40
1.5
 40
1.5
 40
1.5
 40
4.5
 40
4.5
309
CELLMARGIN_END
 94
        6
 95
        1
302
GRIDFORMAT
  1
GRIDFORMAT_BEGIN
 90
        0
 91
        1
 62
     0
 92
       -2
340
0
 93
        0
 40
1.125
309
GRIDFORMAT_END
 95
        2
302
GRIDFORMAT
  1
GRIDFORMAT_BEGIN
 90
        0
 91
        1
 62
     0
 92
       -2
340
0
 93
        0
 40
1.125
309
GRIDFORMAT_END
 95
        4
302
GRIDFORMAT
  1
GRIDFORMAT_BEGIN
 90
        0
 91
        1
 62
     0
 92
       -2
340
0
 93
        0
 40
1.125
309
GRIDFORMAT_END
 95
        8
302
GRIDFORMAT
  1
GRIDFORMAT_BEGIN
 90
        0
 91
        1
 62
     0
 92
       -2
340
0
 93
        0
 40
1.125
309
GRIDFORMAT_END
 95
       16
302
GRIDFORMAT
  1
GRIDFORMAT_BEGIN
 90
        0
 91
        1
 62
     0
 92
       -2
340
0
 93
        0
 40
1.125
309
GRIDFORMAT_END
 95
       32
302
GRIDFORMAT
  1
GRIDFORMAT_BEGIN
 90
        0
 91
        1
 62
     0
 92
       -2
340
0
 93
        0
 40
1.125
309
GRIDFORMAT_END
309
TABLEFORMAT_END
  1
CELLSTYLE_BEGIN
 90
        2
 91
        1
300
_HEADER
309
CELLSTYLE_END
300
CELLSTYLE
  1
TABLEFORMAT_BEGIN
 90
        5
170
     1
 91
        0
 92
        0
 62
   257
 93
        1
300
CONTENTFORMAT
  1
CONTENTFORMAT_BEGIN
 90
        0
 91
        0
 92
      512
 93
        0
300

 40
0.0
140
1.0
 94
        2
 62
     0
340
11
144
4.5
309
CONTENTFORMAT_END
171
     1
301
MARGIN
  1
CELLMARGIN_BEGIN
 40
1.5
 40
1.5
 40
1.5
 40
1.5
 40
4.5
 40
4.5
309
CELLMARGIN_END
 94
        6
 95
        1
302
GRIDFORMAT
  1
GRIDFORMAT_BEGIN
 90
        0
 91
        1
 62
     0
 92
       -2
340
0
 93
        0
 40
1.125
309
GRIDFORMAT_END
 95
        2
302
GRIDFORMAT
  1
GRIDFORMAT_BEGIN
 90
        0
 91
        1
 62
     0
 92
       -2
340
0
 93
        0
 40
1.125
309
GRIDFORMAT_END
 95
        4
302
GRIDFORMAT
  1
GRIDFORMAT_BEGIN
 90
        0
 91
        1
 62
     0
 92
       -2
340
0
 93
        0
 40
1.125
309
GRIDFORMAT_END
 95
        8
302
GRIDFORMAT
  1
GRIDFORMAT_BEGIN
 90
        0
 91
        1
 62
     0
 92
       -2
340
0
 93
        0
 40
1.125
309
GRIDFORMAT_END
 95
       16
302
GRIDFORMAT
  1
GRIDFORMAT_BEGIN
 90
        0
 91
        1
 62
     0
 92
       -2
340
0
 93
        0
 40
1.125
309
GRIDFORMAT_END
 95
       32
302
GRIDFORMAT
  1
GRIDFORMAT_BEGIN
 90
        0
 91
        1
 62
     0
 92
       -2
340
0
 93
        0
 40
1.125
309
GRIDFORMAT_END
309
TABLEFORMAT_END
  1
CELLSTYLE_BEGIN
 90
        3
 91
        2
300
_DATA
309
CELLSTYLE_END
  0
XRECORD
  5
BF4
102
{ACAD_REACTORS
330
BB5
102
}
330
BB5
100
AcDbXrecord
280
     1
102
ACAD_ROUNDTRIP_PRE2007_TABLESTYLE
 90
      512
 91
        0
  1

 92
      512
 93
        0
  2

 94
      512
 95
        0
  3

  0
XRECORD
  5
BCF
102
{ACAD_REACTORS
330
BCE
102
}
330
BCE
100
AcDbXrecord
280
     1
102
RTVSPropertyOp0
 70
     1
102
RTVSPropertyOp1
 70
     1
102
RTVSPropertyOp2
 70
     1
102
RTVSPropertyOp3
 70
     1
102
RTVSPropertyOp4
 70
     1
102
RTVSPropertyOp5
 70
     1
102
RTVSPropertyOp6
 70
     1
102
RTVSPropertyOp7
 70
     1
102
RTVSPropertyOp8
 70
     1
102
RTVSPropertyOp9
 70
     1
102
RTVSPropertyOp10
 70
     1
102
RTVSPropertyOp11
 70
     1
102
RTVSPropertyOp12
 70
     1
102
RTVSPropertyOp13
 70
     1
102
RTVSPropertyOp14
 70
     1
102
RTVSPropertyOp15
 70
     1
102
RTVSPropertyOp16
 70
     1
102
RTVSPropertyOp17
 70
     1
102
RTVSPropertyOp18
 70
     1
102
RTVSPropertyOp19
 70
     1
102
RTVSPropertyOp20
 70
     1
102
RTVSPropertyOp21
 70
     1
102
RTVSPropertyOp22
 70
     1
102
RTVSPropertyOp23
 70
     1
102
RTVSPropertyOp24
 70
     1
102
RTVSPropertyOp25
 70
     1
102
RTVSPropertyOp26
 70
     1
102
RTVSPropertyOp27
 70
     1
102
RTVSPropertyOp28
 70
     1
102
RTVSPropertyOp29
 70
     1
102
RTVSPropertyOp30
 70
     1
102
RTVSPropertyOp31
 70
     1
102
RTVSPropertyOp32
 70
     1
  0
XRECORD
  5
BCD
102
{ACAD_REACTORS
330
BCC
102
}
330
BCC
100
AcDbXrecord
280
     1
102
RTVSPropertyOp0
 70
     1
102
RTVSPropertyOp1
 70
     1
102
RTVSPropertyOp2
 70
     1
102
RTVSPropertyOp3
 70
     1
102
RTVSPropertyOp4
 70
     1
102
RTVSPropertyOp5
 70
     1
102
RTVSPropertyOp6
 70
     1
102
RTVSPropertyOp7
 70
     1
102
RTVSPropertyOp8
 70
     1
102
RTVSPropertyOp9
 70
     1
102
RTVSPropertyOp10
 70
     1
102
RTVSPropertyOp11
 70
     1
102
RTVSPropertyOp12
 70
     1
102
RTVSPropertyOp13
 70
     1
102
RTVSPropertyOp14
 70
     1
102
RTVSPropertyOp15
 70
     1
102
RTVSPropertyOp16
 70
     1
102
RTVSPropertyOp17
 70
     1
102
RTVSPropertyOp18
 70
     1
102
RTVSPropertyOp19
 70
     1
102
RTVSPropertyOp20
 70
     1
102
RTVSPropertyOp21
 70
     1
102
RTVSPropertyOp22
 70
     1
102
RTVSPropertyOp23
 70
     1
102
RTVSPropertyOp24
 70
     1
102
RTVSPropertyOp25
 70
     1
102
RTVSPropertyOp26
 70
     1
102
RTVSPropertyOp27
 70
     1
102
RTVSPropertyOp28
 70
     1
102
RTVSPropertyOp29
 70
     1
102
RTVSPropertyOp30
 70
     1
102
RTVSPropertyOp31
 70
     1
102
RTVSPropertyOp32
 70
     1
  0
XRECORD
  5
BDB
102
{ACAD_REACTORS
330
BDA
102
}
330
BDA
100
AcDbXrecord
280
     1
102
RTVSPropertyOp0
 70
     1
102
RTVSPropertyOp1
 70
     1
102
RTVSPropertyOp2
 70
     1
102
RTVSPropertyOp3
 70
     1
102
RTVSPropertyOp4
 70
     1
102
RTVSPropertyOp5
 70
     1
102
RTVSPropertyOp6
 70
     1
102
RTVSPropertyOp7
 70
     1
102
RTVSPropertyOp8
 70
     1
102
RTVSPropertyOp9
 70
     1
102
RTVSPropertyOp10
 70
     1
102
RTVSPropertyOp11
 70
     1
102
RTVSPropertyOp12
 70
     1
102
RTVSPropertyOp13
 70
     1
102
RTVSPropertyOp14
 70
     1
102
RTVSPropertyOp15
 70
     1
102
RTVSPropertyOp16
 70
     1
102
RTVSPropertyOp17
 70
     1
102
RTVSPropertyOp18
 70
     1
102
RTVSPropertyOp19
 70
     1
102
RTVSPropertyOp20
 70
     1
102
RTVSPropertyOp21
 70
     1
102
RTVSPropertyOp22
 70
     1
102
RTVSPropertyOp23
 70
     1
102
RTVSPropertyOp24
 70
     1
102
RTVSPropertyOp25
 70
     1
102
RTVSPropertyOp26
 70
     1
102
RTVSPropertyOp27
 70
     1
102
RTVSPropertyOp28
 70
     1
102
RTVSPropertyOp29
 70
     1
102
RTVSPropertyOp30
 70
     1
102
RTVSPropertyOp31
 70
     1
102
RTVSPropertyOp32
 70
     1
  0
XRECORD
  5
BE3
102
{ACAD_REACTORS
330
BE2
102
}
330
BE2
100
AcDbXrecord
280
     1
102
RTVSPropertyOp0
 70
     1
102
RTVSPropertyOp1
 70
     1
102
RTVSPropertyOp2
 70
     1
102
RTVSPropertyOp3
 70
     1
102
RTVSPropertyOp4
 70
     1
102
RTVSPropertyOp5
 70
     1
102
RTVSPropertyOp6
 70
     1
102
RTVSPropertyOp7
 70
     1
102
RTVSPropertyOp8
 70
     1
102
RTVSPropertyOp9
 70
     1
102
RTVSPropertyOp10
 70
     1
102
RTVSPropertyOp11
 70
     1
102
RTVSPropertyOp12
 70
     1
102
RTVSPropertyOp13
 70
     1
102
RTVSPropertyOp14
 70
     1
102
RTVSPropertyOp15
 70
     1
102
RTVSPropertyOp16
 70
     1
102
RTVSPropertyOp17
 70
     1
102
RTVSPropertyOp18
 70
     1
102
RTVSPropertyOp19
 70
     1
102
RTVSPropertyOp20
 70
     1
102
RTVSPropertyOp21
 70
     1
102
RTVSPropertyOp22
 70
     1
102
RTVSPropertyOp23
 70
     1
102
RTVSPropertyOp24
 70
     1
102
RTVSPropertyOp25
 70
     1
102
RTVSPropertyOp26
 70
     1
102
RTVSPropertyOp27
 70
     1
102
RTVSPropertyOp28
 70
     1
102
RTVSPropertyOp29
 70
     1
102
RTVSPropertyOp30
 70
     1
102
RTVSPropertyOp31
 70
     1
102
RTVSPropertyOp32
 70
     1
  0
XRECORD
  5
BD5
102
{ACAD_REACTORS
330
BD4
102
}
330
BD4
100
AcDbXrecord
280
     1
102
RTVSPropertyOp0
 70
     1
102
RTVSPropertyOp1
 70
     1
102
RTVSPropertyOp2
 70
     1
102
RTVSPropertyOp3
 70
     1
102
RTVSPropertyOp4
 70
     1
102
RTVSPropertyOp5
 70
     1
102
RTVSPropertyOp6
 70
     1
102
RTVSPropertyOp7
 70
     1
102
RTVSPropertyOp8
 70
     1
102
RTVSPropertyOp9
 70
     1
102
RTVSPropertyOp10
 70
     1
102
RTVSPropertyOp11
 70
     1
102
RTVSPropertyOp12
 70
     1
102
RTVSPropertyOp13
 70
     1
102
RTVSPropertyOp14
 70
     1
102
RTVSPropertyOp15
 70
     1
102
RTVSPropertyOp16
 70
     1
102
RTVSPropertyOp17
 70
     1
102
RTVSPropertyOp18
 70
     1
102
RTVSPropertyOp19
 70
     1
102
RTVSPropertyOp20
 70
     1
102
RTVSPropertyOp21
 70
     1
102
RTVSPropertyOp22
 70
     1
102
RTVSPropertyOp23
 70
     1
102
RTVSPropertyOp24
 70
     1
102
RTVSPropertyOp25
 70
     1
102
RTVSPropertyOp26
 70
     1
102
RTVSPropertyOp27
 70
     1
102
RTVSPropertyOp28
 70
     1
102
RTVSPropertyOp29
 70
     1
102
RTVSPropertyOp30
 70
     1
102
RTVSPropertyOp31
 70
     1
102
RTVSPropertyOp32
 70
     1
  0
XRECORD
  5
BD9
102
{ACAD_REACTORS
330
BD8
102
}
330
BD8
100
AcDbXrecord
280
     1
102
RTVSPropertyOp0
 70
     1
102
RTVSPropertyOp1
 70
     1
102
RTVSPropertyOp2
 70
     1
102
RTVSPropertyOp3
 70
     1
102
RTVSPropertyOp4
 70
     1
102
RTVSPropertyOp5
 70
     1
102
RTVSPropertyOp6
 70
     1
102
RTVSPropertyOp7
 70
     1
102
RTVSPropertyOp8
 70
     1
102
RTVSPropertyOp9
 70
     1
102
RTVSPropertyOp10
 70
     1
102
RTVSPropertyOp11
 70
     1
102
RTVSPropertyOp12
 70
     1
102
RTVSPropertyOp13
 70
     1
102
RTVSPropertyOp14
 70
     1
102
RTVSPropertyOp15
 70
     1
102
RTVSPropertyOp16
 70
     1
102
RTVSPropertyOp17
 70
     1
102
RTVSPropertyOp18
 70
     1
102
RTVSPropertyOp19
 70
     1
102
RTVSPropertyOp20
 70
     1
102
RTVSPropertyOp21
 70
     1
102
RTVSPropertyOp22
 70
     1
102
RTVSPropertyOp23
 70
     1
102
RTVSPropertyOp24
 70
     1
102
RTVSPropertyOp25
 70
     1
102
RTVSPropertyOp26
 70
     1
102
RTVSPropertyOp27
 70
     1
102
RTVSPropertyOp28
 70
     1
102
RTVSPropertyOp29
 70
     1
102
RTVSPropertyOp30
 70
     1
102
RTVSPropertyOp31
 70
     1
102
RTVSPropertyOp32
 70
     1
  0
XRECORD
  5
BF3
102
{ACAD_REACTORS
330
BF2
102
}
330
BF2
100
AcDbXrecord
280
     1
102
RTVSPropertyOp0
 70
     0
102
RTVSPropertyOp1
 70
     0
102
RTVSPropertyOp2
 70
     0
102
RTVSPropertyOp3
 70
     0
102
RTVSPropertyOp4
 70
     0
102
RTVSPropertyOp5
 70
     0
102
RTVSPropertyOp6
 70
     0
102
RTVSPropertyOp7
 70
     0
102
RTVSPropertyOp8
 70
     0
102
RTVSPropertyOp9
 70
     0
102
RTVSPropertyOp10
 70
     0
102
RTVSPropertyOp11
 70
     0
102
RTVSPropertyOp12
 70
     0
102
RTVSPropertyOp13
 70
     0
102
RTVSPropertyOp14
 70
     2
102
RTVSPropertyOp15
 70
     0
102
RTVSPropertyOp16
 70
     0
102
RTVSPropertyOp17
 70
     0
102
RTVSPropertyOp18
 70
     0
102
RTVSPropertyOp19
 70
     0
102
RTVSPropertyOp20
 70
     0
102
RTVSPropertyOp21
 70
     0
102
RTVSPropertyOp22
 70
     0
102
RTVSPropertyOp23
 70
     0
102
RTVSPropertyOp24
 70
     0
102
RTVSPropertyOp25
 70
     0
102
RTVSPropertyOp26
 70
     0
102
RTVSPropertyOp27
 70
     0
102
RTVSPropertyOp28
 70
     0
102
RTVSPropertyOp29
 70
     0
102
RTVSPropertyOp30
 70
     0
102
RTVSPropertyOp31
 70
     0
102
RTVSPropertyOp32
 70
     0
  0
XRECORD
  5
BE1
102
{ACAD_REACTORS
330
BE0
102
}
330
BE0
100
AcDbXrecord
280
     1
102
RTVSPropertyOp0
 70
     1
102
RTVSPropertyOp1
 70
     1
102
RTVSPropertyOp2
 70
     1
102
RTVSPropertyOp3
 70
     1
102
RTVSPropertyOp4
 70
     1
102
RTVSPropertyOp5
 70
     1
102
RTVSPropertyOp6
 70
     1
102
RTVSPropertyOp7
 70
     1
102
RTVSPropertyOp8
 70
     1
102
RTVSPropertyOp9
 70
     1
102
RTVSPropertyOp10
 70
     1
102
RTVSPropertyOp11
 70
     1
102
RTVSPropertyOp12
 70
     1
102
RTVSPropertyOp13
 70
     1
102
RTVSPropertyOp14
 70
     1
102
RTVSPropertyOp15
 70
     1
102
RTVSPropertyOp16
 70
     1
102
RTVSPropertyOp17
 70
     1
102
RTVSPropertyOp18
 70
     1
102
RTVSPropertyOp19
 70
     1
102
RTVSPropertyOp20
 70
     1
102
RTVSPropertyOp21
 70
     1
102
RTVSPropertyOp22
 70
     1
102
RTVSPropertyOp23
 70
     1
102
RTVSPropertyOp24
 70
     1
102
RTVSPropertyOp25
 70
     1
102
RTVSPropertyOp26
 70
     1
102
RTVSPropertyOp27
 70
     1
102
RTVSPropertyOp28
 70
     1
102
RTVSPropertyOp29
 70
     1
102
RTVSPropertyOp30
 70
     1
102
RTVSPropertyOp31
 70
     1
102
RTVSPropertyOp32
 70
     1
  0
XRECORD
  5
BC5
102
{ACAD_REACTORS
330
BC4
102
}
330
BC4
100
AcDbXrecord
280
     1
102
RTVSPropertyOp0
 70
     1
102
RTVSPropertyOp1
 70
     1
102
RTVSPropertyOp2
 70
     1
102
RTVSPropertyOp3
 70
     1
102
RTVSPropertyOp4
 70
     1
102
RTVSPropertyOp5
 70
     1
102
RTVSPropertyOp6
 70
     1
102
RTVSPropertyOp7
 70
     1
102
RTVSPropertyOp8
 70
     1
102
RTVSPropertyOp9
 70
     1
102
RTVSPropertyOp10
 70
     1
102
RTVSPropertyOp11
 70
     1
102
RTVSPropertyOp12
 70
     1
102
RTVSPropertyOp13
 70
     1
102
RTVSPropertyOp14
 70
     1
102
RTVSPropertyOp15
 70
     1
102
RTVSPropertyOp16
 70
     1
102
RTVSPropertyOp17
 70
     1
102
RTVSPropertyOp18
 70
     1
102
RTVSPropertyOp19
 70
     1
102
RTVSPropertyOp20
 70
     1
102
RTVSPropertyOp21
 70
     1
102
RTVSPropertyOp22
 70
     1
102
RTVSPropertyOp23
 70
     1
102
RTVSPropertyOp24
 70
     1
102
RTVSPropertyOp25
 70
     1
102
RTVSPropertyOp26
 70
     1
102
RTVSPropertyOp27
 70
     1
102
RTVSPropertyOp28
 70
     1
102
RTVSPropertyOp29
 70
     1
102
RTVSPropertyOp30
 70
     1
102
RTVSPropertyOp31
 70
     1
102
RTVSPropertyOp32
 70
     1
  0
XRECORD
  5
BC7
102
{ACAD_REACTORS
330
BC6
102
}
330
BC6
100
AcDbXrecord
280
     1
102
RTVSPropertyOp0
 70
     1
102
RTVSPropertyOp1
 70
     1
102
RTVSPropertyOp2
 70
     1
102
RTVSPropertyOp3
 70
     1
102
RTVSPropertyOp4
 70
     1
102
RTVSPropertyOp5
 70
     1
102
RTVSPropertyOp6
 70
     1
102
RTVSPropertyOp7
 70
     1
102
RTVSPropertyOp8
 70
     1
102
RTVSPropertyOp9
 70
     1
102
RTVSPropertyOp10
 70
     1
102
RTVSPropertyOp11
 70
     1
102
RTVSPropertyOp12
 70
     1
102
RTVSPropertyOp13
 70
     1
102
RTVSPropertyOp14
 70
     1
102
RTVSPropertyOp15
 70
     1
102
RTVSPropertyOp16
 70
     1
102
RTVSPropertyOp17
 70
     1
102
RTVSPropertyOp18
 70
     1
102
RTVSPropertyOp19
 70
     1
102
RTVSPropertyOp20
 70
     1
102
RTVSPropertyOp21
 70
     1
102
RTVSPropertyOp22
 70
     1
102
RTVSPropertyOp23
 70
     1
102
RTVSPropertyOp24
 70
     1
102
RTVSPropertyOp25
 70
     1
102
RTVSPropertyOp26
 70
     1
102
RTVSPropertyOp27
 70
     1
102
RTVSPropertyOp28
 70
     1
102
RTVSPropertyOp29
 70
     1
102
RTVSPropertyOp30
 70
     1
102
RTVSPropertyOp31
 70
     1
102
RTVSPropertyOp32
 70
     1
  0
XRECORD
  5
BC9
102
{ACAD_REACTORS
330
BC8
102
}
330
BC8
100
AcDbXrecord
280
     1
102
RTVSPropertyOp0
 70
     1
102
RTVSPropertyOp1
 70
     1
102
RTVSPropertyOp2
 70
     1
102
RTVSPropertyOp3
 70
     1
102
RTVSPropertyOp4
 70
     1
102
RTVSPropertyOp5
 70
     1
102
RTVSPropertyOp6
 70
     1
102
RTVSPropertyOp7
 70
     1
102
RTVSPropertyOp8
 70
     1
102
RTVSPropertyOp9
 70
     1
102
RTVSPropertyOp10
 70
     1
102
RTVSPropertyOp11
 70
     1
102
RTVSPropertyOp12
 70
     1
102
RTVSPropertyOp13
 70
     1
102
RTVSPropertyOp14
 70
     1
102
RTVSPropertyOp15
 70
     1
102
RTVSPropertyOp16
 70
     1
102
RTVSPropertyOp17
 70
     1
102
RTVSPropertyOp18
 70
     1
102
RTVSPropertyOp19
 70
     1
102
RTVSPropertyOp20
 70
     1
102
RTVSPropertyOp21
 70
     1
102
RTVSPropertyOp22
 70
     1
102
RTVSPropertyOp23
 70
     1
102
RTVSPropertyOp24
 70
     1
102
RTVSPropertyOp25
 70
     1
102
RTVSPropertyOp26
 70
     1
102
RTVSPropertyOp27
 70
     1
102
RTVSPropertyOp28
 70
     1
102
RTVSPropertyOp29
 70
     1
102
RTVSPropertyOp30
 70
     1
102
RTVSPropertyOp31
 70
     1
102
RTVSPropertyOp32
 70
     1
  0
XRECORD
  5
BCB
102
{ACAD_REACTORS
330
BCA
102
}
330
BCA
100
AcDbXrecord
280
     1
102
RTVSPropertyOp0
 70
     1
102
RTVSPropertyOp1
 70
     1
102
RTVSPropertyOp2
 70
     1
102
RTVSPropertyOp3
 70
     1
102
RTVSPropertyOp4
 70
     1
102
RTVSPropertyOp5
 70
     1
102
RTVSPropertyOp6
 70
     1
102
RTVSPropertyOp7
 70
     1
102
RTVSPropertyOp8
 70
     1
102
RTVSPropertyOp9
 70
     1
102
RTVSPropertyOp10
 70
     1
102
RTVSPropertyOp11
 70
     1
102
RTVSPropertyOp12
 70
     1
102
RTVSPropertyOp13
 70
     1
102
RTVSPropertyOp14
 70
     1
102
RTVSPropertyOp15
 70
     1
102
RTVSPropertyOp16
 70
     1
102
RTVSPropertyOp17
 70
     1
102
RTVSPropertyOp18
 70
     1
102
RTVSPropertyOp19
 70
     1
102
RTVSPropertyOp20
 70
     1
102
RTVSPropertyOp21
 70
     1
102
RTVSPropertyOp22
 70
     1
102
RTVSPropertyOp23
 70
     1
102
RTVSPropertyOp24
 70
     1
102
RTVSPropertyOp25
 70
     1
102
RTVSPropertyOp26
 70
     1
102
RTVSPropertyOp27
 70
     1
102
RTVSPropertyOp28
 70
     1
102
RTVSPropertyOp29
 70
     1
102
RTVSPropertyOp30
 70
     1
102
RTVSPropertyOp31
 70
     1
102
RTVSPropertyOp32
 70
     1
  0
XRECORD
  5
BD3
102
{ACAD_REACTORS
330
BD2
102
}
330
BD2
100
AcDbXrecord
280
     1
102
RTVSPropertyOp0
 70
     1
102
RTVSPropertyOp1
 70
     1
102
RTVSPropertyOp2
 70
     1
102
RTVSPropertyOp3
 70
     1
102
RTVSPropertyOp4
 70
     1
102
RTVSPropertyOp5
 70
     1
102
RTVSPropertyOp6
 70
     1
102
RTVSPropertyOp7
 70
     1
102
RTVSPropertyOp8
 70
     1
102
RTVSPropertyOp9
 70
     1
102
RTVSPropertyOp10
 70
     1
102
RTVSPropertyOp11
 70
     1
102
RTVSPropertyOp12
 70
     1
102
RTVSPropertyOp13
 70
     1
102
RTVSPropertyOp14
 70
     1
102
RTVSPropertyOp15
 70
     1
102
RTVSPropertyOp16
 70
     1
102
RTVSPropertyOp17
 70
     1
102
RTVSPropertyOp18
 70
     1
102
RTVSPropertyOp19
 70
     1
102
RTVSPropertyOp20
 70
     1
102
RTVSPropertyOp21
 70
     1
102
RTVSPropertyOp22
 70
     1
102
RTVSPropertyOp23
 70
     1
102
RTVSPropertyOp24
 70
     1
102
RTVSPropertyOp25
 70
     1
102
RTVSPropertyOp26
 70
     1
102
RTVSPropertyOp27
 70
     1
102
RTVSPropertyOp28
 70
     1
102
RTVSPropertyOp29
 70
     1
102
RTVSPropertyOp30
 70
     1
102
RTVSPropertyOp31
 70
     1
102
RTVSPropertyOp32
 70
     1
  0
XRECORD
  5
BEF
102
{ACAD_REACTORS
330
BEE
102
}
330
BEE
100
AcDbXrecord
280
     1
102
RTVSPropertyOp0
 70
     0
102
RTVSPropertyOp1
 70
     0
102
RTVSPropertyOp2
 70
     0
102
RTVSPropertyOp3
 70
     0
102
RTVSPropertyOp4
 70
     0
102
RTVSPropertyOp5
 70
     0
102
RTVSPropertyOp6
 70
     0
102
RTVSPropertyOp7
 70
     0
102
RTVSPropertyOp8
 70
     0
102
RTVSPropertyOp9
 70
     0
102
RTVSPropertyOp10
 70
     0
102
RTVSPropertyOp11
 70
     0
102
RTVSPropertyOp12
 70
     0
102
RTVSPropertyOp13
 70
     0
102
RTVSPropertyOp14
 70
     2
102
RTVSPropertyOp15
 70
     0
102
RTVSPropertyOp16
 70
     0
102
RTVSPropertyOp17
 70
     0
102
RTVSPropertyOp18
 70
     0
102
RTVSPropertyOp19
 70
     0
102
RTVSPropertyOp20
 70
     0
102
RTVSPropertyOp21
 70
     0
102
RTVSPropertyOp22
 70
     0
102
RTVSPropertyOp23
 70
     0
102
RTVSPropertyOp24
 70
     0
102
RTVSPropertyOp25
 70
     0
102
RTVSPropertyOp26
 70
     0
102
RTVSPropertyOp27
 70
     0
102
RTVSPropertyOp28
 70
     0
102
RTVSPropertyOp29
 70
     0
102
RTVSPropertyOp30
 70
     0
102
RTVSPropertyOp31
 70
     0
102
RTVSPropertyOp32
 70
     0
  0
XRECORD
  5
BDF
102
{ACAD_REACTORS
330
BDE
102
}
330
BDE
100
AcDbXrecord
280
     1
102
RTVSPropertyOp0
 70
     1
102
RTVSPropertyOp1
 70
     1
102
RTVSPropertyOp2
 70
     1
102
RTVSPropertyOp3
 70
     1
102
RTVSPropertyOp4
 70
     1
102
RTVSPropertyOp5
 70
     1
102
RTVSPropertyOp6
 70
     1
102
RTVSPropertyOp7
 70
     1
102
RTVSPropertyOp8
 70
     1
102
RTVSPropertyOp9
 70
     1
102
RTVSPropertyOp10
 70
     1
102
RTVSPropertyOp11
 70
     1
102
RTVSPropertyOp12
 70
     1
102
RTVSPropertyOp13
 70
     1
102
RTVSPropertyOp14
 70
     1
102
RTVSPropertyOp15
 70
     1
102
RTVSPropertyOp16
 70
     1
102
RTVSPropertyOp17
 70
     1
102
RTVSPropertyOp18
 70
     1
102
RTVSPropertyOp19
 70
     1
102
RTVSPropertyOp20
 70
     1
102
RTVSPropertyOp21
 70
     1
102
RTVSPropertyOp22
 70
     1
102
RTVSPropertyOp23
 70
     1
102
RTVSPropertyOp24
 70
     1
102
RTVSPropertyOp25
 70
     1
102
RTVSPropertyOp26
 70
     1
102
RTVSPropertyOp27
 70
     1
102
RTVSPropertyOp28
 70
     1
102
RTVSPropertyOp29
 70
     1
102
RTVSPropertyOp30
 70
     1
102
RTVSPropertyOp31
 70
     1
102
RTVSPropertyOp32
 70
     1
  0
XRECORD
  5
BF1
102
{ACAD_REACTORS
330
BF0
102
}
330
BF0
100
AcDbXrecord
280
     1
102
RTVSPropertyOp0
 70
     0
102
RTVSPropertyOp1
 70
     0
102
RTVSPropertyOp2
 70
     0
102
RTVSPropertyOp3
 70
     0
102
RTVSPropertyOp4
 70
     0
102
RTVSPropertyOp5
 70
     0
102
RTVSPropertyOp6
 70
     0
102
RTVSPropertyOp7
 70
     0
102
RTVSPropertyOp8
 70
     0
102
RTVSPropertyOp9
 70
     0
102
RTVSPropertyOp10
 70
     0
102
RTVSPropertyOp11
 70
     0
102
RTVSPropertyOp12
 70
     0
102
RTVSPropertyOp13
 70
     0
102
RTVSPropertyOp14
 70
     2
102
RTVSPropertyOp15
 70
     0
102
RTVSPropertyOp16
 70
     0
102
RTVSPropertyOp17
 70
     0
102
RTVSPropertyOp18
 70
     0
102
RTVSPropertyOp19
 70
     0
102
RTVSPropertyOp20
 70
     0
102
RTVSPropertyOp21
 70
     0
102
RTVSPropertyOp22
 70
     0
102
RTVSPropertyOp23
 70
     0
102
RTVSPropertyOp24
 70
     0
102
RTVSPropertyOp25
 70
     0
102
RTVSPropertyOp26
 70
     0
102
RTVSPropertyOp27
 70
     0
102
RTVSPropertyOp28
 70
     0
102
RTVSPropertyOp29
 70
     0
102
RTVSPropertyOp30
 70
     0
102
RTVSPropertyOp31
 70
     0
102
RTVSPropertyOp32
 70
     0
  0
XRECORD
  5
BD7
102
{ACAD_REACTORS
330
BD6
102
}
330
BD6
100
AcDbXrecord
280
     1
102
RTVSPropertyOp0
 70
     1
102
RTVSPropertyOp1
 70
     1
102
RTVSPropertyOp2
 70
     1
102
RTVSPropertyOp3
 70
     1
102
RTVSPropertyOp4
 70
     1
102
RTVSPropertyOp5
 70
     1
102
RTVSPropertyOp6
 70
     1
102
RTVSPropertyOp7
 70
     1
102
RTVSPropertyOp8
 70
     1
102
RTVSPropertyOp9
 70
     1
102
RTVSPropertyOp10
 70
     1
102
RTVSPropertyOp11
 70
     1
102
RTVSPropertyOp12
 70
     1
102
RTVSPropertyOp13
 70
     1
102
RTVSPropertyOp14
 70
     1
102
RTVSPropertyOp15
 70
     1
102
RTVSPropertyOp16
 70
     1
102
RTVSPropertyOp17
 70
     1
102
RTVSPropertyOp18
 70
     1
102
RTVSPropertyOp19
 70
     1
102
RTVSPropertyOp20
 70
     1
102
RTVSPropertyOp21
 70
     1
102
RTVSPropertyOp22
 70
     1
102
RTVSPropertyOp23
 70
     1
102
RTVSPropertyOp24
 70
     1
102
RTVSPropertyOp25
 70
     1
102
RTVSPropertyOp26
 70
     1
102
RTVSPropertyOp27
 70
     1
102
RTVSPropertyOp28
 70
     1
102
RTVSPropertyOp29
 70
     1
102
RTVSPropertyOp30
 70
     1
102
RTVSPropertyOp31
 70
     1
102
RTVSPropertyOp32
 70
     1
  0
XRECORD
  5
BED
102
{ACAD_REACTORS
330
BEC
102
}
330
BEC
100
AcDbXrecord
280
     1
102
RTVSPropertyOp0
 70
     1
102
RTVSPropertyOp1
 70
     1
102
RTVSPropertyOp2
 70
     1
102
RTVSPropertyOp3
 70
     1
102
RTVSPropertyOp4
 70
     1
102
RTVSPropertyOp5
 70
     1
102
RTVSPropertyOp6
 70
     1
102
RTVSPropertyOp7
 70
     1
102
RTVSPropertyOp8
 70
     1
102
RTVSPropertyOp9
 70
     1
102
RTVSPropertyOp10
 70
     1
102
RTVSPropertyOp11
 70
     1
102
RTVSPropertyOp12
 70
     1
102
RTVSPropertyOp13
 70
     1
102
RTVSPropertyOp14
 70
     1
102
RTVSPropertyOp15
 70
     1
102
RTVSPropertyOp16
 70
     1
102
RTVSPropertyOp17
 70
     1
102
RTVSPropertyOp18
 70
     1
102
RTVSPropertyOp19
 70
     1
102
RTVSPropertyOp20
 70
     1
102
RTVSPropertyOp21
 70
     1
102
RTVSPropertyOp22
 70
     1
102
RTVSPropertyOp23
 70
     1
102
RTVSPropertyOp24
 70
     1
102
RTVSPropertyOp25
 70
     1
102
RTVSPropertyOp26
 70
     1
102
RTVSPropertyOp27
 70
     1
102
RTVSPropertyOp28
 70
     1
102
RTVSPropertyOp29
 70
     1
102
RTVSPropertyOp30
 70
     1
102
RTVSPropertyOp31
 70
     1
102
RTVSPropertyOp32
 70
     1
  0
XRECORD
  5
BEB
102
{ACAD_REACTORS
330
BEA
102
}
330
BEA
100
AcDbXrecord
280
     1
102
RTVSPropertyOp0
 70
     1
102
RTVSPropertyOp1
 70
     1
102
RTVSPropertyOp2
 70
     1
102
RTVSPropertyOp3
 70
     1
102
RTVSPropertyOp4
 70
     1
102
RTVSPropertyOp5
 70
     1
102
RTVSPropertyOp6
 70
     1
102
RTVSPropertyOp7
 70
     1
102
RTVSPropertyOp8
 70
     1
102
RTVSPropertyOp9
 70
     1
102
RTVSPropertyOp10
 70
     1
102
RTVSPropertyOp11
 70
     1
102
RTVSPropertyOp12
 70
     1
102
RTVSPropertyOp13
 70
     1
102
RTVSPropertyOp14
 70
     1
102
RTVSPropertyOp15
 70
     1
102
RTVSPropertyOp16
 70
     1
102
RTVSPropertyOp17
 70
     1
102
RTVSPropertyOp18
 70
     1
102
RTVSPropertyOp19
 70
     1
102
RTVSPropertyOp20
 70
     1
102
RTVSPropertyOp21
 70
     1
102
RTVSPropertyOp22
 70
     1
102
RTVSPropertyOp23
 70
     1
102
RTVSPropertyOp24
 70
     1
102
RTVSPropertyOp25
 70
     1
102
RTVSPropertyOp26
 70
     1
102
RTVSPropertyOp27
 70
     1
102
RTVSPropertyOp28
 70
     1
102
RTVSPropertyOp29
 70
     1
102
RTVSPropertyOp30
 70
     1
102
RTVSPropertyOp31
 70
     1
102
RTVSPropertyOp32
 70
     1
  0
XRECORD
  5
BE5
102
{ACAD_REACTORS
330
BE4
102
}
330
BE4
100
AcDbXrecord
280
     1
102
RTVSPropertyOp0
 70
     1
102
RTVSPropertyOp1
 70
     1
102
RTVSPropertyOp2
 70
     1
102
RTVSPropertyOp3
 70
     1
102
RTVSPropertyOp4
 70
     1
102
RTVSPropertyOp5
 70
     1
102
RTVSPropertyOp6
 70
     1
102
RTVSPropertyOp7
 70
     1
102
RTVSPropertyOp8
 70
     1
102
RTVSPropertyOp9
 70
     1
102
RTVSPropertyOp10
 70
     1
102
RTVSPropertyOp11
 70
     1
102
RTVSPropertyOp12
 70
     1
102
RTVSPropertyOp13
 70
     1
102
RTVSPropertyOp14
 70
     1
102
RTVSPropertyOp15
 70
     1
102
RTVSPropertyOp16
 70
     1
102
RTVSPropertyOp17
 70
     1
102
RTVSPropertyOp18
 70
     1
102
RTVSPropertyOp19
 70
     1
102
RTVSPropertyOp20
 70
     1
102
RTVSPropertyOp21
 70
     1
102
RTVSPropertyOp22
 70
     1
102
RTVSPropertyOp23
 70
     1
102
RTVSPropertyOp24
 70
     1
102
RTVSPropertyOp25
 70
     1
102
RTVSPropertyOp26
 70
     1
102
RTVSPropertyOp27
 70
     1
102
RTVSPropertyOp28
 70
     1
102
RTVSPropertyOp29
 70
     1
102
RTVSPropertyOp30
 70
     1
102
RTVSPropertyOp31
 70
     1
102
RTVSPropertyOp32
 70
     1
  0
XRECORD
  5
BE7
102
{ACAD_REACTORS
330
BE6
102
}
330
BE6
100
AcDbXrecord
280
     1
102
RTVSPropertyOp0
 70
     1
102
RTVSPropertyOp1
 70
     1
102
RTVSPropertyOp2
 70
     1
102
RTVSPropertyOp3
 70
     1
102
RTVSPropertyOp4
 70
     1
102
RTVSPropertyOp5
 70
     1
102
RTVSPropertyOp6
 70
     1
102
RTVSPropertyOp7
 70
     1
102
RTVSPropertyOp8
 70
     1
102
RTVSPropertyOp9
 70
     1
102
RTVSPropertyOp10
 70
     1
102
RTVSPropertyOp11
 70
     1
102
RTVSPropertyOp12
 70
     1
102
RTVSPropertyOp13
 70
     1
102
RTVSPropertyOp14
 70
     1
102
RTVSPropertyOp15
 70
     1
102
RTVSPropertyOp16
 70
     1
102
RTVSPropertyOp17
 70
     1
102
RTVSPropertyOp18
 70
     1
102
RTVSPropertyOp19
 70
     1
102
RTVSPropertyOp20
 70
     1
102
RTVSPropertyOp21
 70
     1
102
RTVSPropertyOp22
 70
     1
102
RTVSPropertyOp23
 70
     1
102
RTVSPropertyOp24
 70
     1
102
RTVSPropertyOp25
 70
     1
102
RTVSPropertyOp26
 70
     1
102
RTVSPropertyOp27
 70
     1
102
RTVSPropertyOp28
 70
     1
102
RTVSPropertyOp29
 70
     1
102
RTVSPropertyOp30
 70
     1
102
RTVSPropertyOp31
 70
     1
102
RTVSPropertyOp32
 70
     1
  0
XRECORD
  5
BDD
102
{ACAD_REACTORS
330
BDC
102
}
330
BDC
100
AcDbXrecord
280
     1
102
RTVSPropertyOp0
 70
     1
102
RTVSPropertyOp1
 70
     1
102
RTVSPropertyOp2
 70
     1
102
RTVSPropertyOp3
 70
     1
102
RTVSPropertyOp4
 70
     1
102
RTVSPropertyOp5
 70
     1
102
RTVSPropertyOp6
 70
     1
102
RTVSPropertyOp7
 70
     1
102
RTVSPropertyOp8
 70
     1
102
RTVSPropertyOp9
 70
     1
102
RTVSPropertyOp10
 70
     1
102
RTVSPropertyOp11
 70
     1
102
RTVSPropertyOp12
 70
     1
102
RTVSPropertyOp13
 70
     1
102
RTVSPropertyOp14
 70
     1
102
RTVSPropertyOp15
 70
     1
102
RTVSPropertyOp16
 70
     1
102
RTVSPropertyOp17
 70
     1
102
RTVSPropertyOp18
 70
     1
102
RTVSPropertyOp19
 70
     1
102
RTVSPropertyOp20
 70
     1
102
RTVSPropertyOp21
 70
     1
102
RTVSPropertyOp22
 70
     1
102
RTVSPropertyOp23
 70
     1
102
RTVSPropertyOp24
 70
     1
102
RTVSPropertyOp25
 70
     1
102
RTVSPropertyOp26
 70
     1
102
RTVSPropertyOp27
 70
     1
102
RTVSPropertyOp28
 70
     1
102
RTVSPropertyOp29
 70
     1
102
RTVSPropertyOp30
 70
     1
102
RTVSPropertyOp31
 70
     1
102
RTVSPropertyOp32
 70
     1
  0
XRECORD
  5
BD1
102
{ACAD_REACTORS
330
BD0
102
}
330
BD0
100
AcDbXrecord
280
     1
102
RTVSPropertyOp0
 70
     1
102
RTVSPropertyOp1
 70
     1
102
RTVSPropertyOp2
 70
     1
102
RTVSPropertyOp3
 70
     1
102
RTVSPropertyOp4
 70
     1
102
RTVSPropertyOp5
 70
     1
102
RTVSPropertyOp6
 70
     1
102
RTVSPropertyOp7
 70
     1
102
RTVSPropertyOp8
 70
     1
102
RTVSPropertyOp9
 70
     1
102
RTVSPropertyOp10
 70
     1
102
RTVSPropertyOp11
 70
     1
102
RTVSPropertyOp12
 70
     1
102
RTVSPropertyOp13
 70
     1
102
RTVSPropertyOp14
 70
     1
102
RTVSPropertyOp15
 70
     1
102
RTVSPropertyOp16
 70
     1
102
RTVSPropertyOp17
 70
     1
102
RTVSPropertyOp18
 70
     1
102
RTVSPropertyOp19
 70
     1
102
RTVSPropertyOp20
 70
     1
102
RTVSPropertyOp21
 70
     1
102
RTVSPropertyOp22
 70
     1
102
RTVSPropertyOp23
 70
     1
102
RTVSPropertyOp24
 70
     1
102
RTVSPropertyOp25
 70
     1
102
RTVSPropertyOp26
 70
     1
102
RTVSPropertyOp27
 70
     1
102
RTVSPropertyOp28
 70
     1
102
RTVSPropertyOp29
 70
     1
102
RTVSPropertyOp30
 70
     1
102
RTVSPropertyOp31
 70
     1
102
RTVSPropertyOp32
 70
     1
  0
XRECORD
  5
BE9
102
{ACAD_REACTORS
330
BE8
102
}
330
BE8
100
AcDbXrecord
280
     1
102
RTVSPropertyOp0
 70
     1
102
RTVSPropertyOp1
 70
     1
102
RTVSPropertyOp2
 70
     1
102
RTVSPropertyOp3
 70
     1
102
RTVSPropertyOp4
 70
     1
102
RTVSPropertyOp5
 70
     1
102
RTVSPropertyOp6
 70
     1
102
RTVSPropertyOp7
 70
     1
102
RTVSPropertyOp8
 70
     1
102
RTVSPropertyOp9
 70
     1
102
RTVSPropertyOp10
 70
     1
102
RTVSPropertyOp11
 70
     1
102
RTVSPropertyOp12
 70
     1
102
RTVSPropertyOp13
 70
     1
102
RTVSPropertyOp14
 70
     1
102
RTVSPropertyOp15
 70
     1
102
RTVSPropertyOp16
 70
     1
102
RTVSPropertyOp17
 70
     1
102
RTVSPropertyOp18
 70
     1
102
RTVSPropertyOp19
 70
     1
102
RTVSPropertyOp20
 70
     1
102
RTVSPropertyOp21
 70
     1
102
RTVSPropertyOp22
 70
     1
102
RTVSPropertyOp23
 70
     1
102
RTVSPropertyOp24
 70
     1
102
RTVSPropertyOp25
 70
     1
102
RTVSPropertyOp26
 70
     1
102
RTVSPropertyOp27
 70
     1
102
RTVSPropertyOp28
 70
     1
102
RTVSPropertyOp29
 70
     1
102
RTVSPropertyOp30
 70
     1
102
RTVSPropertyOp31
 70
     1
102
RTVSPropertyOp32
 70
     1
  0
ENDSEC
  0
EOF
