  0
SECTION
  2
HEADER
  9
$ACADVER
  1
AC1015
  9
$ACADMAINTVER
 70
    14
  9
$DWGCODEPAGE
  3
ANSI_932
  9
$INSBASE
 10
0.0
 20
0.0
 30
0.0
  9
$EXTMIN
 10
-354.4168234509688
 20
-189.4811777832089
 30
0.0
  9
$EXTMAX
 10
330.9931488393709
 20
121.2174761641821
 30
0.0
  9
$LIMMIN
 10
0.0
 20
0.0
  9
$LIMMAX
 10
420.0
 20
297.0
  9
$ORTHOMODE
 70
     0
  9
$REGENMODE
 70
     1
  9
$FILLMODE
 70
     1
  9
$QTEXTMODE
 70
     0
  9
$MIRRTEXT
 70
     1
  9
$LTSCALE
 40
1.0
  9
$ATTMODE
 70
     1
  9
$TEXTSIZE
 40
2.5
  9
$TRACEWID
 40
1.0
  9
$TEXTSTYLE
  7
Standard
  9
$CLAYER
  8
0
  9
$CELTYPE
  6
ByLayer
  9
$CECOLOR
 62
   256
  9
$CELTSCALE
 40
1.0
  9
$DISPSILH
 70
     0
  9
$DIMSCALE
 40
1.0
  9
$DIMASZ
 40
2.5
  9
$DIMEXO
 40
0.625
  9
$DIMDLI
 40
3.75
  9
$DIMRND
 40
0.0
  9
$DIMDLE
 40
0.0
  9
$DIMEXE
 40
1.25
  9
$DIMTP
 40
0.0
  9
$DIMTM
 40
0.0
  9
$DIMTXT
 40
2.5
  9
$DIMCEN
 40
2.5
  9
$DIMTSZ
 40
0.0
  9
$DIMTOL
 70
     0
  9
$DIMLIM
 70
     0
  9
$DIMTIH
 70
     0
  9
$DIMTOH
 70
     0
  9
$DIMSE1
 70
     0
  9
$DIMSE2
 70
     0
  9
$DIMTAD
 70
     1
  9
$DIMZIN
 70
     8
  9
$DIMBLK
  1

  9
$DIMASO
 70
     1
  9
$DIMSHO
 70
     1
  9
$DIMPOST
  1

  9
$DIMAPOST
  1

  9
$DIMALT
 70
     0
  9
$DIMALTD
 70
     3
  9
$DIMALTF
 40
0.03937007874016
  9
$DIMLFAC
 40
1.0
  9
$DIMTOFL
 70
     1
  9
$DIMTVP
 40
0.0
  9
$DIMTIX
 70
     0
  9
$DIMSOXD
 70
     0
  9
$DIMSAH
 70
     0
  9
$DIMBLK1
  1

  9
$DIMBLK2
  1

  9
$DIMSTYLE
  2
ISO-25
  9
$DIMCLRD
 70
     0
  9
$DIMCLRE
 70
     0
  9
$DIMCLRT
 70
     0
  9
$DIMTFAC
 40
1.0
  9
$DIMGAP
 40
0.625
  9
$DIMJUST
 70
     0
  9
$DIMSD1
 70
     0
  9
$DIMSD2
 70
     0
  9
$DIMTOLJ
 70
     0
  9
$DIMTZIN
 70
     8
  9
$DIMALTZ
 70
     0
  9
$DIMALTTZ
 70
     0
  9
$DIMUPT
 70
     0
  9
$DIMDEC
 70
     2
  9
$DIMTDEC
 70
     2
  9
$DIMALTU
 70
     2
  9
$DIMALTTD
 70
     3
  9
$DIMTXSTY
  7
Standard
  9
$DIMAUNIT
 70
     0
  9
$DIMADEC
 70
     0
  9
$DIMALTRND
 40
0.0
  9
$DIMAZIN
 70
     0
  9
$DIMDSEP
 70
    44
  9
$DIMATFIT
 70
     3
  9
$DIMFRAC
 70
     0
  9
$DIMLDRBLK
  1

  9
$DIMLUNIT
 70
     2
  9
$DIMLWD
 70
    -2
  9
$DIMLWE
 70
    -2
  9
$DIMTMOVE
 70
     0
  9
$LUNITS
 70
     2
  9
$LUPREC
 70
     4
  9
$SKETCHINC
 40
1.0
  9
$FILLETRAD
 40
10.0
  9
$AUNITS
 70
     0
  9
$AUPREC
 70
     0
  9
$MENU
  1
.
  9
$ELEVATION
 40
0.0
  9
$PELEVATION
 40
0.0
  9
$THICKNESS
 40
0.0
  9
$LIMCHECK
 70
     0
  9
$CHAMFERA
 40
10.0
  9
$CHAMFERB
 40
10.0
  9
$CHAMFERC
 40
20.0
  9
$CHAMFERD
 40
0.0
  9
$SKPOLY
 70
     0
  9
$TDCREATE
 40
2456037.754270462
  9
$TDUCREATE
 40
2456037.379270462
  9
$TDUPDATE
 40
2456044.421706990
  9
$TDUUPDATE
 40
2456044.046706991
  9
$TDINDWG
 40
0.0021513310
  9
$TDUSRTIMER
 40
0.0021513310
  9
$USRTIMER
 70
     1
  9
$ANGBASE
 50
0.0
  9
$ANGDIR
 70
     0
  9
$PDMODE
 70
     0
  9
$PDSIZE
 40
0.0
  9
$PLINEWID
 40
0.0
  9
$SPLFRAME
 70
     0
  9
$SPLINETYPE
 70
     6
  9
$SPLINESEGS
 70
     8
  9
$HANDSEED
  5
B9E
  9
$SURFTAB1
 70
     6
  9
$SURFTAB2
 70
     6
  9
$SURFTYPE
 70
     6
  9
$SURFU
 70
     6
  9
$SURFV
 70
     6
  9
$UCSBASE
  2

  9
$UCSNAME
  2

  9
$UCSORG
 10
0.0
 20
0.0
 30
0.0
  9
$UCSXDIR
 10
1.0
 20
0.0
 30
0.0
  9
$UCSYDIR
 10
0.0
 20
1.0
 30
0.0
  9
$UCSORTHOREF
  2

  9
$UCSORTHOVIEW
 70
     0
  9
$UCSORGTOP
 10
0.0
 20
0.0
 30
0.0
  9
$UCSORGBOTTOM
 10
0.0
 20
0.0
 30
0.0
  9
$UCSORGLEFT
 10
0.0
 20
0.0
 30
0.0
  9
$UCSORGRIGHT
 10
0.0
 20
0.0
 30
0.0
  9
$UCSORGFRONT
 10
0.0
 20
0.0
 30
0.0
  9
$UCSORGBACK
 10
0.0
 20
0.0
 30
0.0
  9
$PUCSBASE
  2

  9
$PUCSNAME
  2

  9
$PUCSORG
 10
0.0
 20
0.0
 30
0.0
  9
$PUCSXDIR
 10
1.0
 20
0.0
 30
0.0
  9
$PUCSYDIR
 10
0.0
 20
1.0
 30
0.0
  9
$PUCSORTHOREF
  2

  9
$PUCSORTHOVIEW
 70
     0
  9
$PUCSORGTOP
 10
0.0
 20
0.0
 30
0.0
  9
$PUCSORGBOTTOM
 10
0.0
 20
0.0
 30
0.0
  9
$PUCSORGLEFT
 10
0.0
 20
0.0
 30
0.0
  9
$PUCSORGRIGHT
 10
0.0
 20
0.0
 30
0.0
  9
$PUCSORGFRONT
 10
0.0
 20
0.0
 30
0.0
  9
$PUCSORGBACK
 10
0.0
 20
0.0
 30
0.0
  9
$USERI1
 70
     0
  9
$USERI2
 70
     0
  9
$USERI3
 70
     0
  9
$USERI4
 70
     0
  9
$USERI5
 70
     0
  9
$USERR1
 40
0.0
  9
$USERR2
 40
0.0
  9
$USERR3
 40
0.0
  9
$USERR4
 40
0.0
  9
$USERR5
 40
0.0
  9
$WORLDVIEW
 70
     1
  9
$SHADEDGE
 70
     3
  9
$SHADEDIF
 70
    70
  9
$TILEMODE
 70
     1
  9
$MAXACTVP
 70
    64
  9
$PINSBASE
 10
0.0
 20
0.0
 30
0.0
  9
$PLIMCHECK
 70
     0
  9
$PEXTMIN
 10
26.66076962115562
 20
20.31135699206657
 30
-0.0015258207003583
  9
$PEXTMAX
 10
240.039213369355
 20
182.8886381005154
 30
0.0000000349246037
  9
$PLIMMIN
 10
-6.350006103515625
 20
-6.349999904632567
  9
$PLIMMAX
 10
273.0499877929687
 20
209.5499939918517
  9
$UNITMODE
 70
     0
  9
$VISRETAIN
 70
     1
  9
$PLINEGEN
 70
     0
  9
$PSLTSCALE
 70
     1
  9
$TREEDEPTH
 70
  3020
  9
$CMLSTYLE
  2
Standard
  9
$CMLJUST
 70
     0
  9
$CMLSCALE
 40
20.0
  9
$PROXYGRAPHICS
 70
     1
  9
$MEASUREMENT
 70
     1
  9
$CELWEIGHT
370
    -1
  9
$ENDCAPS
280
     0
  9
$JOINSTYLE
280
     0
  9
$LWDISPLAY
290
     0
  9
$INSUNITS
 70
     4
  9
$HYPERLINKBASE
  1

  9
$STYLESHEET
  1

  9
$XEDIT
290
     1
  9
$CEPSNTYPE
380
     0
  9
$PSTYLEMODE
290
     1
  9
$FINGERPRINTGUID
  2
{FDEAD578-A652-11D2-9A35-0060089B3A3F}
  9
$VERSIONGUID
  2
{93EC8983-40F6-4E03-AA63-84141C15FE61}
  9
$EXTNAMES
290
     1
  9
$PSVPSCALE
 40
0.0
  9
$OLESTARTUP
290
     0
  0
ENDSEC
  0
SECTION
  2
CLASSES
  0
CLASS
  1
ACDBDICTIONARYWDFLT
  2
AcDbDictionaryWithDefault
  3
AutoCAD 2000
 90
        0
280
     0
281
     0
  0
CLASS
  1
ACDBPLACEHOLDER
  2
AcDbPlaceHolder
  3
AutoCAD 2000
 90
        0
280
     0
281
     0
  0
CLASS
  1
LAYOUT
  2
AcDbLayout
  3
AutoCAD 2000
 90
        0
280
     0
281
     0
  0
CLASS
  1
DICTIONARYVAR
  2
AcDbDictionaryVar
  3
AutoCAD 2000
 90
        0
280
     0
281
     0
  0
ENDSEC
  0
SECTION
  2
TABLES
  0
TABLE
  2
VPORT
  5
8
330
0
100
AcDbSymbolTable
 70
     2
  0
VPORT
  5
B9D
330
8
100
AcDbSymbolTableRecord
100
AcDbViewportTableRecord
  2
*Active
 70
     0
 10
0.0
 20
0.0
 11
1.0
 21
1.0
 12
-11.72470020796708
 22
-34.13397168907568
 13
0.0
 23
0.0
 14
10.0
 24
10.0
 15
10.0
 25
10.0
 16
0.0
 26
0.0
 36
1.0
 17
0.0
 27
0.0
 37
0.0
 40
349.1483702353956
 41
1.97051597051597
 42
50.0
 43
0.0
 44
0.0
 50
0.0
 51
0.0
 71
     0
 72
   100
 73
     1
 74
     3
 75
     0
 76
     0
 77
     0
 78
     0
281
     0
 65
     1
110
0.0
120
0.0
130
0.0
111
1.0
121
0.0
131
0.0
112
0.0
122
1.0
132
0.0
 79
     0
146
0.0
  0
ENDTAB
  0
TABLE
  2
LTYPE
  5
5
330
0
100
AcDbSymbolTable
 70
     3
  0
LTYPE
  5
14
330
5
100
AcDbSymbolTableRecord
100
AcDbLinetypeTableRecord
  2
ByBlock
 70
     0
  3

 72
    65
 73
     0
 40
0.0
  0
LTYPE
  5
15
330
5
100
AcDbSymbolTableRecord
100
AcDbLinetypeTableRecord
  2
ByLayer
 70
     0
  3

 72
    65
 73
     0
 40
0.0
  0
LTYPE
  5
16
330
5
100
AcDbSymbolTableRecord
100
AcDbLinetypeTableRecord
  2
Continuous
 70
     0
  3
Solid line
 72
    65
 73
     0
 40
0.0
  0
LTYPE
  5
8C
330
5
100
AcDbSymbolTableRecord
100
AcDbLinetypeTableRecord
  2
DASH_CENTER
 70
     0
  3
Dash_Center
 72
    65
 73
     4
 40
14.0
 49
11.0
 74
     0
 49
-1.0
 74
     0
 49
1.0
 74
     0
 49
-1.0
 74
     0
  0
LTYPE
  5
8D
330
5
100
AcDbSymbolTableRecord
100
AcDbLinetypeTableRecord
  2
PHANTOM
 70
     0
  3
Phantom
 72
    65
 73
     6
 40
13.0
 49
10.0
 74
     0
 49
-1.0
 74
     0
 49
0.0
 74
     0
 49
-1.0
 74
     0
 49
0.0
 74
     0
 49
-1.0
 74
     0
  0
ENDTAB
  0
TABLE
  2
LAYER
  5
2
330
0
100
AcDbSymbolTable
 70
     1
  0
LAYER
  5
10
330
2
100
AcDbSymbolTableRecord
100
AcDbLayerTableRecord
  2
0
 70
     0
 62
     7
  6
Continuous
370
    -3
390
F
  0
ENDTAB
  0
TABLE
  2
STYLE
  5
3
330
0
100
AcDbSymbolTable
 70
    20
  0
STYLE
  5
11
330
3
100
AcDbSymbolTableRecord
100
AcDbTextStyleTableRecord
  2
Standard
 70
     0
 40
0.0
 41
1.0
 50
0.0
 71
     0
 42
2.5
  3
txt
  4

  0
STYLE
  5
8E
330
3
100
AcDbSymbolTableRecord
100
AcDbTextStyleTableRecord
  2
CONVERTER_1
 70
     0
 40
0.0
 41
0.89
 50
0.0
 71
     0
 42
0.2
  3
simplex.shx
  4
bigfont.shx
  0
STYLE
  5
8F
330
3
100
AcDbSymbolTableRecord
100
AcDbTextStyleTableRecord
  2
CONVERTER_2
 70
     0
 40
0.0
 41
0.7565
 50
0.0
 71
     0
 42
0.2
  3
simplex.shx
  4

  0
STYLE
  5
90
330
3
100
AcDbSymbolTableRecord
100
AcDbTextStyleTableRecord
  2
CONVERTER_3
 70
     0
 40
0.0
 41
0.7565
 50
0.0
 71
     0
 42
0.2
  3
simplex.shx
  4
bigfont.shx
  0
STYLE
  5
91
330
3
100
AcDbSymbolTableRecord
100
AcDbTextStyleTableRecord
  2
CONVERTER_5
 70
     0
 40
0.0
 41
0.7120000000000001
 50
0.0
 71
     0
 42
0.2
  3
simplex.shx
  4

  0
STYLE
  5
92
330
3
100
AcDbSymbolTableRecord
100
AcDbTextStyleTableRecord
  2
CONVERTER_7
 70
     0
 40
0.0
 41
1.008666666666669
 50
0.0
 71
     0
 42
0.2
  3
txt.shx
  4
bigfont.shx
  0
STYLE
  5
93
330
3
100
AcDbSymbolTableRecord
100
AcDbTextStyleTableRecord
  2
CONVERTER_8
 70
     0
 40
0.0
 41
0.9761290322580599
 50
0.0
 71
     0
 42
0.2
  3
txt.shx
  4
bigfont.shx
  0
STYLE
  5
94
330
3
100
AcDbSymbolTableRecord
100
AcDbTextStyleTableRecord
  2
CONVERTER_10
 70
     0
 40
0.0
 41
1.0235
 50
0.0
 71
     0
 42
0.2
  3
simplex.shx
  4

  0
STYLE
  5
95
330
3
100
AcDbSymbolTableRecord
100
AcDbTextStyleTableRecord
  2
CONVERTER_11
 70
     0
 40
0.0
 41
0.8009999999999999
 50
0.0
 71
     0
 42
0.2
  3
simplex.shx
  4

  0
STYLE
  5
96
330
3
100
AcDbSymbolTableRecord
100
AcDbTextStyleTableRecord
  2
CONVERTER_12
 70
     0
 40
0.0
 41
0.8009999999999999
 50
0.0
 71
     0
 42
0.2
  3
txt.shx
  4
bigfont.shx
  0
STYLE
  5
97
330
3
100
AcDbSymbolTableRecord
100
AcDbTextStyleTableRecord
  2
CONVERTER_13
 70
     0
 40
0.0
 41
0.7758974358974399
 50
0.0
 71
     0
 42
0.2
  3
txt.shx
  4
bigfont.shx
  0
STYLE
  5
98
330
3
100
AcDbSymbolTableRecord
100
AcDbTextStyleTableRecord
  2
CONVERTER_15
 70
     0
 40
0.0
 41
1.87368421052632
 50
0.0
 71
     0
 42
0.2
  3
txt.shx
  4

  0
STYLE
  5
99
330
3
100
AcDbSymbolTableRecord
100
AcDbTextStyleTableRecord
  2
CONVERTER_16
 70
     0
 40
0.0
 41
0.7120000000000001
 50
0.0
 71
     0
 42
0.2
  3
simplex.shx
  4
bigfont.shx
  0
STYLE
  5
9A
330
3
100
AcDbSymbolTableRecord
100
AcDbTextStyleTableRecord
  2
CONVERTER_17
 70
     0
 40
0.0
 41
1.080714285714289
 50
0.0
 71
     0
 42
0.2
  3
txt.shx
  4
bigfont.shx
  0
STYLE
  5
9B
330
3
100
AcDbSymbolTableRecord
100
AcDbTextStyleTableRecord
  2
CONVERTER_18
 70
     0
 40
0.0
 41
0.945625
 50
0.0
 71
     0
 42
0.2
  3
txt.shx
  4
bigfont.shx
  0
STYLE
  5
9C
330
3
100
AcDbSymbolTableRecord
100
AcDbTextStyleTableRecord
  2
CONVERTER_19
 70
     0
 40
0.0
 41
0.73514
 50
0.0
 71
     0
 42
0.2
  3
simplex.shx
  4

  0
STYLE
  5
9D
330
3
100
AcDbSymbolTableRecord
100
AcDbTextStyleTableRecord
  2
CONVERTER_20
 70
     0
 40
0.0
 41
0.6230000000000003
 50
0.0
 71
     0
 42
0.2
  3
simplex.shx
  4

  0
STYLE
  5
9E
330
3
100
AcDbSymbolTableRecord
100
AcDbTextStyleTableRecord
  2
CONVERTER_21
 70
     0
 40
0.0
 41
1.62688172043011
 50
0.0
 71
     0
 42
0.2
  3
txt.shx
  4
bigfont.shx
  0
STYLE
  5
9F
330
3
100
AcDbSymbolTableRecord
100
AcDbTextStyleTableRecord
  2
CONVERTER_22
 70
     0
 40
0.0
 41
1.68111111111111
 50
0.0
 71
     0
 42
0.2
  3
txt.shx
  4
bigfont.shx
  0
STYLE
  5
A0
330
3
100
AcDbSymbolTableRecord
100
AcDbTextStyleTableRecord
  2
社名
 70
     0
 40
2.5
 41
0.8
 50
0.0
 71
     0
 42
2.5
  3

  4

1001
ACAD
1000
Swis721 Blk BT
1071
       34
  0
ENDTAB
  0
TABLE
  2
VIEW
  5
6
330
0
100
AcDbSymbolTable
 70
     0
  0
ENDTAB
  0
TABLE
  2
UCS
  5
7
330
0
100
AcDbSymbolTable
 70
     0
  0
ENDTAB
  0
TABLE
  2
APPID
  5
9
330
0
100
AcDbSymbolTable
 70
     1
  0
APPID
  5
12
330
9
100
AcDbSymbolTableRecord
100
AcDbRegAppTableRecord
  2
ACAD
 70
     0
  0
ENDTAB
  0
TABLE
  2
DIMSTYLE
  5
A
330
0
100
AcDbSymbolTable
 70
     4
100
AcDbDimStyleTable
 71
     0
  0
DIMSTYLE
105
27
330
A
100
AcDbSymbolTableRecord
100
AcDbDimStyleTableRecord
  2
ISO-25
 70
     0
 41
2.5
 42
0.625
 43
3.75
 44
1.25
 73
     0
 74
     0
 77
     1
 78
     8
140
2.5
141
2.5
143
0.03937007874016
147
0.625
171
     3
172
     1
271
     2
272
     2
274
     3
278
    44
283
     0
284
     8
340
11
  0
DIMSTYLE
105
A1
330
A
100
AcDbSymbolTableRecord
100
AcDbDimStyleTableRecord
  2
Standard
 70
     0
340
11
  0
DIMSTYLE
105
A2
330
A
100
AcDbSymbolTableRecord
100
AcDbDimStyleTableRecord
  2
ME10_DIM_4
 70
     0
 41
4.0
 42
1.0
 44
4.0
 73
     0
 74
     0
 77
     1
 78
     8
140
5.0
147
1.6
172
     1
173
     1
176
    54
177
    54
178
     2
271
     2
340
91
341
86
343
86
344
86
  0
DIMSTYLE
105
A3
330
A
100
AcDbSymbolTableRecord
100
AcDbDimStyleTableRecord
  2
ME10_DIM_5
 70
     0
  3
h9
 41
4.0
 42
2.0
 44
4.0
 73
     0
 74
     0
 77
     1
 78
     8
140
5.0
147
1.6
172
     1
173
     1
176
    54
177
    54
178
     2
271
     2
340
91
341
86
343
86
344
86
  0
ENDTAB
  0
TABLE
  2
BLOCK_RECORD
  5
1
330
0
100
AcDbSymbolTable
 70
     2
  0
BLOCK_RECORD
  5
1F
330
1
100
AcDbSymbolTableRecord
100
AcDbBlockTableRecord
  2
*Model_Space
340
22
  0
BLOCK_RECORD
  5
55
330
1
100
AcDbSymbolTableRecord
100
AcDbBlockTableRecord
  2
*Paper_Space
340
56
  0
BLOCK_RECORD
  5
50
330
1
100
AcDbSymbolTableRecord
100
AcDbBlockTableRecord
  2
*Paper_Space0
340
51
  0
BLOCK_RECORD
  5
86
330
1
100
AcDbSymbolTableRecord
100
AcDbBlockTableRecord
  2
_Open30
340
0
  0
ENDTAB
  0
ENDSEC
  0
SECTION
  2
BLOCKS
  0
BLOCK
  5
20
330
1F
100
AcDbEntity
  8
0
100
AcDbBlockBegin
  2
*Model_Space
 70
     0
 10
0.0
 20
0.0
 30
0.0
  3
*Model_Space
  1

  0
ENDBLK
  5
21
330
1F
100
AcDbEntity
  8
0
100
AcDbBlockEnd
  0
BLOCK
  5
57
330
55
100
AcDbEntity
 67
     1
  8
0
100
AcDbBlockBegin
  2
*Paper_Space
 70
     0
 10
0.0
 20
0.0
 30
0.0
  3
*Paper_Space
  1

  0
ENDBLK
  5
58
330
55
100
AcDbEntity
 67
     1
  8
0
100
AcDbBlockEnd
  0
BLOCK
  5
52
330
50
100
AcDbEntity
  8
0
100
AcDbBlockBegin
  2
*Paper_Space0
 70
     0
 10
0.0
 20
0.0
 30
0.0
  3
*Paper_Space0
  1

  0
VIEWPORT
  5
6B
330
50
100
AcDbEntity
  8
0
100
AcDbViewport
 10
133.3499908447265
 20
101.5999970436096
 30
0.0
 40
381.3957395593833
 41
218.2856291881582
 69
     0
 12
133.3499908447265
 22
101.5999970436096
 13
0.0
 23
0.0
 14
10.0
 24
10.0
 15
10.0
 25
10.0
 16
0.0
 26
0.0
 36
1.0
 17
0.0
 27
0.0
 37
0.0
 42
50.0
 43
0.0
 44
0.0
 45
218.2856291881582
 50
0.0
 51
0.0
 72
   100
 90
    32800
  1

281
     0
 71
     1
 74
     0
110
0.0
120
0.0
130
0.0
111
1.0
121
0.0
131
0.0
112
0.0
122
1.0
132
0.0
 79
     0
146
0.0
  0
VIEWPORT
  5
6D
330
50
100
AcDbEntity
  8
0
100
AcDbViewport
 10
133.3499939441679
 20
101.5999939441679
 30
0.0
 40
213.3599903106689
 41
162.5599903106689
 69
     0
 12
210.0
 22
148.5
 13
0.0
 23
0.0
 14
10.0
 24
10.0
 15
10.0
 25
10.0
 16
0.0
 26
0.0
 36
1.0
 17
0.0
 27
0.0
 37
0.0
 42
50.0
 43
0.0
 44
0.0
 45
324.0677920111345
 50
0.0
 51
0.0
 72
   100
 90
    32864
  1

281
     0
 71
     1
 74
     0
110
0.0
120
0.0
130
0.0
111
1.0
121
0.0
131
0.0
112
0.0
122
1.0
132
0.0
 79
     0
146
0.0
  0
ENDBLK
  5
53
330
50
100
AcDbEntity
  8
0
100
AcDbBlockEnd
  0
BLOCK
  5
8A
330
86
100
AcDbEntity
  8
0
100
AcDbBlockBegin
  2
_Open30
 70
     0
 10
0.0
 20
0.0
 30
0.0
  3
_Open30
  1

  0
LINE
  5
87
330
86
100
AcDbEntity
  8
0
  6
ByBlock
 62
     0
370
    -2
100
AcDbLine
 10
-1.0
 20
0.267949
 30
0.0
 11
0.0
 21
0.0
 31
0.0
  0
LINE
  5
88
330
86
100
AcDbEntity
  8
0
  6
ByBlock
 62
     0
370
    -2
100
AcDbLine
 10
0.0
 20
0.0
 30
0.0
 11
-1.0
 21
-0.267949
 31
0.0
  0
LINE
  5
89
330
86
100
AcDbEntity
  8
0
  6
ByBlock
 62
     0
370
    -2
100
AcDbLine
 10
0.0
 20
0.0
 30
0.0
 11
-1.0
 21
0.0
 31
0.0
  0
ENDBLK
  5
8B
330
86
100
AcDbEntity
  8
0
100
AcDbBlockEnd
  0
ENDSEC
  0
SECTION
  2
ENTITIES
  0
CIRCLE
  5
849
330
1F
100
AcDbEntity
  8
0
  6
Continuous
 62
    30
100
AcDbCircle
 10
283.5946999999998
 20
73.81947732484078
 30
0.0
 40
1.999980819908023
  0
CIRCLE
  5
84A
330
1F
100
AcDbEntity
  8
0
  6
Continuous
 62
     7
100
AcDbCircle
 10
283.5946999999998
 20
73.81947732484078
 30
0.0
 40
2.499976025885056
  0
CIRCLE
  5
84B
330
1F
100
AcDbEntity
  8
0
  6
Continuous
 62
     7
100
AcDbCircle
 10
283.5946999999998
 20
73.81947732484078
 30
0.0
 40
3.999961639816064
  0
CIRCLE
  5
84C
330
1F
100
AcDbEntity
  8
0
  6
Continuous
 62
    30
100
AcDbCircle
 10
283.5951999999998
 20
-32.24642267515919
 30
0.0
 40
1.999980819908028
  0
CIRCLE
  5
84D
330
1F
100
AcDbEntity
  8
0
  6
Continuous
 62
     7
100
AcDbCircle
 10
283.5951999999998
 20
-32.24642267515919
 30
0.0
 40
2.49997602588502
  0
CIRCLE
  5
84E
330
1F
100
AcDbEntity
  8
0
  6
Continuous
 62
     7
100
AcDbCircle
 10
283.5951999999998
 20
-32.24642267515919
 30
0.0
 40
3.999961639816048
  0
CIRCLE
  5
84F
330
1F
100
AcDbEntity
  8
0
  6
Continuous
 62
    30
100
AcDbCircle
 10
177.5294
 20
-32.24692267515919
 30
0.0
 40
2.000051531836128
  0
CIRCLE
  5
850
330
1F
100
AcDbEntity
  8
0
  6
Continuous
 62
     7
100
AcDbCircle
 10
177.5294
 20
-32.24692267515919
 30
0.0
 40
2.49997602588506
  0
CIRCLE
  5
851
330
1F
100
AcDbEntity
  8
0
  6
Continuous
 62
     7
100
AcDbCircle
 10
177.5294
 20
-32.24692267515919
 30
0.0
 40
4.000032351119185
  0
CIRCLE
  5
852
330
1F
100
AcDbEntity
  8
0
  6
Continuous
 62
    30
100
AcDbCircle
 10
177.5288999999999
 20
73.81907732484079
 30
0.0
 40
1.999980819908041
  0
CIRCLE
  5
853
330
1F
100
AcDbEntity
  8
0
  6
Continuous
 62
     7
100
AcDbCircle
 10
177.5288999999999
 20
73.81907732484079
 30
0.0
 40
2.499976025885056
  0
CIRCLE
  5
854
330
1F
100
AcDbEntity
  8
0
  6
Continuous
 62
     7
100
AcDbCircle
 10
177.5288999999999
 20
73.81907732484079
 30
0.0
 40
4.0000323511192
  0
CIRCLE
  5
855
330
1F
100
AcDbEntity
  8
0
  6
Continuous
 62
     7
100
AcDbCircle
 10
230.5619
 20
20.7862773248408
 30
0.0
 40
64.49999999999997
  0
CIRCLE
  5
856
330
1F
100
AcDbEntity
  8
0
  6
Continuous
 62
     7
100
AcDbCircle
 10
114.9931
 20
-56.00286873735997
 30
0.0
 40
2.149999999999856
  0
ARC
  5
857
330
1F
100
AcDbEntity
  8
0
  6
Continuous
 62
     7
100
AcDbCircle
 10
230.56195
 20
20.7862773248408
 30
0.0
 40
9.750027128295599
100
AcDbArc
 50
107.9204703917104
 51
72.0795296082894
  0
ARC
  5
858
330
1F
100
AcDbEntity
  8
0
  6
Continuous
 62
     7
100
AcDbCircle
 10
233.3118999999999
 20
27.0362773248408
 30
0.0
 40
0.25
100
AcDbArc
 50
270.0
 51
0.0
  0
ARC
  5
859
330
1F
100
AcDbEntity
  8
0
  6
Continuous
 62
     7
100
AcDbCircle
 10
227.8119
 20
27.0362773248408
 30
0.0
 40
0.25
100
AcDbArc
 50
180.0
 51
270.0
  0
ARC
  5
85A
330
1F
100
AcDbEntity
  8
0
  6
Continuous
 62
     7
100
AcDbCircle
 10
230.5619
 20
20.7862773248408
 30
0.0
 40
9.500020695240616
100
AcDbArc
 50
108.4084386294775
 51
71.5915613705224
  0
ARC
  5
85B
330
1F
100
AcDbEntity
  8
0
  6
Continuous
 62
    30
100
AcDbCircle
 10
114.243
 20
-12.9676226751592
 30
0.0
 40
1.499966999636991
100
AcDbArc
 50
239.9992722191732
 51
300.0007277808267
  0
ARC
  5
85C
330
1F
100
AcDbEntity
  8
0
  6
Continuous
 62
    30
100
AcDbCircle
 10
114.243
 20
-15.56552267515919
 30
0.0
 40
1.500053602375594
100
AcDbArc
 50
60.00118205226041
 51
119.9988179477395
  0
ARC
  5
85D
330
1F
100
AcDbEntity
  8
0
  6
Continuous
 62
    30
100
AcDbCircle
 10
115.7429999999999
 20
-12.9676226751592
 30
0.0
 40
1.499966999636991
100
AcDbArc
 50
239.9992722191732
 51
300.0007277808267
  0
ARC
  5
85E
330
1F
100
AcDbEntity
  8
0
  6
Continuous
 62
    30
100
AcDbCircle
 10
117.243
 20
-12.9676226751592
 30
0.0
 40
1.499966999636991
100
AcDbArc
 50
239.9992722191732
 51
300.0007277808267
  0
ARC
  5
85F
330
1F
100
AcDbEntity
  8
0
  6
Continuous
 62
    30
100
AcDbCircle
 10
117.243
 20
-15.56552267515919
 30
0.0
 40
1.500053602375594
100
AcDbArc
 50
60.00118205226041
 51
119.9988179477395
  0
ARC
  5
860
330
1F
100
AcDbEntity
  8
0
  6
Continuous
 62
    30
100
AcDbCircle
 10
118.7429999999999
 20
-12.9676226751592
 30
0.0
 40
1.499966999636991
100
AcDbArc
 50
239.9992722191732
 51
300.0007277808267
  0
ARC
  5
861
330
1F
100
AcDbEntity
  8
0
  6
Continuous
 62
    30
100
AcDbCircle
 10
133.243
 20
-12.9676226751592
 30
0.0
 40
1.499966999636991
100
AcDbArc
 50
239.9992722191732
 51
300.0007277808267
  0
ARC
  5
862
330
1F
100
AcDbEntity
  8
0
  6
Continuous
 62
    30
100
AcDbCircle
 10
133.243
 20
-15.56552267515919
 30
0.0
 40
1.500053602375594
100
AcDbArc
 50
60.00118205226041
 51
119.9988179477395
  0
ARC
  5
863
330
1F
100
AcDbEntity
  8
0
  6
Continuous
 62
    30
100
AcDbCircle
 10
134.7429999999999
 20
-12.9676226751592
 30
0.0
 40
1.499966999636991
100
AcDbArc
 50
239.9992722191732
 51
300.0007277808267
  0
ARC
  5
864
330
1F
100
AcDbEntity
  8
0
  6
Continuous
 62
    30
100
AcDbCircle
 10
130.2429999999999
 20
-12.9676226751592
 30
0.0
 40
1.499966999636991
100
AcDbArc
 50
239.9992722191732
 51
300.0007277808267
  0
ARC
  5
865
330
1F
100
AcDbEntity
  8
0
  6
Continuous
 62
    30
100
AcDbCircle
 10
130.2429999999999
 20
-15.56552267515919
 30
0.0
 40
1.500053602375594
100
AcDbArc
 50
60.00118205226041
 51
119.9988179477395
  0
ARC
  5
866
330
1F
100
AcDbEntity
  8
0
  6
Continuous
 62
    30
100
AcDbCircle
 10
131.7429999999999
 20
-12.9676226751592
 30
0.0
 40
1.499966999636991
100
AcDbArc
 50
239.9992722191732
 51
300.0007277808267
  0
ARC
  5
867
330
1F
100
AcDbEntity
  8
0
  6
Continuous
 62
    30
100
AcDbCircle
 10
123.2429999999999
 20
-12.9676226751592
 30
0.0
 40
1.499966999636991
100
AcDbArc
 50
239.9992722191732
 51
300.0007277808267
  0
ARC
  5
868
330
1F
100
AcDbEntity
  8
0
  6
Continuous
 62
    30
100
AcDbCircle
 10
123.2429999999999
 20
-15.56552267515919
 30
0.0
 40
1.500053602375594
100
AcDbArc
 50
60.00118205226041
 51
119.9988179477395
  0
ARC
  5
869
330
1F
100
AcDbEntity
  8
0
  6
Continuous
 62
    30
100
AcDbCircle
 10
124.743
 20
-12.9676226751592
 30
0.0
 40
1.499966999636991
100
AcDbArc
 50
239.9992722191732
 51
300.0007277808267
  0
ARC
  5
86A
330
1F
100
AcDbEntity
  8
0
  6
Continuous
 62
    30
100
AcDbCircle
 10
120.2429999999999
 20
-12.9676226751592
 30
0.0
 40
1.499966999636991
100
AcDbArc
 50
239.9992722191732
 51
300.0007277808267
  0
ARC
  5
86B
330
1F
100
AcDbEntity
  8
0
  6
Continuous
 62
    30
100
AcDbCircle
 10
120.2429999999999
 20
-15.56552267515919
 30
0.0
 40
1.500053602375594
100
AcDbArc
 50
60.00118205226041
 51
119.9988179477395
  0
ARC
  5
86C
330
1F
100
AcDbEntity
  8
0
  6
Continuous
 62
    30
100
AcDbCircle
 10
121.743
 20
-12.9676226751592
 30
0.0
 40
1.499966999636991
100
AcDbArc
 50
239.9992722191732
 51
300.0007277808267
  0
ARC
  5
86D
330
1F
100
AcDbEntity
  8
0
  6
Continuous
 62
     7
100
AcDbCircle
 10
135.4929999997499
 20
4.786277324590797
 30
0.0
 40
10.00000000025
100
AcDbArc
 50
89.99999999856695
 51
179.9994270407723
  0
ARC
  5
86E
330
1F
100
AcDbEntity
  8
0
  6
Continuous
 62
     7
100
AcDbCircle
 10
230.562
 20
20.7862773248408
 30
0.0
 40
87.20006682669458
100
AcDbArc
 50
173.927048696468
 51
186.0729513035319
  0
ARC
  5
86F
330
1F
100
AcDbEntity
  8
0
  6
Continuous
 62
     7
100
AcDbCircle
 10
145.8401179364559
 20
11.77216318082382
 30
0.0
 40
2.000020191017632
100
AcDbArc
 50
186.0670290846098
 51
277.4169943887467
  0
ARC
  5
870
330
1F
100
AcDbEntity
  8
0
  6
Continuous
 62
     7
100
AcDbCircle
 10
145.8400519016079
 20
29.7997394026728
 30
0.0
 40
1.999981183973591
100
AcDbArc
 50
82.58095239503893
 51
173.9255901843703
  0
ARC
  5
871
330
1F
100
AcDbEntity
  8
0
  6
Continuous
 62
     7
100
AcDbCircle
 10
135.4929999998077
 20
4.786277324648487
 30
0.0
 40
13.00000000019231
100
AcDbArc
 50
89.99999999915319
 51
179.999559262387
  0
ARC
  5
872
330
1F
100
AcDbEntity
  8
0
  6
Continuous
 62
     7
100
AcDbCircle
 10
135.4929999998435
 20
4.786277324684546
 30
0.0
 40
16.00000000015624
100
AcDbArc
 50
89.99999999943979
 51
179.9996419008184
  0
ARC
  5
873
330
1F
100
AcDbEntity
  8
0
  6
Continuous
 62
     7
100
AcDbCircle
 10
135.4929999998684
 20
4.786277324709216
 30
0.0
 40
19.00000000013157
100
AcDbArc
 50
89.99999999960268
 51
179.9996984428689
  0
ARC
  5
874
330
1F
100
AcDbEntity
  8
0
  6
Continuous
 62
     7
100
AcDbCircle
 10
135.4929999998863
 20
4.786277324727159
 30
0.0
 40
22.00000000011363
100
AcDbArc
 50
89.99999999970361
 51
179.9997395643424
  0
ARC
  5
875
330
1F
100
AcDbEntity
  8
0
  6
Continuous
 62
     7
100
AcDbCircle
 10
154.994017912189
 20
3.929431950708578
 30
0.0
 40
19.51983308347424
100
AcDbArc
 50
146.2065421652378
 51
177.4841278974003
  0
ARC
  5
876
330
1F
100
AcDbEntity
  8
0
  6
Continuous
 62
     7
100
AcDbCircle
 10
154.9940172988114
 20
3.929453219887658
 30
0.0
 40
25.51981597031885
100
AcDbArc
 50
156.8356605698296
 51
177.484121993325
  0
ARC
  5
877
330
1F
100
AcDbEntity
  8
0
  6
Continuous
 62
     7
100
AcDbCircle
 10
154.9940229994904
 20
3.929459339397598
 30
0.0
 40
22.51982918025232
100
AcDbArc
 50
151.1854602832288
 51
177.4841677398284
  0
ARC
  5
878
330
1F
100
AcDbEntity
  8
0
  6
Continuous
 62
     7
100
AcDbCircle
 10
314.961903521892
 20
23.53147348126423
 30
0.0
 40
1.599996478112599
100
AcDbArc
 50
0.0001376382506174
 51
84.99828905335666
  0
ARC
  5
879
330
1F
100
AcDbEntity
  8
0
  6
Continuous
 62
     7
100
AcDbCircle
 10
314.961903521892
 20
18.04118116841737
 30
0.0
 40
1.599996478112594
100
AcDbArc
 50
275.0017109466432
 51
359.9998623617493
  0
ARC
  5
87A
330
1F
100
AcDbEntity
  8
0
  6
Continuous
 62
     7
100
AcDbCircle
 10
227.8168038435766
 20
105.1864808467326
 30
0.0
 40
1.599996478112628
100
AcDbArc
 50
90.00013763825247
 51
174.9982890533573
  0
ARC
  5
87B
330
1F
100
AcDbEntity
  8
0
  6
Continuous
 62
     7
100
AcDbCircle
 10
233.3069961564234
 20
105.1864808467326
 30
0.0
 40
1.599996478112637
100
AcDbArc
 50
5.001710946643093
 51
89.99986236174917
  0
ARC
  5
87C
330
1F
100
AcDbEntity
  8
0
  6
PHANTOM
 62
    30
100
AcDbCircle
 10
230.5623337729409
 20
20.78644311692186
 30
0.0
 40
74.99997835992417
100
AcDbArc
 50
38.78849470272911
 51
51.02550406229608
  0
ARC
  5
87D
330
1F
100
AcDbEntity
  8
0
  6
PHANTOM
 62
    30
100
AcDbCircle
 10
230.5623151147845
 20
20.78619271474226
 30
0.0
 40
74.9999857825362
100
AcDbArc
 50
308.7884418048187
 51
321.0255586054833
  0
ARC
  5
87E
330
1F
100
AcDbEntity
  8
0
  6
PHANTOM
 62
    30
100
AcDbCircle
 10
230.5623236863673
 20
20.78595323519724
 30
0.0
 40
75.00001723119336
100
AcDbArc
 50
218.7882176828312
 51
231.0252750926172
  0
ARC
  5
87F
330
1F
100
AcDbEntity
  8
0
  6
Continuous
 62
     7
100
AcDbCircle
 10
230.5619
 20
20.7862773248408
 30
0.0
 40
47.99993563589434
100
AcDbArc
 50
194.0238236619219
 51
255.9761763380778
  0
ARC
  5
880
330
1F
100
AcDbEntity
  8
0
  6
Continuous
 62
     7
100
AcDbCircle
 10
230.5619
 20
20.7862773248408
 30
0.0
 40
40.99996325034938
100
AcDbArc
 50
200.1776458572736
 51
249.8223541427256
  0
ARC
  5
881
330
1F
100
AcDbEntity
  8
0
  6
Continuous
 62
     7
100
AcDbCircle
 10
230.5619
 20
20.7862773248408
 30
0.0
 40
30.99997310402059
100
AcDbArc
 50
204.8667927740321
 51
245.1332072259666
  0
ARC
  5
882
330
1F
100
AcDbEntity
  8
0
  6
Continuous
 62
     7
100
AcDbCircle
 10
230.5619
 20
20.7862773248408
 30
0.0
 40
41.99996163474438
100
AcDbArc
 50
198.6505598734095
 51
251.34944012659
  0
ARC
  5
883
330
1F
100
AcDbEntity
  8
0
  6
Continuous
 62
     7
100
AcDbCircle
 10
230.5619
 20
20.7862773248408
 30
0.0
 40
29.99998518966302
100
AcDbArc
 50
203.806986798239
 51
246.1930132017617
  0
ARC
  5
884
330
1F
100
AcDbEntity
  8
0
  6
Continuous
 62
     7
100
AcDbCircle
 10
173.6451462173804
 20
9.629316052752779
 30
0.0
 40
2.000001015838018
100
AcDbArc
 50
86.3577264533295
 51
191.0910842623587
  0
ARC
  5
885
330
1F
100
AcDbEntity
  8
0
  6
Continuous
 62
     7
100
AcDbCircle
 10
201.2848256888327
 20
7.869359392294508
 30
0.0
 40
1.999959068085774
100
AcDbArc
 50
23.80763569994499
 51
86.35706065393009
  0
ARC
  5
886
330
1F
100
AcDbEntity
  8
0
  6
Continuous
 62
     7
100
AcDbCircle
 10
200.6215156116974
 20
6.90956664105936
 30
0.0
 40
2.000045920633362
100
AcDbArc
 50
24.86904372016814
 51
86.35980031581304
  0
ARC
  5
887
330
1F
100
AcDbEntity
  8
0
  6
Continuous
 62
     7
100
AcDbCircle
 10
193.9554579276434
 20
7.333920947085317
 30
0.0
 40
1.999995387507546
100
AcDbArc
 50
86.35805234354108
 51
200.1770714589925
  0
ARC
  5
888
330
1F
100
AcDbEntity
  8
0
  6
Continuous
 62
     7
100
AcDbCircle
 10
218.3234451041338
 20
-34.88408398870351
 30
0.0
 40
1.999988780335774
100
AcDbArc
 50
257.6006787763164
 51
3.639641442910273
  0
ARC
  5
889
330
1F
100
AcDbEntity
  8
0
  6
Continuous
 62
     7
100
AcDbCircle
 10
217.9247314598498
 20
-28.62316063917171
 30
0.0
 40
2.000007264379064
100
AcDbArc
 50
3.641808066774077
 51
75.65361787568654
  0
ARC
  5
88A
330
1F
100
AcDbEntity
  8
0
  6
Continuous
 62
     7
100
AcDbCircle
 10
217.1095362496457
 20
-15.82009562592432
 30
0.0
 40
1.999998355737895
100
AcDbArc
 50
249.8201326873473
 51
3.639958049827722
  0
ARC
  5
88B
330
1F
100
AcDbEntity
  8
0
  6
Continuous
 62
     7
100
AcDbCircle
 10
216.6852125442049
 20
-9.154141003817287
 30
0.0
 40
2.000024894721715
100
AcDbArc
 50
3.641212278244413
 51
65.13456800879068
  0
ARC
  5
88C
330
1F
100
AcDbEntity
  8
0
  6
Continuous
 62
     7
100
AcDbCircle
 10
217.7699520963999
 20
-17.11308270743999
 30
0.0
 40
1.999988071386564
100
AcDbArc
 50
251.3474792997257
 51
3.642476555302256
  0
ARC
  5
88D
330
1F
100
AcDbEntity
  8
0
  6
Continuous
 62
     7
100
AcDbCircle
 10
217.6448643940758
 20
-8.490771665763691
 30
0.0
 40
2.00007489513023
100
AcDbArc
 50
3.642001272113037
 51
66.19014375853932
  0
ARC
  5
88E
330
1F
100
AcDbEntity
  8
0
  6
Continuous
 62
     7
100
AcDbCircle
 10
219.4047326467301
 20
-36.13039402151025
 30
0.0
 40
2.000001849527448
100
AcDbArc
 50
258.9061786238973
 51
3.639905626700012
  0
ARC
  5
88F
330
1F
100
AcDbEntity
  8
0
  6
Continuous
 62
     7
100
AcDbCircle
 10
160.1083002963489
 20
57.38567750484083
 30
0.0
 40
2.999999819999986
100
AcDbArc
 50
90.00000565984603
 51
152.5483475695468
  0
ARC
  5
890
330
1F
100
AcDbEntity
  8
0
  6
PHANTOM
 62
    30
100
AcDbCircle
 10
230.5617759103565
 20
20.78615363847359
 30
0.0
 40
75.00001723119336
100
AcDbArc
 50
128.788217682831
 51
141.0252750926184
  0
ARC
  5
891
330
1F
100
AcDbEntity
  8
0
  6
Continuous
 62
     7
100
AcDbCircle
 10
178.6798258799245
 20
62.38568974567876
 30
0.0
 40
2.000012421005401
100
AcDbArc
 50
269.9992585993773
 51
321.2772618376228
  0
ARC
  5
892
330
1F
100
AcDbEntity
  8
0
  6
Continuous
 62
     7
100
AcDbCircle
 10
188.9626188559494
 20
72.668416607649
 30
0.0
 40
1.999981144436434
100
AcDbArc
 50
308.7186362468333
 51
359.9988746198307
  0
ARC
  5
893
330
1F
100
AcDbEntity
  8
0
  6
Continuous
 62
     7
100
AcDbCircle
 10
193.9625785014414
 20
91.23994192780797
 30
0.0
 40
2.999978502137106
100
AcDbArc
 50
117.4535573474462
 51
180.0012338346293
  0
ARC
  5
894
330
1F
100
AcDbEntity
  8
0
  6
Continuous
 62
     7
100
AcDbCircle
 10
174.8912963009738
 20
33.02488163749676
 30
0.0
 40
2.000034440945364
100
AcDbArc
 50
167.6024158209435
 51
273.6379043982838
  0
ARC
  5
895
330
1F
100
AcDbEntity
  8
0
  6
Continuous
 62
     7
100
AcDbCircle
 10
181.1524620359873
 20
33.4235458649908
 30
0.0
 40
2.000007264379054
100
AcDbArc
 50
273.6418080667752
 51
345.6536178756874
  0
ARC
  5
896
330
1F
100
AcDbEntity
  8
0
  6
Continuous
 62
     7
100
AcDbCircle
 10
230.561985910835
 20
20.78636323548471
 30
0.0
 40
59.00001977304957
100
AcDbArc
 50
102.3985059169636
 51
167.6013666346081
  0
ARC
  5
897
330
1F
100
AcDbEntity
  8
0
  6
Continuous
 62
     7
100
AcDbCircle
 10
230.5619328170862
 20
20.78631014183409
 30
0.0
 40
49.00004578949744
100
AcDbArc
 50
104.3465466751442
 51
165.653291153295
  0
ARC
  5
898
330
1F
100
AcDbEntity
  8
0
  6
Continuous
 62
     7
100
AcDbCircle
 10
230.5618919006302
 20
20.78626922553755
 30
0.0
 40
41.00002742864775
100
AcDbArc
 50
110.177451957348
 51
159.8220772764341
  0
ARC
  5
899
330
1F
100
AcDbEntity
  8
0
  6
Continuous
 62
     7
100
AcDbCircle
 10
230.5619068069463
 20
20.78628413174196
 30
0.0
 40
31.00001846862205
100
AcDbArc
 50
114.8665640687088
 51
155.1330562413648
  0
ARC
  5
89A
330
1F
100
AcDbEntity
  8
0
  6
Continuous
 62
     7
100
AcDbCircle
 10
173.6451957954344
 20
31.94358211491072
 30
0.0
 40
2.000041297063475
100
AcDbArc
 50
168.9104123433589
 51
273.6407769409534
  0
ARC
  5
89B
330
1F
100
AcDbEntity
  8
0
  6
Continuous
 62
     7
100
AcDbCircle
 10
201.2848256888327
 20
33.70329525738709
 30
0.0
 40
1.999959068085764
100
AcDbArc
 50
273.6429393460699
 51
336.1923643000549
  0
ARC
  5
89C
330
1F
100
AcDbEntity
  8
0
  6
Continuous
 62
     7
100
AcDbCircle
 10
200.6214816713419
 20
34.66326478063598
 30
0.0
 40
2.00002489472176
100
AcDbArc
 50
273.6412122782441
 51
335.1345680087894
  0
ARC
  5
89D
330
1F
100
AcDbEntity
  8
0
  6
Continuous
 62
     7
100
AcDbCircle
 10
193.9554579276434
 20
34.23873370259628
 30
0.0
 40
1.999995387507537
100
AcDbArc
 50
159.8229285410073
 51
273.6419476564589
  0
ARC
  5
89E
330
1F
100
AcDbEntity
  8
0
  6
Continuous
 62
     7
100
AcDbCircle
 10
218.3233987030491
 20
76.4569784373074
 30
0.0
 40
2.000037614645564
100
AcDbArc
 50
356.3593051062803
 51
102.3976526480494
  0
ARC
  5
89F
330
1F
100
AcDbEntity
  8
0
  6
Continuous
 62
     7
100
AcDbCircle
 10
217.924678883884
 20
70.19575184166881
 30
0.0
 40
2.000055705200399
100
AcDbArc
 50
284.3475818424337
 51
356.36010150889
  0
ARC
  5
8A0
330
1F
100
AcDbEntity
  8
0
  6
Continuous
 62
     7
100
AcDbCircle
 10
217.1095392866849
 20
57.39274800792562
 30
0.0
 40
2.000001531898684
100
AcDbArc
 50
356.3572422520629
 51
110.1799265659059
  0
ARC
  5
8A1
330
1F
100
AcDbEntity
  8
0
  6
Continuous
 62
     7
100
AcDbCircle
 10
216.6852125442049
 20
50.72679565349889
 30
0.0
 40
2.000024894721724
100
AcDbArc
 50
294.8654319912092
 51
356.3587877217559
  0
ARC
  5
8A2
330
1F
100
AcDbEntity
  8
0
  6
Continuous
 62
     7
100
AcDbCircle
 10
182.0521314285871
 20
32.90272017695492
 30
0.0
 40
1.999977221628313
100
AcDbArc
 50
273.6398708515026
 51
345.9762436031571
  0
ARC
  5
8A3
330
1F
100
AcDbEntity
  8
0
  6
Continuous
 62
     7
100
AcDbCircle
 10
192.6624663422816
 20
33.57832119473025
 30
0.0
 40
1.999982370407934
100
AcDbArc
 50
161.3503258090354
 51
273.6417298408965
  0
ARC
  5
8A4
330
1F
100
AcDbEntity
  8
0
  6
Continuous
 62
     7
100
AcDbCircle
 10
218.4457079667756
 20
69.29608688412824
 30
0.0
 40
2.000028906002389
100
AcDbArc
 50
284.02483878242
 51
356.3590467629186
  0
ARC
  5
8A5
330
1F
100
AcDbEntity
  8
0
  6
Continuous
 62
     7
100
AcDbCircle
 10
217.7699520963999
 20
58.68573735712161
 30
0.0
 40
1.999988071386544
100
AcDbArc
 50
356.3575234446975
 51
108.652520700274
  0
ARC
  5
8A6
330
1F
100
AcDbEntity
  8
0
  6
Continuous
 62
     7
100
AcDbCircle
 10
217.6449335823934
 20
50.06342543125904
 30
0.0
 40
2.000005790381103
100
AcDbArc
 50
293.8054321093385
 51
356.3578980999511
  0
ARC
  5
8A7
330
1F
100
AcDbEntity
  8
0
  6
Continuous
 62
     7
100
AcDbCircle
 10
219.4047356596104
 20
77.70304602532454
 30
0.0
 40
2.000005025680873
100
AcDbArc
 50
356.3573055363137
 51
101.0938914908446
  0
ARC
  5
8A8
330
1F
100
AcDbEntity
  8
0
  6
Continuous
 62
     7
100
AcDbCircle
 10
230.5618990518873
 20
20.7862763767353
 30
0.0
 40
42.00002499915921
100
AcDbArc
 50
108.6503853536596
 51
161.3491799782106
  0
ARC
  5
8A9
330
1F
100
AcDbEntity
  8
0
  6
Continuous
 62
     7
100
AcDbCircle
 10
230.5619167075014
 20
20.78629403224654
 30
0.0
 40
47.99999626218154
100
AcDbArc
 50
104.0237031093535
 51
165.9759689023723
  0
ARC
  5
8AA
330
1F
100
AcDbEntity
  8
0
  6
Continuous
 62
     7
100
AcDbCircle
 10
230.5619105229956
 20
20.78628784776796
 30
0.0
 40
30.00003093539703
100
AcDbArc
 50
113.8067614704405
 51
156.1928649665983
  0
ARC
  5
8AB
330
1F
100
AcDbEntity
  8
0
  6
Continuous
 62
     7
100
AcDbCircle
 10
230.561913426857
 20
20.78629075161268
 30
0.0
 40
60.00004239960703
100
AcDbArc
 50
101.0906456804175
 51
168.908991209665
  0
ARC
  5
8AC
330
1F
100
AcDbEntity
  8
0
  6
Continuous
 62
     7
100
AcDbCircle
 10
218.4457079667756
 20
-27.72323223444665
 30
0.0
 40
2.000028906002396
100
AcDbArc
 50
3.640953237081787
 51
75.97516121757995
  0
ARC
  5
8AD
330
1F
100
AcDbEntity
  8
0
  6
Continuous
 62
     7
100
AcDbCircle
 10
192.6625029171376
 20
7.994581127218798
 30
0.0
 40
2.000032269733913
100
AcDbArc
 50
86.35941103495687
 51
198.6506331100165
  0
ARC
  5
8AE
330
1F
100
AcDbEntity
  8
0
  6
Continuous
 62
     7
100
AcDbCircle
 10
188.9626188559494
 20
-31.09556195796741
 30
0.0
 40
1.999981144436438
100
AcDbArc
 50
0.0011253801689191
 51
51.28136375316659
  0
ARC
  5
8AF
330
1F
100
AcDbEntity
  8
0
  6
Continuous
 62
     7
100
AcDbCircle
 10
230.5618621910219
 20
20.78631513373898
 30
0.0
 40
60.0000423993362
100
AcDbArc
 50
11.09088775369452
 51
78.90923328294559
  0
ARC
  5
8B0
330
1F
100
AcDbEntity
  8
0
  6
Continuous
 62
     7
100
AcDbCircle
 10
230.56185
 20
20.78632732484078
 30
0.0
 40
30.00005111803979
100
AcDbArc
 50
23.80703561927625
 51
66.19296438072267
  0
ARC
  5
8B1
330
1F
100
AcDbEntity
  8
0
  6
Continuous
 62
     7
100
AcDbCircle
 10
230.5619166462732
 20
20.78626067861523
 30
0.0
 40
48.0000447716921
100
AcDbArc
 50
14.02393463762192
 51
75.97622935628094
  0
ARC
  5
8B2
330
1F
100
AcDbEntity
  8
0
  6
Continuous
 62
     7
100
AcDbCircle
 10
230.561875474151
 20
20.7863018505966
 30
0.0
 40
42.00004098883468
100
AcDbArc
 50
18.6507759822863
 51
71.34944135219068
  0
ARC
  5
8B3
330
1F
100
AcDbEntity
  8
0
  6
Continuous
 62
     7
100
AcDbCircle
 10
241.719111694034
 20
77.70308758947843
 30
0.0
 40
1.999955126936089
100
AcDbArc
 50
78.907210649471
 51
183.6439786348399
  0
ARC
  5
8B4
330
1F
100
AcDbEntity
  8
0
  6
Continuous
 62
     7
100
AcDbCircle
 10
243.4789214330133
 20
50.06334661969607
 30
0.0
 40
1.99995589166307
100
AcDbArc
 50
183.6399304912756
 51
246.192214539376
  0
ARC
  5
8B5
330
1F
100
AcDbEntity
  8
0
  6
Continuous
 62
     7
100
AcDbCircle
 10
243.3538955753929
 20
58.6857739302077
 30
0.0
 40
1.999938172786588
100
AcDbArc
 50
71.34843819620764
 51
183.6436174537239
  0
ARC
  5
8B6
330
1F
100
AcDbEntity
  8
0
  6
Continuous
 62
     7
100
AcDbCircle
 10
242.6781330210988
 20
69.2960377030181
 30
0.0
 40
1.999966890310848
100
AcDbArc
 50
183.6396544822694
 51
255.9764599723925
  0
ARC
  5
8B7
330
1F
100
AcDbEntity
  8
0
  6
Continuous
 62
     7
100
AcDbCircle
 10
268.4611989335214
 20
33.57827593471085
 30
0.0
 40
1.999934996442848
100
AcDbArc
 50
266.3591805980308
 51
18.65150076640853
  0
ARC
  5
8B8
330
1F
100
AcDbEntity
  8
0
  6
Continuous
 62
     7
100
AcDbCircle
 10
279.0715685714129
 20
32.90272017695495
 30
0.0
 40
1.999977221628333
100
AcDbArc
 50
194.0237563968426
 51
266.3601291484956
  0
ARC
  5
8B9
330
1F
100
AcDbEntity
  8
0
  6
Continuous
 62
     7
100
AcDbCircle
 10
244.4386425790873
 20
50.72671510606158
 30
0.0
 40
1.999974994672651
100
AcDbArc
 50
183.6389910423578
 51
245.1321649216608
  0
ARC
  5
8BA
330
1F
100
AcDbEntity
  8
0
  6
Continuous
 62
     7
100
AcDbCircle
 10
244.0143084454831
 20
57.39278362735102
 30
0.0
 40
1.999951633137389
100
AcDbArc
 50
69.82100492749346
 51
183.6438712699735
  0
ARC
  5
8BB
330
1F
100
AcDbEntity
  8
0
  6
Continuous
 62
     7
100
AcDbCircle
 10
243.1991752709328
 20
70.1956864809575
 30
0.0
 40
2.000005804011959
100
AcDbArc
 50
183.6381132068052
 51
255.6504511313771
  0
ARC
  5
8BC
330
1F
100
AcDbEntity
  8
0
  6
Continuous
 62
     7
100
AcDbCircle
 10
242.800458909121
 20
76.4570278544589
 30
0.0
 40
1.999998450993511
100
AcDbArc
 50
77.60085740207255
 51
183.6421848435982
  0
ARC
  5
8BD
330
1F
100
AcDbEntity
  8
0
  6
Continuous
 62
     7
100
AcDbCircle
 10
267.1682420723566
 20
34.2387337025963
 30
0.0
 40
1.99999538750756
100
AcDbArc
 50
266.3580523435393
 51
20.17707145899263
  0
ARC
  5
8BE
330
1F
100
AcDbEntity
  8
0
  6
Continuous
 62
     7
100
AcDbCircle
 10
260.502218328658
 20
34.66326478063598
 30
0.0
 40
2.000024894721735
100
AcDbArc
 50
204.865431991211
 51
266.3587877217573
  0
ARC
  5
8BF
330
1F
100
AcDbEntity
  8
0
  6
Continuous
 62
     7
100
AcDbCircle
 10
259.8388743111673
 20
33.70329525738709
 30
0.0
 40
1.999959068085779
100
AcDbArc
 50
203.8076356999449
 51
266.3570606539301
  0
ARC
  5
8C0
330
1F
100
AcDbEntity
  8
0
  6
Continuous
 62
     7
100
AcDbCircle
 10
287.4785042045655
 20
31.94358211491072
 30
0.0
 40
2.000041297063468
100
AcDbArc
 50
266.3592230590465
 51
11.08958765664115
  0
ARC
  5
8C1
330
1F
100
AcDbEntity
  8
0
  6
Continuous
 62
     7
100
AcDbCircle
 10
230.56185
 20
20.78632732484082
 30
0.0
 40
31.00003949392644
100
AcDbArc
 50
24.86683775835635
 51
65.13316224164483
  0
ARC
  5
8C2
330
1F
100
AcDbEntity
  8
0
  6
Continuous
 62
     7
100
AcDbCircle
 10
230.5618790497874
 20
20.78629827496714
 30
0.0
 40
41.00004467514787
100
AcDbArc
 50
20.17787061686623
 51
69.82236476672706
  0
ARC
  5
8C3
330
1F
100
AcDbEntity
  8
0
  6
Continuous
 62
     7
100
AcDbCircle
 10
230.5618671829138
 20
20.78631014183409
 30
0.0
 40
49.00004578949739
100
AcDbArc
 50
14.3467088467048
 51
75.65345332485562
  0
ARC
  5
8C4
330
1F
100
AcDbEntity
  8
0
  6
Continuous
 62
     7
100
AcDbCircle
 10
230.561878178441
 20
20.78629914630258
 30
0.0
 40
59.00006860698593
100
AcDbArc
 50
12.39868666399224
 51
77.60156823258228
  0
ARC
  5
8C5
330
1F
100
AcDbEntity
  8
0
  6
Continuous
 62
     7
100
AcDbCircle
 10
279.9712379640125
 20
33.42354586499082
 30
0.0
 40
2.000007264379076
100
AcDbArc
 50
194.3463821243135
 51
266.3581919332264
  0
ARC
  5
8C6
330
1F
100
AcDbEntity
  8
0
  6
Continuous
 62
     7
100
AcDbCircle
 10
286.2324011124666
 20
33.0248786217916
 30
0.0
 40
2.000037614645532
100
AcDbArc
 50
266.3593051062806
 51
12.39765264805024
  0
ARC
  5
8C7
330
1F
100
AcDbEntity
  8
0
  6
Continuous
 62
     7
100
AcDbCircle
 10
267.1611214985583
 20
91.23994192780797
 30
0.0
 40
2.999978502137085
100
AcDbArc
 50
359.9987661653706
 51
62.5464426525538
  0
ARC
  5
8C8
330
1F
100
AcDbEntity
  8
0
  6
Continuous
 62
     7
100
AcDbCircle
 10
272.1610811440504
 20
72.66841660764905
 30
0.0
 40
1.999981144436438
100
AcDbArc
 50
180.0011253801696
 51
231.2813637531666
  0
ARC
  5
8C9
330
1F
100
AcDbEntity
  8
0
  6
Continuous
 62
     7
100
AcDbCircle
 10
282.4438553981963
 20
62.38565073697277
 30
0.0
 40
1.999973412629314
100
AcDbArc
 50
218.7222017984625
 51
270.0012777645375
  0
ARC
  5
8CA
330
1F
100
AcDbEntity
  8
0
  6
Continuous
 62
     7
100
AcDbCircle
 10
301.015399703651
 20
57.38567750484084
 30
0.0
 40
2.999999819999986
100
AcDbArc
 50
27.45165243045278
 51
89.99999434015235
  0
ARC
  5
8CB
330
1F
100
AcDbEntity
  8
0
  6
Continuous
 62
     7
100
AcDbCircle
 10
241.7191147089031
 20
-36.13043558553172
 30
0.0
 40
1.999951950577061
100
AcDbArc
 50
176.3588102770933
 51
281.0927191756475
  0
ARC
  5
8CC
330
1F
100
AcDbEntity
  8
0
  6
Continuous
 62
     7
100
AcDbCircle
 10
243.4789683673433
 20
-8.490724731433695
 30
0.0
 40
2.000004811427444
100
AcDbArc
 50
113.808636749394
 51
176.3592182199528
  0
ARC
  5
8CD
330
1F
100
AcDbEntity
  8
0
  6
Continuous
 62
     7
100
AcDbCircle
 10
243.3538955753929
 20
-17.11311928052611
 30
0.0
 40
1.999938172786555
100
AcDbArc
 50
176.3563825462758
 51
288.6515618037924
  0
ARC
  5
8CE
330
1F
100
AcDbEntity
  8
0
  6
Continuous
 62
     7
100
AcDbCircle
 10
244.4386425790873
 20
-9.15406045637999
 30
0.0
 40
1.999974994672651
100
AcDbArc
 50
114.8678350783391
 51
176.3610089576418
  0
ARC
  5
8CF
330
1F
100
AcDbEntity
  8
0
  6
Continuous
 62
     7
100
AcDbCircle
 10
244.0143114842582
 20
-15.8201312449523
 30
0.0
 40
1.999948456784475
100
AcDbArc
 50
176.3589285107418
 51
290.1789357656907
  0
ARC
  5
8D0
330
1F
100
AcDbEntity
  8
0
  6
Continuous
 62
     7
100
AcDbCircle
 10
243.1991226991648
 20
-28.62309528123281
 30
0.0
 40
1.99995736547914
100
AcDbArc
 50
104.3483492650411
 51
176.3599771414968
  0
ARC
  5
8D1
330
1F
100
AcDbEntity
  8
0
  6
Continuous
 62
     7
100
AcDbCircle
 10
242.8004125103843
 20
-34.88413340549332
 30
0.0
 40
1.999949618047525
100
AcDbArc
 50
176.3588686060713
 51
282.4008111747009
  0
ARC
  5
8D2
330
1F
100
AcDbEntity
  8
0
  6
Continuous
 62
     7
100
AcDbCircle
 10
267.1682420723566
 20
7.333920947085307
 30
0.0
 40
1.999995387507504
100
AcDbArc
 50
339.8229285410073
 51
93.64194765646052
  0
ARC
  5
8D3
330
1F
100
AcDbEntity
  8
0
  6
Continuous
 62
     7
100
AcDbCircle
 10
260.5021843883024
 20
6.90956664105934
 30
0.0
 40
2.000045920633394
100
AcDbArc
 50
93.64019968418695
 51
155.1309562798314
  0
ARC
  5
8D4
330
1F
100
AcDbEntity
  8
0
  6
Continuous
 62
     7
100
AcDbCircle
 10
259.8388743111673
 20
7.869359392294508
 30
0.0
 40
1.999959068085781
100
AcDbArc
 50
93.64293934607154
 51
156.1923643000555
  0
ARC
  5
8D5
330
1F
100
AcDbEntity
  8
0
  6
Continuous
 62
     7
100
AcDbCircle
 10
287.4785537826195
 20
9.629316052752779
 30
0.0
 40
2.00000101583801
100
AcDbArc
 50
348.9089157376412
 51
93.64227354667049
  0
ARC
  5
8D6
330
1F
100
AcDbEntity
  8
0
  6
Continuous
 62
     7
100
AcDbCircle
 10
230.5619
 20
20.7862773248408
 30
0.0
 40
29.99998518966301
100
AcDbArc
 50
293.8069867982383
 51
336.1930132017608
  0
ARC
  5
8D7
330
1F
100
AcDbEntity
  8
0
  6
Continuous
 62
     7
100
AcDbCircle
 10
230.5618745259454
 20
20.7862518506896
 30
0.0
 40
41.99997762456192
100
AcDbArc
 50
288.6507331680006
 51
341.3494841664761
  0
ARC
  5
8D8
330
1F
100
AcDbEntity
  8
0
  6
Continuous
 62
     7
100
AcDbCircle
 10
230.5619
 20
20.7862773248408
 30
0.0
 40
30.99997310402059
100
AcDbArc
 50
294.8667927740332
 51
335.1332072259676
  0
ARC
  5
8D9
330
1F
100
AcDbEntity
  8
0
  6
Continuous
 62
     7
100
AcDbCircle
 10
230.5619
 20
20.7862773248408
 30
0.0
 40
40.99996325034939
100
AcDbArc
 50
290.1776458572743
 51
339.8223541427261
  0
ARC
  5
8DA
330
1F
100
AcDbEntity
  8
0
  6
Continuous
 62
     7
100
AcDbCircle
 10
230.56195
 20
20.7863273248408
 30
0.0
 40
47.99999626192696
100
AcDbArc
 50
284.0238671034494
 51
345.9761328965502
  0
ARC
  5
8DB
330
1F
100
AcDbEntity
  8
0
  6
Continuous
 62
     7
100
AcDbCircle
 10
230.5619
 20
20.7862773248408
 30
0.0
 40
48.99999734867339
100
AcDbArc
 50
284.3466422478036
 51
345.6533577521962
  0
ARC
  5
8DC
330
1F
100
AcDbEntity
  8
0
  6
Continuous
 62
     7
100
AcDbCircle
 10
230.5618878090039
 20
20.78626513381891
 30
0.0
 40
59.99998371487033
100
AcDbArc
 50
281.0908500836459
 51
348.9092709529935
  0
ARC
  5
8DD
330
1F
100
AcDbEntity
  8
0
  6
Continuous
 62
     7
100
AcDbCircle
 10
230.5619640892762
 20
20.7863414139744
 30
0.0
 40
58.99996020343392
100
AcDbArc
 50
282.3984689189543
 51
347.601403632617
  0
ARC
  5
8DE
330
1F
100
AcDbEntity
  8
0
  6
Continuous
 62
     7
100
AcDbCircle
 10
279.9712379640125
 20
8.149108784690769
 30
0.0
 40
2.000007264379073
100
AcDbArc
 50
93.64180806677351
 51
165.653617875686
  0
ARC
  5
8DF
330
1F
100
AcDbEntity
  8
0
  6
Continuous
 62
     7
100
AcDbCircle
 10
286.2324011124666
 20
8.547776027890009
 30
0.0
 40
2.00003761464556
100
AcDbArc
 50
347.6023473519497
 51
93.64069489371942
  0
ARC
  5
8E0
330
1F
100
AcDbEntity
  8
0
  6
Continuous
 62
     7
100
AcDbCircle
 10
230.56195
 20
20.7862773248408
 30
0.0
 40
10.25006446040707
100
AcDbArc
 50
107.018829403671
 51
72.98117059632888
  0
ARC
  5
8E1
330
1F
100
AcDbEntity
  8
0
  6
Continuous
 62
     7
100
AcDbCircle
 10
267.1610771298135
 20
-49.6670603305554
 30
0.0
 40
3.000022870422661
100
AcDbArc
 50
297.4540720224668
 51
0.0007191596099403
  0
ARC
  5
8E2
330
1F
100
AcDbEntity
  8
0
  6
Continuous
 62
     7
100
AcDbCircle
 10
272.1610811440504
 20
-31.09556195796743
 30
0.0
 40
1.999981144436438
100
AcDbArc
 50
128.7186362468331
 51
179.9988746198303
  0
ARC
  5
8E3
330
1F
100
AcDbEntity
  8
0
  6
Continuous
 62
     7
100
AcDbCircle
 10
282.4438553981963
 20
-20.81299608729117
 30
0.0
 40
1.9999734126293
100
AcDbArc
 50
89.99872223546088
 51
141.2777982015368
  0
ARC
  5
8E4
330
1F
100
AcDbEntity
  8
0
  6
Continuous
 62
     7
100
AcDbCircle
 10
301.0153997036512
 20
-15.81302285515924
 30
0.0
 40
2.999999819999968
100
AcDbArc
 50
270.000005659846
 51
332.5483475695468
  0
ARC
  5
8E5
330
1F
100
AcDbEntity
  8
0
  6
Continuous
 62
     7
100
AcDbCircle
 10
279.0715685714129
 20
8.67013447272666
 30
0.0
 40
1.999977221628324
100
AcDbArc
 50
93.63987085150421
 51
165.9762436031574
  0
ARC
  5
8E6
330
1F
100
AcDbEntity
  8
0
  6
Continuous
 62
     7
100
AcDbCircle
 10
242.6781330210988
 20
-27.72318305333648
 30
0.0
 40
1.99996689031087
100
AcDbArc
 50
104.023540027609
 51
176.3603455177304
  0
ARC
  5
8E7
330
1F
100
AcDbEntity
  8
0
  6
Continuous
 62
     7
100
AcDbCircle
 10
230.5618359107238
 20
20.7863414139744
 30
0.0
 40
58.99996020343389
100
AcDbArc
 50
192.398596367383
 51
257.6015310810455
  0
ARC
  5
8E8
330
1F
100
AcDbEntity
  8
0
  6
Continuous
 62
     7
100
AcDbCircle
 10
181.1524620359873
 20
8.149108784690797
 30
0.0
 40
2.000007264379072
100
AcDbArc
 50
14.34638212431247
 51
86.35819193322484
  0
ARC
  5
8E9
330
1F
100
AcDbEntity
  8
0
  6
Continuous
 62
     7
100
AcDbCircle
 10
230.5619
 20
20.7862773248408
 30
0.0
 40
48.9999973486734
100
AcDbArc
 50
194.3466422478038
 51
255.6533577521962
  0
ARC
  5
8EA
330
1F
100
AcDbEntity
  8
0
  6
Continuous
 62
     7
100
AcDbCircle
 10
230.5619
 20
20.7862773248408
 30
0.0
 40
59.99997409666108
100
AcDbArc
 50
191.0907427105644
 51
258.909257289435
  0
ARC
  5
8EB
330
1F
100
AcDbEntity
  8
0
  6
Continuous
 62
     7
100
AcDbCircle
 10
182.0521314285871
 20
8.670134472726671
 30
0.0
 40
1.9999772216283
100
AcDbArc
 50
14.02375639684258
 51
86.36012914849741
  0
ARC
  5
8EC
330
1F
100
AcDbEntity
  8
0
  6
Continuous
 62
     7
100
AcDbCircle
 10
193.9626228701864
 20
-49.6670603305554
 30
0.0
 40
3.000022870422661
100
AcDbArc
 50
179.99928084039
 51
242.5459279775331
  0
ARC
  5
8ED
330
1F
100
AcDbEntity
  8
0
  6
Continuous
 62
     7
100
AcDbCircle
 10
174.8912988875334
 20
8.547776027889995
 30
0.0
 40
2.000037614645544
100
AcDbArc
 50
86.35930510628055
 51
192.39765264805
  0
ARC
  5
8EE
330
1F
100
AcDbEntity
  8
0
  6
Continuous
 62
     7
100
AcDbCircle
 10
178.6798258799245
 20
-20.81303509599717
 30
0.0
 40
2.000012421005421
100
AcDbArc
 50
38.72273816237896
 51
90.00074140062261
  0
ARC
  5
8EF
330
1F
100
AcDbEntity
  8
0
  6
Continuous
 62
     7
100
AcDbCircle
 10
160.1083002963489
 20
-15.81302285515922
 30
0.0
 40
2.999999819999976
100
AcDbArc
 50
207.4516524304531
 51
269.999994340154
  0
ARC
  5
8F0
330
1F
100
AcDbEntity
  8
0
  6
Continuous
 62
     7
100
AcDbCircle
 10
268.4611623607926
 20
7.994626388540531
 30
0.0
 40
1.999984895237013
100
AcDbArc
 50
341.347540282558
 51
93.63967858499336
  0
ARC
  5
8F1
330
1F
100
AcDbEntity
  8
0
  6
Continuous
 62
     7
100
AcDbCircle
 10
143.094089552023
 20
-62.51322773095417
 30
0.0
 40
1.999994946209928
100
AcDbArc
 50
269.9974345170295
 51
321.6474138145382
  0
ARC
  5
8F2
330
1F
100
AcDbEntity
  8
0
  6
Continuous
 62
     7
100
AcDbCircle
 10
168.9160084548783
 20
-49.21342191734254
 30
0.0
 40
10.000008207243
100
AcDbArc
 50
48.59031800612399
 51
141.6532311469216
  0
ARC
  5
8F3
330
1F
100
AcDbEntity
  8
0
  6
Continuous
 62
     7
100
AcDbCircle
 10
223.0832486705129
 20
-61.51324735531851
 30
0.0
 40
2.999975320235518
100
AcDbArc
 50
216.2230293533915
 51
269.9990704540256
  0
ARC
  5
8F4
330
1F
100
AcDbEntity
  8
0
  6
Continuous
 62
     7
100
AcDbCircle
 10
217.8897452035009
 20
-64.57674995896192
 30
0.0
 40
3.000010969515325
100
AcDbArc
 50
36.22376083614422
 51
81.54779197130848
  0
ARC
  5
8F5
330
1F
100
AcDbEntity
  8
0
  6
Continuous
 62
     7
100
AcDbCircle
 10
243.2343547964989
 20
-64.57674995896192
 30
0.0
 40
3.000010969515325
100
AcDbArc
 50
98.45220802869151
 51
143.7762391638556
  0
ARC
  5
8F6
330
1F
100
AcDbEntity
  8
0
  6
Continuous
 62
     7
100
AcDbCircle
 10
238.040851329487
 20
-61.51324735531851
 30
0.0
 40
2.999975320235497
100
AcDbArc
 50
270.0009295459742
 51
323.7769706466082
  0
ARC
  5
8F7
330
1F
100
AcDbEntity
  8
0
  6
Continuous
 62
     7
100
AcDbCircle
 10
292.2077915451215
 20
-49.21342191734254
 30
0.0
 40
10.000008207243
100
AcDbArc
 50
38.34676885307841
 51
131.409681993876
  0
ARC
  5
8F8
330
1F
100
AcDbEntity
  8
0
  6
Continuous
 62
     7
100
AcDbCircle
 10
318.0297935303243
 20
-62.51321954425849
 30
0.0
 40
2.000003133734642
100
AcDbArc
 50
218.3490466533653
 51
270.0030501267538
  0
ARC
  5
8F9
330
1F
100
AcDbEntity
  8
0
  6
Continuous
 62
     7
100
AcDbCircle
 10
153.1834099282433
 20
-47.01812107542021
 30
0.0
 40
1.599999396843303
100
AcDbArc
 50
56.65483457540729
 51
141.6519658741141
  0
ARC
  5
8FA
330
1F
100
AcDbEntity
  8
0
  6
Continuous
 62
     7
100
AcDbCircle
 10
149.7771033352356
 20
-51.3242685974772
 30
0.0
 40
1.600040095710098
100
AcDbArc
 50
141.655514875452
 51
226.6524275723849
  0
ARC
  5
8FB
330
1F
100
AcDbEntity
  8
0
  6
Continuous
 62
     7
100
AcDbCircle
 10
230.562
 20
20.7862773248408
 30
0.0
 40
83.1999
100
AcDbArc
 50
89.99993113479694
 51
180.0
  0
ARC
  5
8FC
330
1F
100
AcDbEntity
  8
0
  6
Continuous
 62
     7
100
AcDbCircle
 10
230.562
 20
20.7862773248408
 30
0.0
 40
83.19990000000002
100
AcDbArc
 50
180.0
 51
0.0
  0
ARC
  5
8FD
330
1F
100
AcDbEntity
  8
0
  6
Continuous
 62
     7
100
AcDbCircle
 10
230.562
 20
20.7862773248408
 30
0.0
 40
83.19990000000002
100
AcDbArc
 50
0.0
 51
89.99993113479694
  0
ARC
  5
8FE
330
1F
100
AcDbEntity
  8
0
  6
Continuous
 62
     7
100
AcDbCircle
 10
230.5619970696485
 20
20.7862802552128
 30
0.0
 40
84.00002964172085
100
AcDbArc
 50
31.15839365338092
 51
58.84120313490781
  0
ARC
  5
8FF
330
1F
100
AcDbEntity
  8
0
  6
Continuous
 62
    30
100
AcDbCircle
 10
115.7429999999999
 20
-22.49715121469587
 30
0.0
 40
1.500000000000319
100
AcDbArc
 50
60.00000000000755
 51
119.9999999999924
  0
ARC
  5
900
330
1F
100
AcDbEntity
  8
0
  6
Continuous
 62
    30
100
AcDbCircle
 10
115.7429999999999
 20
-19.8990750033418
 30
0.0
 40
1.500000000000313
100
AcDbArc
 50
240.0000000000074
 51
299.9999999999925
  0
ARC
  5
901
330
1F
100
AcDbEntity
  8
0
  6
Continuous
 62
    30
100
AcDbCircle
 10
114.243
 20
-22.49715121469587
 30
0.0
 40
1.500000000000319
100
AcDbArc
 50
60.00000000000755
 51
119.9999999999924
  0
ARC
  5
902
330
1F
100
AcDbEntity
  8
0
  6
Continuous
 62
     7
100
AcDbCircle
 10
114.99315
 20
-56.00286873735997
 30
0.0
 40
3.299966800211588
100
AcDbArc
 50
168.1508663062041
 51
11.84913369379573
  0
LINE
  5
903
330
1F
100
AcDbEntity
  8
0
  6
DASH_CENTER
 62
    30
100
AcDbLine
 10
230.5620999999999
 20
-82.5435005253238
 30
0.0
 11
230.5620999999999
 21
112.8544773248407
 31
0.0
  0
LINE
  5
904
330
1F
100
AcDbEntity
  8
0
  6
DASH_CENTER
 62
    30
100
AcDbLine
 10
300.5618
 20
-58.30572267515922
 30
0.0
 11
300.5618
 21
-74.18392267515921
 31
0.0
  0
LINE
  5
905
330
1F
100
AcDbEntity
  8
0
  6
DASH_CENTER
 62
    30
100
AcDbLine
 10
160.5621
 20
-58.30572267515922
 30
0.0
 11
160.5621
 21
-74.18392267515921
 31
0.0
  0
LINE
  5
906
330
1F
100
AcDbEntity
  8
0
  6
Continuous
 62
     7
100
AcDbLine
 10
227.5619
 20
27.0362773248408
 30
0.0
 11
227.5619
 21
32.5362773248408
 31
0.0
  0
LINE
  5
907
330
1F
100
AcDbEntity
  8
0
  6
Continuous
 62
     7
100
AcDbLine
 10
227.8119
 20
32.78627732484081
 30
0.0
 11
233.3118999999999
 21
32.78627732484081
 31
0.0
  0
LINE
  5
908
330
1F
100
AcDbEntity
  8
0
  6
Continuous
 62
     7
100
AcDbLine
 10
233.5619
 20
27.0362773248408
 30
0.0
 11
233.5619
 21
32.5362773248408
 31
0.0
  0
LINE
  5
909
330
1F
100
AcDbEntity
  8
0
  6
Continuous
 62
     7
100
AcDbLine
 10
233.3118999999999
 20
26.78627732484081
 30
0.0
 11
227.8119
 21
26.78627732484081
 31
0.0
  0
LINE
  5
90A
330
1F
100
AcDbEntity
  8
0
  6
Continuous
 62
     7
100
AcDbLine
 10
233.5619
 20
32.5362773248408
 30
0.0
 11
233.3118999999999
 21
32.78627732484081
 31
0.0
  0
LINE
  5
90B
330
1F
100
AcDbEntity
  8
0
  6
Continuous
 62
     7
100
AcDbLine
 10
227.8119
 20
32.78627732484081
 30
0.0
 11
227.5619
 21
32.5362773248408
 31
0.0
  0
LINE
  5
90C
330
1F
100
AcDbEntity
  8
0
  6
Continuous
 62
     7
100
AcDbLine
 10
227.5619
 20
27.0362773248408
 30
0.0
 11
227.8119
 21
26.78627732484081
 31
0.0
  0
LINE
  5
90D
330
1F
100
AcDbEntity
  8
0
  6
Continuous
 62
     7
100
AcDbLine
 10
233.3118999999999
 20
26.78627732484081
 30
0.0
 11
233.5619
 21
27.0362773248408
 31
0.0
  0
LINE
  5
90E
330
1F
100
AcDbEntity
  8
0
  6
Continuous
 62
     7
100
AcDbLine
 10
227.5619
 20
27.0362773248408
 30
0.0
 11
227.5619
 21
29.8002773248408
 31
0.0
  0
LINE
  5
90F
330
1F
100
AcDbEntity
  8
0
  6
Continuous
 62
     7
100
AcDbLine
 10
227.8119
 20
26.78627732484081
 30
0.0
 11
233.3118999999999
 21
26.78627732484081
 31
0.0
  0
LINE
  5
910
330
1F
100
AcDbEntity
  8
0
  6
Continuous
 62
     7
100
AcDbLine
 10
233.5619
 20
27.0362773248408
 30
0.0
 11
233.5619
 21
29.8002773248408
 31
0.0
  0
LINE
  5
911
330
1F
100
AcDbEntity
  8
0
  6
Continuous
 62
     7
100
AcDbLine
 10
125.4929999999999
 20
-14.2661226751592
 30
0.0
 11
125.4929999999999
 21
4.786277324840798
 31
0.0
  0
LINE
  5
912
330
1F
100
AcDbEntity
  8
0
  6
Continuous
 62
     7
100
AcDbLine
 10
148.0583
 20
31.52797732484081
 30
0.0
 11
146.0982999999998
 21
31.7831773248408
 31
0.0
  0
LINE
  5
913
330
1F
100
AcDbEntity
  8
0
  6
Continuous
 62
     7
100
AcDbLine
 10
146.0982999999998
 20
9.7889773248408
 30
0.0
 11
148.0583
 21
10.0443773248408
 31
0.0
  0
LINE
  5
914
330
1F
100
AcDbEntity
  8
0
  6
Continuous
 62
     7
100
AcDbLine
 10
135.4929999999999
 20
23.7862773248408
 30
0.0
 11
143.4136
 21
23.7862773248408
 31
0.0
  0
LINE
  5
915
330
1F
100
AcDbEntity
  8
0
  6
Continuous
 62
     7
100
AcDbLine
 10
143.5686
 20
26.78627732484081
 30
0.0
 11
135.4929999999999
 21
26.78627732484081
 31
0.0
  0
LINE
  5
916
330
1F
100
AcDbEntity
  8
0
  6
Continuous
 62
     7
100
AcDbLine
 10
135.4929999999999
 20
20.7862773248408
 30
0.0
 11
143.3619999999999
 21
20.7862773248408
 31
0.0
  0
LINE
  5
917
330
1F
100
AcDbEntity
  8
0
  6
Continuous
 62
     7
100
AcDbLine
 10
135.4929999999999
 20
17.78627732484078
 30
0.0
 11
143.4136
 21
17.78627732484078
 31
0.0
  0
LINE
  5
918
330
1F
100
AcDbEntity
  8
0
  6
Continuous
 62
     7
100
AcDbLine
 10
135.4929999999999
 20
14.7862773248408
 30
0.0
 11
143.5686
 21
14.7862773248408
 31
0.0
  0
LINE
  5
919
330
1F
100
AcDbEntity
  8
0
  6
Continuous
 62
     7
100
AcDbLine
 10
113.4929999999999
 20
-14.26662267515919
 30
0.0
 11
113.4929999999999
 21
4.786277324840798
 31
0.0
  0
LINE
  5
91A
330
1F
100
AcDbEntity
  8
0
  6
Continuous
 62
     7
100
AcDbLine
 10
119.493
 20
-14.2661226751592
 30
0.0
 11
119.493
 21
4.786277324840798
 31
0.0
  0
LINE
  5
91B
330
1F
100
AcDbEntity
  8
0
  6
Continuous
 62
     7
100
AcDbLine
 10
122.493
 20
-14.2661226751592
 30
0.0
 11
122.493
 21
4.786277324840798
 31
0.0
  0
LINE
  5
91C
330
1F
100
AcDbEntity
  8
0
  6
Continuous
 62
     7
100
AcDbLine
 10
129.4929999999999
 20
-14.2661226751592
 30
0.0
 11
129.4929999999999
 21
4.786277324840798
 31
0.0
  0
LINE
  5
91D
330
1F
100
AcDbEntity
  8
0
  6
Continuous
 62
     7
100
AcDbLine
 10
135.4929999999999
 20
-14.2661226751592
 30
0.0
 11
135.4929999999999
 21
4.786277324840798
 31
0.0
  0
LINE
  5
91E
330
1F
100
AcDbEntity
  8
0
  6
Continuous
 62
     7
100
AcDbLine
 10
132.4929999999999
 20
-14.2661226751592
 30
0.0
 11
132.4929999999999
 21
4.786277324840798
 31
0.0
  0
LINE
  5
91F
330
1F
100
AcDbEntity
  8
0
  6
Continuous
 62
     7
100
AcDbLine
 10
116.493
 20
-14.26662267515919
 30
0.0
 11
116.493
 21
4.786277324840798
 31
0.0
  0
LINE
  5
920
330
1F
100
AcDbEntity
  8
0
  6
Continuous
 62
     7
100
AcDbLine
 10
313.6416
 20
16.3194773248408
 30
0.0
 11
315.1016
 21
16.44717732484081
 31
0.0
  0
LINE
  5
921
330
1F
100
AcDbEntity
  8
0
  6
Continuous
 62
     7
100
AcDbLine
 10
313.6416
 20
25.25287732484081
 30
0.0
 11
315.1016
 21
25.12517732484081
 31
0.0
  0
LINE
  5
922
330
1F
100
AcDbEntity
  8
0
  6
Continuous
 62
     7
100
AcDbLine
 10
316.5618
 20
23.5314773248408
 30
0.0
 11
316.5618
 21
18.0411773248408
 31
0.0
  0
LINE
  5
923
330
1F
100
AcDbEntity
  8
0
  6
Continuous
 62
     7
100
AcDbLine
 10
227.8167999999999
 20
106.7862773248408
 30
0.0
 11
233.307
 21
106.7862773248408
 31
0.0
  0
LINE
  5
924
330
1F
100
AcDbEntity
  8
0
  6
Continuous
 62
     7
100
AcDbLine
 10
235.0286999999999
 20
103.8661773248408
 30
0.0
 11
234.9009999999999
 21
105.3260773248408
 31
0.0
  0
LINE
  5
925
330
1F
100
AcDbEntity
  8
0
  6
Continuous
 62
     7
100
AcDbLine
 10
226.0952
 20
103.8661773248408
 30
0.0
 11
226.2230999999999
 21
105.3260773248408
 31
0.0
  0
LINE
  5
926
330
1F
100
AcDbEntity
  8
0
  6
Continuous
 62
     7
100
AcDbLine
 10
273.6104
 20
91.9835773248408
 30
0.0
 11
274.0244
 21
92.6681773248408
 31
0.0
  0
LINE
  5
927
330
1F
100
AcDbEntity
  8
0
  6
DASH_CENTER
 62
    30
100
AcDbLine
 10
289.1401
 20
79.36467732484079
 30
0.0
 11
277.9827
 21
68.2071773248408
 31
0.0
  0
LINE
  5
928
330
1F
100
AcDbEntity
  8
0
  6
Continuous
 62
     7
100
AcDbLine
 10
284.7903
 20
69.35807732484081
 30
0.0
 11
280.3288999999999
 21
70.55367732484079
 31
0.0
  0
LINE
  5
929
330
1F
100
AcDbEntity
  8
0
  6
Continuous
 62
     7
100
AcDbLine
 10
286.8608
 20
77.08567732484079
 30
0.0
 11
282.3994
 21
78.28097732484081
 31
0.0
  0
LINE
  5
92A
330
1F
100
AcDbEntity
  8
0
  6
Continuous
 62
     7
100
AcDbLine
 10
279.1335
 20
75.01507732484078
 30
0.0
 11
280.3288999999999
 21
70.55367732484079
 31
0.0
  0
LINE
  5
92B
330
1F
100
AcDbEntity
  8
0
  6
Continuous
 62
     7
100
AcDbLine
 10
288.0561999999999
 20
72.62397732484079
 30
0.0
 11
286.8608
 21
77.08567732484079
 31
0.0
  0
LINE
  5
92C
330
1F
100
AcDbEntity
  8
0
  6
Continuous
 62
     7
100
AcDbLine
 10
284.7903
 20
69.35807732484081
 30
0.0
 11
288.0561999999999
 21
72.62397732484079
 31
0.0
  0
LINE
  5
92D
330
1F
100
AcDbEntity
  8
0
  6
Continuous
 62
     7
100
AcDbLine
 10
279.1335
 20
75.01507732484078
 30
0.0
 11
282.3994
 21
78.28097732484081
 31
0.0
  0
LINE
  5
92E
330
1F
100
AcDbEntity
  8
0
  6
DASH_CENTER
 62
    30
100
AcDbLine
 10
289.1403999999998
 20
-37.79182267515921
 30
0.0
 11
277.9828999999998
 21
-26.63432267515919
 31
0.0
  0
LINE
  5
92F
330
1F
100
AcDbEntity
  8
0
  6
Continuous
 62
     7
100
AcDbLine
 10
279.1338
 20
-33.4419226751592
 30
0.0
 11
280.3293
 21
-28.9805226751592
 31
0.0
  0
LINE
  5
930
330
1F
100
AcDbEntity
  8
0
  6
Continuous
 62
     7
100
AcDbLine
 10
286.8613
 20
-35.5125226751592
 30
0.0
 11
288.0565999999999
 21
-31.05112267515919
 31
0.0
  0
LINE
  5
931
330
1F
100
AcDbEntity
  8
0
  6
Continuous
 62
     7
100
AcDbLine
 10
284.7907999999998
 20
-27.78522267515919
 30
0.0
 11
280.3293
 21
-28.9805226751592
 31
0.0
  0
LINE
  5
932
330
1F
100
AcDbEntity
  8
0
  6
Continuous
 62
     7
100
AcDbLine
 10
282.3996999999998
 20
-36.7078226751592
 30
0.0
 11
286.8613
 21
-35.5125226751592
 31
0.0
  0
LINE
  5
933
330
1F
100
AcDbEntity
  8
0
  6
Continuous
 62
     7
100
AcDbLine
 10
279.1338
 20
-33.4419226751592
 30
0.0
 11
282.3996999999998
 21
-36.7078226751592
 31
0.0
  0
LINE
  5
934
330
1F
100
AcDbEntity
  8
0
  6
Continuous
 62
     7
100
AcDbLine
 10
284.7907999999998
 20
-27.78522267515919
 30
0.0
 11
288.0565999999999
 21
-31.05112267515919
 31
0.0
  0
LINE
  5
935
330
1F
100
AcDbEntity
  8
0
  6
DASH_CENTER
 62
    30
100
AcDbLine
 10
171.984
 20
-37.7920226751592
 30
0.0
 11
183.1414999999999
 21
-26.63462267515919
 31
0.0
  0
LINE
  5
936
330
1F
100
AcDbEntity
  8
0
  6
Continuous
 62
     7
100
AcDbLine
 10
176.3339
 20
-27.78542267515919
 30
0.0
 11
180.7952999999999
 21
-28.98102267515919
 31
0.0
  0
LINE
  5
937
330
1F
100
AcDbEntity
  8
0
  6
Continuous
 62
     7
100
AcDbLine
 10
174.2632999999999
 20
-35.5130226751592
 30
0.0
 11
178.7247999999999
 21
-36.70832267515921
 31
0.0
  0
LINE
  5
938
330
1F
100
AcDbEntity
  8
0
  6
Continuous
 62
     7
100
AcDbLine
 10
181.9905999999999
 20
-33.4424226751592
 30
0.0
 11
180.7952999999999
 21
-28.98102267515919
 31
0.0
  0
LINE
  5
939
330
1F
100
AcDbEntity
  8
0
  6
Continuous
 62
     7
100
AcDbLine
 10
173.0679999999999
 20
-31.05132267515919
 30
0.0
 11
174.2632999999999
 21
-35.5130226751592
 31
0.0
  0
LINE
  5
93A
330
1F
100
AcDbEntity
  8
0
  6
Continuous
 62
     7
100
AcDbLine
 10
176.3339
 20
-27.78542267515919
 30
0.0
 11
173.0679999999999
 21
-31.05132267515919
 31
0.0
  0
LINE
  5
93B
330
1F
100
AcDbEntity
  8
0
  6
Continuous
 62
     7
100
AcDbLine
 10
181.9905999999999
 20
-33.4424226751592
 30
0.0
 11
178.7247999999999
 21
-36.70832267515921
 31
0.0
  0
LINE
  5
93C
330
1F
100
AcDbEntity
  8
0
  6
Continuous
 62
     7
100
AcDbLine
 10
181.9903
 20
75.0145773248408
 30
0.0
 11
180.7948
 21
70.55317732484079
 31
0.0
  0
LINE
  5
93D
330
1F
100
AcDbEntity
  8
0
  6
Continuous
 62
     7
100
AcDbLine
 10
174.2628999999999
 20
77.08517732484081
 30
0.0
 11
173.0674
 21
72.62367732484081
 31
0.0
  0
LINE
  5
93E
330
1F
100
AcDbEntity
  8
0
  6
Continuous
 62
     7
100
AcDbLine
 10
176.3334
 20
69.35787732484079
 30
0.0
 11
180.7948
 21
70.55317732484079
 31
0.0
  0
LINE
  5
93F
330
1F
100
AcDbEntity
  8
0
  6
Continuous
 62
     7
100
AcDbLine
 10
178.7244
 20
78.28047732484079
 30
0.0
 11
174.2628999999999
 21
77.08517732484081
 31
0.0
  0
LINE
  5
940
330
1F
100
AcDbEntity
  8
0
  6
Continuous
 62
     7
100
AcDbLine
 10
181.9903
 20
75.0145773248408
 30
0.0
 11
178.7244
 21
78.28047732484079
 31
0.0
  0
LINE
  5
941
330
1F
100
AcDbEntity
  8
0
  6
Continuous
 62
     7
100
AcDbLine
 10
176.3334
 20
69.35787732484079
 30
0.0
 11
173.0674
 21
72.62367732484081
 31
0.0
  0
LINE
  5
942
330
1F
100
AcDbEntity
  8
0
  6
Continuous
 62
     7
100
AcDbLine
 10
180.562
 20
-64.51352267515919
 30
0.0
 11
180.562
 21
-66.01352267515919
 31
0.0
  0
LINE
  5
943
330
1F
100
AcDbEntity
  8
0
  6
Continuous
 62
     7
100
AcDbLine
 10
180.562
 20
-66.01352267515919
 30
0.0
 11
140.562
 21
-66.01352267515919
 31
0.0
  0
LINE
  5
944
330
1F
100
AcDbEntity
  8
0
  6
Continuous
 62
     7
100
AcDbLine
 10
280.562
 20
-66.01352267515919
 30
0.0
 11
320.5618
 21
-66.01352267515919
 31
0.0
  0
LINE
  5
945
330
1F
100
AcDbEntity
  8
0
  6
Continuous
 62
     7
100
AcDbLine
 10
280.562
 20
-64.51352267515919
 30
0.0
 11
280.562
 21
-66.01352267515919
 31
0.0
  0
LINE
  5
946
330
1F
100
AcDbEntity
  8
0
  6
Continuous
 62
     7
100
AcDbLine
 10
201.4117999999998
 20
9.86537732484081
 30
0.0
 11
173.7721
 21
11.62517732484081
 31
0.0
  0
LINE
  5
947
330
1F
100
AcDbEntity
  8
0
  6
Continuous
 62
     7
100
AcDbLine
 10
181.2794
 20
10.14517732484079
 30
0.0
 11
175.0184999999999
 21
10.54387732484081
 31
0.0
  0
LINE
  5
948
330
1F
100
AcDbEntity
  8
0
  6
Continuous
 62
     7
100
AcDbLine
 10
200.7484
 20
8.9054773248408
 30
0.0
 11
194.0824
 21
9.3299773248408
 31
0.0
  0
LINE
  5
949
330
1F
100
AcDbEntity
  8
0
  6
Continuous
 62
     7
100
AcDbLine
 10
219.9206
 20
-28.49612267515919
 30
0.0
 11
220.3192
 21
-34.75712267515919
 31
0.0
  0
LINE
  5
94A
330
1F
100
AcDbEntity
  8
0
  6
Continuous
 62
     7
100
AcDbLine
 10
218.6811
 20
-9.026922675159195
 30
0.0
 11
219.1056
 21
-15.69292267515919
 31
0.0
  0
LINE
  5
94B
330
1F
100
AcDbEntity
  8
0
  6
Continuous
 62
     7
100
AcDbLine
 10
220.4416
 20
-27.59602267515919
 30
0.0
 11
219.7659999999999
 21
-16.9859226751592
 31
0.0
  0
LINE
  5
94C
330
1F
100
AcDbEntity
  8
0
  6
Continuous
 62
     7
100
AcDbLine
 10
219.6408
 20
-8.3636226751592
 30
0.0
 11
221.4008
 21
-36.00322267515918
 31
0.0
  0
LINE
  5
94D
330
1F
100
AcDbEntity
  8
0
  6
Continuous
 62
     7
100
AcDbLine
 10
190.9626
 20
72.66837732484079
 30
0.0
 11
190.9626
 21
91.23997732484079
 31
0.0
  0
LINE
  5
94E
330
1F
100
AcDbEntity
  8
0
  6
Continuous
 62
     7
100
AcDbLine
 10
178.6798
 20
60.38567732484079
 30
0.0
 11
160.1083
 21
60.38567732484079
 31
0.0
  0
LINE
  5
94F
330
1F
100
AcDbEntity
  8
0
  6
Continuous
 62
     7
100
AcDbLine
 10
201.4117999999998
 20
31.7074773248408
 30
0.0
 11
173.7721
 21
29.9476773248408
 31
0.0
  0
LINE
  5
950
330
1F
100
AcDbEntity
  8
0
  6
Continuous
 62
     7
100
AcDbLine
 10
181.2794
 20
31.42767732484081
 30
0.0
 11
175.0184999999999
 21
31.0289773248408
 31
0.0
  0
LINE
  5
951
330
1F
100
AcDbEntity
  8
0
  6
Continuous
 62
     7
100
AcDbLine
 10
200.7484
 20
32.6671773248408
 30
0.0
 11
194.0824
 21
32.2428773248408
 31
0.0
  0
LINE
  5
952
330
1F
100
AcDbEntity
  8
0
  6
Continuous
 62
     7
100
AcDbLine
 10
219.9206
 20
70.06877732484081
 30
0.0
 11
220.3192
 21
76.32997732484081
 31
0.0
  0
LINE
  5
953
330
1F
100
AcDbEntity
  8
0
  6
Continuous
 62
     7
100
AcDbLine
 10
218.6811
 20
50.59977732484079
 30
0.0
 11
219.1056
 21
57.26577732484078
 31
0.0
  0
LINE
  5
954
330
1F
100
AcDbEntity
  8
0
  6
Continuous
 62
     7
100
AcDbLine
 10
182.1793999999999
 20
30.9066773248408
 30
0.0
 11
192.7895
 21
31.5821773248408
 31
0.0
  0
LINE
  5
955
330
1F
100
AcDbEntity
  8
0
  6
Continuous
 62
     7
100
AcDbLine
 10
220.4416
 20
69.16887732484081
 30
0.0
 11
219.7659999999999
 21
58.5587773248408
 31
0.0
  0
LINE
  5
956
330
1F
100
AcDbEntity
  8
0
  6
Continuous
 62
     7
100
AcDbLine
 10
219.6408
 20
49.93647732484079
 30
0.0
 11
221.4008
 21
77.57607732484079
 31
0.0
  0
LINE
  5
957
330
1F
100
AcDbEntity
  8
0
  6
DASH_CENTER
 62
    30
100
AcDbLine
 10
171.9838
 20
79.36447732484079
 30
0.0
 11
183.1410999999999
 21
68.20697732484079
 31
0.0
  0
LINE
  5
958
330
1F
100
AcDbEntity
  8
0
  6
Continuous
 62
     7
100
AcDbLine
 10
241.4830999999999
 20
49.93647732484079
 30
0.0
 11
239.7231
 21
77.57607732484079
 31
0.0
  0
LINE
  5
959
330
1F
100
AcDbEntity
  8
0
  6
Continuous
 62
     7
100
AcDbLine
 10
240.6823
 20
69.16887732484081
 30
0.0
 11
241.3578
 21
58.5587773248408
 31
0.0
  0
LINE
  5
95A
330
1F
100
AcDbEntity
  8
0
  6
Continuous
 62
     7
100
AcDbLine
 10
278.9442999999999
 20
30.9066773248408
 30
0.0
 11
268.3342
 21
31.5821773248408
 31
0.0
  0
LINE
  5
95B
330
1F
100
AcDbEntity
  8
0
  6
Continuous
 62
     7
100
AcDbLine
 10
242.4428
 20
50.59977732484079
 30
0.0
 11
242.0182
 21
57.26577732484078
 31
0.0
  0
LINE
  5
95C
330
1F
100
AcDbEntity
  8
0
  6
Continuous
 62
     7
100
AcDbLine
 10
241.2033
 20
70.06877732484081
 30
0.0
 11
240.8046
 21
76.32997732484081
 31
0.0
  0
LINE
  5
95D
330
1F
100
AcDbEntity
  8
0
  6
Continuous
 62
     7
100
AcDbLine
 10
260.3752
 20
32.6671773248408
 30
0.0
 11
267.0412999999999
 21
32.2428773248408
 31
0.0
  0
LINE
  5
95E
330
1F
100
AcDbEntity
  8
0
  6
Continuous
 62
     7
100
AcDbLine
 10
279.8442
 20
31.42767732484081
 30
0.0
 11
286.1052
 21
31.0289773248408
 31
0.0
  0
LINE
  5
95F
330
1F
100
AcDbEntity
  8
0
  6
Continuous
 62
     7
100
AcDbLine
 10
259.7119
 20
31.7074773248408
 30
0.0
 11
287.3516
 21
29.9476773248408
 31
0.0
  0
LINE
  5
960
330
1F
100
AcDbEntity
  8
0
  6
Continuous
 62
     7
100
AcDbLine
 10
282.4438
 20
60.38567732484079
 30
0.0
 11
301.0153999999999
 21
60.38567732484079
 31
0.0
  0
LINE
  5
961
330
1F
100
AcDbEntity
  8
0
  6
Continuous
 62
     7
100
AcDbLine
 10
270.1610999999999
 20
72.66837732484079
 30
0.0
 11
270.1610999999999
 21
91.23997732484079
 31
0.0
  0
LINE
  5
962
330
1F
100
AcDbEntity
  8
0
  6
Continuous
 62
     7
100
AcDbLine
 10
241.4830999999999
 20
-8.3636226751592
 30
0.0
 11
239.7231
 21
-36.00322267515918
 31
0.0
  0
LINE
  5
963
330
1F
100
AcDbEntity
  8
0
  6
Continuous
 62
     7
100
AcDbLine
 10
240.6823
 20
-27.59602267515919
 30
0.0
 11
241.3578
 21
-16.9859226751592
 31
0.0
  0
LINE
  5
964
330
1F
100
AcDbEntity
  8
0
  6
Continuous
 62
     7
100
AcDbLine
 10
242.4428
 20
-9.026922675159195
 30
0.0
 11
242.0182
 21
-15.69292267515919
 31
0.0
  0
LINE
  5
965
330
1F
100
AcDbEntity
  8
0
  6
Continuous
 62
     7
100
AcDbLine
 10
241.2033
 20
-28.49612267515919
 30
0.0
 11
240.8046
 21
-34.75712267515919
 31
0.0
  0
LINE
  5
966
330
1F
100
AcDbEntity
  8
0
  6
Continuous
 62
     7
100
AcDbLine
 10
260.3752
 20
8.9054773248408
 30
0.0
 11
267.0412999999999
 21
9.3299773248408
 31
0.0
  0
LINE
  5
967
330
1F
100
AcDbEntity
  8
0
  6
Continuous
 62
     7
100
AcDbLine
 10
279.8442
 20
10.14517732484079
 30
0.0
 11
286.1052
 21
10.54387732484081
 31
0.0
  0
LINE
  5
968
330
1F
100
AcDbEntity
  8
0
  6
Continuous
 62
     7
100
AcDbLine
 10
259.7119
 20
9.86537732484081
 30
0.0
 11
287.3516
 21
11.62517732484081
 31
0.0
  0
LINE
  5
969
330
1F
100
AcDbEntity
  8
0
  6
Continuous
 62
     7
100
AcDbLine
 10
282.4438
 20
-18.8130226751592
 30
0.0
 11
301.0153999999999
 21
-18.8130226751592
 31
0.0
  0
LINE
  5
96A
330
1F
100
AcDbEntity
  8
0
  6
Continuous
 62
     7
100
AcDbLine
 10
270.1610999999999
 20
-31.09552267515919
 30
0.0
 11
270.1610999999999
 21
-49.66702267515922
 31
0.0
  0
LINE
  5
96B
330
1F
100
AcDbEntity
  8
0
  6
Continuous
 62
     7
100
AcDbLine
 10
278.9442999999999
 20
10.6661773248408
 30
0.0
 11
268.3342
 21
9.99037732484081
 31
0.0
  0
LINE
  5
96C
330
1F
100
AcDbEntity
  8
0
  6
Continuous
 62
     7
100
AcDbLine
 10
182.1793999999999
 20
10.6661773248408
 30
0.0
 11
192.7895
 21
9.99037732484081
 31
0.0
  0
LINE
  5
96D
330
1F
100
AcDbEntity
  8
0
  6
Continuous
 62
     7
100
AcDbLine
 10
178.6798
 20
-18.8130226751592
 30
0.0
 11
160.1083
 21
-18.8130226751592
 31
0.0
  0
LINE
  5
96E
330
1F
100
AcDbEntity
  8
0
  6
Continuous
 62
     7
100
AcDbLine
 10
190.9626
 20
-31.09552267515919
 30
0.0
 11
190.9626
 21
-49.66702267515922
 31
0.0
  0
LINE
  5
96F
330
1F
100
AcDbEntity
  8
0
  6
Continuous
 62
     7
100
AcDbLine
 10
140.562
 20
-69.21342267515919
 30
0.0
 11
140.562
 21
-64.51352267515919
 31
0.0
  0
LINE
  5
970
330
1F
100
AcDbEntity
  8
0
  6
Continuous
 62
     7
100
AcDbLine
 10
180.562
 20
-69.21342267515919
 30
0.0
 11
140.562
 21
-69.21342267515919
 31
0.0
  0
LINE
  5
971
330
1F
100
AcDbEntity
  8
0
  6
Continuous
 62
     7
100
AcDbLine
 10
180.562
 20
-67.71342267515919
 30
0.0
 11
180.562
 21
-69.21342267515919
 31
0.0
  0
LINE
  5
972
330
1F
100
AcDbEntity
  8
0
  6
Continuous
 62
     7
100
AcDbLine
 10
144.6625
 20
-63.7542226751592
 30
0.0
 11
161.0732999999999
 21
-43.0093226751592
 31
0.0
  0
LINE
  5
973
330
1F
100
AcDbEntity
  8
0
  6
Continuous
 62
     7
100
AcDbLine
 10
220.3098999999999
 20
-62.80402267515921
 30
0.0
 11
220.663
 21
-63.28622267515921
 31
0.0
  0
LINE
  5
974
330
1F
100
AcDbEntity
  8
0
  6
Continuous
 62
     7
100
AcDbLine
 10
240.8142
 20
-62.80402267515921
 30
0.0
 11
240.4611
 21
-63.28622267515921
 31
0.0
  0
LINE
  5
975
330
1F
100
AcDbEntity
  8
0
  6
Continuous
 62
     7
100
AcDbLine
 10
316.4614
 20
-63.7542226751592
 30
0.0
 11
300.0504999999999
 21
-43.0093226751592
 31
0.0
  0
LINE
  5
976
330
1F
100
AcDbEntity
  8
0
  6
Continuous
 62
     7
100
AcDbLine
 10
140.562
 20
-64.51352267515919
 30
0.0
 11
320.5618
 21
-64.51352267515919
 31
0.0
  0
LINE
  5
977
330
1F
100
AcDbEntity
  8
0
  6
Continuous
 62
     7
100
AcDbLine
 10
280.562
 20
-67.71342267515919
 30
0.0
 11
280.562
 21
-69.21342267515919
 31
0.0
  0
LINE
  5
978
330
1F
100
AcDbEntity
  8
0
  6
Continuous
 62
     7
100
AcDbLine
 10
280.562
 20
-69.21342267515919
 30
0.0
 11
320.5618
 21
-69.21342267515919
 31
0.0
  0
LINE
  5
979
330
1F
100
AcDbEntity
  8
0
  6
Continuous
 62
     7
100
AcDbLine
 10
280.562
 20
-67.71342267515919
 30
0.0
 11
180.5621
 21
-67.71342267515919
 31
0.0
  0
LINE
  5
97A
330
1F
100
AcDbEntity
  8
0
  6
Continuous
 62
     7
100
AcDbLine
 10
320.5618
 20
-69.21342267515919
 30
0.0
 11
320.5618
 21
-64.51352267515919
 31
0.0
  0
LINE
  5
97B
330
1F
100
AcDbEntity
  8
0
  6
Continuous
 62
     7
100
AcDbLine
 10
302.4437999999999
 20
64.2482773248408
 30
0.0
 11
301.7593
 21
63.83437732484082
 31
0.0
  0
LINE
  5
97C
330
1F
100
AcDbEntity
  8
0
  6
DASH_CENTER
 62
    30
100
AcDbLine
 10
158.7776
 20
-54.9439226751592
 30
0.0
 11
147.3841
 21
-45.9307226751592
 31
0.0
  0
LINE
  5
97D
330
1F
100
AcDbEntity
  8
0
  6
Continuous
 62
     7
100
AcDbLine
 10
156.7000999999999
 20
-46.92512267515922
 30
0.0
 11
150.4957
 21
-54.76792267515921
 31
0.0
  0
LINE
  5
97E
330
1F
100
AcDbEntity
  8
0
  6
Continuous
 62
     7
100
AcDbLine
 10
155.9159
 20
-46.3047226751592
 30
0.0
 11
149.7114999999999
 21
-54.14752267515918
 31
0.0
  0
LINE
  5
97F
330
1F
100
AcDbEntity
  8
0
  6
Continuous
 62
     7
100
AcDbLine
 10
151.2799
 20
-55.38822267515921
 30
0.0
 11
149.7114999999999
 21
-54.14752267515918
 31
0.0
  0
LINE
  5
980
330
1F
100
AcDbEntity
  8
0
  6
Continuous
 62
     7
100
AcDbLine
 10
157.4841999999998
 20
-47.54542267515922
 30
0.0
 11
155.9159
 21
-46.30502267515916
 31
0.0
  0
LINE
  5
981
330
1F
100
AcDbEntity
  8
0
  6
Continuous
 62
     7
100
AcDbLine
 10
150.0217
 20
-53.75542267515921
 30
0.0
 11
148.6788999999999
 21
-52.48762267515921
 31
0.0
  0
LINE
  5
982
330
1F
100
AcDbEntity
  8
0
  6
Continuous
 62
     7
100
AcDbLine
 10
155.6055
 20
-46.6968226751592
 30
0.0
 11
154.0629
 21
-45.68172267515921
 31
0.0
  0
LINE
  5
983
330
1F
100
AcDbEntity
  8
0
  6
Continuous
 62
     7
100
AcDbLine
 10
148.5222
 20
-50.33162267515921
 30
0.0
 11
151.9285999999999
 21
-46.02542267515921
 31
0.0
  0
LINE
  5
984
330
1F
100
AcDbEntity
  8
0
  6
DASH_CENTER
 62
    30
100
AcDbLine
 10
111.7039484627319
 20
20.7862773248408
 30
0.0
 11
327.3859999999999
 21
20.7862773248408
 31
0.0
  0
LINE
  5
985
330
1F
100
AcDbEntity
  8
0
  6
Continuous
 62
     7
100
AcDbLine
 10
116.493
 20
-44.90306873736003
 30
0.0
 11
116.493
 21
-21.19811310901884
 31
0.0
  0
LINE
  5
986
330
1F
100
AcDbEntity
  8
0
  6
Continuous
 62
     7
100
AcDbLine
 10
113.4929999999999
 20
-44.90306873736003
 30
0.0
 11
113.4929999999999
 21
-21.19811310901884
 31
0.0
  0
LINE
  5
987
330
1F
100
AcDbEntity
  8
0
  6
Continuous
 62
     7
100
AcDbLine
 10
113.4929999999999
 20
-44.90306873736003
 30
0.0
 11
116.493
 21
-44.90306873736003
 31
0.0
  0
LINE
  5
988
330
1F
100
AcDbEntity
  8
0
  6
Continuous
 62
     7
100
AcDbLine
 10
113.4929999999999
 20
-44.90306873736003
 30
0.0
 11
116.493
 21
-44.90306873736003
 31
0.0
  0
LINE
  5
989
330
1F
100
AcDbEntity
  8
0
  6
DASH_CENTER
 62
    30
100
AcDbLine
 10
114.9931
 20
-61.79424053093483
 30
0.0
 11
114.9931
 21
-51.31238583558896
 31
0.0
  0
LINE
  5
98A
330
1F
100
AcDbEntity
  8
0
  6
DASH_CENTER
 62
    30
100
AcDbLine
 10
109.365456776093
 20
-56.00286873735997
 30
0.0
 11
120.931641267509
 21
-56.00286873735997
 31
0.0
  0
LINE
  5
98B
330
1F
100
AcDbEntity
  8
0
  6
Continuous
 62
     7
100
AcDbLine
 10
117.0429
 20
-44.90306873736003
 30
0.0
 11
112.9431
 21
-44.90306873736003
 31
0.0
  0
LINE
  5
98C
330
1F
100
AcDbEntity
  8
0
  6
Continuous
 62
     7
100
AcDbLine
 10
112.9431
 20
-49.70306873735997
 30
0.0
 11
117.0429
 21
-49.70306873735997
 31
0.0
  0
LINE
  5
98D
330
1F
100
AcDbEntity
  8
0
  6
Continuous
 62
     7
100
AcDbLine
 10
117.0429
 20
-44.90306873736003
 30
0.0
 11
117.0429
 21
-49.70306873735997
 31
0.0
  0
LINE
  5
98E
330
1F
100
AcDbEntity
  8
0
  6
Continuous
 62
     7
100
AcDbLine
 10
112.9431
 20
-44.90306873736003
 30
0.0
 11
112.9431
 21
-49.70306873735997
 31
0.0
  0
LINE
  5
98F
330
1F
100
AcDbEntity
  8
0
  6
Continuous
 62
     7
100
AcDbLine
 10
117.0429
 20
-49.70306873735997
 30
0.0
 11
118.2225999999999
 21
-55.32536873735997
 31
0.0
  0
LINE
  5
990
330
1F
100
AcDbEntity
  8
0
  6
Continuous
 62
     7
100
AcDbLine
 10
112.9431
 20
-49.70306873735997
 30
0.0
 11
111.763399999999
 21
-55.32536873735997
 31
0.0
  0
POINT
  5
991
330
1F
100
AcDbEntity
  8
0
 62
     2
100
AcDbPoint
 10
229.3896
 20
103.9862773248408
 30
0.0
  0
POINT
  5
992
330
1F
100
AcDbEntity
  8
0
 62
     2
100
AcDbPoint
 10
121.9679999999998
 20
20.7862773248408
 30
0.0
  0
POINT
  5
993
330
1F
100
AcDbEntity
  8
0
 62
     2
100
AcDbPoint
 10
313.7617
 20
21.9587773248408
 30
0.0
  0
POINT
  5
994
330
1F
100
AcDbEntity
  8
0
 62
     2
100
AcDbPoint
 10
147.3619999999999
 20
21.9587773248408
 30
0.0
  0
CIRCLE
  5
997
330
1F
100
AcDbEntity
  8
0
  6
Continuous
 62
     7
100
AcDbCircle
 10
-157.7004999999998
 20
-51.46732267515921
 30
0.0
 40
4.5
  0
CIRCLE
  5
998
330
1F
100
AcDbEntity
  8
0
  6
Continuous
 62
     7
100
AcDbCircle
 10
-157.7004999999998
 20
-51.46732267515921
 30
0.0
 40
4.999999999999987
  0
ARC
  5
999
330
1F
100
AcDbEntity
  8
0
  6
Continuous
 62
     7
100
AcDbCircle
 10
-52.35100000000002
 20
10.93597732484081
 30
0.0
 40
0.3499999999999908
100
AcDbArc
 50
90.0
 51
180.0
  0
ARC
  5
99A
330
1F
100
AcDbEntity
  8
0
  6
Continuous
 62
     7
100
AcDbCircle
 10
-60.40082772914296
 20
-36.86594547991122
 30
0.0
 40
6.800361409818605
100
AcDbArc
 50
160.1464186482507
 51
174.405724389402
  0
ARC
  5
99B
330
1F
100
AcDbEntity
  8
0
  6
Continuous
 62
     7
100
AcDbCircle
 10
-60.40079999999997
 20
-32.24692267515919
 30
0.0
 40
6.800345785325919
100
AcDbArc
 50
160.1474711770429
 51
199.852528822957
  0
ARC
  5
99C
330
1F
100
AcDbEntity
  8
0
  6
Continuous
 62
     7
100
AcDbCircle
 10
-60.40081907952137
 20
-27.62793817207182
 30
0.0
 40
6.800356537527662
100
AcDbArc
 50
185.5931088082675
 51
199.8532530749715
  0
ARC
  5
99D
330
1F
100
AcDbEntity
  8
0
  6
Continuous
 62
     7
100
AcDbCircle
 10
-70.00137227085705
 20
-36.8659454799112
 30
0.0
 40
6.800361409818607
100
AcDbArc
 50
5.594275610597589
 51
19.85358135174889
  0
ARC
  5
99E
330
1F
100
AcDbEntity
  8
0
  6
Continuous
 62
     7
100
AcDbCircle
 10
-70.0014
 20
-32.24692267515919
 30
0.0
 40
6.800345785325914
100
AcDbArc
 50
340.1474711770428
 51
19.85252882295703
  0
ARC
  5
99F
330
1F
100
AcDbEntity
  8
0
  6
Continuous
 62
     7
100
AcDbCircle
 10
-70.00138092047862
 20
-27.62793817207185
 30
0.0
 40
6.80035653752766
100
AcDbArc
 50
340.1467469250283
 51
354.4068911917324
  0
ARC
  5
9A0
330
1F
100
AcDbEntity
  8
0
  6
Continuous
 62
     7
100
AcDbCircle
 10
-52.35100000000002
 20
30.6356773248408
 30
0.0
 40
0.3500000000000014
100
AcDbArc
 50
180.0
 51
270.0
  0
ARC
  5
9A1
330
1F
100
AcDbEntity
  8
0
  6
Continuous
 62
    30
100
AcDbCircle
 10
-241.198459712745
 20
3.004362850309608
 30
0.0
 40
1.500157669435921
100
AcDbArc
 50
220.2398764942945
 51
280.2351094431262
  0
ARC
  5
9A2
330
1F
100
AcDbEntity
  8
0
  6
Continuous
 62
    30
100
AcDbCircle
 10
-220.2020014553125
 20
3.004576801802388
 30
0.0
 40
1.500160531409079
100
AcDbArc
 50
259.767284259501
 51
319.7695240614076
  0
ARC
  5
9A3
330
1F
100
AcDbEntity
  8
0
  6
Continuous
 62
    30
100
AcDbCircle
 10
-243.4889570132474
 20
1.066597807288097
 30
0.0
 40
1.50016655619633
100
AcDbArc
 50
40.23928866928481
 51
100.2382800837422
  0
ARC
  5
9A4
330
1F
100
AcDbEntity
  8
0
  6
Continuous
 62
    30
100
AcDbCircle
 10
-219.3235267003064
 20
0.5593036705690402
 30
0.0
 40
1.500122357987183
100
AcDbArc
 50
79.76980943501458
 51
139.7695824869858
  0
ARC
  5
9A5
330
1F
100
AcDbEntity
  8
0
  6
Continuous
 62
    30
100
AcDbCircle
 10
-242.6101315555274
 20
3.511688661406586
 30
0.0
 40
1.500195836841244
100
AcDbArc
 50
220.2399343003902
 51
280.2376344526348
  0
ARC
  5
9A6
330
1F
100
AcDbEntity
  8
0
  6
Continuous
 62
    30
100
AcDbCircle
 10
-218.7903847403394
 20
3.511682809541379
 30
0.0
 40
1.500151650579719
100
AcDbArc
 50
259.7704553587635
 51
319.7689365632371
  0
ARC
  5
9A7
330
1F
100
AcDbEntity
  8
0
  6
Continuous
 62
     7
100
AcDbCircle
 10
-285.9366117341726
 20
438.0582683490334
 30
0.0
 40
500.0000138778989
100
AcDbArc
 50
266.7512976930952
 51
270.600082456667
  0
ARC
  5
9A8
330
1F
100
AcDbEntity
  8
0
  6
Continuous
 62
     7
100
AcDbCircle
 10
-328.5005232622676
 20
95.99015505352905
 30
0.0
 40
6.19999817531929
100
AcDbArc
 50
92.07767501950462
 51
175.4288410694331
  0
ARC
  5
9A9
330
1F
100
AcDbEntity
  8
0
  6
Continuous
 62
     7
100
AcDbCircle
 10
-285.9379003135395
 20
-396.4856434856427
 30
0.0
 40
499.9999592604823
100
AcDbArc
 50
89.39974688977862
 51
93.24853180895869
  0
ARC
  5
9AA
330
1F
100
AcDbEntity
  8
0
  6
Continuous
 62
     7
100
AcDbCircle
 10
-328.5005232622676
 20
-54.41800040384745
 30
0.0
 40
6.199998175319302
100
AcDbArc
 50
184.5711589305667
 51
267.9223249804953
  0
ARC
  5
9AB
330
1F
100
AcDbEntity
  8
0
  6
Continuous
 62
     7
100
AcDbCircle
 10
612.2981
 20
20.78607732484079
 30
0.0
 40
950.0000064540055
100
AcDbArc
 50
180.0
 51
184.567504128836
  0
ARC
  5
9AC
330
1F
100
AcDbEntity
  8
0
  6
Continuous
 62
     7
100
AcDbCircle
 10
-268.4462961564233
 20
105.1864808467326
 30
0.0
 40
1.599996478112628
100
AcDbArc
 50
90.00013763825247
 51
174.9982890533573
  0
ARC
  5
9AD
330
1F
100
AcDbEntity
  8
0
  6
Continuous
 62
     7
100
AcDbCircle
 10
-262.9560494844215
 20
105.1864310371175
 30
0.0
 40
1.600046288488439
100
AcDbArc
 50
5.003345287451168
 51
89.99822802094135
  0
ARC
  5
9AE
330
1F
100
AcDbEntity
  8
0
  6
Continuous
 62
     7
100
AcDbCircle
 10
-265.7009499999999
 20
19.37177732484078
 30
0.0
 40
0.4999598508880708
100
AcDbArc
 50
44.99594825122119
 51
135.0040517487742
  0
ARC
  5
9AF
330
1F
100
AcDbEntity
  8
0
  6
Continuous
 62
     7
100
AcDbCircle
 10
-264.2865670548343
 20
20.78599775236416
 30
0.0
 40
0.5000329514970474
100
AcDbArc
 50
179.9908822666935
 51
224.9908834685383
  0
ARC
  5
9B0
330
1F
100
AcDbEntity
  8
0
  6
Continuous
 62
     7
100
AcDbCircle
 10
-267.1151976049216
 20
20.78608310572607
 30
0.0
 40
0.4999976049551239
100
AcDbArc
 50
314.9912346253275
 51
359.9993375561712
  0
ARC
  5
9B1
330
1F
100
AcDbEntity
  8
0
  6
Continuous
 62
     7
100
AcDbCircle
 10
-265.7008999999999
 20
20.78607732484079
 30
0.0
 40
4.5
100
AcDbArc
 50
180.0
 51
0.0
  0
ARC
  5
9B2
330
1F
100
AcDbEntity
  8
0
  6
Continuous
 62
     7
100
AcDbCircle
 10
-66.20110000000003
 20
-19.81332267515919
 30
0.0
 40
1.0
100
AcDbArc
 50
90.0
 51
180.0
  0
ARC
  5
9B3
330
1F
100
AcDbEntity
  8
0
  6
Continuous
 62
     7
100
AcDbCircle
 10
-66.20110000000003
 20
-50.4666226751592
 30
0.0
 40
1.0
100
AcDbArc
 50
180.0
 51
270.0
  0
ARC
  5
9B4
330
1F
100
AcDbEntity
  8
0
  6
Continuous
 62
     7
100
AcDbCircle
 10
-61.70109997750675
 20
-17.8133226526592
 30
0.0
 40
1.000000022499994
100
AcDbArc
 50
269.9999987112315
 51
0.0171874445700617
  0
ARC
  5
9B5
330
1F
100
AcDbEntity
  8
0
  6
Continuous
 62
     7
100
AcDbCircle
 10
-62.70109999999997
 20
-52.46662267515922
 30
0.0
 40
1.0
100
AcDbArc
 50
0.0
 51
90.0
  0
ARC
  5
9B6
330
1F
100
AcDbEntity
  8
0
  6
Continuous
 62
     7
100
AcDbCircle
 10
-1006.700047374996
 20
20.78464171045716
 30
0.0
 40
950.000047375676
100
AcDbArc
 50
356.2198039712602
 51
0.0000684904294857
  0
ARC
  5
9B7
330
1F
100
AcDbEntity
  8
0
  6
Continuous
 62
     7
100
AcDbCircle
 10
-60.76336496348202
 20
-41.71406671434467
 30
0.0
 40
2.000042570957131
100
AcDbArc
 50
299.6909815705244
 51
356.2084598033735
  0
ARC
  5
9B8
330
1F
100
AcDbEntity
  8
0
  6
Continuous
 62
     7
100
AcDbCircle
 10
-63.59736055400329
 20
-59.34428266543552
 30
0.0
 40
2.000020162859179
100
AcDbArc
 50
274.0846120621319
 51
356.7283850097922
  0
ARC
  5
9B9
330
1F
100
AcDbEntity
  8
0
  6
Continuous
 62
     7
100
AcDbCircle
 10
-58.78219759739133
 20
-45.18901879865121
 30
0.0
 40
1.999959602086794
100
AcDbArc
 50
119.6902737102492
 51
176.7295451593009
  0
ARC
  5
9BA
330
1F
100
AcDbEntity
  8
0
  6
Continuous
 62
     7
100
AcDbCircle
 10
-187.4247723249528
 20
-50.21370385593669
 30
0.0
 40
5.000018820852566
100
AcDbArc
 50
269.9985369572372
 51
338.4334065360233
  0
ARC
  5
9BB
330
1F
100
AcDbEntity
  8
0
  6
Continuous
 62
     7
100
AcDbCircle
 10
-170.900414000321
 20
-49.21373219563054
 30
0.0
 40
10.00000952048114
100
AcDbArc
 50
89.99991978414495
 51
158.4328999935421
  0
ARC
  5
9BC
330
1F
100
AcDbEntity
  8
0
  6
Continuous
 62
     7
100
AcDbCircle
 10
-190.4206246170678
 20
-60.51373941476533
 30
0.0
 40
3.999983261104201
100
AcDbArc
 50
269.9989202145153
 51
338.4324840503584
  0
ARC
  5
9BD
330
1F
100
AcDbEntity
  8
0
  6
Continuous
 62
     7
100
AcDbCircle
 10
-220.6569913527864
 20
-62.51371637896641
 30
0.0
 40
2.000006296211477
100
AcDbArc
 50
269.999752276357
 51
342.1183292548851
  0
ARC
  5
9BE
330
1F
100
AcDbEntity
  8
0
  6
Continuous
 62
     7
100
AcDbCircle
 10
-211.8315280432438
 20
-61.21374309542599
 30
0.0
 40
6.000020420698293
100
AcDbArc
 50
90.00068713406824
 51
162.1213287744553
  0
ARC
  5
9BF
330
1F
100
AcDbEntity
  8
0
  6
Continuous
 62
     7
100
AcDbCircle
 10
-127.9763592966246
 20
-50.21375035432972
 30
0.0
 40
4.999972321181092
100
AcDbArc
 50
201.5662311286118
 51
270.0006794930296
  0
ARC
  5
9C0
330
1F
100
AcDbEntity
  8
0
  6
Continuous
 62
     7
100
AcDbCircle
 10
-103.5696719567561
 20
-61.21374309542602
 30
0.0
 40
6.000020420698298
100
AcDbArc
 50
17.87867122554482
 51
89.99931286593172
  0
ARC
  5
9C1
330
1F
100
AcDbEntity
  8
0
  6
Continuous
 62
     7
100
AcDbCircle
 10
-94.74420864721356
 20
-62.51371637896641
 30
0.0
 40
2.000006296211489
100
AcDbArc
 50
197.8816707451145
 51
270.0002477236428
  0
ARC
  5
9C2
330
1F
100
AcDbEntity
  8
0
  6
Continuous
 62
     7
100
AcDbCircle
 10
-124.980575382932
 20
-60.51373941476533
 30
0.0
 40
3.999983261104198
100
AcDbArc
 50
201.5675159496415
 51
270.001079785483
  0
ARC
  5
9C3
330
1F
100
AcDbEntity
  8
0
  6
Continuous
 62
     7
100
AcDbCircle
 10
-144.5007859996788
 20
-49.21373219563054
 30
0.0
 40
10.00000952048114
100
AcDbArc
 50
21.56710000645785
 51
90.00008021585506
  0
ARC
  5
9C4
330
1F
100
AcDbEntity
  8
0
  6
Continuous
 62
     7
100
AcDbCircle
 10
-205.2004870646179
 20
-53.3129946034449
 30
0.0
 40
2.499987064775474
100
AcDbArc
 50
310.5203577916158
 51
359.9993566403698
  0
ARC
  5
9C5
330
1F
100
AcDbEntity
  8
0
  6
Continuous
 62
     7
100
AcDbCircle
 10
-227.8006076118875
 20
-18.31331594071205
 30
0.0
 40
2.900006734457137
100
AcDbArc
 50
186.9996977918996
 51
270.0001503889704
  0
ARC
  5
9C6
330
1F
100
AcDbEntity
  8
0
  6
Continuous
 62
     7
100
AcDbCircle
 10
-205.6006923881124
 20
-18.31331594071205
 30
0.0
 40
2.900006734457131
100
AcDbArc
 50
269.9998496110294
 51
353.0003022081002
  0
ARC
  5
9C7
330
1F
100
AcDbEntity
  8
0
  6
Continuous
 62
     7
100
AcDbCircle
 10
-228.4505016702218
 20
-31.76322133960567
 30
0.0
 40
2.250001335554136
100
AcDbArc
 50
192.706449767705
 51
270.0000425318257
  0
ARC
  5
9C8
330
1F
100
AcDbEntity
  8
0
  6
Continuous
 62
     7
100
AcDbCircle
 10
-204.9504983297779
 20
-31.76322133960567
 30
0.0
 40
2.250001335554149
100
AcDbArc
 50
269.9999574681741
 51
347.2935502322947
  0
ARC
  5
9C9
330
1F
100
AcDbEntity
  8
0
  6
Continuous
 62
     7
100
AcDbCircle
 10
-229.1007096023772
 20
-43.01321579712139
 30
0.0
 40
1.600006878066612
100
AcDbArc
 50
198.7727490951404
 51
270.0003438583261
  0
ARC
  5
9CA
330
1F
100
AcDbEntity
  8
0
  6
Continuous
 62
     7
100
AcDbCircle
 10
-204.3005903976226
 20
-43.01321579712139
 30
0.0
 40
1.600006878066624
100
AcDbArc
 50
269.9996561416738
 51
341.2272509048595
  0
ARC
  5
9CB
330
1F
100
AcDbEntity
  8
0
  6
Continuous
 62
     7
100
AcDbCircle
 10
-228.7005339864768
 20
-49.81301182329564
 30
0.0
 40
2.000010852152338
100
AcDbArc
 50
234.5825175587099
 51
270.000973635558
  0
ARC
  5
9CC
330
1F
100
AcDbEntity
  8
0
  6
Continuous
 62
     7
100
AcDbCircle
 10
-204.7004660135231
 20
-49.81301182329564
 30
0.0
 40
2.000010852152346
100
AcDbArc
 50
269.9990263644418
 51
305.4174824412901
  0
ARC
  5
9CD
330
1F
100
AcDbEntity
  8
0
  6
Continuous
 62
     7
100
AcDbCircle
 10
-228.2005
 20
-53.3130226751592
 30
0.0
 40
2.5
100
AcDbArc
 50
180.0
 51
270.0
  0
ARC
  5
9CE
330
1F
100
AcDbEntity
  8
0
  6
Continuous
 62
     7
100
AcDbCircle
 10
-205.2005
 20
-53.3130226751592
 30
0.0
 40
2.5
100
AcDbArc
 50
0.0
 51
90.0
  0
ARC
  5
9CF
330
1F
100
AcDbEntity
  8
0
  6
Continuous
 62
     7
100
AcDbCircle
 10
-228.2005
 20
-53.3130226751592
 30
0.0
 40
2.5
100
AcDbArc
 50
90.0
 51
180.0
  0
ARC
  5
9D0
330
1F
100
AcDbEntity
  8
0
  6
Continuous
 62
     7
100
AcDbCircle
 10
-227.9007
 20
-44.21322267515921
 30
0.0
 40
2.800000000000011
100
AcDbArc
 50
180.0
 51
270.0
  0
ARC
  5
9D1
330
1F
100
AcDbEntity
  8
0
  6
Continuous
 62
     7
100
AcDbCircle
 10
-205.5006
 20
-44.21322267515921
 30
0.0
 40
2.799999999999997
100
AcDbArc
 50
270.0
 51
0.0
  0
ARC
  5
9D2
330
1F
100
AcDbEntity
  8
0
  6
Continuous
 62
     7
100
AcDbCircle
 10
-205.5006
 20
-44.21322267515921
 30
0.0
 40
2.799999999999982
100
AcDbArc
 50
0.0
 51
90.0
  0
ARC
  5
9D3
330
1F
100
AcDbEntity
  8
0
  6
Continuous
 62
     7
100
AcDbCircle
 10
-227.9007
 20
-44.21322267515921
 30
0.0
 40
2.800000000000004
100
AcDbArc
 50
90.0
 51
180.0
  0
ARC
  5
9D4
330
1F
100
AcDbEntity
  8
0
  6
Continuous
 62
     7
100
AcDbCircle
 10
-206.0506
 20
-32.86312267515919
 30
0.0
 40
3.35
100
AcDbArc
 50
270.0
 51
0.0
  0
ARC
  5
9D5
330
1F
100
AcDbEntity
  8
0
  6
Continuous
 62
     7
100
AcDbCircle
 10
-227.3506999999999
 20
-32.86312267515919
 30
0.0
 40
3.350000000000023
100
AcDbArc
 50
180.0
 51
270.0
  0
ARC
  5
9D6
330
1F
100
AcDbEntity
  8
0
  6
Continuous
 62
     7
100
AcDbCircle
 10
-227.3506999999999
 20
-32.86312267515919
 30
0.0
 40
3.349999999999998
100
AcDbArc
 50
90.0
 51
180.0
  0
ARC
  5
9D7
330
1F
100
AcDbEntity
  8
0
  6
Continuous
 62
     7
100
AcDbCircle
 10
-88.95069832977814
 20
-31.76322133960567
 30
0.0
 40
2.25000133555414
100
AcDbArc
 50
269.9999574681741
 51
347.2935502322951
  0
ARC
  5
9D8
330
1F
100
AcDbEntity
  8
0
  6
Continuous
 62
     7
100
AcDbCircle
 10
-90.05080000000003
 20
-32.86312267515919
 30
0.0
 40
3.35
100
AcDbArc
 50
270.0
 51
0.0
  0
ARC
  5
9D9
330
1F
100
AcDbEntity
  8
0
  6
Continuous
 62
     7
100
AcDbCircle
 10
-112.7007339864767
 20
-49.81301182329564
 30
0.0
 40
2.000010852152354
100
AcDbArc
 50
234.582517558708
 51
270.000973635558
  0
ARC
  5
9DA
330
1F
100
AcDbEntity
  8
0
  6
Continuous
 62
     7
100
AcDbCircle
 10
-112.4507016702217
 20
-31.76322133960567
 30
0.0
 40
2.250001335554149
100
AcDbArc
 50
192.7064497677048
 51
270.0000425318257
  0
ARC
  5
9DB
330
1F
100
AcDbEntity
  8
0
  6
Continuous
 62
     7
100
AcDbCircle
 10
-206.1007
 20
-3.813322675159198
 30
0.0
 40
3.399999999999999
100
AcDbArc
 50
270.0
 51
0.0
  0
ARC
  5
9DC
330
1F
100
AcDbEntity
  8
0
  6
Continuous
 62
     7
100
AcDbCircle
 10
-206.0506
 20
-32.86312267515919
 30
0.0
 40
3.349999999999993
100
AcDbArc
 50
0.0
 51
90.0
  0
ARC
  5
9DD
330
1F
100
AcDbEntity
  8
0
  6
Continuous
 62
     7
100
AcDbCircle
 10
-111.3509
 20
-32.86312267515919
 30
0.0
 40
3.350000000000008
100
AcDbArc
 50
180.0
 51
270.0
  0
ARC
  5
9DE
330
1F
100
AcDbEntity
  8
0
  6
Continuous
 62
     7
100
AcDbCircle
 10
-206.6006999999999
 20
-4.313322675159201
 30
0.0
 40
3.899999999999998
100
AcDbArc
 50
270.0
 51
0.0
  0
ARC
  5
9DF
330
1F
100
AcDbEntity
  8
0
  6
Continuous
 62
     7
100
AcDbCircle
 10
-226.8006
 20
-4.313322675159201
 30
0.0
 40
3.900000000000006
100
AcDbArc
 50
180.0
 51
270.0
  0
ARC
  5
9E0
330
1F
100
AcDbEntity
  8
0
  6
Continuous
 62
     7
100
AcDbCircle
 10
-227.0506
 20
-19.06332267515919
 30
0.0
 40
3.649999999999999
100
AcDbArc
 50
90.0
 51
180.0
  0
ARC
  5
9E1
330
1F
100
AcDbEntity
  8
0
  6
Continuous
 62
     7
100
AcDbCircle
 10
-206.3506999999999
 20
-19.06332267515919
 30
0.0
 40
3.649999999999976
100
AcDbArc
 50
0.0
 51
90.0
  0
ARC
  5
9E2
330
1F
100
AcDbEntity
  8
0
  6
Continuous
 62
     7
100
AcDbCircle
 10
-206.3506999999999
 20
-19.06332267515919
 30
0.0
 40
3.650000000000001
100
AcDbArc
 50
270.0
 51
0.0
  0
ARC
  5
9E3
330
1F
100
AcDbEntity
  8
0
  6
Continuous
 62
     7
100
AcDbCircle
 10
-227.0506
 20
-19.06332267515919
 30
0.0
 40
3.650000000000006
100
AcDbArc
 50
180.0
 51
270.0
  0
ARC
  5
9E4
330
1F
100
AcDbEntity
  8
0
  6
Continuous
 62
     7
100
AcDbCircle
 10
-89.50079999999998
 20
-44.21322267515921
 30
0.0
 40
2.799999999999997
100
AcDbArc
 50
270.0
 51
0.0
  0
ARC
  5
9E5
330
1F
100
AcDbEntity
  8
0
  6
Continuous
 62
     7
100
AcDbCircle
 10
-88.30079039762281
 20
-43.0132157971214
 30
0.0
 40
1.600006878066617
100
AcDbArc
 50
269.9996561416754
 51
341.2272509048597
  0
ARC
  5
9E6
330
1F
100
AcDbEntity
  8
0
  6
Continuous
 62
     7
100
AcDbCircle
 10
-112.2006999999999
 20
-53.3130226751592
 30
0.0
 40
2.5
100
AcDbArc
 50
90.0
 51
180.0
  0
ARC
  5
9E7
330
1F
100
AcDbEntity
  8
0
  6
Continuous
 62
     7
100
AcDbCircle
 10
-88.70066601352316
 20
-49.81301182329564
 30
0.0
 40
2.000010852152346
100
AcDbArc
 50
269.9990263644418
 51
305.417482441292
  0
ARC
  5
9E8
330
1F
100
AcDbEntity
  8
0
  6
Continuous
 62
     7
100
AcDbCircle
 10
-113.100909602377
 20
-43.0130157971214
 30
0.0
 40
1.600006878066612
100
AcDbArc
 50
198.7727490951404
 51
270.0003438583244
  0
ARC
  5
9E9
330
1F
100
AcDbEntity
  8
0
  6
Continuous
 62
     7
100
AcDbCircle
 10
-110.8007999999999
 20
-4.313322675159201
 30
0.0
 40
3.900000000000006
100
AcDbArc
 50
90.0
 51
180.0
  0
ARC
  5
9EA
330
1F
100
AcDbEntity
  8
0
  6
Continuous
 62
     7
100
AcDbCircle
 10
-90.60089999935895
 20
-4.313322675800208
 30
0.0
 40
3.900000000641021
100
AcDbArc
 50
0.001469131968837
 51
90.0000000094173
  0
ARC
  5
9EB
330
1F
100
AcDbEntity
  8
0
  6
Continuous
 62
     7
100
AcDbCircle
 10
-111.3007999999999
 20
-3.813322675159198
 30
0.0
 40
3.400000000000006
100
AcDbArc
 50
180.0
 51
270.0
  0
ARC
  5
9EC
330
1F
100
AcDbEntity
  8
0
  6
Continuous
 62
     7
100
AcDbCircle
 10
-90.10089999999999
 20
-3.813322675159198
 30
0.0
 40
3.399999999999999
100
AcDbArc
 50
270.0
 51
0.0
  0
ARC
  5
9ED
330
1F
100
AcDbEntity
  8
0
  6
Continuous
 62
     7
100
AcDbCircle
 10
-111.0508
 20
-19.06332267515919
 30
0.0
 40
3.649999999999999
100
AcDbArc
 50
90.0
 51
180.0
  0
ARC
  5
9EE
330
1F
100
AcDbEntity
  8
0
  6
Continuous
 62
     7
100
AcDbCircle
 10
-206.6006999999999
 20
-4.313322675159201
 30
0.0
 40
3.899999999999976
100
AcDbArc
 50
0.0
 51
90.0
  0
ARC
  5
9EF
330
1F
100
AcDbEntity
  8
0
  6
Continuous
 62
     7
100
AcDbCircle
 10
-90.3509
 20
-19.06332267515919
 30
0.0
 40
3.649999999999991
100
AcDbArc
 50
0.0
 51
90.0
  0
ARC
  5
9F0
330
1F
100
AcDbEntity
  8
0
  6
Continuous
 62
     7
100
AcDbCircle
 10
-89.60089238811248
 20
-18.31331594071205
 30
0.0
 40
2.900006734457131
100
AcDbArc
 50
269.9998496110294
 51
353.0003022081002
  0
ARC
  5
9F1
330
1F
100
AcDbEntity
  8
0
  6
Continuous
 62
     7
100
AcDbCircle
 10
-111.8008076118874
 20
-18.31331594071205
 30
0.0
 40
2.900006734457123
100
AcDbArc
 50
186.9996977918996
 51
270.0001503889704
  0
ARC
  5
9F2
330
1F
100
AcDbEntity
  8
0
  6
Continuous
 62
     7
100
AcDbCircle
 10
-90.05080000000003
 20
-32.86312267515919
 30
0.0
 40
3.349999999999993
100
AcDbArc
 50
0.0
 51
90.0
  0
ARC
  5
9F3
330
1F
100
AcDbEntity
  8
0
  6
Continuous
 62
     7
100
AcDbCircle
 10
-111.0508
 20
-19.06302267515919
 30
0.0
 40
3.650000000000006
100
AcDbArc
 50
180.0
 51
270.0
  0
ARC
  5
9F4
330
1F
100
AcDbEntity
  8
0
  6
Continuous
 62
     7
100
AcDbCircle
 10
-110.8007999999999
 20
-4.313322675159201
 30
0.0
 40
3.900000000000006
100
AcDbArc
 50
180.0
 51
270.0
  0
ARC
  5
9F5
330
1F
100
AcDbEntity
  8
0
  6
Continuous
 62
     7
100
AcDbCircle
 10
-90.6009
 20
-4.313322675159201
 30
0.0
 40
3.899999999999998
100
AcDbArc
 50
270.0
 51
0.0
  0
ARC
  5
9F6
330
1F
100
AcDbEntity
  8
0
  6
Continuous
 62
     7
100
AcDbCircle
 10
-226.8006000006411
 20
-4.313322675800228
 30
0.0
 40
3.900000000641037
100
AcDbArc
 50
89.99999999058269
 51
179.9985308680308
  0
ARC
  5
9F7
330
1F
100
AcDbEntity
  8
0
  6
Continuous
 62
     7
100
AcDbCircle
 10
-90.3509
 20
-19.06302267515919
 30
0.0
 40
3.649999999999999
100
AcDbArc
 50
270.0
 51
0.0
  0
ARC
  5
9F8
330
1F
100
AcDbEntity
  8
0
  6
Continuous
 62
     7
100
AcDbCircle
 10
-89.2007
 20
-53.3130226751592
 30
0.0
 40
2.5
100
AcDbArc
 50
270.0
 51
0.0
  0
ARC
  5
9F9
330
1F
100
AcDbEntity
  8
0
  6
Continuous
 62
     7
100
AcDbCircle
 10
-111.9008999999999
 20
-44.21322267515921
 30
0.0
 40
2.800000000000004
100
AcDbArc
 50
90.0
 51
180.0
  0
ARC
  5
9FA
330
1F
100
AcDbEntity
  8
0
  6
Continuous
 62
     7
100
AcDbCircle
 10
-89.50079999999998
 20
-44.21322267515921
 30
0.0
 40
2.799999999999997
100
AcDbArc
 50
0.0
 51
90.0
  0
ARC
  5
9FB
330
1F
100
AcDbEntity
  8
0
  6
Continuous
 62
     7
100
AcDbCircle
 10
-89.2007
 20
-53.3130226751592
 30
0.0
 40
2.5
100
AcDbArc
 50
0.0
 51
90.0
  0
ARC
  5
9FC
330
1F
100
AcDbEntity
  8
0
  6
Continuous
 62
     7
100
AcDbCircle
 10
-227.3006
 20
-3.813322675159198
 30
0.0
 40
3.400000000000006
100
AcDbArc
 50
180.0
 51
270.0
  0
ARC
  5
9FD
330
1F
100
AcDbEntity
  8
0
  6
Continuous
 62
     7
100
AcDbCircle
 10
-111.3509
 20
-32.86312267515919
 30
0.0
 40
3.349999999999998
100
AcDbArc
 50
90.0
 51
180.0
  0
ARC
  5
9FE
330
1F
100
AcDbEntity
  8
0
  6
Continuous
 62
     7
100
AcDbCircle
 10
-112.200712935382
 20
-53.3129946034449
 30
0.0
 40
2.49998706477546
100
AcDbArc
 50
180.0006433596299
 51
229.479642208384
  0
ARC
  5
9FF
330
1F
100
AcDbEntity
  8
0
  6
Continuous
 62
     7
100
AcDbCircle
 10
-111.9008999999999
 20
-44.21322267515921
 30
0.0
 40
2.800000000000011
100
AcDbArc
 50
180.0
 51
270.0
  0
ARC
  5
A00
330
1F
100
AcDbEntity
  8
0
  6
Continuous
 62
     7
100
AcDbCircle
 10
-157.70055
 20
-52.88162267515921
 30
0.0
 40
0.4999598508880557
100
AcDbArc
 50
44.99594825122348
 51
135.0040517487741
  0
ARC
  5
A01
330
1F
100
AcDbEntity
  8
0
  6
Continuous
 62
     7
100
AcDbCircle
 10
-156.2863
 20
-51.4673726751592
 30
0.0
 40
0.5000305615659899
100
AcDbArc
 50
135.004051175806
 51
224.9959488241939
  0
ARC
  5
A02
330
1F
100
AcDbEntity
  8
0
  6
Continuous
 62
     7
100
AcDbCircle
 10
-157.70055
 20
-50.05332267515921
 30
0.0
 40
0.4999598508880354
100
AcDbArc
 50
224.9959482512258
 51
315.0040517487763
  0
ARC
  5
A03
330
1F
100
AcDbEntity
  8
0
  6
Continuous
 62
     7
100
AcDbCircle
 10
-159.1147
 20
-51.4673726751592
 30
0.0
 40
0.4999598508880505
100
AcDbArc
 50
314.9959482512253
 51
45.0040517487745
  0
ARC
  5
A04
330
1F
100
AcDbEntity
  8
0
  6
Continuous
 62
     7
100
AcDbCircle
 10
-60.40082772914296
 20
78.43810012959285
 30
0.0
 40
6.800361409818607
100
AcDbArc
 50
185.5942756105979
 51
199.8535813517491
  0
ARC
  5
A05
330
1F
100
AcDbEntity
  8
0
  6
Continuous
 62
     7
100
AcDbCircle
 10
-60.40079999999997
 20
73.81907732484082
 30
0.0
 40
6.800345785325914
100
AcDbArc
 50
160.1474711770429
 51
199.8525288229572
  0
ARC
  5
A06
330
1F
100
AcDbEntity
  8
0
  6
Continuous
 62
     7
100
AcDbCircle
 10
-60.40081907952137
 20
69.20009282175342
 30
0.0
 40
6.800356537527661
100
AcDbArc
 50
160.146746925028
 51
174.4068911917324
  0
ARC
  5
A07
330
1F
100
AcDbEntity
  8
0
  6
Continuous
 62
     7
100
AcDbCircle
 10
-70.00137227085705
 20
78.43810012959281
 30
0.0
 40
6.800361409818607
100
AcDbArc
 50
340.1464186482511
 51
354.4057243894024
  0
ARC
  5
A08
330
1F
100
AcDbEntity
  8
0
  6
Continuous
 62
     7
100
AcDbCircle
 10
-70.0014
 20
73.81907732484082
 30
0.0
 40
6.800345785325924
100
AcDbArc
 50
340.1474711770426
 51
19.85252882295703
  0
ARC
  5
A09
330
1F
100
AcDbEntity
  8
0
  6
Continuous
 62
     7
100
AcDbCircle
 10
-70.00138092047862
 20
69.20009282175346
 30
0.0
 40
6.800356537527657
100
AcDbArc
 50
5.59310880826732
 51
19.85325307497144
  0
ARC
  5
A0A
330
1F
100
AcDbEntity
  8
0
  6
Continuous
 62
     7
100
AcDbCircle
 10
-66.20110000000003
 20
61.38547732484081
 30
0.0
 40
1.0
100
AcDbArc
 50
180.0
 51
270.0
  0
ARC
  5
A0B
330
1F
100
AcDbEntity
  8
0
  6
Continuous
 62
     7
100
AcDbCircle
 10
-66.20110000000003
 20
92.03877732484079
 30
0.0
 40
1.0
100
AcDbArc
 50
90.0
 51
180.0
  0
ARC
  5
A0C
330
1F
100
AcDbEntity
  8
0
  6
Continuous
 62
     7
100
AcDbCircle
 10
-61.70109997750675
 20
59.38547730234081
 30
0.0
 40
1.000000022499994
100
AcDbArc
 50
359.9828125554292
 51
90.00000128876848
  0
ARC
  5
A0D
330
1F
100
AcDbEntity
  8
0
  6
Continuous
 62
     7
100
AcDbCircle
 10
-62.70109999999997
 20
94.0387773248408
 30
0.0
 40
1.0
100
AcDbArc
 50
270.0
 51
0.0
  0
ARC
  5
A0E
330
1F
100
AcDbEntity
  8
0
  6
Continuous
 62
     7
100
AcDbCircle
 10
-1006.700047374996
 20
20.78751293922445
 30
0.0
 40
950.000047375676
100
AcDbArc
 50
359.9999315095704
 51
3.780196028739752
  0
ARC
  5
A0F
330
1F
100
AcDbEntity
  8
0
  6
Continuous
 62
     7
100
AcDbCircle
 10
-60.76336496348208
 20
83.2862213640263
 30
0.0
 40
2.000042570957138
100
AcDbArc
 50
3.791540196626646
 51
60.30901842947545
  0
ARC
  5
A10
330
1F
100
AcDbEntity
  8
0
  6
Continuous
 62
     7
100
AcDbCircle
 10
-63.59736055400329
 20
100.9164373151171
 30
0.0
 40
2.000020162859172
100
AcDbArc
 50
3.271614990207808
 51
85.91538793786799
  0
ARC
  5
A11
330
1F
100
AcDbEntity
  8
0
  6
Continuous
 62
     7
100
AcDbCircle
 10
-58.78219759739133
 20
86.76117344833285
 30
0.0
 40
1.999959602086788
100
AcDbArc
 50
183.2704548406995
 51
240.3097262897508
  0
ARC
  5
A12
330
1F
100
AcDbEntity
  8
0
  6
Continuous
 62
     7
100
AcDbCircle
 10
-265.7009499999999
 20
22.20037732484082
 30
0.0
 40
0.499959850888038
100
AcDbArc
 50
224.9959482512276
 51
315.0040517487768
  0
ARC
  5
A13
330
1F
100
AcDbEntity
  8
0
  6
Continuous
 62
     7
100
AcDbCircle
 10
-264.2865670548343
 20
20.78615689731746
 30
0.0
 40
0.5000329514970349
100
AcDbArc
 50
135.0091165314615
 51
180.0091177333085
  0
ARC
  5
A14
330
1F
100
AcDbEntity
  8
0
  6
Continuous
 62
     7
100
AcDbCircle
 10
-267.1151976049216
 20
20.78607154395555
 30
0.0
 40
0.4999976049551214
100
AcDbArc
 50
0.0006624438269523
 51
45.00876537467236
  0
ARC
  5
A15
330
1F
100
AcDbEntity
  8
0
  6
Continuous
 62
     7
100
AcDbCircle
 10
-265.7008999999999
 20
20.78607732484079
 30
0.0
 40
4.5
100
AcDbArc
 50
0.0
 51
180.0
  0
ARC
  5
A16
330
1F
100
AcDbEntity
  8
0
  6
Continuous
 62
     7
100
AcDbCircle
 10
-229.2008
 20
25.55583480632055
 30
0.0
 40
1.5
100
AcDbArc
 50
0.0
 51
180.0
  0
ARC
  5
A17
330
1F
100
AcDbEntity
  8
0
  6
Continuous
 62
     7
100
AcDbCircle
 10
-232.2007999999999
 20
25.55583480632055
 30
0.0
 40
1.5
100
AcDbArc
 50
0.0
 51
180.0
  0
ARC
  5
A18
330
1F
100
AcDbEntity
  8
0
  6
Continuous
 62
     7
100
AcDbCircle
 10
-226.2007999999999
 20
22.7860773248408
 30
0.0
 40
1.5
100
AcDbArc
 50
0.0
 51
180.0
  0
ARC
  5
A19
330
1F
100
AcDbEntity
  8
0
  6
Continuous
 62
     7
100
AcDbCircle
 10
-235.2008
 20
22.7860773248408
 30
0.0
 40
1.5
100
AcDbArc
 50
0.0
 51
180.0
  0
ARC
  5
A1A
330
1F
100
AcDbEntity
  8
0
  6
Continuous
 62
     7
100
AcDbCircle
 10
-230.701
 20
20.78607732484079
 30
0.0
 40
6.499999999999965
100
AcDbArc
 50
359.9975471473321
 51
180.0098107169869
  0
ARC
  5
A1B
330
1F
100
AcDbEntity
  8
0
  6
Continuous
 62
     7
100
AcDbCircle
 10
-230.7007999999999
 20
20.78607732484079
 30
0.0
 40
10.99999382954375
100
AcDbArc
 50
233.7763892351361
 51
236.9442479326314
  0
ARC
  5
A1C
330
1F
100
AcDbEntity
  8
0
  6
Continuous
 62
     7
100
AcDbCircle
 10
-230.7007999999999
 20
20.78607732484079
 30
0.0
 40
10.99999382954373
100
AcDbArc
 50
303.0557520673686
 51
306.2247700968592
  0
ARC
  5
A1D
330
1F
100
AcDbEntity
  8
0
  6
Continuous
 62
     7
100
AcDbCircle
 10
-230.7007999999999
 20
20.78607732484079
 30
0.0
 40
10.99999382954372
100
AcDbArc
 50
323.5500722575151
 51
216.4508334202061
  0
ARC
  5
A1E
330
1F
100
AcDbEntity
  8
0
  6
Continuous
 62
    30
100
AcDbCircle
 10
-232.9508
 20
0.1016039466802105
 30
0.0
 40
1.500000000000025
100
AcDbArc
 50
60.00000000000006
 51
119.9999999999999
  0
ARC
  5
A1F
330
1F
100
AcDbEntity
  8
0
  6
Continuous
 62
    30
100
AcDbCircle
 10
-231.4508
 20
2.699680158033589
 30
0.0
 40
1.500000000000024
100
AcDbArc
 50
239.9999999999999
 51
299.9999999999999
  0
ARC
  5
A20
330
1F
100
AcDbEntity
  8
0
  6
Continuous
 62
    30
100
AcDbCircle
 10
-232.9508
 20
2.699680158033589
 30
0.0
 40
1.500000000000024
100
AcDbArc
 50
239.9999999999999
 51
299.9999999999999
  0
ARC
  5
A21
330
1F
100
AcDbEntity
  8
0
  6
Continuous
 62
    30
100
AcDbCircle
 10
-235.9507999999999
 20
0.1016039466802105
 30
0.0
 40
1.500000000000025
100
AcDbArc
 50
60.00000000000006
 51
119.9999999999999
  0
ARC
  5
A22
330
1F
100
AcDbEntity
  8
0
  6
Continuous
 62
    30
100
AcDbCircle
 10
-234.4507999999999
 20
2.699680158033589
 30
0.0
 40
1.500000000000024
100
AcDbArc
 50
239.9999999999999
 51
299.9999999999999
  0
ARC
  5
A23
330
1F
100
AcDbEntity
  8
0
  6
Continuous
 62
    30
100
AcDbCircle
 10
-235.9507999999999
 20
2.699680158033589
 30
0.0
 40
1.500000000000024
100
AcDbArc
 50
239.9999999999999
 51
299.9999999999999
  0
ARC
  5
A24
330
1F
100
AcDbEntity
  8
0
  6
Continuous
 62
    30
100
AcDbCircle
 10
-229.9507999999999
 20
0.1016039466802105
 30
0.0
 40
1.500000000000025
100
AcDbArc
 50
60.00000000000006
 51
119.9999999999999
  0
ARC
  5
A25
330
1F
100
AcDbEntity
  8
0
  6
Continuous
 62
    30
100
AcDbCircle
 10
-228.4507999999999
 20
2.699680158033589
 30
0.0
 40
1.500000000000024
100
AcDbArc
 50
239.9999999999999
 51
299.9999999999999
  0
ARC
  5
A26
330
1F
100
AcDbEntity
  8
0
  6
Continuous
 62
    30
100
AcDbCircle
 10
-229.9507999999999
 20
2.699680158033589
 30
0.0
 40
1.500000000000024
100
AcDbArc
 50
239.9999999999999
 51
299.9999999999999
  0
ARC
  5
A27
330
1F
100
AcDbEntity
  8
0
  6
Continuous
 62
    30
100
AcDbCircle
 10
-229.9507999999999
 20
0.1016039466802105
 30
0.0
 40
1.500000000000025
100
AcDbArc
 50
60.00000000000006
 51
119.9999999999999
  0
ARC
  5
A28
330
1F
100
AcDbEntity
  8
0
  6
Continuous
 62
    30
100
AcDbCircle
 10
-228.4507999999999
 20
2.699680158033589
 30
0.0
 40
1.500000000000024
100
AcDbArc
 50
239.9999999999999
 51
299.9999999999999
  0
ARC
  5
A29
330
1F
100
AcDbEntity
  8
0
  6
Continuous
 62
    30
100
AcDbCircle
 10
-229.9507999999999
 20
2.699680158033589
 30
0.0
 40
1.500000000000024
100
AcDbArc
 50
239.9999999999999
 51
299.9999999999999
  0
ARC
  5
A2A
330
1F
100
AcDbEntity
  8
0
  6
Continuous
 62
    30
100
AcDbCircle
 10
-226.9508
 20
0.1016039466802105
 30
0.0
 40
1.500000000000025
100
AcDbArc
 50
60.00000000000006
 51
119.9999999999999
  0
ARC
  5
A2B
330
1F
100
AcDbEntity
  8
0
  6
Continuous
 62
    30
100
AcDbCircle
 10
-225.4507999999999
 20
2.699680158033589
 30
0.0
 40
1.500000000000024
100
AcDbArc
 50
239.9999999999999
 51
299.9999999999999
  0
ARC
  5
A2C
330
1F
100
AcDbEntity
  8
0
  6
Continuous
 62
    30
100
AcDbCircle
 10
-226.9508
 20
2.699680158033589
 30
0.0
 40
1.500000000000024
100
AcDbArc
 50
239.9999999999999
 51
299.9999999999999
  0
ARC
  5
A2D
330
1F
100
AcDbEntity
  8
0
  6
Continuous
 62
     7
100
AcDbCircle
 10
612.2980999602947
 20
20.78607632983423
 30
0.0
 40
950.0000064143003
100
AcDbArc
 50
175.429694493563
 51
179.9999999399898
  0
LINE
  5
A2E
330
1F
100
AcDbEntity
  8
0
  6
Continuous
 62
     7
100
AcDbLine
 10
-13.7055
 20
11.2859773248408
 30
0.0
 11
-12.7055
 21
12.2859773248408
 31
0.0
  0
LINE
  5
A2F
330
1F
100
AcDbEntity
  8
0
  6
Continuous
 62
     7
100
AcDbLine
 10
-52.35100000000002
 20
11.2859773248408
 30
0.0
 11
-13.7055
 21
11.2859773248408
 31
0.0
  0
LINE
  5
A30
330
1F
100
AcDbEntity
  8
0
  6
Continuous
 62
     7
100
AcDbLine
 10
-12.7055
 20
29.28437732484081
 30
0.0
 11
-12.7055
 21
12.2859773248408
 31
0.0
  0
LINE
  5
A31
330
1F
100
AcDbEntity
  8
0
  6
Continuous
 62
     7
100
AcDbLine
 10
-122.7005
 20
-66.01352267515919
 30
0.0
 11
-92.70050000000001
 21
-66.01352267515919
 31
0.0
  0
LINE
  5
A32
330
1F
100
AcDbEntity
  8
0
  6
Continuous
 62
     7
100
AcDbLine
 10
-92.70050000000001
 20
-69.2137226751592
 30
0.0
 11
-122.7005
 21
-69.2137226751592
 31
0.0
  0
LINE
  5
A33
330
1F
100
AcDbEntity
  8
0
  6
Continuous
 62
     7
100
AcDbLine
 10
-92.70050000000001
 20
-64.5137226751592
 30
0.0
 11
-222.7006999999999
 21
-64.5137226751592
 31
0.0
  0
LINE
  5
A34
330
1F
100
AcDbEntity
  8
0
  6
DASH_CENTER
 62
    30
100
AcDbLine
 10
-107.7004999999999
 20
-60.32232267515921
 30
0.0
 11
-107.7004999999999
 21
-73.89582267515921
 31
0.0
  0
LINE
  5
A35
330
1F
100
AcDbEntity
  8
0
  6
Continuous
 62
     7
100
AcDbLine
 10
-52.70089999999996
 20
30.6859773248408
 30
0.0
 11
-52.70089999999996
 21
10.8861773248408
 31
0.0
  0
LINE
  5
A36
330
1F
100
AcDbEntity
  8
0
  6
Continuous
 62
     7
100
AcDbLine
 10
-12.7055
 20
32.7858773248408
 30
0.0
 11
-12.7055
 21
29.28437732484081
 31
0.0
  0
LINE
  5
A37
330
1F
100
AcDbEntity
  8
0
  6
Continuous
 62
     7
100
AcDbLine
 10
-44.7055
 20
32.7858773248408
 30
0.0
 11
-44.7055
 21
30.2858773248408
 31
0.0
  0
LINE
  5
A38
330
1F
100
AcDbEntity
  8
0
  6
Continuous
 62
     7
100
AcDbLine
 10
-63.20109999999997
 20
-34.74692267515919
 30
0.0
 11
-59.70099999999999
 21
-34.74692267515919
 31
0.0
  0
LINE
  5
A39
330
1F
100
AcDbEntity
  8
0
  6
Continuous
 62
    30
100
AcDbLine
 10
-63.20109999999997
 20
-34.24692267515919
 30
0.0
 11
-59.20099999999999
 21
-34.24692267515919
 31
0.0
  0
LINE
  5
A3A
330
1F
100
AcDbEntity
  8
0
  6
Continuous
 62
     7
100
AcDbLine
 10
-59.70099999999999
 20
-34.74692267515919
 30
0.0
 11
-59.20099999999999
 21
-34.24692267515919
 31
0.0
  0
LINE
  5
A3B
330
1F
100
AcDbEntity
  8
0
  6
Continuous
 62
     7
100
AcDbLine
 10
-59.70099999999999
 20
-29.74692267515919
 30
0.0
 11
-59.20099999999999
 21
-30.24692267515919
 31
0.0
  0
LINE
  5
A3C
330
1F
100
AcDbEntity
  8
0
  6
Continuous
 62
     7
100
AcDbLine
 10
-59.70099999999999
 20
-34.74692267515919
 30
0.0
 11
-59.70099999999999
 21
-29.74692267515919
 31
0.0
  0
LINE
  5
A3D
330
1F
100
AcDbEntity
  8
0
  6
Continuous
 62
     7
100
AcDbLine
 10
-59.20099999999999
 20
-34.24692267515919
 30
0.0
 11
-59.20099999999999
 21
-30.24692267515919
 31
0.0
  0
LINE
  5
A3E
330
1F
100
AcDbEntity
  8
0
  6
Continuous
 62
    30
100
AcDbLine
 10
-63.20109999999997
 20
-30.24692267515919
 30
0.0
 11
-59.20099999999999
 21
-30.24692267515919
 31
0.0
  0
LINE
  5
A3F
330
1F
100
AcDbEntity
  8
0
  6
Continuous
 62
     7
100
AcDbLine
 10
-59.70099999999999
 20
-29.74692267515919
 30
0.0
 11
-63.20109999999997
 21
-29.74692267515919
 31
0.0
  0
LINE
  5
A40
330
1F
100
AcDbEntity
  8
0
  6
Continuous
 62
     7
100
AcDbLine
 10
-66.79710000000003
 20
-29.93762267515919
 30
0.0
 11
-63.60520000000001
 21
-29.93762267515919
 31
0.0
  0
LINE
  5
A41
330
1F
100
AcDbEntity
  8
0
  6
Continuous
 62
     7
100
AcDbLine
 10
-66.79710000000003
 20
-34.5562226751592
 30
0.0
 11
-63.60520000000001
 21
-34.5562226751592
 31
0.0
  0
LINE
  5
A42
330
1F
100
AcDbEntity
  8
0
  6
Continuous
 62
     7
100
AcDbLine
 10
-63.60520000000001
 20
-36.84702267515921
 30
0.0
 11
-66.79710000000003
 21
-36.84702267515921
 31
0.0
  0
LINE
  5
A43
330
1F
100
AcDbEntity
  8
0
  6
Continuous
 62
     7
100
AcDbLine
 10
-66.79710000000003
 20
-27.64682267515919
 30
0.0
 11
-63.60520000000001
 21
-27.64682267515919
 31
0.0
  0
LINE
  5
A44
330
1F
100
AcDbEntity
  8
0
  6
Continuous
 62
     7
100
AcDbLine
 10
-67.20110000000002
 20
-28.34702267515919
 30
0.0
 11
-66.79710000000003
 21
-27.64682267515919
 31
0.0
  0
LINE
  5
A45
330
1F
100
AcDbEntity
  8
0
  6
Continuous
 62
     7
100
AcDbLine
 10
-67.20110000000002
 20
-36.1468226751592
 30
0.0
 11
-66.79710000000003
 21
-36.84702267515921
 31
0.0
  0
LINE
  5
A46
330
1F
100
AcDbEntity
  8
0
  6
Continuous
 62
     7
100
AcDbLine
 10
-63.20109999999997
 20
-36.1468226751592
 30
0.0
 11
-63.60520000000001
 21
-36.84702267515921
 31
0.0
  0
LINE
  5
A47
330
1F
100
AcDbEntity
  8
0
  6
Continuous
 62
     7
100
AcDbLine
 10
-63.20109999999997
 20
-28.34702267515919
 30
0.0
 11
-63.60520000000001
 21
-27.64682267515919
 31
0.0
  0
LINE
  5
A48
330
1F
100
AcDbEntity
  8
0
  6
Continuous
 62
     7
100
AcDbLine
 10
-63.20109999999997
 20
-28.34702267515919
 30
0.0
 11
-63.20109999999997
 21
-36.1468226751592
 31
0.0
  0
LINE
  5
A49
330
1F
100
AcDbEntity
  8
0
  6
Continuous
 62
     7
100
AcDbLine
 10
-12.7055
 20
32.7858773248408
 30
0.0
 11
-44.7055
 21
32.7858773248408
 31
0.0
  0
LINE
  5
A4A
330
1F
100
AcDbEntity
  8
0
  6
Continuous
 62
     7
100
AcDbLine
 10
-220.4689
 20
1.528477324840809
 30
0.0
 11
-224.2003043962224
 21
11.9123283338411
 31
0.0
  0
LINE
  5
A4B
330
1F
100
AcDbEntity
  8
0
  6
Continuous
 62
     7
100
AcDbLine
 10
-314.2772999999999
 20
102.7103773248406
 30
0.0
 11
-328.7252999999998
 21
102.1861773248408
 31
0.0
  0
LINE
  5
A4C
330
1F
100
AcDbEntity
  8
0
  6
Continuous
 62
     7
100
AcDbLine
 10
-260.7008999999999
 20
103.4862773248407
 30
0.0
 11
-280.7008999999999
 21
103.4862773248407
 31
0.0
  0
LINE
  5
A4D
330
1F
100
AcDbEntity
  8
0
  6
Continuous
 62
     7
100
AcDbLine
 10
-314.2772999999999
 20
-61.13802267515921
 30
0.0
 11
-328.7252999999998
 21
-60.6138226751592
 31
0.0
  0
LINE
  5
A4E
330
1F
100
AcDbEntity
  8
0
  6
Continuous
 62
     7
100
AcDbLine
 10
-260.7008999999999
 20
-61.9138226751592
 30
0.0
 11
-280.7008999999999
 21
-61.9138226751592
 31
0.0
  0
LINE
  5
A4F
330
1F
100
AcDbEntity
  8
0
  6
Continuous
 62
     7
100
AcDbLine
 10
-268.4462999999999
 20
106.7862773248408
 30
0.0
 11
-262.9560999999999
 21
106.7862773248408
 31
0.0
  0
LINE
  5
A50
330
1F
100
AcDbEntity
  8
0
  6
Continuous
 62
     7
100
AcDbLine
 10
-261.2011999999999
 20
103.4864773248406
 30
0.0
 11
-261.3620999999999
 21
105.3260773248408
 31
0.0
  0
LINE
  5
A51
330
1F
100
AcDbEntity
  8
0
  6
Continuous
 62
     7
100
AcDbLine
 10
-270.2011999999999
 20
103.4864773248406
 30
0.0
 11
-270.0399999999999
 21
105.3260773248408
 31
0.0
  0
LINE
  5
A52
330
1F
100
AcDbEntity
  8
0
  6
Continuous
 62
     7
100
AcDbLine
 10
-264.3574
 20
18.7355773248408
 30
0.0
 11
-265.3474
 21
19.72527732484079
 31
0.0
  0
LINE
  5
A53
330
1F
100
AcDbEntity
  8
0
  6
Continuous
 62
     7
100
AcDbLine
 10
-263.6503999999999
 20
19.4425773248408
 30
0.0
 11
-264.6403999999999
 21
20.4325773248408
 31
0.0
  0
LINE
  5
A54
330
1F
100
AcDbEntity
  8
0
  6
Continuous
 62
     7
100
AcDbLine
 10
-266.0543999999999
 20
19.72527732484079
 30
0.0
 11
-267.0443999999999
 21
18.7355773248408
 31
0.0
  0
LINE
  5
A55
330
1F
100
AcDbEntity
  8
0
  6
Continuous
 62
     7
100
AcDbLine
 10
-266.7617
 20
20.4325773248408
 30
0.0
 11
-267.7514999999999
 21
19.4425773248408
 31
0.0
  0
LINE
  5
A56
330
1F
100
AcDbEntity
  8
0
  6
Continuous
 62
     7
100
AcDbLine
 10
-267.0443999999999
 20
18.7355773248408
 30
0.0
 11
-267.7514999999999
 21
19.4425773248408
 31
0.0
  0
LINE
  5
A57
330
1F
100
AcDbEntity
  8
0
  6
Continuous
 62
     7
100
AcDbLine
 10
-263.6503999999999
 20
19.4425773248408
 30
0.0
 11
-264.3574
 21
18.7355773248408
 31
0.0
  0
LINE
  5
A58
330
1F
100
AcDbEntity
  8
0
  6
Continuous
 62
     7
100
AcDbLine
 10
-61.70110000000001
 20
-59.9803226751592
 30
0.0
 11
-61.70110000000001
 21
-52.46662267515922
 31
0.0
  0
LINE
  5
A59
330
1F
100
AcDbEntity
  8
0
  6
Continuous
 62
     7
100
AcDbLine
 10
-61.70110000000001
 20
-18.81332267515919
 30
0.0
 11
-61.70110000000001
 21
20.78607732484079
 31
0.0
  0
LINE
  5
A5A
330
1F
100
AcDbEntity
  8
0
  6
Continuous
 62
     7
100
AcDbLine
 10
-61.73569999999998
 20
-52.2058226751592
 30
0.0
 11
-60.91760000000002
 21
-34.74692267515919
 31
0.0
  0
LINE
  5
A5B
330
1F
100
AcDbEntity
  8
0
  6
Continuous
 62
     7
100
AcDbLine
 10
-60.70109999999997
 20
-44.6255226751592
 30
0.0
 11
-60.70109999999997
 21
-34.74692267515919
 31
0.0
  0
LINE
  5
A5C
330
1F
100
AcDbEntity
  8
0
  6
Continuous
 62
     7
100
AcDbLine
 10
-60.70109999999997
 20
-17.81302267515919
 30
0.0
 11
-60.70129999999998
 21
20.78607732484079
 31
0.0
  0
LINE
  5
A5D
330
1F
100
AcDbEntity
  8
0
  6
Continuous
 62
     7
100
AcDbLine
 10
-66.20110000000003
 20
-51.46662267515921
 30
0.0
 11
-62.70109999999997
 21
-51.46662267515921
 31
0.0
  0
LINE
  5
A5E
330
1F
100
AcDbEntity
  8
0
  6
Continuous
 62
     7
100
AcDbLine
 10
-67.20110000000002
 20
-50.4666226751592
 30
0.0
 11
-67.20110000000002
 21
-19.81332267515919
 31
0.0
  0
LINE
  5
A5F
330
1F
100
AcDbEntity
  8
0
  6
Continuous
 62
     7
100
AcDbLine
 10
-56.75199999999998
 20
10.8861773248408
 30
0.0
 11
-52.70099999999999
 21
10.8861773248408
 31
0.0
  0
LINE
  5
A60
330
1F
100
AcDbEntity
  8
0
  6
Continuous
 62
     7
100
AcDbLine
 10
-61.70110000000001
 20
-18.81332267515919
 30
0.0
 11
-66.20110000000003
 21
-18.81332267515919
 31
0.0
  0
LINE
  5
A61
330
1F
100
AcDbEntity
  8
0
  6
Continuous
 62
     7
100
AcDbLine
 10
-74.96420000000004
 20
-62.16142267515921
 30
0.0
 11
-75.70090000000002
 21
-61.9639226751592
 31
0.0
  0
LINE
  5
A62
330
1F
100
AcDbEntity
  8
0
  6
Continuous
 62
     7
100
AcDbLine
 10
-61.60080000000002
 20
-59.4585226751592
 30
0.0
 11
-60.77869999999998
 21
-45.0750226751592
 31
0.0
  0
LINE
  5
A63
330
1F
100
AcDbEntity
  8
0
  6
Continuous
 62
     7
100
AcDbLine
 10
-74.96420000000004
 20
-62.16142267515921
 30
0.0
 11
-63.45500000000001
 21
-61.33912267515921
 31
0.0
  0
LINE
  5
A64
330
1F
100
AcDbEntity
  8
0
  6
Continuous
 62
     7
100
AcDbLine
 10
-52.35100000000002
 20
30.2860773248408
 30
0.0
 11
-13.70089999999999
 21
30.2860773248408
 31
0.0
  0
LINE
  5
A65
330
1F
100
AcDbEntity
  8
0
  6
Continuous
 62
     7
100
AcDbLine
 10
-12.70089999999999
 20
29.2860773248408
 30
0.0
 11
-13.70089999999999
 21
30.2860773248408
 31
0.0
  0
LINE
  5
A66
330
1F
100
AcDbEntity
  8
0
  6
Continuous
 62
     7
100
AcDbLine
 10
-13.7023
 20
11.28607732484079
 30
0.0
 11
-13.70089999999999
 21
30.2860773248408
 31
0.0
  0
LINE
  5
A73
330
1F
100
AcDbEntity
  8
0
  6
DASH_CENTER
 62
    30
100
AcDbLine
 10
-149.571
 20
-51.4671226751592
 30
0.0
 11
-165.614
 21
-51.4671226751592
 31
0.0
  0
LINE
  5
A74
330
1F
100
AcDbEntity
  8
0
  6
Continuous
 62
     7
100
AcDbLine
 10
-192.7007
 20
-66.01352267515919
 30
0.0
 11
-222.7006999999999
 21
-66.01352267515919
 31
0.0
  0
LINE
  5
A75
330
1F
100
AcDbEntity
  8
0
  6
Continuous
 62
     7
100
AcDbLine
 10
-222.7006999999999
 20
-69.2137226751592
 30
0.0
 11
-192.7007
 21
-69.2137226751592
 31
0.0
  0
LINE
  5
A76
330
1F
100
AcDbEntity
  8
0
  6
Continuous
 62
     7
100
AcDbLine
 10
-187.4248
 20
-55.2137226751592
 30
0.0
 11
-211.8314999999999
 21
-55.2137226751592
 31
0.0
  0
LINE
  5
A77
330
1F
100
AcDbEntity
  8
0
  6
Continuous
 62
     7
100
AcDbLine
 10
-192.7007
 20
-66.01352267515919
 30
0.0
 11
-192.7007
 21
-64.5137226751592
 31
0.0
  0
LINE
  5
A78
330
1F
100
AcDbEntity
  8
0
  6
Continuous
 62
     7
100
AcDbLine
 10
-222.7006999999999
 20
-64.5137226751592
 30
0.0
 11
-222.7006999999999
 21
-69.2137226751592
 31
0.0
  0
LINE
  5
A79
330
1F
100
AcDbEntity
  8
0
  6
Continuous
 62
     7
100
AcDbLine
 10
-192.7007
 20
-67.7137226751592
 30
0.0
 11
-192.7007
 21
-69.2137226751592
 31
0.0
  0
LINE
  5
A7A
330
1F
100
AcDbEntity
  8
0
  6
DASH_CENTER
 62
    30
100
AcDbLine
 10
-207.7007
 20
-60.32232267515921
 30
0.0
 11
-207.7007
 21
-73.89582267515921
 31
0.0
  0
LINE
  5
A7B
330
1F
100
AcDbEntity
  8
0
  6
Continuous
 62
     7
100
AcDbLine
 10
-217.5416999999999
 20
-59.3719226751592
 30
0.0
 11
-218.7533999999998
 21
-63.12772267515921
 31
0.0
  0
LINE
  5
A7C
330
1F
100
AcDbEntity
  8
0
  6
Continuous
 62
     7
100
AcDbLine
 10
-186.7007
 20
-61.98422267515922
 30
0.0
 11
-180.2001999999999
 21
-45.53792267515919
 31
0.0
  0
LINE
  5
A7D
330
1F
100
AcDbEntity
  8
0
  6
Continuous
 62
     7
100
AcDbLine
 10
-128.7005
 20
-61.98422267515922
 30
0.0
 11
-135.2009999999999
 21
-45.53792267515919
 31
0.0
  0
LINE
  5
A7E
330
1F
100
AcDbEntity
  8
0
  6
Continuous
 62
     7
100
AcDbLine
 10
-97.85949999999999
 20
-59.3719226751592
 30
0.0
 11
-96.6478
 21
-63.12772267515921
 31
0.0
  0
LINE
  5
A7F
330
1F
100
AcDbEntity
  8
0
  6
Continuous
 62
     7
100
AcDbLine
 10
-122.7005
 20
-67.7137226751592
 30
0.0
 11
-122.7005
 21
-69.2137226751592
 31
0.0
  0
LINE
  5
A80
330
1F
100
AcDbEntity
  8
0
  6
Continuous
 62
     7
100
AcDbLine
 10
-192.7005
 20
-67.7137226751592
 30
0.0
 11
-122.7005
 21
-67.7137226751592
 31
0.0
  0
LINE
  5
A81
330
1F
100
AcDbEntity
  8
0
  6
Continuous
 62
     7
100
AcDbLine
 10
-92.70050000000001
 20
-64.5137226751592
 30
0.0
 11
-92.70050000000001
 21
-69.2137226751592
 31
0.0
  0
LINE
  5
A82
330
1F
100
AcDbEntity
  8
0
  6
Continuous
 62
     7
100
AcDbLine
 10
-122.7005
 20
-66.01352267515919
 30
0.0
 11
-122.7005
 21
-64.5137226751592
 31
0.0
  0
LINE
  5
A83
330
1F
100
AcDbEntity
  8
0
  6
Continuous
 62
     7
100
AcDbLine
 10
-127.9763999999999
 20
-55.2137226751592
 30
0.0
 11
-103.5696999999998
 21
-55.2137226751592
 31
0.0
  0
LINE
  5
A84
330
1F
100
AcDbEntity
  8
0
  6
Continuous
 62
     7
100
AcDbLine
 10
-100.9552
 20
-55.8130226751592
 30
0.0
 11
-89.2007
 21
-55.8130226751592
 31
0.0
  0
LINE
  5
A85
330
1F
100
AcDbEntity
  8
0
  6
Continuous
 62
     7
100
AcDbLine
 10
-170.9004999999999
 20
-39.2137226751592
 30
0.0
 11
-144.5008
 21
-39.2137226751592
 31
0.0
  0
LINE
  5
A86
330
1F
100
AcDbEntity
  8
0
  6
Continuous
 62
     7
100
AcDbLine
 10
-214.446
 20
-55.8130226751592
 30
0.0
 11
-228.2005
 21
-55.8130226751592
 31
0.0
  0
LINE
  5
A87
330
1F
100
AcDbEntity
  8
0
  6
Continuous
 62
     7
100
AcDbLine
 10
-228.7005
 20
-51.81302267515921
 30
0.0
 11
-204.7004999999999
 21
-51.81302267515921
 31
0.0
  0
LINE
  5
A88
330
1F
100
AcDbEntity
  8
0
  6
Continuous
 62
     7
100
AcDbLine
 10
-228.2005
 20
-50.8130226751592
 30
0.0
 11
-205.2005
 21
-50.8130226751592
 31
0.0
  0
LINE
  5
A89
330
1F
100
AcDbEntity
  8
0
  6
Continuous
 62
     7
100
AcDbLine
 10
-229.1007
 20
-44.6131226751592
 30
0.0
 11
-204.3006
 21
-44.6131226751592
 31
0.0
  0
LINE
  5
A8A
330
1F
100
AcDbEntity
  8
0
  6
Continuous
 62
     7
100
AcDbLine
 10
-227.9007
 20
-47.0132226751592
 30
0.0
 11
-205.5006
 21
-47.0132226751592
 31
0.0
  0
LINE
  5
A8B
330
1F
100
AcDbEntity
  8
0
  6
Continuous
 62
     7
100
AcDbLine
 10
-227.9007
 20
-41.4131226751592
 30
0.0
 11
-205.5006
 21
-41.4131226751592
 31
0.0
  0
LINE
  5
A8C
330
1F
100
AcDbEntity
  8
0
  6
Continuous
 62
     7
100
AcDbLine
 10
-227.3506999999999
 20
-36.2132226751592
 30
0.0
 11
-206.0506
 21
-36.2132226751592
 31
0.0
  0
LINE
  5
A8D
330
1F
100
AcDbEntity
  8
0
  6
Continuous
 62
     7
100
AcDbLine
 10
-228.4505
 20
-34.0132226751592
 30
0.0
 11
-204.9504999999999
 21
-34.0132226751592
 31
0.0
  0
LINE
  5
A8E
330
1F
100
AcDbEntity
  8
0
  6
Continuous
 62
     7
100
AcDbLine
 10
-227.3006
 20
-7.2134226751592
 30
0.0
 11
-206.1007
 21
-7.2134226751592
 31
0.0
  0
LINE
  5
A8F
330
1F
100
AcDbEntity
  8
0
  6
Continuous
 62
     7
100
AcDbLine
 10
-206.3506999999999
 20
-15.41342267515919
 30
0.0
 11
-227.0506
 21
-15.41342267515919
 31
0.0
  0
LINE
  5
A90
330
1F
100
AcDbEntity
  8
0
  6
Continuous
 62
     7
100
AcDbLine
 10
-227.8005999999999
 20
-21.21322267515919
 30
0.0
 11
-205.6007
 21
-21.21322267515919
 31
0.0
  0
LINE
  5
A91
330
1F
100
AcDbEntity
  8
0
  6
Continuous
 62
     7
100
AcDbLine
 10
-226.8006
 20
-8.2134226751592
 30
0.0
 11
-206.6006999999999
 21
-8.2134226751592
 31
0.0
  0
LINE
  5
A92
330
1F
100
AcDbEntity
  8
0
  6
Continuous
 62
     7
100
AcDbLine
 10
-227.0506
 20
-22.71322267515919
 30
0.0
 11
-206.3506999999999
 21
-22.71322267515919
 31
0.0
  0
LINE
  5
A93
330
1F
100
AcDbEntity
  8
0
  6
Continuous
 62
     7
100
AcDbLine
 10
-227.3506999999999
 20
-29.51322267515919
 30
0.0
 11
-206.0506
 21
-29.51322267515919
 31
0.0
  0
LINE
  5
A94
330
1F
100
AcDbEntity
  8
0
  6
Continuous
 62
     7
100
AcDbLine
 10
-89.2007
 20
-50.8130226751592
 30
0.0
 11
-112.2006999999999
 21
-50.8130226751592
 31
0.0
  0
LINE
  5
A95
330
1F
100
AcDbEntity
  8
0
  6
Continuous
 62
     7
100
AcDbLine
 10
-88.95070000000002
 20
-34.0132226751592
 30
0.0
 11
-112.4506999999999
 21
-34.0132226751592
 31
0.0
  0
LINE
  5
A96
330
1F
100
AcDbEntity
  8
0
  6
Continuous
 62
     7
100
AcDbLine
 10
-226.8006
 20
-0.4134226751592003
 30
0.0
 11
-206.6006999999999
 21
-0.4134226751592003
 31
0.0
  0
LINE
  5
A97
330
1F
100
AcDbEntity
  8
0
  6
Continuous
 62
     7
100
AcDbLine
 10
-89.50079999999998
 20
-41.4131226751592
 30
0.0
 11
-111.9008999999999
 21
-41.4131226751592
 31
0.0
  0
LINE
  5
A98
330
1F
100
AcDbEntity
  8
0
  6
Continuous
 62
     7
100
AcDbLine
 10
-90.05080000000003
 20
-36.2132226751592
 30
0.0
 11
-111.3509
 21
-36.2132226751592
 31
0.0
  0
LINE
  5
A99
330
1F
100
AcDbEntity
  8
0
  6
Continuous
 62
     7
100
AcDbLine
 10
-89.60089999999999
 20
-21.21322267515919
 30
0.0
 11
-111.8007999999999
 21
-21.21322267515919
 31
0.0
  0
LINE
  5
A9A
330
1F
100
AcDbEntity
  8
0
  6
Continuous
 62
     7
100
AcDbLine
 10
-89.50079999999998
 20
-47.0132226751592
 30
0.0
 11
-111.9008999999999
 21
-47.0132226751592
 31
0.0
  0
LINE
  5
A9B
330
1F
100
AcDbEntity
  8
0
  6
Continuous
 62
     7
100
AcDbLine
 10
-88.70070000000003
 20
-51.81302267515921
 30
0.0
 11
-112.7007
 21
-51.81302267515921
 31
0.0
  0
LINE
  5
A9C
330
1F
100
AcDbEntity
  8
0
  6
Continuous
 62
     7
100
AcDbLine
 10
-90.10089999999999
 20
-7.213222675159201
 30
0.0
 11
-111.3007999999999
 21
-7.213222675159201
 31
0.0
  0
LINE
  5
A9D
330
1F
100
AcDbEntity
  8
0
  6
Continuous
 62
     7
100
AcDbLine
 10
-111.0508
 20
-15.41342267515919
 30
0.0
 11
-90.3509
 21
-15.41342267515919
 31
0.0
  0
LINE
  5
A9E
330
1F
100
AcDbEntity
  8
0
  6
Continuous
 62
     7
100
AcDbLine
 10
-90.6009
 20
-0.4134226751592003
 30
0.0
 11
-110.8007999999999
 21
-0.4134226751592003
 31
0.0
  0
LINE
  5
A9F
330
1F
100
AcDbEntity
  8
0
  6
Continuous
 62
     7
100
AcDbLine
 10
-90.3509
 20
-22.71322267515919
 30
0.0
 11
-111.0508
 21
-22.71322267515919
 31
0.0
  0
LINE
  5
AA0
330
1F
100
AcDbEntity
  8
0
  6
Continuous
 62
     7
100
AcDbLine
 10
-90.6009
 20
-8.213222675159196
 30
0.0
 11
-110.8007999999999
 21
-8.213222675159196
 31
0.0
  0
LINE
  5
AA1
330
1F
100
AcDbEntity
  8
0
  6
Continuous
 62
     7
100
AcDbLine
 10
-90.05080000000003
 20
-29.51322267515919
 30
0.0
 11
-111.3509
 21
-29.51322267515919
 31
0.0
  0
LINE
  5
AA2
330
1F
100
AcDbEntity
  8
0
  6
Continuous
 62
     7
100
AcDbLine
 10
-88.3008
 20
-44.6131226751592
 30
0.0
 11
-113.1008999999999
 21
-44.6131226751592
 31
0.0
  0
LINE
  5
AA3
330
1F
100
AcDbEntity
  8
0
  6
Continuous
 62
     7
100
AcDbLine
 10
-96.8853
 20
-62.4134226751592
 30
0.0
 11
-75.70070000000002
 21
-62.41362267515921
 31
0.0
  0
LINE
  5
AA4
330
1F
100
AcDbEntity
  8
0
  6
Continuous
 62
     7
100
AcDbLine
 10
-260.7003999999999
 20
-62.41362267515921
 30
0.0
 11
-218.5157
 21
-62.41362267515921
 31
0.0
  0
LINE
  5
AA5
330
1F
100
AcDbEntity
  8
0
  6
Continuous
 62
     7
100
AcDbLine
 10
-260.4999999999999
 20
103.9862773248408
 30
0.0
 11
-75.90110000000001
 21
103.9862773248408
 31
0.0
  0
LINE
  5
AA6
330
1F
100
AcDbEntity
  8
0
  6
Continuous
 62
     7
100
AcDbLine
 10
-260.5004999999999
 20
103.9860773248406
 30
0.0
 11
-260.7006999999999
 21
103.7860773248407
 31
0.0
  0
LINE
  5
AA7
330
1F
100
AcDbEntity
  8
0
  6
Continuous
 62
     7
100
AcDbLine
 10
-260.7003999999999
 20
20.7862773248408
 30
0.0
 11
-260.7003999999999
 21
-62.4138226751592
 31
0.0
  0
LINE
  5
AA8
330
1F
100
AcDbEntity
  8
0
  6
Continuous
 62
     7
100
AcDbLine
 10
-75.70070000000002
 20
-62.4138226751592
 30
0.0
 11
-75.70079999999999
 21
20.7862773248408
 31
0.0
  0
LINE
  5
AA9
330
1F
100
AcDbEntity
  8
0
  6
DASH_CENTER
 62
    30
100
AcDbLine
 10
-70.63979999999995
 20
-32.24692267515919
 30
0.0
 11
-55.00789999999998
 21
-32.24692267515919
 31
0.0
  0
LINE
  5
AAA
330
1F
100
AcDbEntity
  8
0
  6
Continuous
 62
     7
100
AcDbLine
 10
-156.3570999999999
 20
-53.51792267515921
 30
0.0
 11
-157.347
 21
-52.52812267515921
 31
0.0
  0
LINE
  5
AAB
330
1F
100
AcDbEntity
  8
0
  6
Continuous
 62
     7
100
AcDbLine
 10
-155.6499999999998
 20
-52.81082267515921
 30
0.0
 11
-156.6398
 21
-51.8208226751592
 31
0.0
  0
LINE
  5
AAC
330
1F
100
AcDbEntity
  8
0
  6
Continuous
 62
     7
100
AcDbLine
 10
-155.6499999999998
 20
-50.12382267515921
 30
0.0
 11
-156.6398
 21
-51.11382267515921
 31
0.0
  0
LINE
  5
AAD
330
1F
100
AcDbEntity
  8
0
  6
Continuous
 62
     7
100
AcDbLine
 10
-156.3570999999999
 20
-49.4168226751592
 30
0.0
 11
-157.347
 21
-50.4068226751592
 31
0.0
  0
LINE
  5
AAE
330
1F
100
AcDbEntity
  8
0
  6
Continuous
 62
     7
100
AcDbLine
 10
-158.7612
 20
-51.11382267515921
 30
0.0
 11
-159.7512
 21
-50.12382267515921
 31
0.0
  0
LINE
  5
AAF
330
1F
100
AcDbEntity
  8
0
  6
Continuous
 62
     7
100
AcDbLine
 10
-158.0540999999998
 20
-52.52812267515921
 30
0.0
 11
-159.0441
 21
-53.51812267515921
 31
0.0
  0
LINE
  5
AB0
330
1F
100
AcDbEntity
  8
0
  6
Continuous
 62
     7
100
AcDbLine
 10
-158.7612
 20
-51.8208226751592
 30
0.0
 11
-159.7512
 21
-52.8111226751592
 31
0.0
  0
LINE
  5
AB1
330
1F
100
AcDbEntity
  8
0
  6
Continuous
 62
     7
100
AcDbLine
 10
-158.0540999999998
 20
-50.4068226751592
 30
0.0
 11
-159.0441
 21
-49.4165226751592
 31
0.0
  0
LINE
  5
AB2
330
1F
100
AcDbEntity
  8
0
  6
Continuous
 62
     7
100
AcDbLine
 10
-159.0441
 20
-53.51812267515921
 30
0.0
 11
-159.7512
 21
-52.8111226751592
 31
0.0
  0
LINE
  5
AB3
330
1F
100
AcDbEntity
  8
0
  6
Continuous
 62
     7
100
AcDbLine
 10
-155.6499999999998
 20
-50.12382267515921
 30
0.0
 11
-156.3570999999999
 21
-49.4168226751592
 31
0.0
  0
LINE
  5
AB4
330
1F
100
AcDbEntity
  8
0
  6
Continuous
 62
     7
100
AcDbLine
 10
-155.6499999999998
 20
-52.81082267515921
 30
0.0
 11
-156.3570999999999
 21
-53.51792267515921
 31
0.0
  0
LINE
  5
AB5
330
1F
100
AcDbEntity
  8
0
  6
Continuous
 62
     7
100
AcDbLine
 10
-159.0441
 20
-49.4165226751592
 30
0.0
 11
-159.7512
 21
-50.12382267515921
 31
0.0
  0
LINE
  5
AB6
330
1F
100
AcDbEntity
  8
0
  6
Continuous
 62
     7
100
AcDbLine
 10
-59.70099999999999
 20
76.31907732484082
 30
0.0
 11
-63.20109999999997
 21
76.31907732484082
 31
0.0
  0
LINE
  5
AB7
330
1F
100
AcDbEntity
  8
0
  6
Continuous
 62
    30
100
AcDbLine
 10
-59.20099999999999
 20
75.81907732484082
 30
0.0
 11
-63.20109999999997
 21
75.81907732484082
 31
0.0
  0
LINE
  5
AB8
330
1F
100
AcDbEntity
  8
0
  6
Continuous
 62
     7
100
AcDbLine
 10
-59.20099999999999
 20
75.81907732484082
 30
0.0
 11
-59.70099999999999
 21
76.31907732484082
 31
0.0
  0
LINE
  5
AB9
330
1F
100
AcDbEntity
  8
0
  6
Continuous
 62
     7
100
AcDbLine
 10
-59.20099999999999
 20
71.81907732484082
 30
0.0
 11
-59.70099999999999
 21
71.31907732484082
 31
0.0
  0
LINE
  5
ABA
330
1F
100
AcDbEntity
  8
0
  6
Continuous
 62
     7
100
AcDbLine
 10
-59.70099999999999
 20
71.31907732484082
 30
0.0
 11
-59.70099999999999
 21
76.31907732484082
 31
0.0
  0
LINE
  5
ABB
330
1F
100
AcDbEntity
  8
0
  6
Continuous
 62
     7
100
AcDbLine
 10
-59.20099999999999
 20
71.81907732484082
 30
0.0
 11
-59.20099999999999
 21
75.81907732484082
 31
0.0
  0
LINE
  5
ABC
330
1F
100
AcDbEntity
  8
0
  6
Continuous
 62
    30
100
AcDbLine
 10
-59.20099999999999
 20
71.81907732484082
 30
0.0
 11
-63.20109999999997
 21
71.81907732484082
 31
0.0
  0
LINE
  5
ABD
330
1F
100
AcDbEntity
  8
0
  6
Continuous
 62
     7
100
AcDbLine
 10
-63.20109999999997
 20
71.31907732484082
 30
0.0
 11
-59.70099999999999
 21
71.31907732484082
 31
0.0
  0
LINE
  5
ABE
330
1F
100
AcDbEntity
  8
0
  6
Continuous
 62
     7
100
AcDbLine
 10
-63.60520000000001
 20
71.50977732484081
 30
0.0
 11
-66.79710000000003
 21
71.50977732484081
 31
0.0
  0
LINE
  5
ABF
330
1F
100
AcDbEntity
  8
0
  6
Continuous
 62
     7
100
AcDbLine
 10
-63.60520000000001
 20
76.1283773248408
 30
0.0
 11
-66.79710000000003
 21
76.1283773248408
 31
0.0
  0
LINE
  5
AC0
330
1F
100
AcDbEntity
  8
0
  6
Continuous
 62
     7
100
AcDbLine
 10
-66.79710000000003
 20
78.41917732484081
 30
0.0
 11
-63.60520000000001
 21
78.41917732484081
 31
0.0
  0
LINE
  5
AC1
330
1F
100
AcDbEntity
  8
0
  6
Continuous
 62
     7
100
AcDbLine
 10
-63.60520000000001
 20
69.21897732484082
 30
0.0
 11
-66.79710000000003
 21
69.21897732484082
 31
0.0
  0
LINE
  5
AC2
330
1F
100
AcDbEntity
  8
0
  6
Continuous
 62
     7
100
AcDbLine
 10
-66.79710000000003
 20
69.21897732484082
 30
0.0
 11
-67.20110000000002
 21
69.91917732484082
 31
0.0
  0
LINE
  5
AC3
330
1F
100
AcDbEntity
  8
0
  6
Continuous
 62
     7
100
AcDbLine
 10
-66.79710000000003
 20
78.41917732484081
 30
0.0
 11
-67.20110000000002
 21
77.71897732484081
 31
0.0
  0
LINE
  5
AC4
330
1F
100
AcDbEntity
  8
0
  6
Continuous
 62
     7
100
AcDbLine
 10
-63.60520000000001
 20
78.41917732484081
 30
0.0
 11
-63.20109999999997
 21
77.71897732484081
 31
0.0
  0
LINE
  5
AC5
330
1F
100
AcDbEntity
  8
0
  6
Continuous
 62
     7
100
AcDbLine
 10
-63.60520000000001
 20
69.21897732484082
 30
0.0
 11
-63.20109999999997
 21
69.91917732484082
 31
0.0
  0
LINE
  5
AC6
330
1F
100
AcDbEntity
  8
0
  6
Continuous
 62
     7
100
AcDbLine
 10
-63.20109999999997
 20
77.71897732484081
 30
0.0
 11
-63.20109999999997
 21
69.91917732484082
 31
0.0
  0
LINE
  5
AC7
330
1F
100
AcDbEntity
  8
0
  6
Continuous
 62
     7
100
AcDbLine
 10
-61.70110000000001
 20
94.0387773248408
 30
0.0
 11
-61.70110000000001
 21
101.5524773248408
 31
0.0
  0
LINE
  5
AC8
330
1F
100
AcDbEntity
  8
0
  6
Continuous
 62
     7
100
AcDbLine
 10
-61.70110000000001
 20
20.78607732484079
 30
0.0
 11
-61.70110000000001
 21
60.38547732484079
 31
0.0
  0
LINE
  5
AC9
330
1F
100
AcDbEntity
  8
0
  6
Continuous
 62
     7
100
AcDbLine
 10
-60.91760000000002
 20
76.31907732484082
 30
0.0
 11
-61.73569999999998
 21
93.77797732484079
 31
0.0
  0
LINE
  5
ACA
330
1F
100
AcDbEntity
  8
0
  6
Continuous
 62
     7
100
AcDbLine
 10
-60.70109999999997
 20
76.31907732484082
 30
0.0
 11
-60.70109999999997
 21
86.1976773248408
 31
0.0
  0
LINE
  5
ACB
330
1F
100
AcDbEntity
  8
0
  6
Continuous
 62
     7
100
AcDbLine
 10
-60.70129999999998
 20
20.78607732484079
 30
0.0
 11
-60.70109999999997
 21
59.38517732484079
 31
0.0
  0
LINE
  5
ACC
330
1F
100
AcDbEntity
  8
0
  6
Continuous
 62
     7
100
AcDbLine
 10
-62.70109999999997
 20
93.0387773248408
 30
0.0
 11
-66.20110000000003
 21
93.0387773248408
 31
0.0
  0
LINE
  5
ACD
330
1F
100
AcDbEntity
  8
0
  6
Continuous
 62
     7
100
AcDbLine
 10
-67.20110000000002
 20
61.38547732484081
 30
0.0
 11
-67.20110000000002
 21
92.03877732484079
 31
0.0
  0
LINE
  5
ACE
330
1F
100
AcDbEntity
  8
0
  6
Continuous
 62
     7
100
AcDbLine
 10
-66.20110000000003
 20
60.38547732484079
 30
0.0
 11
-61.70110000000001
 21
60.38547732484079
 31
0.0
  0
LINE
  5
ACF
330
1F
100
AcDbEntity
  8
0
  6
Continuous
 62
     7
100
AcDbLine
 10
-75.70090000000002
 20
103.5360773248407
 30
0.0
 11
-74.96420000000004
 21
103.7335773248406
 31
0.0
  0
LINE
  5
AD0
330
1F
100
AcDbEntity
  8
0
  6
Continuous
 62
     7
100
AcDbLine
 10
-60.77869999999998
 20
86.6471773248408
 30
0.0
 11
-61.60080000000002
 21
101.0306773248407
 31
0.0
  0
LINE
  5
AD1
330
1F
100
AcDbEntity
  8
0
  6
Continuous
 62
     7
100
AcDbLine
 10
-63.45500000000001
 20
102.9112773248406
 30
0.0
 11
-74.96420000000004
 21
103.7335773248406
 31
0.0
  0
LINE
  5
AD2
330
1F
100
AcDbEntity
  8
0
  6
Continuous
 62
     7
100
AcDbLine
 10
-75.70079999999999
 20
20.7858773248408
 30
0.0
 11
-75.70070000000002
 21
103.9859773248406
 31
0.0
  0
LINE
  5
AD3
330
1F
100
AcDbEntity
  8
0
  6
Continuous
 62
     7
100
AcDbLine
 10
-52.70089999999996
 20
30.6859773248408
 30
0.0
 11
-56.75199999999998
 21
30.6859773248408
 31
0.0
  0
LINE
  5
AD4
330
1F
100
AcDbEntity
  8
0
  6
Continuous
 62
     7
100
AcDbLine
 10
-265.3474
 20
21.84687732484082
 30
0.0
 11
-264.3574
 21
22.83657732484082
 31
0.0
  0
LINE
  5
AD5
330
1F
100
AcDbEntity
  8
0
  6
Continuous
 62
     7
100
AcDbLine
 10
-264.6403999999999
 20
21.13957732484081
 30
0.0
 11
-263.6503999999999
 21
22.12957732484083
 31
0.0
  0
LINE
  5
AD6
330
1F
100
AcDbEntity
  8
0
  6
Continuous
 62
     7
100
AcDbLine
 10
-267.0443999999999
 20
22.83657732484082
 30
0.0
 11
-266.0543999999999
 21
21.84687732484082
 31
0.0
  0
LINE
  5
AD7
330
1F
100
AcDbEntity
  8
0
  6
Continuous
 62
     7
100
AcDbLine
 10
-267.7514999999999
 20
22.12957732484083
 30
0.0
 11
-266.7617
 21
21.13957732484081
 31
0.0
  0
LINE
  5
AD8
330
1F
100
AcDbEntity
  8
0
  6
Continuous
 62
     7
100
AcDbLine
 10
-267.7514999999999
 20
22.12957732484083
 30
0.0
 11
-267.0443999999999
 21
22.83657732484082
 31
0.0
  0
LINE
  5
AD9
330
1F
100
AcDbEntity
  8
0
  6
Continuous
 62
     7
100
AcDbLine
 10
-264.3574
 20
22.83657732484082
 30
0.0
 11
-263.6503999999999
 21
22.12957732484083
 31
0.0
  0
LINE
  5
ADA
330
1F
100
AcDbEntity
  8
0
  6
Continuous
 62
     7
100
AcDbLine
 10
-260.7003999999999
 20
103.9859773248406
 30
0.0
 11
-260.7003999999999
 21
20.78587732484082
 31
0.0
  0
LINE
  5
ADB
330
1F
100
AcDbEntity
  8
0
  6
DASH_CENTER
 62
    30
100
AcDbLine
 10
-265.7008999999999
 20
27.66325524707049
 30
0.0
 11
-265.7008999999999
 21
13.33707732484081
 31
0.0
  0
LINE
  5
ADC
330
1F
100
AcDbEntity
  8
0
  6
DASH_CENTER
 62
    30
100
AcDbLine
 10
-265.703095945927
 20
98.3336299119052
 30
0.0
 11
-265.6978964804695
 21
112.0796371314719
 31
0.0
  0
LINE
  5
ADD
330
1F
100
AcDbEntity
  8
0
  6
DASH_CENTER
 62
    30
100
AcDbLine
 10
-55.00789999999998
 20
73.81907732484079
 30
0.0
 11
-70.63979999999995
 21
73.81907732484079
 31
0.0
  0
LINE
  5
ADE
330
1F
100
AcDbEntity
  8
0
  6
Continuous
 62
     7
100
AcDbLine
 10
-236.7007999999999
 20
22.1770903624158
 30
0.0
 11
-237.2009999047116
 21
20.78496433430911
 31
0.0
  0
LINE
  5
ADF
330
1F
100
AcDbEntity
  8
0
  6
Continuous
 62
     7
100
AcDbLine
 10
-224.7008
 20
22.17666189199809
 30
0.0
 11
-224.2010000059564
 21
20.78579905753259
 31
0.0
  0
LINE
  5
AE0
330
1F
100
AcDbEntity
  8
0
  6
Continuous
 62
     7
100
AcDbLine
 10
-224.7008
 20
22.7860773248408
 30
0.0
 11
-224.7008
 21
22.17666189199809
 31
0.0
  0
LINE
  5
AE1
330
1F
100
AcDbEntity
  8
0
  6
Continuous
 62
     7
100
AcDbLine
 10
-236.7007999999999
 20
22.7860773248408
 30
0.0
 11
-236.7007999999999
 21
22.1770903624158
 31
0.0
  0
LINE
  5
AE2
330
1F
100
AcDbEntity
  8
0
  6
Continuous
 62
     7
100
AcDbLine
 10
-224.2010000059564
 20
20.78579905753259
 30
0.0
 11
-221.8526647334924
 21
14.25076045757364
 31
0.0
  0
LINE
  5
AE3
330
1F
100
AcDbEntity
  8
0
  6
Continuous
 62
     7
100
AcDbLine
 10
-236.7008999999999
 20
13.3043773248408
 30
0.0
 11
-237.2011160495861
 21
11.91219680358664
 31
0.0
  0
LINE
  5
AE4
330
1F
100
AcDbEntity
  8
0
  6
Continuous
 62
     7
100
AcDbLine
 10
-237.2011160495861
 20
11.91219680358664
 30
0.0
 11
-240.9320999999999
 21
1.5282773248408
 31
0.0
  0
LINE
  5
AE5
330
1F
100
AcDbEntity
  8
0
  6
Continuous
 62
     7
100
AcDbLine
 10
-236.7007999999999
 20
11.56654022962825
 30
0.0
 11
-236.7007999999999
 21
22.1770903624158
 31
0.0
  0
LINE
  5
AE6
330
1F
100
AcDbEntity
  8
0
  6
Continuous
 62
     7
100
AcDbLine
 10
-237.2009999047116
 20
20.78496433430911
 30
0.0
 11
-239.548831961268
 21
14.25062059540105
 31
0.0
  0
LINE
  5
AE7
330
1F
100
AcDbEntity
  8
0
  6
Continuous
 62
     7
100
AcDbLine
 10
-224.7008
 20
11.56654022962825
 30
0.0
 11
-224.7008
 21
22.17666189199809
 31
0.0
  0
LINE
  5
AE8
330
1F
100
AcDbEntity
  8
0
  6
Continuous
 62
     7
100
AcDbLine
 10
-224.2003043962224
 20
11.9123283338411
 30
0.0
 11
-224.7009999999999
 21
13.3056773248408
 31
0.0
  0
LINE
  5
AE9
330
1F
100
AcDbEntity
  8
0
  6
Continuous
 62
     7
100
AcDbLine
 10
-221.8526647334924
 20
14.25076045757364
 30
0.0
 11
-217.6455999999999
 21
2.5431773248408
 31
0.0
  0
LINE
  5
AEA
330
1F
100
AcDbEntity
  8
0
  6
Continuous
 62
     7
100
AcDbLine
 10
-239.548831961268
 20
14.25062059540105
 30
0.0
 11
-243.7555
 21
2.542877324840798
 31
0.0
  0
LINE
  5
AEB
330
1F
100
AcDbEntity
  8
0
  6
Continuous
 62
    30
100
AcDbLine
 10
-236.7007999999999
 20
2.553841450567109
 30
0.0
 11
-236.7007999999999
 21
2.8140969841819
 31
0.0
  0
LINE
  5
AEC
330
1F
100
AcDbEntity
  8
0
  6
Continuous
 62
     7
100
AcDbLine
 10
-233.7007999999999
 20
25.55583480632055
 30
0.0
 11
-233.7007999999999
 21
1.400642052356899
 31
0.0
  0
LINE
  5
AED
330
1F
100
AcDbEntity
  8
0
  6
Continuous
 62
     7
100
AcDbLine
 10
-230.7007999999999
 20
25.55583480632055
 30
0.0
 11
-230.7007999999999
 21
1.400642052356899
 31
0.0
  0
LINE
  5
AEE
330
1F
100
AcDbEntity
  8
0
  6
Continuous
 62
     7
100
AcDbLine
 10
-224.7008
 20
1.400642052356899
 30
0.0
 11
-224.7008
 21
11.56654022962825
 31
0.0
  0
LINE
  5
AEF
330
1F
100
AcDbEntity
  8
0
  6
Continuous
 62
     7
100
AcDbLine
 10
-227.7007999999999
 20
1.400642052356899
 30
0.0
 11
-227.7007999999999
 21
25.55583480632055
 31
0.0
  0
LINE
  5
AF0
330
1F
100
AcDbEntity
  8
0
  6
Continuous
 62
     7
100
AcDbLine
 10
-236.7007999999999
 20
1.400642052356899
 30
0.0
 11
-236.7007999999999
 21
11.56654022962825
 31
0.0
  0
LINE
  5
AF1
330
1F
100
AcDbEntity
  8
0
  6
DASH_CENTER
 62
    30
100
AcDbLine
 10
-354.4168234509688
 20
20.78607732484085
 30
0.0
 11
1.667100000000004
 21
20.78607732484079
 31
0.0
  0
LINE
  5
AF2
330
1F
100
AcDbEntity
  8
0
  6
Continuous
 62
     7
100
AcDbLine
 10
-52.70099999999999
 20
10.8861773248408
 30
0.0
 11
-52.70099999999999
 21
11.28607732484079
 31
0.0
  0
LINE
  5
AF3
330
1F
100
AcDbEntity
  8
0
  6
Continuous
 62
     7
100
AcDbLine
 10
-52.70099999999999
 20
10.8861773248408
 30
0.0
 11
-52.70089999999996
 21
10.8861773248408
 31
0.0
  0
LINE
  5
AF4
330
1F
100
AcDbEntity
  8
0
  6
DASH_CENTER
 62
    30
100
AcDbLine
 10
-157.7004999999998
 20
111.638480997573
 30
0.0
 11
-157.7004999999998
 21
-78.77842267515919
 31
0.0
  0
POINT
  5
AF5
330
1F
100
AcDbEntity
  8
0
 62
     2
100
AcDbPoint
 10
-337.7019
 20
21.9585773248408
 30
0.0
  0
ARC
  5
AFD
330
1F
100
AcDbEntity
  8
0
  6
Continuous
 62
     7
100
AcDbCircle
 10
293.0617999999999
 20
-168.3481437308899
 30
0.0
 40
5.0
100
AcDbArc
 50
90.0
 51
180.0
  0
ARC
  5
AFE
330
1F
100
AcDbEntity
  8
0
  6
Continuous
 62
     7
100
AcDbCircle
 10
293.0617999999999
 20
-168.3481437308899
 30
0.0
 40
5.0
100
AcDbArc
 50
180.0
 51
270.0
  0
ARC
  5
AFF
330
1F
100
AcDbEntity
  8
0
  6
Continuous
 62
     7
100
AcDbCircle
 10
308.0618
 20
-168.3481437308899
 30
0.0
 40
5.0
100
AcDbArc
 50
270.0
 51
0.0
  0
ARC
  5
B00
330
1F
100
AcDbEntity
  8
0
  6
Continuous
 62
     7
100
AcDbCircle
 10
308.0618
 20
-168.3481437308899
 30
0.0
 40
5.0
100
AcDbArc
 50
0.0
 51
90.0
  0
ARC
  5
B01
330
1F
100
AcDbEntity
  8
0
  6
Continuous
 62
     7
100
AcDbCircle
 10
290.562
 20
-173.34814373089
 30
0.0
 40
10.0
100
AcDbArc
 50
180.0
 51
270.0
  0
ARC
  5
B02
330
1F
100
AcDbEntity
  8
0
  6
Continuous
 62
     7
100
AcDbCircle
 10
310.5618
 20
-163.3481437308899
 30
0.0
 40
10.0
100
AcDbArc
 50
0.0
 51
90.0
  0
SPLINE
  5
B03
330
1F
100
AcDbEntity
  8
0
  6
Continuous
 62
    54
100
AcDbSpline
210
0.0
220
0.0
230
1.0
 70
     8
 71
     3
 72
    68
 73
    64
 74
    62
 42
0.0000000001
 43
0.0000000001
 44
0.00000001
 40
0.0
 40
0.0
 40
0.0
 40
0.0
 40
0.7765120862829852
 40
1.553309470076719
 40
2.597572422040212
 40
3.640125412160604
 40
4.713754877703993
 40
5.789324290538552
 40
6.863771447985781
 40
7.938218695888178
 40
8.680674566984563
 40
9.422509098754725
 40
10.88932746374098
 40
12.34688829649441
 40
13.38469129691544
 40
14.42798321011585
 40
15.39012961809077
 40
16.36021325845363
 40
17.53144904721558
 40
18.66754115166566
 40
19.92940154546992
 40
21.16045755600453
 40
21.8594838340876
 40
22.57073680203526
 40
23.91616395832427
 40
25.30080099381965
 40
26.61285638862843
 40
27.92822193859998
 40
28.97567495156044
 40
30.00032127062585
 40
31.33506300955049
 40
32.71073619463458
 40
33.22506432974105
 40
33.7196326223017
 40
34.82269310538454
 40
36.00188681043845
 40
37.09041739813915
 40
38.14223860387176
 40
39.2779307082714
 40
40.55344152024271
 40
41.7793954620073
 40
42.71256689888939
 40
43.64512775766589
 40
44.89820630923181
 40
46.21038213605301
 40
48.23325029803783
 40
50.20697296155578
 40
51.42535307894396
 40
52.63447589191614
 40
53.92527059651569
 40
55.23434733711396
 40
56.75436720715501
 40
58.2747064970222
 40
59.57342003891577
 40
60.86968963134328
 40
63.4556991041936
 40
66.02693813608903
 40
67.06426118498388
 40
68.10304598498577
 40
70.39165769626425
 40
72.65332086040217
 40
73.93860123352817
 40
75.24966209291727
 40
75.24966209291727
 40
75.24966209291727
 40
75.24966209291727
 10
273.63768405712
 20
-153.34814373089
 30
0.0
 10
273.6600577031692
 20
-153.60600860784
 30
0.0
 10
273.7048132291308
 20
-154.1218331023992
 30
0.0
 10
273.791323567824
 20
-154.98348612394
 30
0.0
 10
273.9166252790021
 20
-155.9296576965267
 30
0.0
 10
274.0254273233789
 20
-156.9784398719364
 30
0.0
 10
274.0347263133922
 20
-158.0434308298863
 30
0.0
 10
274.0043320843134
 20
-159.1174094769978
 30
0.0
 10
273.997004206811
 20
-160.1923177924968
 30
0.0
 10
274.0055017601681
 20
-161.1561246047039
 30
0.0
 10
274.0198452067502
 20
-162.0087807327507
 30
0.0
 10
274.087113703668
 20
-162.9919547806657
 30
0.0
 10
274.3425603084808
 20
-164.1876199854135
 30
0.0
 10
274.5687071397838
 20
-165.4965144674555
 30
0.0
 10
274.4971445530051
 20
-166.6792067591197
 30
0.0
 10
274.3714391388014
 20
-167.6852550362994
 30
0.0
 10
274.3064915298017
 20
-168.6751085276533
 30
0.0
 10
274.2362752088718
 20
-169.7085749627766
 30
0.0
 10
274.0848503916883
 20
-170.7862145431654
 30
0.0
 10
274.1501455754848
 20
-172.008655314201
 30
0.0
 10
274.7735740739568
 20
-173.0573483345546
 30
0.0
 10
275.2533109185435
 20
-174.0472385170596
 30
0.0
 10
275.1808937750681
 20
-174.9389088067366
 30
0.0
 10
275.0583302016527
 20
-175.8516726575364
 30
0.0
 10
275.3683603785781
 20
-176.9919727832352
 30
0.0
 10
275.955800054726
 20
-178.1987535509522
 30
0.0
 10
276.3603200960608
 20
-179.4791792054629
 30
0.0
 10
276.6513798598669
 20
-180.6684019200111
 30
0.0
 10
276.9339464468552
 20
-181.761283979538
 30
0.0
 10
277.4089174758118
 20
-182.8108669996935
 30
0.0
 10
278.3575097234827
 20
-183.6726983909837
 30
0.0
 10
279.3581395906461
 20
-184.1086024642798
 30
0.0
 10
280.1318193321679
 20
-184.2828900708185
 30
0.0
 10
280.8109473784105
 20
-184.4979816252251
 30
0.0
 10
281.4785369597657
 20
-185.2024508904638
 30
0.0
 10
282.0591579638744
 20
-186.1382971146449
 30
0.0
 10
282.8304985098394
 20
-187.0073922874852
 30
0.0
 10
283.9518271240066
 20
-187.1992064585062
 30
0.0
 10
285.1021919253925
 20
-187.2256260797666
 30
0.0
 10
286.2625466223464
 20
-187.596110338346
 30
0.0
 10
287.3966891579421
 20
-187.8677482054059
 30
0.0
 10
288.4200725826593
 20
-187.6803092462855
 30
0.0
 10
289.4521880718922
 20
-187.4940484028297
 30
0.0
 10
290.6119115889366
 20
-187.7964672427083
 30
0.0
 10
291.9940655818405
 20
-188.4359293810844
 30
0.0
 10
293.7127344131529
 20
-188.9234266723728
 30
0.0
 10
295.4845723630595
 20
-188.9425913155294
 30
0.0
 10
296.8989657226158
 20
-188.5463600563096
 30
0.0
 10
298.110518839295
 20
-188.2488107059076
 30
0.0
 10
299.3905181546212
 20
-188.3151606226492
 30
0.0
 10
300.7502161424743
 20
-188.4985983204085
 30
0.0
 10
302.2050249877952
 20
-188.4863261885208
 30
0.0
 10
303.6470169351716
 20
-188.383737409631
 30
0.0
 10
305.0177832027118
 20
-188.3262485744386
 30
0.0
 10
306.748502602546
 20
-188.3743065728774
 30
0.0
 10
308.8602527551386
 20
-188.7933029628884
 30
0.0
 10
310.9163794611527
 20
-189.1090559678852
 30
0.0
 10
312.4638069951881
 20
-189.0061982203027
 30
0.0
 10
313.9212452173903
 20
-188.9315890623777
 30
0.0
 10
315.7575182620668
 20
-189.2885610783151
 30
0.0
 10
317.6988251620693
 20
-189.6020499230659
 30
0.0
 10
319.3098285175242
 20
-189.3354624443141
 30
0.0
 10
320.1417227285324
 20
-189.0987440740977
 30
0.0
 10
320.5618
 20
-188.979209637946
 30
0.0
 11
273.63768405712
 21
-153.34814373089
 31
0.0
 11
273.7065484502338
 21
-154.1215961998398
 31
0.0
 11
273.785879176729
 21
-154.8943321277658
 31
0.0
 11
273.9118244438809
 21
-155.930972328703
 31
0.0
 11
274.008171856143
 21
-156.9690638022979
 31
0.0
 11
274.028101281402
 21
-158.0425082782934
 31
0.0
 11
274.008171856143
 21
-159.117893036636
 31
0.0
 11
273.9998039619915
 21
-160.1923076084976
 31
0.0
 11
274.008171856143
 21
-161.2667222709729
 31
0.0
 11
274.0262322546807
 21
-162.0089584480953
 31
0.0
 11
274.0822694159479
 21
-162.748673467068
 31
0.0
 11
274.3339354625234
 21
-164.1937410496355
 31
0.0
 11
274.5268547747759
 21
-165.6384782994529
 31
0.0
 11
274.4863442329724
 21
-166.675490335772
 31
0.0
 11
274.3786596551668
 21
-167.713209973985
 31
0.0
 11
274.3062825301036
 21
-168.6726302479248
 31
0.0
 11
274.2304645355569
 21
-169.639746528909
 31
0.0
 11
274.1215723644094
 21
-170.805909368256
 31
0.0
 11
274.2304645355569
 21
-171.9367708828559
 31
0.0
 11
274.7651371001051
 21
-173.0797568420275
 31
0.0
 11
275.1937328130189
 21
-174.233795236803
 31
0.0
 11
275.1753181877953
 21
-174.9325789222475
 31
0.0
 11
275.1196352532139
 21
-175.641648873093
 31
0.0
 11
275.4014542911241
 21
-176.957229453414
 31
0.0
 11
275.934708411066
 21
-178.2350634662588
 31
0.0
 11
276.3458186475674
 21
-179.4810481102605
 31
0.0
 11
276.6756840091139
 21
-180.7543804996199
 31
0.0
 11
276.9655011471393
 21
-181.760940900777
 31
0.0
 11
277.4166596071609
 21
-182.6809170545429
 31
0.0
 11
278.3841382682144
 21
-183.6004389686577
 31
0.0
 11
279.6395864013029
 21
-184.162868250638
 31
0.0
 11
280.1374729126874
 21
-184.2918738795143
 31
0.0
 11
280.6028546787649
 21
-184.4592584898569
 31
0.0
 11
281.4238930182934
 21
-185.1958984798218
 31
0.0
 11
282.1116337621812
 21
-186.1537661449644
 31
0.0
 11
282.8998790327118
 21
-186.904477963413
 31
0.0
 11
283.9180135147493
 21
-187.168542397177
 31
0.0
 11
285.0487082670488
 21
-187.2749657624368
 31
0.0
 11
286.2856276909921
 21
-187.5863468310504
 31
0.0
 11
287.493927740606
 21
-187.7936486810698
 31
0.0
 11
288.4202377940992
 21
-187.6806946421874
 31
0.0
 11
289.346366735724
 21
-187.571356001656
 31
0.0
 11
290.573764306132
 21
-187.8237466910049
 31
0.0
 11
291.7915862092808
 21
-188.3123315997029
 31
0.0
 11
293.7450454759556
 21
-188.8376814773167
 31
0.0
 11
295.718756878932
 21
-188.8310145183359
 31
0.0
 11
296.9046753044933
 21
-188.5516445138296
 31
0.0
 11
298.0898787926838
 21
-188.3123315997029
 31
0.0
 11
299.3805203771722
 21
-188.3322130337388
 31
0.0
 11
300.683293385849
 21
-188.460526719313
 31
0.0
 11
302.2032805101817
 21
-188.4705042185865
 31
0.0
 11
303.7212933378441
 21
-188.386429159508
 31
0.0
 11
305.0192233483877
 21
-188.3413231269281
 31
0.0
 11
306.31470793101
 21
-188.386429159508
 31
0.0
 11
308.8711796428501
 21
-188.7761693072313
 31
0.0
 11
311.427439557537
 21
-189.0533071977508
 31
0.0
 11
312.4638091695196
 21
-189.0088421986085
 31
0.0
 11
313.502171232069
 21
-188.979209637946
 31
0.0
 11
315.7711157500337
 21
-189.2785995830348
 31
0.0
 11
318.0221223801588
 21
-189.497892556579
 31
0.0
 11
319.2941479441165
 21
-189.3137822996924
 31
0.0
 11
320.5618
 21
-188.979209637946
 31
0.0
  0
ARC
  5
B04
330
1F
100
AcDbEntity
  8
0
  6
Continuous
 62
    30
100
AcDbCircle
 10
43.76523614158986
 20
20.78606697764973
 30
0.0
 40
9.500010347405675
100
AcDbArc
 50
89.99961486174704
 51
108.4080534920641
  0
ARC
  5
B05
330
1F
100
AcDbEntity
  8
0
  6
Continuous
 62
     7
100
AcDbCircle
 10
46.5153
 20
27.0360773248408
 30
0.0
 40
0.25
100
AcDbArc
 50
270.0
 51
0.0
  0
ARC
  5
B06
330
1F
100
AcDbEntity
  8
0
  6
Continuous
 62
     7
100
AcDbCircle
 10
41.01529999999999
 20
27.0360773248408
 30
0.0
 40
0.25
100
AcDbArc
 50
180.0
 51
270.0
  0
ARC
  5
B07
330
1F
100
AcDbEntity
  8
0
  6
Continuous
 62
     7
100
AcDbCircle
 10
43.76529999999998
 20
20.78607732484079
 30
0.0
 40
9.500020695240616
100
AcDbArc
 50
108.4084386294775
 51
71.5915613705224
  0
LINE
  5
B0D
330
1F
100
AcDbEntity
  8
0
  6
Continuous
 62
     7
100
AcDbLine
 10
43.76529999999998
 20
26.7860773248408
 30
0.0
 11
41.01529999999999
 21
26.7860773248408
 31
0.0
  0
LINE
  5
B10
330
1F
100
AcDbEntity
  8
0
  6
Continuous
 62
     7
100
AcDbLine
 10
273.63768405712
 20
-153.34814373089
 30
0.0
 11
310.5618
 21
-153.34814373089
 31
0.0
  0
LINE
  5
B11
330
1F
100
AcDbEntity
  8
0
  6
Continuous
 62
     7
100
AcDbLine
 10
320.5618
 20
-188.979209637946
 30
0.0
 11
320.5618
 21
-163.3481437308899
 31
0.0
  0
LINE
  5
B12
330
1F
100
AcDbEntity
  8
0
  6
DASH_CENTER
 62
    30
100
AcDbLine
 10
300.5618
 20
-158.03047018119
 30
0.0
 11
300.5618
 21
-178.824550719816
 31
0.0
  0
LINE
  5
B13
330
1F
100
AcDbEntity
  8
0
  6
DASH_CENTER
 62
    30
100
AcDbLine
 10
283.2794232001558
 20
-168.3481437308899
 30
0.0
 11
317.883312951458
 21
-168.3481437308899
 31
0.0
  0
LINE
  5
B14
330
1F
100
AcDbEntity
  8
0
  6
Continuous
 62
     7
100
AcDbLine
 10
308.0618
 20
-173.34814373089
 30
0.0
 11
293.0617999999999
 21
-173.34814373089
 31
0.0
  0
LINE
  5
B15
330
1F
100
AcDbEntity
  8
0
  6
Continuous
 62
     7
100
AcDbLine
 10
293.0617999999999
 20
-163.3481437308899
 30
0.0
 11
308.0618
 21
-163.3481437308899
 31
0.0
  0
LINE
  5
B16
330
1F
100
AcDbEntity
  8
0
  6
Continuous
 62
     7
100
AcDbLine
 10
280.562
 20
-173.34814373089
 30
0.0
 11
280.562
 21
-153.34814373089
 31
0.0
  0
LINE
  5
B17
330
1F
100
AcDbEntity
  8
0
  6
Continuous
 62
     7
100
AcDbLine
 10
320.5618
 20
-183.34814373089
 30
0.0
 11
290.562
 21
-183.34814373089
 31
0.0
  0
LINE
  5
B25
330
1F
100
AcDbEntity
  8
0
  6
Continuous
 62
     7
100
AcDbLine
 10
46.76529999999998
 20
27.0360773248408
 30
0.0
 11
46.76529999999998
 21
32.53607732484081
 31
0.0
  0
LINE
  5
B26
330
1F
100
AcDbEntity
  8
0
  6
Continuous
 62
     7
100
AcDbLine
 10
41.01529999999999
 20
32.7860773248408
 30
0.0
 11
46.5153
 21
32.7860773248408
 31
0.0
  0
LINE
  5
B27
330
1F
100
AcDbEntity
  8
0
  6
Continuous
 62
     7
100
AcDbLine
 10
40.76529999999999
 20
27.0360773248408
 30
0.0
 11
40.76529999999999
 21
32.53607732484081
 31
0.0
  0
LINE
  5
B28
330
1F
100
AcDbEntity
  8
0
  6
Continuous
 62
     7
100
AcDbLine
 10
46.5153
 20
26.7860773248408
 30
0.0
 11
43.76529999999998
 21
26.7860773248408
 31
0.0
  0
LINE
  5
B29
330
1F
100
AcDbEntity
  8
0
  6
Continuous
 62
     7
100
AcDbLine
 10
46.76529999999998
 20
32.53607732484081
 30
0.0
 11
46.5153
 21
32.7860773248408
 31
0.0
  0
LINE
  5
B2A
330
1F
100
AcDbEntity
  8
0
  6
Continuous
 62
     7
100
AcDbLine
 10
41.01529999999999
 20
32.7860773248408
 30
0.0
 11
40.76529999999999
 21
32.53607732484081
 31
0.0
  0
LINE
  5
B2B
330
1F
100
AcDbEntity
  8
0
  6
Continuous
 62
     7
100
AcDbLine
 10
40.76529999999999
 20
27.0360773248408
 30
0.0
 11
41.01529999999999
 21
26.7860773248408
 31
0.0
  0
LINE
  5
B2C
330
1F
100
AcDbEntity
  8
0
  6
Continuous
 62
     7
100
AcDbLine
 10
46.5153
 20
26.7860773248408
 30
0.0
 11
46.76529999999998
 21
27.0360773248408
 31
0.0
  0
LINE
  5
B2D
330
1F
100
AcDbEntity
  8
0
  6
Continuous
 62
     7
100
AcDbLine
 10
40.76529999999999
 20
27.0360773248408
 30
0.0
 11
40.76529999999999
 21
29.79997732484081
 31
0.0
  0
LINE
  5
B2E
330
1F
100
AcDbEntity
  8
0
  6
Continuous
 62
     7
100
AcDbLine
 10
46.76529999999998
 20
27.0360773248408
 30
0.0
 11
46.76529999999998
 21
29.79997732484081
 31
0.0
  0
LINE
  5
B2F
330
1F
100
AcDbEntity
  8
0
  6
DASH_CENTER
 62
    30
100
AcDbLine
 10
62.97990000000002
 20
20.78607732484079
 30
0.0
 11
26.33129999999999
 21
20.78607732484079
 31
0.0
  0
LINE
  5
B30
330
1F
100
AcDbEntity
  8
0
  6
DASH_CENTER
 62
    30
100
AcDbLine
 10
43.76529999999998
 20
4.825177324840788
 30
0.0
 11
43.76529999999998
 21
37.8981773248408
 31
0.0
  0
POINT
  5
B31
330
1F
100
AcDbEntity
  8
0
 62
     2
100
AcDbPoint
 10
34.26530000000001
 20
19.61357732484076
 30
0.0
  0
POINT
  5
B32
330
1F
100
AcDbEntity
  8
0
 62
     2
100
AcDbPoint
 10
53.26530000000001
 20
19.61357732484076
 30
0.0
  0
MTEXT
  5
B91
330
1F
100
AcDbEntity
  8
0
100
AcDbMText
 10
-40.23071986254826
 20
-143.1625119313795
 30
0.0
 40
8.0
 41
132.6708746177395
 71
     1
 72
     1
  1
AET-DBF 4P 0.75kW
 73
     1
 44
1.0
  0
VIEWPORT
  5
71
330
55
100
AcDbEntity
 67
     1
  8
0
100
AcDbViewport
 10
133.3499908447265
 20
101.5999970436096
 30
0.0
 40
381.3957395593833
 41
218.2856291881582
 68
     1
 69
     1
 12
133.3499908447265
 22
101.5999970436096
 13
0.0
 23
0.0
 14
10.0
 24
10.0
 15
10.0
 25
10.0
 16
0.0
 26
0.0
 36
1.0
 17
0.0
 27
0.0
 37
0.0
 42
50.0
 43
0.0
 44
0.0
 45
218.2856291881582
 50
0.0
 51
0.0
 72
   100
 90
    32800
  1

281
     0
 71
     1
 74
     0
110
0.0
120
0.0
130
0.0
111
1.0
121
0.0
131
0.0
112
0.0
122
1.0
132
0.0
 79
     0
146
0.0
  0
VIEWPORT
  5
73
330
55
100
AcDbEntity
 67
     1
  8
0
100
AcDbViewport
 10
133.3499939441679
 20
101.5999939441679
 30
0.0
 40
213.3599903106689
 41
162.5599903106689
 68
     2
 69
     2
 12
210.0
 22
148.5
 13
0.0
 23
0.0
 14
10.0
 24
10.0
 15
10.0
 25
10.0
 16
0.0
 26
0.0
 36
1.0
 17
0.0
 27
0.0
 37
0.0
 42
50.0
 43
0.0
 44
0.0
 45
324.0677920111345
 50
0.0
 51
0.0
 72
   100
 90
    32864
  1

281
     0
 71
     1
 74
     0
110
0.0
120
0.0
130
0.0
111
1.0
121
0.0
131
0.0
112
0.0
122
1.0
132
0.0
 79
     0
146
0.0
  0
ENDSEC
  0
SECTION
  2
OBJECTS
  0
DICTIONARY
  5
C
330
0
100
AcDbDictionary
281
     1
  3
ACAD_GROUP
350
D
  3
ACAD_LAYOUT
350
1A
  3
ACAD_MLINESTYLE
350
17
  3
ACAD_PLOTSETTINGS
350
19
  3
ACAD_PLOTSTYLENAME
350
E
  3
AcDbVariableDictionary
350
5E
  0
DICTIONARY
  5
D
102
{ACAD_REACTORS
330
C
102
}
330
C
100
AcDbDictionary
281
     1
  0
DICTIONARY
  5
1A
102
{ACAD_REACTORS
330
C
102
}
330
C
100
AcDbDictionary
281
     1
  3
Model
350
22
  3
ﾚｲｱｳﾄ1
350
51
  3
ﾚｲｱｳﾄ2
350
56
  0
DICTIONARY
  5
17
102
{ACAD_REACTORS
330
C
102
}
330
C
100
AcDbDictionary
281
     1
  3
Standard
350
18
  0
DICTIONARY
  5
19
102
{ACAD_REACTORS
330
C
102
}
330
C
100
AcDbDictionary
281
     1
  0
ACDBDICTIONARYWDFLT
  5
E
102
{ACAD_REACTORS
330
C
102
}
330
C
100
AcDbDictionary
281
     1
  3
Normal
350
F
100
AcDbDictionaryWithDefault
340
F
  0
DICTIONARY
  5
5E
102
{ACAD_REACTORS
330
C
102
}
330
C
100
AcDbDictionary
281
     1
  3
DIMASSOC
350
5F
  3
HIDETEXT
350
63
  0
LAYOUT
  5
22
102
{ACAD_REACTORS
330
1A
102
}
330
1A
100
AcDbPlotSettings
  1

  2
none_device
  4
ANSI_A_(8.50_x_11.00_Inches)
  6

 40
6.349999904632567
 41
19.04999923706053
 42
6.350006103515625
 43
19.04998779296875
 44
215.8999938964842
 45
279.3999938964843
 46
0.0
 47
0.0
 48
0.0
 49
0.0
140
0.0
141
0.0
142
1.0
143
78.436453180766
 70
 11952
 72
     0
 73
     1
 74
     0
  7

 75
     0
147
0.0127491741332998
148
0.0
149
0.0
100
AcDbLayout
  1
Model
 70
     1
 71
     0
 10
0.0
 20
0.0
 11
12.0
 21
9.0
 12
0.0
 22
0.0
 32
0.0
 14
0.0
 24
0.0
 34
0.0
 15
0.0
 25
0.0
 35
0.0
146
0.0
 13
0.0
 23
0.0
 33
0.0
 16
1.0
 26
0.0
 36
0.0
 17
0.0
 27
1.0
 37
0.0
 76
     0
330
1F
  0
LAYOUT
  5
51
102
{ACAD_REACTORS
330
1A
102
}
330
1A
100
AcDbPlotSettings
  1

  2
none_device
  4
Letter_(8.50_x_11.00_Inches)
  6

 40
6.349999904632567
 41
6.349999904632567
 42
6.350006103515625
 43
6.350006103515625
 44
215.8999938964842
 45
279.3999938964843
 46
0.0
 47
0.0
 48
0.0
 49
0.0
140
0.0
141
0.0
142
1.0
143
1.0
 70
   688
 72
     1
 73
     1
 74
     5
  7

 75
    16
147
1.0
148
0.0
149
0.0
100
AcDbLayout
  1
ﾚｲｱｳﾄ1
 70
     1
 71
     1
 10
-6.350006103515625
 20
-6.349999904632567
 11
273.0499877929687
 21
209.5499939918517
 12
0.0
 22
0.0
 32
0.0
 14
26.66076962115562
 24
20.31135699206657
 34
-0.0015258207003583
 15
240.039213369355
 25
182.8886381005154
 35
0.0000000349246037
146
0.0
 13
0.0
 23
0.0
 33
0.0
 16
1.0
 26
0.0
 36
0.0
 17
0.0
 27
1.0
 37
0.0
 76
     0
330
50
331
6B
  0
LAYOUT
  5
56
102
{ACAD_REACTORS
330
1A
102
}
330
1A
100
AcDbPlotSettings
  1

  2
none_device
  4
Letter_(8.50_x_11.00_Inches)
  6

 40
6.349999904632567
 41
6.349999904632567
 42
6.350006103515625
 43
6.350006103515625
 44
215.8999938964842
 45
279.3999938964843
 46
0.0
 47
0.0
 48
0.0
 49
0.0
140
0.0
141
0.0
142
1.0
143
1.0
 70
   688
 72
     1
 73
     1
 74
     5
  7

 75
    16
147
1.0
148
0.0
149
0.0
100
AcDbLayout
  1
ﾚｲｱｳﾄ2
 70
     1
 71
     2
 10
-6.350006103515625
 20
-6.349999904632567
 11
273.0499877929687
 21
209.5499939918517
 12
0.0
 22
0.0
 32
0.0
 14
26.66076962115562
 24
20.31135699206657
 34
-0.0015258207003583
 15
240.039213369355
 25
182.8886381005154
 35
0.0000000349246037
146
0.0
 13
0.0
 23
0.0
 33
0.0
 16
1.0
 26
0.0
 36
0.0
 17
0.0
 27
1.0
 37
0.0
 76
     0
330
55
331
71
  0
MLINESTYLE
  5
18
102
{ACAD_REACTORS
330
17
102
}
330
17
100
AcDbMlineStyle
  2
STANDARD
 70
     0
  3

 62
   256
 51
90.0
 52
90.0
 71
     2
 49
0.5
 62
   256
  6
BYLAYER
 49
-0.5
 62
   256
  6
BYLAYER
  0
ACDBPLACEHOLDER
  5
F
102
{ACAD_REACTORS
330
E
102
}
330
E
  0
DICTIONARYVAR
  5
5F
102
{ACAD_REACTORS
330
5E
102
}
330
5E
100
DictionaryVariables
280
     0
  1
2
  0
DICTIONARYVAR
  5
63
102
{ACAD_REACTORS
330
5E
102
}
330
5E
100
DictionaryVariables
280
     0
  1
1
  0
ENDSEC
  0
EOF
