  0
SECTION
  2
HEADER
  9
$ACADVER
  1
AC1015
  9
$ACADMAINTVER
 70
    14
  9
$DWGCODEPAGE
  3
ANSI_932
  9
$INSBASE
 10
0.0
 20
0.0
 30
0.0
  9
$EXTMIN
 10
-387.3363317765232
 20
-204.0107569922818
 30
-0.0015258207003583
  9
$EXTMAX
 10
297.3504647022934
 20
158.062225871559
 30
0.0000000349246037
  9
$LIMMIN
 10
0.0
 20
0.0
  9
$LIMMAX
 10
420.0
 20
297.0
  9
$ORTHOMODE
 70
     0
  9
$REGENMODE
 70
     1
  9
$FILLMODE
 70
     1
  9
$QTEXTMODE
 70
     0
  9
$MIRRTEXT
 70
     1
  9
$LTSCALE
 40
1.0
  9
$ATTMODE
 70
     1
  9
$TEXTSIZE
 40
2.5
  9
$TRACEWID
 40
1.0
  9
$TEXTSTYLE
  7
Standard
  9
$CLAYER
  8
0
  9
$CELTYPE
  6
ByLayer
  9
$CECOLOR
 62
   256
  9
$CELTSCALE
 40
1.0
  9
$DISPSILH
 70
     0
  9
$DIMSCALE
 40
1.0
  9
$DIMASZ
 40
2.5
  9
$DIMEXO
 40
0.625
  9
$DIMDLI
 40
3.75
  9
$DIMRND
 40
0.0
  9
$DIMDLE
 40
0.0
  9
$DIMEXE
 40
1.25
  9
$DIMTP
 40
0.0
  9
$DIMTM
 40
0.0
  9
$DIMTXT
 40
2.5
  9
$DIMCEN
 40
2.5
  9
$DIMTSZ
 40
0.0
  9
$DIMTOL
 70
     0
  9
$DIMLIM
 70
     0
  9
$DIMTIH
 70
     0
  9
$DIMTOH
 70
     0
  9
$DIMSE1
 70
     0
  9
$DIMSE2
 70
     0
  9
$DIMTAD
 70
     1
  9
$DIMZIN
 70
     8
  9
$DIMBLK
  1

  9
$DIMASO
 70
     1
  9
$DIMSHO
 70
     1
  9
$DIMPOST
  1

  9
$DIMAPOST
  1

  9
$DIMALT
 70
     0
  9
$DIMALTD
 70
     3
  9
$DIMALTF
 40
0.03937007874016
  9
$DIMLFAC
 40
1.0
  9
$DIMTOFL
 70
     1
  9
$DIMTVP
 40
0.0
  9
$DIMTIX
 70
     0
  9
$DIMSOXD
 70
     0
  9
$DIMSAH
 70
     0
  9
$DIMBLK1
  1

  9
$DIMBLK2
  1

  9
$DIMSTYLE
  2
ISO-25
  9
$DIMCLRD
 70
     0
  9
$DIMCLRE
 70
     0
  9
$DIMCLRT
 70
     0
  9
$DIMTFAC
 40
1.0
  9
$DIMGAP
 40
0.625
  9
$DIMJUST
 70
     0
  9
$DIMSD1
 70
     0
  9
$DIMSD2
 70
     0
  9
$DIMTOLJ
 70
     0
  9
$DIMTZIN
 70
     8
  9
$DIMALTZ
 70
     0
  9
$DIMALTTZ
 70
     0
  9
$DIMUPT
 70
     0
  9
$DIMDEC
 70
     2
  9
$DIMTDEC
 70
     2
  9
$DIMALTU
 70
     2
  9
$DIMALTTD
 70
     3
  9
$DIMTXSTY
  7
Standard
  9
$DIMAUNIT
 70
     0
  9
$DIMADEC
 70
     0
  9
$DIMALTRND
 40
0.0
  9
$DIMAZIN
 70
     0
  9
$DIMDSEP
 70
    44
  9
$DIMATFIT
 70
     3
  9
$DIMFRAC
 70
     0
  9
$DIMLDRBLK
  1

  9
$DIMLUNIT
 70
     2
  9
$DIMLWD
 70
    -2
  9
$DIMLWE
 70
    -2
  9
$DIMTMOVE
 70
     0
  9
$LUNITS
 70
     2
  9
$LUPREC
 70
     4
  9
$SKETCHINC
 40
1.0
  9
$FILLETRAD
 40
10.0
  9
$AUNITS
 70
     0
  9
$AUPREC
 70
     0
  9
$MENU
  1
.
  9
$ELEVATION
 40
0.0
  9
$PELEVATION
 40
0.0
  9
$THICKNESS
 40
0.0
  9
$LIMCHECK
 70
     0
  9
$CHAMFERA
 40
10.0
  9
$CHAMFERB
 40
10.0
  9
$CHAMFERC
 40
20.0
  9
$CHAMFERD
 40
0.0
  9
$SKPOLY
 70
     0
  9
$TDCREATE
 40
2456037.757298171
  9
$TDUCREATE
 40
2456037.382298171
  9
$TDUPDATE
 40
2456037.759549687
  9
$TDUUPDATE
 40
2456037.384549687
  9
$TDINDWG
 40
0.0022517014
  9
$TDUSRTIMER
 40
0.0022517014
  9
$USRTIMER
 70
     1
  9
$ANGBASE
 50
0.0
  9
$ANGDIR
 70
     0
  9
$PDMODE
 70
     0
  9
$PDSIZE
 40
0.0
  9
$PLINEWID
 40
0.0
  9
$SPLFRAME
 70
     0
  9
$SPLINETYPE
 70
     6
  9
$SPLINESEGS
 70
     8
  9
$HANDSEED
  5
2468
  9
$SURFTAB1
 70
     6
  9
$SURFTAB2
 70
     6
  9
$SURFTYPE
 70
     6
  9
$SURFU
 70
     6
  9
$SURFV
 70
     6
  9
$UCSBASE
  2

  9
$UCSNAME
  2

  9
$UCSORG
 10
0.0
 20
0.0
 30
0.0
  9
$UCSXDIR
 10
1.0
 20
0.0
 30
0.0
  9
$UCSYDIR
 10
0.0
 20
1.0
 30
0.0
  9
$UCSORTHOREF
  2

  9
$UCSORTHOVIEW
 70
     0
  9
$UCSORGTOP
 10
0.0
 20
0.0
 30
0.0
  9
$UCSORGBOTTOM
 10
0.0
 20
0.0
 30
0.0
  9
$UCSORGLEFT
 10
0.0
 20
0.0
 30
0.0
  9
$UCSORGRIGHT
 10
0.0
 20
0.0
 30
0.0
  9
$UCSORGFRONT
 10
0.0
 20
0.0
 30
0.0
  9
$UCSORGBACK
 10
0.0
 20
0.0
 30
0.0
  9
$PUCSBASE
  2

  9
$PUCSNAME
  2

  9
$PUCSORG
 10
0.0
 20
0.0
 30
0.0
  9
$PUCSXDIR
 10
1.0
 20
0.0
 30
0.0
  9
$PUCSYDIR
 10
0.0
 20
1.0
 30
0.0
  9
$PUCSORTHOREF
  2

  9
$PUCSORTHOVIEW
 70
     0
  9
$PUCSORGTOP
 10
0.0
 20
0.0
 30
0.0
  9
$PUCSORGBOTTOM
 10
0.0
 20
0.0
 30
0.0
  9
$PUCSORGLEFT
 10
0.0
 20
0.0
 30
0.0
  9
$PUCSORGRIGHT
 10
0.0
 20
0.0
 30
0.0
  9
$PUCSORGFRONT
 10
0.0
 20
0.0
 30
0.0
  9
$PUCSORGBACK
 10
0.0
 20
0.0
 30
0.0
  9
$USERI1
 70
     0
  9
$USERI2
 70
     0
  9
$USERI3
 70
     0
  9
$USERI4
 70
     0
  9
$USERI5
 70
     0
  9
$USERR1
 40
0.0
  9
$USERR2
 40
0.0
  9
$USERR3
 40
0.0
  9
$USERR4
 40
0.0
  9
$USERR5
 40
0.0
  9
$WORLDVIEW
 70
     1
  9
$SHADEDGE
 70
     3
  9
$SHADEDIF
 70
    70
  9
$TILEMODE
 70
     1
  9
$MAXACTVP
 70
    64
  9
$PINSBASE
 10
0.0
 20
0.0
 30
0.0
  9
$PLIMCHECK
 70
     0
  9
$PEXTMIN
 10
26.66076962115562
 20
20.31135699206657
 30
-0.0015258207003583
  9
$PEXTMAX
 10
240.039213369355
 20
182.8886381005154
 30
0.0000000349246037
  9
$PLIMMIN
 10
-6.350006103515625
 20
-6.349999904632568
  9
$PLIMMAX
 10
273.0499877929687
 20
209.5499939918517
  9
$UNITMODE
 70
     0
  9
$VISRETAIN
 70
     1
  9
$PLINEGEN
 70
     0
  9
$PSLTSCALE
 70
     1
  9
$TREEDEPTH
 70
  3020
  9
$CMLSTYLE
  2
Standard
  9
$CMLJUST
 70
     0
  9
$CMLSCALE
 40
20.0
  9
$PROXYGRAPHICS
 70
     1
  9
$MEASUREMENT
 70
     1
  9
$CELWEIGHT
370
    -1
  9
$ENDCAPS
280
     0
  9
$JOINSTYLE
280
     0
  9
$LWDISPLAY
290
     0
  9
$INSUNITS
 70
     4
  9
$HYPERLINKBASE
  1

  9
$STYLESHEET
  1

  9
$XEDIT
290
     1
  9
$CEPSNTYPE
380
     0
  9
$PSTYLEMODE
290
     1
  9
$FINGERPRINTGUID
  2
{FDEAD578-A652-11D2-9A35-0060089B3A3F}
  9
$VERSIONGUID
  2
{9F1FF8C0-2CC3-4D1A-8405-CDD92E0EDE93}
  9
$EXTNAMES
290
     1
  9
$PSVPSCALE
 40
0.0
  9
$OLESTARTUP
290
     0
  0
ENDSEC
  0
SECTION
  2
CLASSES
  0
CLASS
  1
ACDBDICTIONARYWDFLT
  2
AcDbDictionaryWithDefault
  3
AutoCAD 2000
 90
        0
280
     0
281
     0
  0
CLASS
  1
ACDBPLACEHOLDER
  2
AcDbPlaceHolder
  3
AutoCAD 2000
 90
        0
280
     0
281
     0
  0
CLASS
  1
LAYOUT
  2
AcDbLayout
  3
AutoCAD 2000
 90
        0
280
     0
281
     0
  0
CLASS
  1
DICTIONARYVAR
  2
AcDbDictionaryVar
  3
AutoCAD 2000
 90
        0
280
     0
281
     0
  0
ENDSEC
  0
SECTION
  2
TABLES
  0
TABLE
  2
VPORT
  5
8
330
0
100
AcDbSymbolTable
 70
     4
  0
VPORT
  5
2467
330
8
100
AcDbSymbolTableRecord
100
AcDbViewportTableRecord
  2
*Active
 70
     0
 10
0.0
 20
0.0
 11
1.0
 21
1.0
 12
-30.21377493652244
 22
-22.9742655603614
 13
0.0
 23
0.0
 14
10.0
 24
10.0
 15
10.0
 25
10.0
 16
0.0
 26
0.0
 36
1.0
 17
0.0
 27
0.0
 37
0.0
 40
364.7385508358445
 41
1.97051597051597
 42
50.0
 43
0.0
 44
0.0
 50
0.0
 51
0.0
 71
     0
 72
   100
 73
     1
 74
     3
 75
     0
 76
     0
 77
     0
 78
     0
281
     0
 65
     1
110
0.0
120
0.0
130
0.0
111
1.0
121
0.0
131
0.0
112
0.0
122
1.0
132
0.0
 79
     0
146
0.0
  0
ENDTAB
  0
TABLE
  2
LTYPE
  5
5
330
0
100
AcDbSymbolTable
 70
     3
  0
LTYPE
  5
14
330
5
100
AcDbSymbolTableRecord
100
AcDbLinetypeTableRecord
  2
ByBlock
 70
     0
  3

 72
    65
 73
     0
 40
0.0
  0
LTYPE
  5
15
330
5
100
AcDbSymbolTableRecord
100
AcDbLinetypeTableRecord
  2
ByLayer
 70
     0
  3

 72
    65
 73
     0
 40
0.0
  0
LTYPE
  5
16
330
5
100
AcDbSymbolTableRecord
100
AcDbLinetypeTableRecord
  2
Continuous
 70
     0
  3
Solid line
 72
    65
 73
     0
 40
0.0
  0
LTYPE
  5
1275
330
5
100
AcDbSymbolTableRecord
100
AcDbLinetypeTableRecord
  2
DASHED
 70
     0
  3
Dashed
 72
    65
 73
     2
 40
15.0
 49
7.0
 74
     0
 49
-8.0
 74
     0
  0
LTYPE
  5
1276
330
5
100
AcDbSymbolTableRecord
100
AcDbLinetypeTableRecord
  2
DASH_CENTER
 70
     0
  3
Dash_Center
 72
    65
 73
     4
 40
14.0
 49
11.0
 74
     0
 49
-1.0
 74
     0
 49
1.0
 74
     0
 49
-1.0
 74
     0
  0
ENDTAB
  0
TABLE
  2
LAYER
  5
2
330
0
100
AcDbSymbolTable
 70
     1
  0
LAYER
  5
10
330
2
100
AcDbSymbolTableRecord
100
AcDbLayerTableRecord
  2
0
 70
     0
 62
     7
  6
Continuous
370
    -3
390
F
  0
ENDTAB
  0
TABLE
  2
STYLE
  5
3
330
0
100
AcDbSymbolTable
 70
    26
  0
STYLE
  5
11
330
3
100
AcDbSymbolTableRecord
100
AcDbTextStyleTableRecord
  2
Standard
 70
     0
 40
0.0
 41
1.0
 50
0.0
 71
     0
 42
2.5
  3
txt
  4

  0
STYLE
  5
1277
330
3
100
AcDbSymbolTableRecord
100
AcDbTextStyleTableRecord
  2
CONVERTER_1
 70
     0
 40
0.0
 41
0.834375
 50
0.0
 71
     0
 42
0.2
  3
txt.shx
  4
bigfont.shx
  0
STYLE
  5
1278
330
3
100
AcDbSymbolTableRecord
100
AcDbTextStyleTableRecord
  2
CONVERTER_2
 70
     0
 40
0.0
 41
0.8455
 50
0.0
 71
     0
 42
0.2
  3
txt.shx
  4

  0
STYLE
  5
1279
330
3
100
AcDbSymbolTableRecord
100
AcDbTextStyleTableRecord
  2
CONVERTER_3
 70
     0
 40
0.0
 41
0.8009999999999999
 50
0.0
 71
     0
 42
0.2
  3
txt.shx
  4
bigfont.shx
  0
STYLE
  5
127A
330
3
100
AcDbSymbolTableRecord
100
AcDbTextStyleTableRecord
  2
CONVERTER_4
 70
     0
 40
0.0
 41
0.8009999999999999
 50
0.0
 71
     0
 42
0.2
  3
txt.shx
  4

  0
STYLE
  5
127B
330
3
100
AcDbSymbolTableRecord
100
AcDbTextStyleTableRecord
  2
CONVERTER_5
 70
     0
 40
0.0
 41
0.89
 50
0.0
 71
     0
 42
0.2
  3
txt.shx
  4

  0
STYLE
  5
127C
330
3
100
AcDbSymbolTableRecord
100
AcDbTextStyleTableRecord
  2
CONVERTER_6
 70
     0
 40
0.0
 41
0.741666637
 50
0.0
 71
     0
 42
0.2
  3
txt.shx
  4

  0
STYLE
  5
127D
330
3
100
AcDbSymbolTableRecord
100
AcDbTextStyleTableRecord
  2
CONVERTER_7
 70
     0
 40
0.0
 41
0.89
 50
0.0
 71
     0
 42
0.2
  3
txt.shx
  4
bigfont.shx
  0
STYLE
  5
127E
330
3
100
AcDbSymbolTableRecord
100
AcDbTextStyleTableRecord
  2
CONVERTER_8
 70
     0
 40
0.0
 41
0.6230000000000001
 50
0.0
 71
     0
 42
0.2
  3
txt.shx
  4

  0
STYLE
  5
127F
330
3
100
AcDbSymbolTableRecord
100
AcDbTextStyleTableRecord
  2
CONVERTER_9
 70
     0
 40
0.0
 41
0.9761290322580601
 50
0.0
 71
     0
 42
0.2
  3
txt.shx
  4
bigfont.shx
  0
STYLE
  5
1280
330
3
100
AcDbSymbolTableRecord
100
AcDbTextStyleTableRecord
  2
CONVERTER_10
 70
     0
 40
0.0
 41
1.008666666666669
 50
0.0
 71
     0
 42
0.2
  3
txt.shx
  4
bigfont.shx
  0
STYLE
  5
1281
330
3
100
AcDbSymbolTableRecord
100
AcDbTextStyleTableRecord
  2
CONVERTER_11
 70
     0
 40
0.0
 41
0.94933333333333
 50
0.0
 71
     0
 42
0.2
  3
txt.shx
  4

  0
STYLE
  5
1282
330
3
100
AcDbSymbolTableRecord
100
AcDbTextStyleTableRecord
  2
CONVERTER_12
 70
     0
 40
0.0
 41
1.01714285714286
 50
0.0
 71
     0
 42
0.2
  3
txt.shx
  4

  0
STYLE
  5
1283
330
3
100
AcDbSymbolTableRecord
100
AcDbTextStyleTableRecord
  2
CONVERTER_13
 70
     0
 40
0.0
 41
1.1125
 50
0.0
 71
     0
 42
0.2
  3
txt.shx
  4

  0
STYLE
  5
1284
330
3
100
AcDbSymbolTableRecord
100
AcDbTextStyleTableRecord
  2
CONVERTER_14
 70
     0
 40
0.0
 41
1.148387096774189
 50
0.0
 71
     0
 42
0.2
  3
txt.shx
  4

  0
STYLE
  5
1285
330
3
100
AcDbSymbolTableRecord
100
AcDbTextStyleTableRecord
  2
CONVERTER_15
 70
     0
 40
0.0
 41
1.078787878787879
 50
0.0
 71
     0
 42
0.2
  3
txt.shx
  4

  0
STYLE
  5
1286
330
3
100
AcDbSymbolTableRecord
100
AcDbTextStyleTableRecord
  2
CONVERTER_16
 70
     0
 40
0.0
 41
1.424
 50
0.0
 71
     0
 42
0.2
  3
txt.shx
  4

  0
STYLE
  5
1287
330
3
100
AcDbSymbolTableRecord
100
AcDbTextStyleTableRecord
  2
CONVERTER_17
 70
     0
 40
0.0
 41
0.7719387755102
 50
0.0
 71
     0
 42
0.2
  3
txt.shx
  4
bigfont.shx
  0
STYLE
  5
1288
330
3
100
AcDbSymbolTableRecord
100
AcDbTextStyleTableRecord
  2
CONVERTER_18
 70
     0
 40
0.0
 41
0.83262578616352
 50
0.0
 71
     0
 42
0.2
  3
txt.shx
  4
bigfont.shx
  0
STYLE
  5
1289
330
3
100
AcDbSymbolTableRecord
100
AcDbTextStyleTableRecord
  2
CONVERTER_19
 70
     0
 40
0.0
 41
0.85884578997162
 50
0.0
 71
     0
 42
0.2
  3
txt.shx
  4
bigfont.shx
  0
STYLE
  5
128A
330
3
100
AcDbSymbolTableRecord
100
AcDbTextStyleTableRecord
  2
CONVERTER_20
 70
     0
 40
0.0
 41
0.8362966374942399
 50
0.0
 71
     0
 42
0.2
  3
txt.shx
  4
bigfont.shx
  0
STYLE
  5
128B
330
3
100
AcDbSymbolTableRecord
100
AcDbTextStyleTableRecord
  2
CONVERTER_21
 70
     0
 40
0.0
 41
1.68111111111111
 50
0.0
 71
     0
 42
0.2
  3
txt.shx
  4
bigfont.shx
  0
STYLE
  5
128C
330
3
100
AcDbSymbolTableRecord
100
AcDbTextStyleTableRecord
  2
CONVERTER_22
 70
     0
 40
0.0
 41
1.62688172043011
 50
0.0
 71
     0
 42
0.2
  3
txt.shx
  4
bigfont.shx
  0
STYLE
  5
128D
330
3
100
AcDbSymbolTableRecord
100
AcDbTextStyleTableRecord
  2
CONVERTER_23
 70
     0
 40
0.0
 41
0.945625
 50
0.0
 71
     0
 42
0.2
  3
txt.shx
  4
bigfont.shx
  0
STYLE
  5
128E
330
3
100
AcDbSymbolTableRecord
100
AcDbTextStyleTableRecord
  2
CONVERTER_24
 70
     0
 40
0.0
 41
0.7565
 50
0.0
 71
     0
 42
0.2
  3
txt.shx
  4

  0
STYLE
  5
128F
330
3
100
AcDbSymbolTableRecord
100
AcDbTextStyleTableRecord
  2
CONVERTER_25
 70
     0
 40
0.0
 41
0.7565
 50
0.0
 71
     0
 42
0.2
  3
txt.shx
  4
bigfont.shx
  0
ENDTAB
  0
TABLE
  2
VIEW
  5
6
330
0
100
AcDbSymbolTable
 70
     0
  0
ENDTAB
  0
TABLE
  2
UCS
  5
7
330
0
100
AcDbSymbolTable
 70
     0
  0
ENDTAB
  0
TABLE
  2
APPID
  5
9
330
0
100
AcDbSymbolTable
 70
     1
  0
APPID
  5
12
330
9
100
AcDbSymbolTableRecord
100
AcDbRegAppTableRecord
  2
ACAD
 70
     0
  0
ENDTAB
  0
TABLE
  2
DIMSTYLE
  5
A
330
0
100
AcDbSymbolTable
 70
     2
100
AcDbDimStyleTable
 71
     0
  0
DIMSTYLE
105
27
330
A
100
AcDbSymbolTableRecord
100
AcDbDimStyleTableRecord
  2
ISO-25
 70
     0
 41
2.5
 42
0.625
 43
3.75
 44
1.25
 73
     0
 74
     0
 77
     1
 78
     8
140
2.5
141
2.5
143
0.03937007874016
147
0.625
171
     3
172
     1
271
     2
272
     2
274
     3
278
    44
283
     0
284
     8
340
11
  0
DIMSTYLE
105
1290
330
A
100
AcDbSymbolTableRecord
100
AcDbDimStyleTableRecord
  2
Standard
 70
     0
340
11
  0
ENDTAB
  0
TABLE
  2
BLOCK_RECORD
  5
1
330
0
100
AcDbSymbolTable
 70
     2
  0
BLOCK_RECORD
  5
1F
330
1
100
AcDbSymbolTableRecord
100
AcDbBlockTableRecord
  2
*Model_Space
340
22
  0
BLOCK_RECORD
  5
55
330
1
100
AcDbSymbolTableRecord
100
AcDbBlockTableRecord
  2
*Paper_Space
340
56
  0
BLOCK_RECORD
  5
50
330
1
100
AcDbSymbolTableRecord
100
AcDbBlockTableRecord
  2
*Paper_Space0
340
51
  0
ENDTAB
  0
ENDSEC
  0
SECTION
  2
BLOCKS
  0
BLOCK
  5
20
330
1F
100
AcDbEntity
  8
0
100
AcDbBlockBegin
  2
*Model_Space
 70
     0
 10
0.0
 20
0.0
 30
0.0
  3
*Model_Space
  1

  0
ENDBLK
  5
21
330
1F
100
AcDbEntity
  8
0
100
AcDbBlockEnd
  0
BLOCK
  5
57
330
55
100
AcDbEntity
 67
     1
  8
0
100
AcDbBlockBegin
  2
*Paper_Space
 70
     0
 10
0.0
 20
0.0
 30
0.0
  3
*Paper_Space
  1

  0
ENDBLK
  5
58
330
55
100
AcDbEntity
 67
     1
  8
0
100
AcDbBlockEnd
  0
BLOCK
  5
52
330
50
100
AcDbEntity
  8
0
100
AcDbBlockBegin
  2
*Paper_Space0
 70
     0
 10
0.0
 20
0.0
 30
0.0
  3
*Paper_Space0
  1

  0
VIEWPORT
  5
6B
330
50
100
AcDbEntity
  8
0
100
AcDbViewport
 10
133.3499908447265
 20
101.5999970436096
 30
0.0
 40
381.3957395593834
 41
218.2856291881582
 69
     0
 12
133.3499908447265
 22
101.5999970436096
 13
0.0
 23
0.0
 14
10.0
 24
10.0
 15
10.0
 25
10.0
 16
0.0
 26
0.0
 36
1.0
 17
0.0
 27
0.0
 37
0.0
 42
50.0
 43
0.0
 44
0.0
 45
218.2856291881582
 50
0.0
 51
0.0
 72
   100
 90
    32800
  1

281
     0
 71
     1
 74
     0
110
0.0
120
0.0
130
0.0
111
1.0
121
0.0
131
0.0
112
0.0
122
1.0
132
0.0
 79
     0
146
0.0
  0
VIEWPORT
  5
6D
330
50
100
AcDbEntity
  8
0
100
AcDbViewport
 10
133.349993944168
 20
101.599993944168
 30
0.0
 40
213.3599903106689
 41
162.5599903106689
 69
     0
 12
210.0
 22
148.5
 13
0.0
 23
0.0
 14
10.0
 24
10.0
 15
10.0
 25
10.0
 16
0.0
 26
0.0
 36
1.0
 17
0.0
 27
0.0
 37
0.0
 42
50.0
 43
0.0
 44
0.0
 45
324.0677920111345
 50
0.0
 51
0.0
 72
   100
 90
    32864
  1

281
     0
 71
     1
 74
     0
110
0.0
120
0.0
130
0.0
111
1.0
121
0.0
131
0.0
112
0.0
122
1.0
132
0.0
 79
     0
146
0.0
  0
ENDBLK
  5
53
330
50
100
AcDbEntity
  8
0
100
AcDbBlockEnd
  0
ENDSEC
  0
SECTION
  2
ENTITIES
  0
ARC
  5
1B8A
330
1F
100
AcDbEntity
  8
0
  6
Continuous
 62
     7
100
AcDbCircle
 10
-248.2538
 20
7.05730000000007
 30
0.0
 40
11.0
100
AcDbArc
 50
327.7040315790096
 51
212.2959684209901
  0
ARC
  5
1B8B
330
1F
100
AcDbEntity
  8
0
  6
Continuous
 62
     7
100
AcDbCircle
 10
760.7458000000001
 20
5.884799999999799
 30
0.0
 40
1099.999951635657
100
AcDbArc
 50
179.9389278934963
 51
184.0960006701725
  0
LINE
  5
1B8C
330
1F
100
AcDbEntity
  8
0
  6
Continuous
 62
     7
100
AcDbLine
 10
-117.2539522884395
 20
7.057299999999999
 30
0.0
 11
-117.2539522884395
 21
-75.9427
 31
0.0
  0
LINE
  5
1B8D
330
1F
100
AcDbEntity
  8
0
  6
Continuous
 62
     7
100
AcDbLine
 10
-102.3119522884395
 20
-33.87929999999999
 30
0.0
 11
-102.3119522884395
 21
7.057299999999999
 31
0.0
  0
LINE
  5
1B8E
330
1F
100
AcDbEntity
  8
0
  6
Continuous
 62
     7
100
AcDbLine
 10
-106.1194522884392
 20
-34.11069999999988
 30
0.0
 11
-106.1194522884392
 21
7.057299999999999
 31
0.0
  0
LINE
  5
1B8F
330
1F
100
AcDbEntity
  8
0
  6
Continuous
 62
     7
100
AcDbLine
 10
-98.25395228843945
 20
7.057299999999999
 30
0.0
 11
-98.25395228843945
 21
-31.9427
 31
0.0
  0
LINE
  5
1B90
330
1F
100
AcDbEntity
  8
0
  6
Continuous
 62
     7
100
AcDbLine
 10
-276.2538
 20
98.88479999999979
 30
0.0
 11
-276.2538
 21
-80.1152000000002
 31
0.0
  0
LINE
  5
1B91
330
1F
100
AcDbEntity
  8
0
  6
Continuous
 62
     7
100
AcDbLine
 10
-55.25370000000001
 20
-0.9427000000000091
 30
0.0
 11
-54.2537
 21
0.0572999999999899
 31
0.0
  0
LINE
  5
1B92
330
1F
100
AcDbEntity
  8
0
  6
Continuous
 62
     7
100
AcDbLine
 10
-55.25370000000001
 20
15.05729999999999
 30
0.0
 11
-55.25370000000001
 21
-0.9427000000000091
 31
0.0
  0
LINE
  5
1B93
330
1F
100
AcDbEntity
  8
0
  6
Continuous
 62
     7
100
AcDbLine
 10
-94.25369999999999
 20
16.9573
 30
0.0
 11
-94.25369999999999
 21
-2.842699999999998
 31
0.0
  0
LINE
  5
1B94
330
1F
100
AcDbEntity
  8
0
  6
Continuous
 62
     7
100
AcDbLine
 10
-254.2537999999999
 20
5.453082056739629
 30
0.0
 11
-260.2513305175282
 21
-2.31683530907609
 31
0.0
  0
LINE
  5
1B95
330
1F
100
AcDbEntity
  8
0
  6
Continuous
 62
     7
100
AcDbLine
 10
-254.2537999999999
 20
0.5433635791158303
 30
0.0
 11
-257.876515139482
 21
-4.149934302637101
 31
0.0
  0
LINE
  5
1B96
330
1F
100
AcDbEntity
  8
0
  6
Continuous
 62
     7
100
AcDbLine
 10
-251.2538
 20
11.83185532033683
 30
0.0
 11
-251.2538
 21
-7.621475303921739
 31
0.0
  0
LINE
  5
1B97
330
1F
100
AcDbEntity
  8
0
  6
Continuous
 62
     7
100
AcDbLine
 10
-238.6310848605181
 20
-4.149934302637101
 30
0.0
 11
-242.2538
 21
0.5433635791158303
 31
0.0
  0
LINE
  5
1B98
330
1F
100
AcDbEntity
  8
0
  6
Continuous
 62
     7
100
AcDbLine
 10
-236.2562694824716
 20
-2.31683530907609
 30
0.0
 11
-242.2538
 21
5.453082056739629
 31
0.0
  0
LINE
  5
1B99
330
1F
100
AcDbEntity
  8
0
  6
Continuous
 62
     7
100
AcDbLine
 10
-245.2538
 20
-7.621475303921739
 30
0.0
 11
-245.2538
 21
11.83185532033683
 31
0.0
  0
LINE
  5
1B9A
330
1F
100
AcDbEntity
  8
0
  6
Continuous
 62
     7
100
AcDbLine
 10
-248.2538
 20
-7.621475303921739
 30
0.0
 11
-248.2538
 21
11.83185532033683
 31
0.0
  0
LINE
  5
1B9B
330
1F
100
AcDbEntity
  8
0
  6
DASH_CENTER
 62
    30
100
AcDbLine
 10
-199.2536999999999
 20
157.847299062362
 30
0.0
 11
-199.2536999999999
 21
-92.5074
 31
0.0
  0
LINE
  5
1B9C
330
1F
100
AcDbEntity
  8
0
  6
Continuous
 62
     7
100
AcDbLine
 10
-242.2538
 20
8.55730000000007
 30
0.0
 11
-242.2538
 21
-7.621475303921739
 31
0.0
  0
LINE
  5
1B9D
330
1F
100
AcDbEntity
  8
0
  6
Continuous
 62
     7
100
AcDbLine
 10
-254.2537999999999
 20
8.55730000000007
 30
0.0
 11
-254.2537999999999
 21
-7.621475303921739
 31
0.0
  0
ARC
  5
1BA0
330
1F
100
AcDbEntity
  8
0
  6
Continuous
 62
     7
100
AcDbCircle
 10
-286.2536380802944
 20
-42.21279999902274
 30
0.0
 40
5.191330140103695
100
AcDbArc
 50
41.37222346350387
 51
138.6248350104617
  0
ARC
  5
1BA1
330
1F
100
AcDbEntity
  8
0
  6
Continuous
 62
     7
100
AcDbCircle
 10
-286.2535958271681
 20
-38.2722000001024
 30
0.0
 40
4.650395695527674
100
AcDbArc
 50
208.4442583149155
 51
331.5529392160156
  0
LINE
  5
1BA2
330
1F
100
AcDbEntity
  8
0
  6
Continuous
 62
     7
100
AcDbLine
 10
-276.2538
 20
-80.1152000000002
 30
0.0
 11
-328.4646
 21
-80.1152000000002
 31
0.0
  0
LINE
  5
1BA3
330
1F
100
AcDbEntity
  8
0
  6
DASH_CENTER
 62
    30
100
AcDbLine
 10
-278.6906999999999
 20
-40.61520000000021
 30
0.0
 11
-294.1162999999999
 21
-40.61520000000021
 31
0.0
  0
LINE
  5
1BC3
330
1F
100
AcDbEntity
  8
0
  6
DASH_CENTER
 62
    30
100
AcDbLine
 10
-286.2538
 20
-47.76740000000019
 30
0.0
 11
-286.2538
 21
-32.33200000000012
 31
0.0
  0
ARC
  5
1BC4
330
1F
100
AcDbEntity
  8
0
  6
Continuous
 62
     7
100
AcDbCircle
 10
-328.4647019182995
 20
-72.11479821408747
 30
0.0
 40
8.00000178656183
100
AcDbArc
 50
184.0929783948326
 51
270.0007299358883
  0
ARC
  5
1BC5
330
1F
100
AcDbEntity
  8
0
  6
Continuous
 62
     7
100
AcDbCircle
 10
-284.8126776702216
 20
-41.71479469327196
 30
0.0
 40
0.1875062384914722
100
AcDbArc
 50
255.2238112023587
 51
311.513170246634
  0
ARC
  5
1BC6
330
1F
100
AcDbEntity
  8
0
  6
Continuous
 62
     7
100
AcDbCircle
 10
-288.5563052333681
 20
-39.7453290346905
 30
0.0
 40
0.1874571127740449
100
AcDbArc
 50
110.2867079187625
 51
229.2781119741436
  0
ARC
  5
1BC7
330
1F
100
AcDbEntity
  8
0
  6
Continuous
 62
     7
100
AcDbCircle
 10
-288.4220135624265
 20
-39.69549761219782
 30
0.0
 40
0.1874594484424331
100
AcDbArc
 50
49.71334099806791
 51
110.3163184524555
  0
ARC
  5
1BC8
330
1F
100
AcDbEntity
  8
0
  6
Continuous
 62
     7
100
AcDbCircle
 10
-284.699898554798
 20
-41.61490596794265
 30
0.0
 40
0.1875116395381727
100
AcDbArc
 50
311.5202320723275
 51
75.70524544582545
  0
ARC
  5
1BC9
330
1F
100
AcDbEntity
  8
0
  6
Continuous
 62
     7
100
AcDbCircle
 10
-287.6947960146078
 20
-41.71480094658871
 30
0.0
 40
0.1875189989926349
100
AcDbArc
 50
228.4795426097123
 51
284.7984456945798
  0
ARC
  5
1BCA
330
1F
100
AcDbEntity
  8
0
  6
Continuous
 62
     7
100
AcDbCircle
 10
-283.9510947666317
 20
-39.74532903469043
 30
0.0
 40
0.1874571127741056
100
AcDbArc
 50
310.7218880258435
 51
69.71329208113329
  0
ARC
  5
1BCB
330
1F
100
AcDbEntity
  8
0
  6
Continuous
 62
     7
100
AcDbCircle
 10
-284.0854203148411
 20
-39.69550357855449
 30
0.0
 40
0.1874420965912285
100
AcDbArc
 50
69.70326924031823
 51
130.2775805042454
  0
ARC
  5
1BCC
330
1F
100
AcDbEntity
  8
0
  6
Continuous
 62
     7
100
AcDbCircle
 10
-287.807510287914
 20
-41.61494242941311
 30
0.0
 40
0.1875447895674949
100
AcDbArc
 50
104.2893863389686
 51
228.4515328385456
  0
ARC
  5
1BCD
330
1F
100
AcDbEntity
  8
0
  6
Continuous
 62
     7
100
AcDbCircle
 10
-287.1667042272216
 20
-41.09714731156457
 30
0.0
 40
0.1250001709749513
100
AcDbArc
 50
289.0524379878248
 51
60.7360833288569
  0
ARC
  5
1BCE
330
1F
100
AcDbEntity
  8
0
  6
Continuous
 62
     7
100
AcDbCircle
 10
-282.4053088482973
 20
-32.59696378475273
 30
0.0
 40
9.617933358192104
100
AcDbArc
 50
229.2885883989622
 51
240.7454620859184
  0
ARC
  5
1BCF
330
1F
100
AcDbEntity
  8
0
  6
Continuous
 62
     7
100
AcDbCircle
 10
-290.1016623393987
 20
-32.5967989476105
 30
0.0
 40
9.117929367228924
100
AcDbArc
 50
284.2723945870922
 51
289.0495522129757
  0
ARC
  5
1BD0
330
1F
100
AcDbEntity
  8
0
  6
Continuous
 62
     7
100
AcDbCircle
 10
-285.3409957727782
 20
-41.09714731156457
 30
0.0
 40
0.1250001709748759
100
AcDbArc
 50
119.2639166710739
 51
250.9475620122716
  0
ARC
  5
1BD1
330
1F
100
AcDbEntity
  8
0
  6
Continuous
 62
     7
100
AcDbCircle
 10
-282.4057376606004
 20
-32.59679894761063
 30
0.0
 40
9.11792936722893
100
AcDbArc
 50
250.9504477870208
 51
255.7276054129043
  0
ARC
  5
1BD2
330
1F
100
AcDbEntity
  8
0
  6
Continuous
 62
     7
100
AcDbCircle
 10
-290.1020911517032
 20
-32.59696378475331
 30
0.0
 40
9.617933358192061
100
AcDbArc
 50
299.2545379140871
 51
310.7114116010438
  0
ARC
  5
1BD3
330
1F
100
AcDbEntity
  8
0
  6
Continuous
 62
     7
100
AcDbCircle
 10
-286.2538499999999
 20
-41.95430000000034
 30
0.0
 40
0.4999707816463951
100
AcDbArc
 50
67.64635657329624
 51
112.3536434267107
  0
ARC
  5
1BD4
330
1F
100
AcDbEntity
  8
0
  6
Continuous
 62
     7
100
AcDbCircle
 10
-290.1019988347858
 20
-32.59689960849609
 30
0.0
 40
9.617925870997279
100
AcDbArc
 50
284.7891587424952
 51
292.3548535421484
  0
ARC
  5
1BD5
330
1F
100
AcDbEntity
  8
0
  6
Continuous
 62
     7
100
AcDbCircle
 10
-282.4056743862578
 20
-32.5968078157051
 30
0.0
 40
9.617944883976786
100
AcDbArc
 50
247.6463087945469
 51
255.2125545468516
  0
ARC
  5
1BD6
330
1F
100
AcDbEntity
  8
0
  6
Continuous
 62
     7
100
AcDbCircle
 10
-286.2538499999998
 20
-40.30780000000028
 30
0.0
 40
0.5000073224463804
100
AcDbArc
 50
243.4810703652773
 51
296.5189296347281
  0
ARC
  5
1BD7
330
1F
100
AcDbEntity
  8
0
  6
Continuous
 62
     7
100
AcDbCircle
 10
-290.1018969839782
 20
-32.59683206828572
 30
0.0
 40
9.117897509830502
100
AcDbArc
 50
296.521846693524
 51
310.2821564815436
  0
ARC
  5
1BD8
330
1F
100
AcDbEntity
  8
0
  6
Continuous
 62
     7
100
AcDbCircle
 10
-282.4057283035749
 20
-32.59668351909257
 30
0.0
 40
9.117929830578555
100
AcDbArc
 50
229.7190476495731
 51
243.4798368290409
  0
ARC
  5
1BD9
330
1F
100
AcDbEntity
  8
0
  6
Continuous
 62
     7
100
AcDbCircle
 10
-289.0235986835958
 20
-39.77288838186495
 30
0.0
 40
1.500009178259549
100
AcDbArc
 50
138.6247170775014
 51
208.4465135700198
  0
LINE
  5
1BDA
330
1F
100
AcDbEntity
  8
0
  6
Continuous
 62
     7
100
AcDbLine
 10
-288.4869999999999
 20
-39.51970000000029
 30
0.0
 11
-288.6212999999997
 21
-39.56930000000035
 31
0.0
  0
LINE
  5
1BDB
330
1F
100
AcDbEntity
  8
0
  6
Continuous
 62
     7
100
AcDbLine
 10
-284.5755999999998
 20
-41.75530000000028
 30
0.0
 11
-284.6883999999998
 21
-41.8552000000002
 31
0.0
  0
LINE
  5
1BDC
330
1F
100
AcDbEntity
  8
0
  6
Continuous
 62
     7
100
AcDbLine
 10
-284.0203999999999
 20
-39.51970000000029
 30
0.0
 11
-283.8861999999998
 21
-39.56930000000035
 31
0.0
  0
LINE
  5
1BDD
330
1F
100
AcDbEntity
  8
0
  6
Continuous
 62
     7
100
AcDbLine
 10
-287.9317999999997
 20
-41.75530000000028
 30
0.0
 11
-287.819
 21
-41.8552000000002
 31
0.0
  0
LINE
  5
1BED
330
1F
100
AcDbEntity
  8
0
  6
Continuous
 62
     7
100
AcDbLine
 10
-134.2536999999999
 20
-78.2428
 30
0.0
 11
-264.2538
 21
-78.2428
 31
0.0
  0
LINE
  5
1BEE
330
1F
100
AcDbEntity
  8
0
  6
Continuous
 62
     7
100
AcDbLine
 10
-169.5294999999999
 20
-68.9427
 30
0.0
 11
-145.1227999999999
 21
-68.9427
 31
0.0
  0
LINE
  5
1BEF
330
1F
100
AcDbEntity
  8
0
  6
Continuous
 62
     7
100
AcDbLine
 10
-134.2536999999999
 20
-82.9427
 30
0.0
 11
-164.2536999999999
 21
-82.9427
 31
0.0
  0
LINE
  5
1BF0
330
1F
100
AcDbEntity
  8
0
  6
Continuous
 62
     7
100
AcDbLine
 10
-164.2536999999999
 20
-79.74250000000002
 30
0.0
 11
-134.2536999999999
 21
-79.74250000000002
 31
0.0
  0
ARC
  5
1C1C
330
1F
100
AcDbEntity
  8
0
  6
Continuous
 62
     7
100
AcDbCircle
 10
-212.453486972942
 20
-62.94269114122521
 30
0.0
 40
9.99999114123368
100
AcDbArc
 50
90.0000746396101
 51
158.4335876939367
  0
LINE
  5
1C1D
330
1F
100
AcDbEntity
  8
0
  6
Continuous
 62
     7
100
AcDbLine
 10
-234.2536999999999
 20
-81.4427
 30
0.0
 11
-164.2536999999999
 21
-81.4427
 31
0.0
  0
LINE
  5
1C1E
330
1F
100
AcDbEntity
  8
0
  6
Continuous
 62
     7
100
AcDbLine
 10
-234.2538
 20
-79.74250000000002
 30
0.0
 11
-264.2538
 21
-79.74250000000002
 31
0.0
  0
LINE
  5
1C1F
330
1F
100
AcDbEntity
  8
0
  6
Continuous
 62
     7
100
AcDbLine
 10
-264.2538
 20
-82.9427
 30
0.0
 11
-234.2538
 21
-82.9427
 31
0.0
  0
LINE
  5
1C20
330
1F
100
AcDbEntity
  8
0
  6
Continuous
 62
     7
100
AcDbLine
 10
-228.9778999999999
 20
-68.9427
 30
0.0
 11
-253.3846
 21
-68.9427
 31
0.0
  0
ARC
  5
1C21
330
1F
100
AcDbEntity
  8
0
  6
Continuous
 62
     7
100
AcDbCircle
 10
-253.3846280432438
 20
-74.94272042026681
 30
0.0
 40
6.0000204206983
100
AcDbArc
 50
90.00068713406825
 51
162.1213287744552
  0
LINE
  5
1C22
330
1F
100
AcDbEntity
  8
0
  6
Continuous
 62
     7
100
AcDbLine
 10
-276.2538
 20
-76.14270000000002
 30
0.0
 11
-260.0689
 21
-76.14270000000002
 31
0.0
  0
LINE
  5
1C23
330
1F
100
AcDbEntity
  8
0
  6
Continuous
 62
     7
100
AcDbLine
 10
-264.2538
 20
-78.2428
 30
0.0
 11
-264.2538
 21
-82.9427
 31
0.0
  0
ARC
  5
1C24
330
1F
100
AcDbEntity
  8
0
  6
Continuous
 62
     7
100
AcDbCircle
 10
-262.2101124354344
 20
-76.2428090551183
 30
0.0
 40
1.999990944920361
100
AcDbArc
 50
270.0003562505683
 51
342.1216596579537
  0
LINE
  5
1C25
330
1F
100
AcDbEntity
  8
0
  6
Continuous
 62
     7
100
AcDbLine
 10
-259.0948
 20
-73.10089999999999
 30
0.0
 11
-260.3065
 21
-76.85680000000002
 31
0.0
  0
ARC
  5
1C26
330
1F
100
AcDbEntity
  8
0
  6
Continuous
 62
     7
100
AcDbCircle
 10
-228.9779136761487
 20
-63.94270929978119
 30
0.0
 40
4.999990700963992
100
AcDbArc
 50
269.999010799691
 51
338.4323934651835
  0
LINE
  5
1C27
330
1F
100
AcDbEntity
  8
0
  6
Continuous
 62
     7
100
AcDbLine
 10
-228.2538
 20
-75.7132
 30
0.0
 11
-221.7532999999999
 21
-59.2669
 31
0.0
  0
LINE
  5
1C28
330
1F
100
AcDbEntity
  8
0
  6
DASH_CENTER
 62
    30
100
AcDbLine
 10
-249.2538
 20
-74.05129999999999
 30
0.0
 11
-249.2538
 21
-87.62479999999998
 31
0.0
  0
LINE
  5
1C29
330
1F
100
AcDbEntity
  8
0
  6
Continuous
 62
     7
100
AcDbLine
 10
-234.2538
 20
-81.4427
 30
0.0
 11
-234.2538
 21
-82.9427
 31
0.0
  0
LINE
  5
1C2A
330
1F
100
AcDbEntity
  8
0
  6
Continuous
 62
     7
100
AcDbLine
 10
-234.2538
 20
-79.74250000000002
 30
0.0
 11
-234.2538
 21
-78.2428
 31
0.0
  0
ARC
  5
1C2B
330
1F
100
AcDbEntity
  8
0
  6
Continuous
 62
     7
100
AcDbCircle
 10
-231.9737562363239
 20
-74.24277024070021
 30
0.0
 40
4.000029759539183
100
AcDbArc
 50
269.9993731361796
 51
338.4320311286961
  0
ARC
  5
1C2C
330
1F
100
AcDbEntity
  8
0
  6
Continuous
 62
    30
100
AcDbCircle
 10
-249.0038
 20
-6.322437198245079
 30
0.0
 40
1.499999999999999
100
AcDbArc
 50
240.0
 51
299.9999999999999
  0
ARC
  5
1C2D
330
1F
100
AcDbEntity
  8
0
  6
Continuous
 62
     7
100
AcDbCircle
 10
-283.4836021955577
 20
-39.77288061385922
 30
0.0
 40
1.500013651477553
100
AcDbArc
 50
331.5532415370991
 51
41.36964703078438
  0
ARC
  5
1C2E
330
1F
100
AcDbEntity
  8
0
  6
Continuous
 62
    30
100
AcDbCircle
 10
-257.6764638359558
 20
-2.66333433090379
 30
0.0
 40
1.500000000000035
100
AcDbArc
 50
202.3357670294297
 51
262.335767029429
  0
ARC
  5
1C2F
330
1F
100
AcDbEntity
  8
0
  6
Continuous
 62
    30
100
AcDbCircle
 10
-260.4513818210544
 20
-3.8034352808094
 30
0.0
 40
1.49999999999993
100
AcDbArc
 50
22.33576702943099
 51
82.33576702942901
  0
ARC
  5
1C30
330
1F
100
AcDbEntity
  8
0
  6
Continuous
 62
    30
100
AcDbCircle
 10
-258.863871524979
 20
-1.746784834123289
 30
0.0
 40
1.49999999999993
100
AcDbArc
 50
202.335767029431
 51
262.335767029429
  0
ARC
  5
1C31
330
1F
100
AcDbEntity
  8
0
  6
Continuous
 62
     7
100
AcDbCircle
 10
-248.2538
 20
7.05730000000007
 30
0.0
 40
10.99999999999998
100
AcDbArc
 50
228.324909284173
 51
236.9442688491468
  0
ARC
  5
1C32
330
1F
100
AcDbEntity
  8
0
  6
Continuous
 62
    30
100
AcDbCircle
 10
-253.5038
 20
-8.920513409598401
 30
0.0
 40
1.499999999999999
100
AcDbArc
 50
60.0
 51
120.0
  0
ARC
  5
1C33
330
1F
100
AcDbEntity
  8
0
  6
Continuous
 62
    30
100
AcDbCircle
 10
-252.0038
 20
-6.322437198245079
 30
0.0
 40
1.499999999999999
100
AcDbArc
 50
240.0
 51
299.9999999999999
  0
ARC
  5
1C34
330
1F
100
AcDbEntity
  8
0
  6
Continuous
 62
    30
100
AcDbCircle
 10
-253.5038
 20
-6.322437198245079
 30
0.0
 40
1.5
100
AcDbArc
 50
240.0
 51
299.9999999999999
  0
ARC
  5
1C35
330
1F
100
AcDbEntity
  8
0
  6
Continuous
 62
    30
100
AcDbCircle
 10
-250.5038
 20
-8.920513409598401
 30
0.0
 40
1.499999999999999
100
AcDbArc
 50
60.0
 51
120.0
  0
ARC
  5
1C36
330
1F
100
AcDbEntity
  8
0
  6
Continuous
 62
    30
100
AcDbCircle
 10
-250.5038
 20
-6.322437198245079
 30
0.0
 40
1.5
100
AcDbArc
 50
240.0
 51
299.9999999999999
  0
ARC
  5
1C37
330
1F
100
AcDbEntity
  8
0
  6
Continuous
 62
     7
100
AcDbCircle
 10
-248.2538
 20
7.05730000000007
 30
0.0
 40
10.99999999999998
100
AcDbArc
 50
303.0557311508531
 51
311.675090715827
  0
ARC
  5
1C38
330
1F
100
AcDbEntity
  8
0
  6
Continuous
 62
    30
100
AcDbCircle
 10
-247.5038
 20
-8.920513409598401
 30
0.0
 40
1.499999999999999
100
AcDbArc
 50
60.0
 51
120.0
  0
ARC
  5
1C39
330
1F
100
AcDbEntity
  8
0
  6
Continuous
 62
    30
100
AcDbCircle
 10
-246.0038
 20
-6.322437198245079
 30
0.0
 40
1.499999999999999
100
AcDbArc
 50
240.0
 51
299.9999999999999
  0
ARC
  5
1C3A
330
1F
100
AcDbEntity
  8
0
  6
Continuous
 62
    30
100
AcDbCircle
 10
-247.5038
 20
-6.322437198245079
 30
0.0
 40
1.5
100
AcDbArc
 50
240.0
 51
299.9999999999999
  0
ARC
  5
1C3B
330
1F
100
AcDbEntity
  8
0
  6
Continuous
 62
    30
100
AcDbCircle
 10
-244.5038
 20
-8.920513409598401
 30
0.0
 40
1.499999999999999
100
AcDbArc
 50
60.0
 51
120.0
  0
ARC
  5
1C3C
330
1F
100
AcDbEntity
  8
0
  6
Continuous
 62
    30
100
AcDbCircle
 10
-243.0038
 20
-6.322437198245079
 30
0.0
 40
1.499999999999999
100
AcDbArc
 50
240.0
 51
299.9999999999999
  0
ARC
  5
1C3D
330
1F
100
AcDbEntity
  8
0
  6
Continuous
 62
    30
100
AcDbCircle
 10
-244.5038
 20
-6.322437198245079
 30
0.0
 40
1.5
100
AcDbArc
 50
240.0
 51
299.9999999999999
  0
ARC
  5
1C3E
330
1F
100
AcDbEntity
  8
0
  6
Continuous
 62
    30
100
AcDbCircle
 10
-236.0562181789455
 20
-3.8034352808094
 30
0.0
 40
1.499999999999999
100
AcDbArc
 50
97.66423297057098
 51
157.6642329705702
  0
ARC
  5
1C3F
330
1F
100
AcDbEntity
  8
0
  6
Continuous
 62
    30
100
AcDbCircle
 10
-238.8311361640442
 20
-2.66333433090379
 30
0.0
 40
1.499999999999988
100
AcDbArc
 50
277.6642329705676
 51
337.6642329705692
  0
ARC
  5
1C40
330
1F
100
AcDbEntity
  8
0
  6
Continuous
 62
    30
100
AcDbCircle
 10
-237.643728475021
 20
-1.746784834123289
 30
0.0
 40
1.499999999999984
100
AcDbArc
 50
277.6642329705676
 51
337.664232970569
  0
ARC
  5
1C41
330
1F
100
AcDbEntity
  8
0
  6
Continuous
 62
     7
100
AcDbCircle
 10
-186.0539446481465
 20
-62.94273764085547
 30
0.0
 40
10.00003764095513
100
AcDbArc
 50
21.56659348052623
 51
89.99974418592659
  0
CIRCLE
  5
1C42
330
1F
100
AcDbEntity
  8
0
  6
Continuous
 62
     7
100
AcDbCircle
 10
-199.2536999999999
 20
-65.1961
 30
0.0
 40
4.499999999999936
  0
CIRCLE
  5
1C43
330
1F
100
AcDbEntity
  8
0
  6
Continuous
 62
     7
100
AcDbCircle
 10
-199.2536999999999
 20
-65.1961
 30
0.0
 40
5.0
  0
LINE
  5
1C45
330
1F
100
AcDbEntity
  8
0
  6
Continuous
 62
     7
100
AcDbLine
 10
-212.4535999999999
 20
-52.9427
 30
0.0
 11
-186.0539999999999
 21
-52.9427
 31
0.0
  0
LINE
  5
1C46
330
1F
100
AcDbEntity
  8
0
  6
Continuous
 62
     7
100
AcDbLine
 10
-200.3143601717797
 20
-65.54965339059335
 30
0.0
 11
-201.3042389547629
 21
-66.53953217357642
 31
0.0
  0
LINE
  5
1C47
330
1F
100
AcDbEntity
  8
0
  6
Continuous
 62
     7
100
AcDbLine
 10
-199.6072533905932
 20
-66.25676017177989
 30
0.0
 11
-200.5971321735763
 21
-67.246638954763
 31
0.0
  0
LINE
  5
1C48
330
1F
100
AcDbEntity
  8
0
  6
Continuous
 62
     7
100
AcDbLine
 10
-201.3042389547627
 20
-63.85266782642379
 30
0.0
 11
-200.3143601717797
 21
-64.84254660940678
 31
0.0
  0
LINE
  5
1C49
330
1F
100
AcDbEntity
  8
0
  6
Continuous
 62
     7
100
AcDbLine
 10
-200.5971321735762
 20
-63.14556104523723
 30
0.0
 11
-199.6072533905932
 21
-64.13543982822023
 31
0.0
  0
LINE
  5
1C4A
330
1F
100
AcDbEntity
  8
0
  6
DASH_CENTER
 62
    30
100
AcDbLine
 10
-208.2834495053939
 20
-65.1961
 30
0.0
 11
-191.1241
 21
-65.1961
 31
0.0
  0
LINE
  5
1C4B
330
1F
100
AcDbEntity
  8
0
  6
Continuous
 62
     7
100
AcDbLine
 10
-201.3042389547629
 20
-66.53953217357642
 30
0.0
 11
-200.5971321735763
 21
-67.246638954763
 31
0.0
  0
LINE
  5
1C4C
330
1F
100
AcDbEntity
  8
0
  6
Continuous
 62
     7
100
AcDbLine
 10
-200.5971321735762
 20
-63.14556104523723
 30
0.0
 11
-201.3042389547627
 21
-63.85266782642379
 31
0.0
  0
ARC
  5
1C4D
330
1F
100
AcDbEntity
  8
0
  6
Continuous
 62
     7
100
AcDbCircle
 10
-199.2536999999999
 20
-66.61031356237313
 30
0.0
 40
0.500000000000004
100
AcDbArc
 50
44.99999999999504
 51
135.0000000000049
  0
ARC
  5
1C4E
330
1F
100
AcDbEntity
  8
0
  6
Continuous
 62
     7
100
AcDbCircle
 10
-200.6679135623731
 20
-65.1961
 30
0.0
 40
0.5000000000000443
100
AcDbArc
 50
314.9999999999958
 51
44.99999999999504
  0
ARC
  5
1C4F
330
1F
100
AcDbEntity
  8
0
  6
Continuous
 62
     7
100
AcDbCircle
 10
-199.2536999999999
 20
-63.78188643762695
 30
0.0
 40
0.5000000000000241
100
AcDbArc
 50
224.9999999999973
 51
315.0000000000027
  0
ARC
  5
1C50
330
1F
100
AcDbEntity
  8
0
  6
Continuous
 62
     7
100
AcDbCircle
 10
-197.8394864376268
 20
-65.1961
 30
0.0
 40
0.499999999999984
100
AcDbArc
 50
135.0000000000072
 51
225.0000000000019
  0
LINE
  5
1C51
330
1F
100
AcDbEntity
  8
0
  6
Continuous
 62
     7
100
AcDbLine
 10
-197.9102678264237
 20
-63.14556104523723
 30
0.0
 11
-197.2031610452372
 21
-63.85266782642386
 31
0.0
  0
LINE
  5
1C52
330
1F
100
AcDbEntity
  8
0
  6
Continuous
 62
     7
100
AcDbLine
 10
-197.203161045237
 20
-66.53953217357645
 30
0.0
 11
-197.9102678264236
 21
-67.246638954763
 31
0.0
  0
LINE
  5
1C53
330
1F
100
AcDbEntity
  8
0
  6
Continuous
 62
     7
100
AcDbLine
 10
-198.9001466094067
 20
-66.25676017177989
 30
0.0
 11
-197.9102678264236
 21
-67.246638954763
 31
0.0
  0
LINE
  5
1C54
330
1F
100
AcDbEntity
  8
0
  6
Continuous
 62
     7
100
AcDbLine
 10
-198.1930398282202
 20
-65.54965339059335
 30
0.0
 11
-197.203161045237
 21
-66.53953217357645
 31
0.0
  0
LINE
  5
1C55
330
1F
100
AcDbEntity
  8
0
  6
Continuous
 62
     7
100
AcDbLine
 10
-197.9102678264237
 20
-63.14556104523723
 30
0.0
 11
-198.9001466094067
 21
-64.13543982822023
 31
0.0
  0
LINE
  5
1C56
330
1F
100
AcDbEntity
  8
0
  6
Continuous
 62
     7
100
AcDbLine
 10
-197.2031610452372
 20
-63.85266782642386
 30
0.0
 11
-198.1930398282202
 21
-64.84254660940678
 31
0.0
  0
ARC
  5
1D45
330
1F
100
AcDbEntity
  8
0
  6
Continuous
 62
     7
100
AcDbCircle
 10
-169.5295547034273
 20
-63.94266280246931
 30
0.0
 40
5.000037199924008
100
AcDbArc
 50
201.5679688493975
 51
270.0017727575037
  0
LINE
  5
1D46
330
1F
100
AcDbEntity
  8
0
  6
Continuous
 62
     7
100
AcDbLine
 10
-170.2536999999999
 20
-75.7132
 30
0.0
 11
-176.7541999999999
 21
-59.2669
 31
0.0
  0
ARC
  5
1D47
330
1F
100
AcDbEntity
  8
0
  6
Continuous
 62
     7
100
AcDbCircle
 10
-166.5336753829322
 20
-74.24281673960614
 30
0.0
 40
3.999983261104205
100
AcDbArc
 50
201.5675159496411
 51
270.001079785483
  0
LINE
  5
1D48
330
1F
100
AcDbEntity
  8
0
  6
Continuous
 62
     7
100
AcDbLine
 10
-164.2536999999999
 20
-81.4427
 30
0.0
 11
-164.2536999999999
 21
-82.9427
 31
0.0
  0
LINE
  5
1D49
330
1F
100
AcDbEntity
  8
0
  6
Continuous
 62
     7
100
AcDbLine
 10
-164.2536999999999
 20
-79.74250000000002
 30
0.0
 11
-164.2536999999999
 21
-78.2428
 31
0.0
  0
LINE
  5
1D60
330
1F
100
AcDbEntity
  8
0
  6
Continuous
 62
     7
100
AcDbLine
 10
-92.75369999999998
 20
-0.9427000000000003
 30
0.0
 11
-55.25370000000001
 21
-0.9427000000000091
 31
0.0
  0
ARC
  5
1D61
330
1F
100
AcDbEntity
  8
0
  6
Continuous
 62
     7
100
AcDbCircle
 10
-751.0215259815482
 20
7.058637234193058
 30
0.0
 40
650.0000197739117
100
AcDbArc
 50
352.8193655119332
 51
356.3890393695984
  0
ARC
  5
1D62
330
1F
100
AcDbEntity
  8
0
  6
Continuous
 62
     7
100
AcDbCircle
 10
-752.205237207856
 20
7.057299999999999
 30
0.0
 40
650.0000616104969
100
AcDbArc
 50
353.7885520247202
 51
355.577577030966
  0
LINE
  5
1D63
330
1F
100
AcDbEntity
  8
0
  6
Continuous
 62
     7
100
AcDbLine
 10
-110.2539522884395
 20
-62.27140000000003
 30
0.0
 11
-110.2539522884395
 21
-35.11069999999989
 31
0.0
  0
LINE
  5
1D64
330
1F
100
AcDbEntity
  8
0
  6
Continuous
 62
     7
100
AcDbLine
 10
-106.9541522884394
 20
-43.23063264609919
 30
0.0
 11
-106.9541522884394
 21
-48.72083264609915
 31
0.0
  0
LINE
  5
1D65
330
1F
100
AcDbEntity
  8
0
  6
Continuous
 62
     7
100
AcDbLine
 10
-110.2539522884395
 20
-50.47573264609928
 30
0.0
 11
-110.2539522884395
 21
-41.47573264609928
 31
0.0
  0
LINE
  5
1D66
330
1F
100
AcDbEntity
  8
0
  6
Continuous
 62
     7
100
AcDbLine
 10
-138.4384999999999
 20
-76.14239999999999
 30
0.0
 11
-117.2538
 21
-76.14270000000002
 31
0.0
  0
ARC
  5
1D67
330
1F
100
AcDbEntity
  8
0
  6
Continuous
 62
     7
100
AcDbCircle
 10
-145.1227719567563
 20
-74.94272042026681
 30
0.0
 40
6.000020420698325
100
AcDbArc
 50
17.87867122554462
 51
89.99931286593172
  0
LINE
  5
1D68
330
1F
100
AcDbEntity
  8
0
  6
DASH_CENTER
 62
    30
100
AcDbLine
 10
-149.2536999999999
 20
-74.05129999999999
 30
0.0
 11
-149.2536999999999
 21
-87.62479999999998
 31
0.0
  0
ARC
  5
1D69
330
1F
100
AcDbEntity
  8
0
  6
Continuous
 62
     7
100
AcDbCircle
 10
-136.2973875630494
 20
-76.24280905574652
 30
0.0
 40
1.999990946170323
100
AcDbArc
 50
197.8783403115858
 51
270.002508507944
  0
LINE
  5
1D6A
330
1F
100
AcDbEntity
  8
0
  6
Continuous
 62
     7
100
AcDbLine
 10
-139.4125999999999
 20
-73.10089999999999
 30
0.0
 11
-138.2008999999999
 21
-76.85680000000002
 31
0.0
  0
LINE
  5
1D6B
330
1F
100
AcDbEntity
  8
0
  6
Continuous
 62
     7
100
AcDbLine
 10
-134.2536999999999
 20
-78.2428
 30
0.0
 11
-134.2536999999999
 21
-82.9427
 31
0.0
  0
LINE
  5
1D6C
330
1F
100
AcDbEntity
  8
0
  6
Continuous
 62
     7
100
AcDbLine
 10
-106.1194522884392
 20
-63.27140000000003
 30
0.0
 11
-106.1194522884392
 21
-74.19
 31
0.0
  0
LINE
  5
1D6D
330
1F
100
AcDbEntity
  8
0
  6
Continuous
 62
     7
100
AcDbLine
 10
-117.2539522884395
 20
-75.9427
 30
0.0
 11
-107.5395522884393
 21
-75.50109999999989
 31
0.0
  0
ARC
  5
1D6E
330
1F
100
AcDbEntity
  8
0
  6
Continuous
 62
     7
100
AcDbCircle
 10
-107.6076488991972
 20
-74.00259687113837
 30
0.0
 40
1.499949694149363
100
AcDbArc
 50
272.6020805445522
 51
352.8227316866132
  0
ARC
  5
1D6F
330
1F
100
AcDbEntity
  8
0
  6
Continuous
 62
     7
100
AcDbCircle
 10
-109.2539522884395
 20
-62.27140000000003
 30
0.0
 40
1.0
100
AcDbArc
 50
180.0
 51
270.0
  0
LINE
  5
1D70
330
1F
100
AcDbEntity
  8
0
  6
Continuous
 62
     7
100
AcDbLine
 10
-106.0210884932967
 20
-63.27140000000003
 30
0.0
 11
-106.1194522884392
 21
-63.27140000000003
 31
0.0
  0
LINE
  5
1D71
330
1F
100
AcDbEntity
  8
0
  6
Continuous
 62
     7
100
AcDbLine
 10
-106.0210884932967
 20
-63.27140000000003
 30
0.0
 11
-106.1194522884392
 21
-63.27140000000003
 31
0.0
  0
LINE
  5
1D72
330
1F
100
AcDbEntity
  8
0
  6
Continuous
 62
     7
100
AcDbLine
 10
-106.1194522884392
 20
-63.27140000000003
 30
0.0
 11
-109.2539522884395
 21
-63.27140000000003
 31
0.0
  0
LINE
  5
1D73
330
1F
100
AcDbEntity
  8
0
  6
Continuous
 62
     7
100
AcDbLine
 10
-110.2539522884395
 20
-50.47573264609928
 30
0.0
 11
-108.4143522884394
 21
-50.31483264609921
 31
0.0
  0
ARC
  5
1D74
330
1F
100
AcDbEntity
  8
0
  6
Continuous
 62
     7
100
AcDbCircle
 10
-108.5540985761626
 20
-48.72088316167751
 30
0.0
 40
1.600046288488404
100
AcDbArc
 50
275.0033452874525
 51
359.9982280209448
  0
LINE
  5
1D75
330
1F
100
AcDbEntity
  8
0
  6
DASH_CENTER
 62
    30
100
AcDbLine
 10
-97.51760241713913
 20
-45.97573264609928
 30
0.0
 11
-120.5340913822702
 21
-45.97573264609928
 31
0.0
  0
ARC
  5
1D76
330
1F
100
AcDbEntity
  8
0
  6
Continuous
 62
     7
100
AcDbCircle
 10
-101.3140518196942
 20
-33.94249955999939
 30
0.0
 40
0.9999995599996898
100
AcDbArc
 50
90.00002685712891
 51
176.3765154699226
  0
ARC
  5
1D77
330
1F
100
AcDbEntity
  8
0
  6
Continuous
 62
     7
100
AcDbCircle
 10
-109.2539522884395
 20
-35.11069999999989
 30
0.0
 40
1.0
100
AcDbArc
 50
90.0
 51
180.0
  0
LINE
  5
1D78
330
1F
100
AcDbEntity
  8
0
  6
Continuous
 62
     7
100
AcDbLine
 10
-104.1404522884392
 20
-34.61069999999988
 30
0.0
 11
-104.1404522884392
 21
-43.06369999999986
 31
0.0
  0
LINE
  5
1D79
330
1F
100
AcDbEntity
  8
0
  6
Continuous
 62
     7
100
AcDbLine
 10
-110.2539522884395
 20
-41.47573264609928
 30
0.0
 11
-108.4143522884394
 21
-41.63693264609928
 31
0.0
  0
ARC
  5
1D7A
330
1F
100
AcDbEntity
  8
0
  6
Continuous
 62
     7
100
AcDbCircle
 10
-108.5540522884393
 20
-43.23063264609919
 30
0.0
 40
1.5999929562346
100
AcDbArc
 50
5.988760127179276
 51
84.99815141449932
  0
ARC
  5
1D7B
330
1F
100
AcDbEntity
  8
0
  6
Continuous
 62
     7
100
AcDbCircle
 10
-108.5540487637235
 20
-43.23069997383135
 30
0.0
 40
1.599996476700674
100
AcDbArc
 50
0.0024110021207844
 51
5.991171139913898
  0
LINE
  5
1D7C
330
1F
100
AcDbEntity
  8
0
  6
Continuous
 62
     7
100
AcDbLine
 10
-106.9627914827677
 20
-43.06369999999986
 30
0.0
 11
-104.1404522884392
 21
-43.06369999999986
 31
0.0
  0
POINT
  5
1D7D
330
1F
100
AcDbEntity
  8
0
 62
     2
100
AcDbPoint
 10
-102.8534522884393
 20
-41.70509999999985
 30
0.0
  0
ARC
  5
1D7E
330
1F
100
AcDbEntity
  8
0
  6
Continuous
 62
     7
100
AcDbCircle
 10
-104.6404522884393
 20
-34.61069999999988
 30
0.0
 40
0.5
100
AcDbArc
 50
0.0
 51
90.0
  0
LINE
  5
1D7F
330
1F
100
AcDbEntity
  8
0
  6
Continuous
 62
     7
100
AcDbLine
 10
-104.6404522884393
 20
-34.11069999999988
 30
0.0
 11
-106.1194522884392
 21
-34.11069999999988
 31
0.0
  0
LINE
  5
1D80
330
1F
100
AcDbEntity
  8
0
  6
Continuous
 62
     7
100
AcDbLine
 10
-106.1194522884392
 20
-34.11069999999988
 30
0.0
 11
-109.2539522884395
 21
-34.11069999999988
 31
0.0
  0
ARC
  5
1D81
330
1F
100
AcDbEntity
  8
0
  6
Continuous
 62
     7
100
AcDbCircle
 10
-99.25395228843946
 20
-31.9427
 30
0.0
 40
0.9999999999999891
100
AcDbArc
 50
270.0
 51
0.0
  0
LINE
  5
1D82
330
1F
100
AcDbEntity
  8
0
  6
Continuous
 62
     7
100
AcDbLine
 10
-101.3140522884394
 20
-32.94269999999999
 30
0.0
 11
-99.25395228843946
 21
-32.94269999999999
 31
0.0
  0
ARC
  5
1D83
330
1F
100
AcDbEntity
  8
0
  6
Continuous
 62
     7
100
AcDbCircle
 10
-92.75369999999998
 20
-2.4427
 30
0.0
 40
1.499999999999999
100
AcDbArc
 50
90.0
 51
180.0
  0
LINE
  5
1D84
330
1F
100
AcDbEntity
  8
0
  6
Continuous
 62
     7
100
AcDbLine
 10
-94.25369999999999
 20
-2.842699999999998
 30
0.0
 11
-98.25395228843945
 21
-2.842699999999998
 31
0.0
  0
ARC
  5
1D8F
330
1F
100
AcDbEntity
  8
0
  6
Continuous
 62
     7
100
AcDbCircle
 10
-283.5086494844218
 20
100.4155662334992
 30
0.0
 40
1.600046288488498
100
AcDbArc
 50
5.003345287451623
 51
89.99822802094294
  0
LINE
  5
1D90
330
1F
100
AcDbEntity
  8
0
  6
Continuous
 62
     7
100
AcDbLine
 10
-328.1441
 20
98.00739999999997
 30
0.0
 11
-276.2538
 21
98.88479999999979
 31
0.0
  0
LINE
  5
1D91
330
1F
100
AcDbEntity
  8
0
  6
Continuous
 62
     7
100
AcDbLine
 10
-281.7538
 20
98.71571252122247
 30
0.0
 11
-290.7538
 21
98.71571252122247
 31
0.0
  0
LINE
  5
1D92
330
1F
100
AcDbEntity
  8
0
  6
DASH_CENTER
 62
    30
100
AcDbLine
 10
-44.95893571369999
 20
7.05730000000036
 30
0.0
 11
-357.7768689752661
 21
7.05729999999991
 31
0.0
  0
ARC
  5
1D98
330
1F
100
AcDbEntity
  8
0
  6
Continuous
 62
     7
100
AcDbCircle
 10
-328.008783297778
 20
90.00911572490084
 30
0.0
 40
7.99992878027492
100
AcDbArc
 50
90.96918933890897
 51
175.5781805883514
  0
LINE
  5
1D99
330
1F
100
AcDbEntity
  8
0
  6
DASH_CENTER
 62
    30
100
AcDbLine
 10
-286.2538
 20
92.31859999999981
 30
0.0
 11
-286.2538
 21
104.9685999999999
 31
0.0
  0
ARC
  5
1D9C
330
1F
100
AcDbEntity
  8
0
  6
Continuous
 62
     7
100
AcDbCircle
 10
760.7458000000001
 20
5.884799999999799
 30
0.0
 40
1099.999972904641
100
AcDbArc
 50
175.5817064701846
 51
179.9389278934963
  0
POINT
  5
1D9D
330
1F
100
AcDbEntity
  8
0
 62
     2
100
AcDbPoint
 10
-339.2536999999999
 20
7.057299999999941
 30
0.0
  0
ARC
  5
1DA0
330
1F
100
AcDbEntity
  8
0
  6
Continuous
 62
     7
100
AcDbCircle
 10
-288.9988961564234
 20
100.4156160431144
 30
0.0
 40
1.599996478112713
100
AcDbArc
 50
90.00013763824757
 51
174.9982890533545
  0
LINE
  5
1DA1
330
1F
100
AcDbEntity
  8
0
  6
Continuous
 62
     7
100
AcDbLine
 10
-290.7538
 20
98.71571252122247
 30
0.0
 11
-290.5925999999999
 21
100.5553125212224
 31
0.0
  0
LINE
  5
1DA2
330
1F
100
AcDbEntity
  8
0
  6
Continuous
 62
     7
100
AcDbLine
 10
-288.9988999999999
 20
102.0155125212224
 30
0.0
 11
-283.5087000000001
 21
102.0155125212224
 31
0.0
  0
LINE
  5
2135
330
1F
100
AcDbEntity
  8
0
  6
Continuous
 62
     7
100
AcDbLine
 10
-138.1158
 20
145.2572
 30
0.0
 11
-257.3918999999999
 21
145.2572
 31
0.0
  0
LINE
  5
2136
330
1F
100
AcDbEntity
  8
0
  6
Continuous
 62
     7
100
AcDbLine
 10
-130.7539
 20
63.72180000000001
 30
0.0
 11
-264.7536
 21
63.72180000000001
 31
0.0
  0
LINE
  5
2137
330
1F
100
AcDbEntity
  8
0
  6
Continuous
 62
     7
100
AcDbLine
 10
-130.754
 20
64.16489999999997
 30
0.0
 11
-197.7538999999999
 21
64.16489999999997
 31
0.0
  0
LINE
  5
2138
330
1F
100
AcDbEntity
  8
0
  6
Continuous
 62
     7
100
AcDbLine
 10
-137.3939
 20
73.31240000000002
 30
0.0
 11
-197.7538999999999
 21
73.31240000000002
 31
0.0
  0
ARC
  5
2139
330
1F
100
AcDbEntity
  8
0
  6
Continuous
 62
     7
100
AcDbCircle
 10
-269.9763034374532
 20
93.2571966099884
 30
0.0
 40
1.999996609991369
100
AcDbArc
 50
270.000098475946
 51
359.2036587929419
  0
LINE
  5
213A
330
1F
100
AcDbEntity
  8
0
  6
Continuous
 62
     7
100
AcDbLine
 10
-267.3906
 20
135.3962
 30
0.0
 11
-268.1125
 21
83.4515000000001
 31
0.0
  0
LINE
  5
213C
330
1F
100
AcDbEntity
  8
0
  6
Continuous
 62
     7
100
AcDbLine
 10
-197.7538999999999
 20
64.16489999999997
 30
0.0
 11
-264.7538
 21
64.16489999999997
 31
0.0
  0
LINE
  5
213D
330
1F
100
AcDbEntity
  8
0
  6
Continuous
 62
     7
100
AcDbLine
 10
-197.7538999999999
 20
73.31240000000002
 30
0.0
 11
-258.1138999999999
 21
73.31240000000002
 31
0.0
  0
ARC
  5
213E
330
1F
100
AcDbEntity
  8
0
  6
Continuous
 62
     7
100
AcDbCircle
 10
-249.7538
 20
11.83185532033683
 30
0.0
 40
1.500000000000085
100
AcDbArc
 50
0.0
 51
180.0
  0
ARC
  5
213F
330
1F
100
AcDbEntity
  8
0
  6
Continuous
 62
     7
100
AcDbCircle
 10
-248.2538
 20
7.05730000000007
 30
0.0
 40
6.499999999999997
100
AcDbArc
 50
343.1082905494545
 51
196.8917094505449
  0
ARC
  5
2140
330
1F
100
AcDbEntity
  8
0
  6
Continuous
 62
     7
100
AcDbCircle
 10
-252.7538
 20
8.557300000000079
 30
0.0
 40
1.5
100
AcDbArc
 50
0.0000000000000509
 51
180.0
  0
ARC
  5
2141
330
1F
100
AcDbEntity
  8
0
  6
Continuous
 62
     7
100
AcDbCircle
 10
-243.7537999999999
 20
8.557300000000079
 30
0.0
 40
1.5
100
AcDbArc
 50
359.9999999999999
 51
179.9999999999998
  0
ARC
  5
2142
330
1F
100
AcDbEntity
  8
0
  6
Continuous
 62
     7
100
AcDbCircle
 10
-246.7538
 20
11.83185532033683
 30
0.0
 40
1.5
100
AcDbArc
 50
0.0
 51
180.0
  0
ARC
  5
2143
330
1F
100
AcDbEntity
  8
0
  6
Continuous
 62
     7
100
AcDbCircle
 10
-252.7536440421948
 20
70.82880000089777
 30
0.0
 40
4.153121811585598
100
AcDbArc
 50
221.375934634134
 51
318.625903831436
  0
ARC
  5
2144
330
1F
100
AcDbEntity
  8
0
  6
Continuous
 62
     7
100
AcDbCircle
 10
-252.7536229124315
 20
67.67640000117833
 30
0.0
 40
3.720341105874259
100
AcDbArc
 50
28.4475565602224
 51
151.5541949882988
  0
LINE
  5
2145
330
1F
100
AcDbEntity
  8
0
  6
DASH_CENTER
 62
    30
100
AcDbLine
 10
-247.3068463162491
 20
69.55069999999999
 30
0.0
 11
-258.155253707277
 21
69.55069999999999
 31
0.0
  0
ARC
  5
2146
330
1F
100
AcDbEntity
  8
0
  6
Continuous
 62
     7
100
AcDbCircle
 10
-249.6751231746827
 20
63.13608378416728
 30
0.0
 40
7.694371647782549
100
AcDbArc
 50
119.2529308278459
 51
130.7097182324662
  0
ARC
  5
2147
330
1F
100
AcDbEntity
  8
0
  6
Continuous
 62
     7
100
AcDbCircle
 10
-255.8324768253177
 20
63.13608378416765
 30
0.0
 40
7.694371647782491
100
AcDbArc
 50
49.29028176752954
 51
60.74706917215028
  0
ARC
  5
2148
330
1F
100
AcDbEntity
  8
0
  6
Continuous
 62
     7
100
AcDbCircle
 10
-255.8324639658717
 20
63.13607623822164
 30
0.0
 40
7.294329315511866
100
AcDbArc
 50
49.71785311777653
 51
63.47849278252716
  0
ARC
  5
2149
330
1F
100
AcDbEntity
  8
0
  6
Continuous
 62
     7
100
AcDbCircle
 10
-249.6751360341284
 20
63.13607623822152
 30
0.0
 40
7.2943293155119
100
AcDbArc
 50
116.521507217471
 51
130.2821468822232
  0
ARC
  5
214A
330
1F
100
AcDbEntity
  8
0
  6
Continuous
 62
     7
100
AcDbCircle
 10
-264.7536
 20
71.72180000000001
 30
0.0
 40
8.0
100
AcDbArc
 50
180.0
 51
270.0
  0
ARC
  5
214B
330
1F
100
AcDbEntity
  8
0
  6
Continuous
 62
     7
100
AcDbCircle
 10
-264.7537999996874
 20
72.16489999968745
 30
0.0
 40
8.000000000312525
100
AcDbArc
 50
179.9999999977618
 51
269.9992838005188
  0
LINE
  5
214C
330
1F
100
AcDbEntity
  8
0
  6
DASH_CENTER
 62
    30
100
AcDbLine
 10
-252.7538999999999
 20
72.36195726263506
 30
0.0
 11
-252.7538999999999
 21
65.78956446369109
 31
0.0
  0
ARC
  5
214D
330
1F
100
AcDbEntity
  8
0
  6
Continuous
 62
     7
100
AcDbCircle
 10
-254.59591784923
 20
68.85469914506796
 30
0.0
 40
0.1500293299712791
100
AcDbArc
 50
130.7243166872651
 51
249.6871211557006
  0
ARC
  5
214E
330
1F
100
AcDbEntity
  8
0
  6
Continuous
 62
     7
100
AcDbCircle
 10
-254.4885134403165
 20
68.81509762764884
 30
0.0
 40
0.1499947492871445
100
AcDbArc
 50
249.7211635285402
 51
310.2991833617165
  0
ARC
  5
214F
330
1F
100
AcDbEntity
  8
0
  6
Continuous
 62
     7
100
AcDbCircle
 10
-250.9115852901507
 20
68.85468170711057
 30
0.0
 40
0.1499793756072397
100
AcDbArc
 50
290.2804895074626
 51
49.30807264955852
  0
ARC
  5
2150
330
1F
100
AcDbEntity
  8
0
  6
Continuous
 62
     7
100
AcDbCircle
 10
-251.0192865596835
 20
68.81509762764885
 30
0.0
 40
0.149994749287125
100
AcDbArc
 50
229.7008166383113
 51
290.278836471418
  0
ARC
  5
2151
330
1F
100
AcDbEntity
  8
0
  6
Continuous
 62
     7
100
AcDbCircle
 10
-254.9696997047611
 20
68.87689739552526
 30
0.0
 40
1.200026203877721
100
AcDbArc
 50
151.5597675600774
 51
221.3749153477609
  0
LINE
  5
2152
330
1F
100
AcDbEntity
  8
0
  6
Continuous
 62
     7
100
AcDbLine
 10
-254.648
 20
68.71400000000015
 30
0.0
 11
-254.5405
 21
68.67420000000014
 31
0.0
  0
LINE
  5
2153
330
1F
100
AcDbEntity
  8
0
  6
Continuous
 62
     7
100
AcDbLine
 10
-250.8596000000001
 20
68.71400000000015
 30
0.0
 11
-250.9673
 21
68.67420000000014
 31
0.0
  0
ARC
  5
2157
330
1F
100
AcDbEntity
  8
0
  6
Continuous
 62
     7
100
AcDbCircle
 10
-258.1138325888213
 20
83.31243304511049
 30
0.0
 40
10.00003304533772
100
AcDbArc
 50
179.2037550009783
 51
269.9996137636742
  0
LINE
  5
2158
330
1F
100
AcDbEntity
  8
0
  6
Continuous
 62
     7
100
AcDbLine
 10
-272.7533999999999
 20
91.25719999999999
 30
0.0
 11
-272.7533999999999
 21
72.16489999999997
 31
0.0
  0
POINT
  5
2159
330
1F
100
AcDbEntity
  8
0
 62
     2
100
AcDbPoint
 10
-272.7533999999999
 20
70.99240000000008
 30
0.0
  0
LINE
  5
215A
330
1F
100
AcDbEntity
  8
0
  6
Continuous
 62
     7
100
AcDbLine
 10
-276.2538
 20
90.25719999999999
 30
0.0
 11
-272.7533999999999
 21
90.25719999999999
 31
0.0
  0
LINE
  5
215C
330
1F
100
AcDbEntity
  8
0
  6
Continuous
 62
     7
100
AcDbLine
 10
-269.9763
 20
91.25719999999999
 30
0.0
 11
-272.6978999999999
 21
91.25719999999999
 31
0.0
  0
ARC
  5
215D
330
1F
100
AcDbEntity
  8
0
  6
Continuous
 62
     7
100
AcDbCircle
 10
-251.6009005065346
 20
70.43032394055436
 30
0.0
 40
0.1500208796312033
100
AcDbArc
 50
48.45221980047742
 51
104.751534416127
  0
ARC
  5
215E
330
1F
100
AcDbEntity
  8
0
  6
Continuous
 62
     7
100
AcDbCircle
 10
-251.5107049420086
 20
70.35047962311042
 30
0.0
 40
0.1499906982461004
100
AcDbArc
 50
284.2437878155783
 51
48.49076852666923
  0
ARC
  5
215F
330
1F
100
AcDbEntity
  8
0
  6
Continuous
 62
     7
100
AcDbCircle
 10
-253.9066941242333
 20
70.43030139960166
 30
0.0
 40
0.150041310856517
100
AcDbArc
 50
75.25264007865925
 51
131.5436057047348
  0
ARC
  5
2160
330
1F
100
AcDbEntity
  8
0
  6
Continuous
 62
     7
100
AcDbCircle
 10
-253.9968006133069
 20
70.35050252878672
 30
0.0
 40
0.1500361622850011
100
AcDbArc
 50
131.5420369841671
 51
255.7234066735886
  0
ARC
  5
2161
330
1F
100
AcDbEntity
  8
0
  6
Continuous
 62
     7
100
AcDbCircle
 10
-253.4840976366465
 20
69.93617347792263
 30
0.0
 40
0.0999893458873663
100
AcDbArc
 50
299.2110736788504
 51
70.97315657022917
  0
ARC
  5
2162
330
1F
100
AcDbEntity
  8
0
  6
Continuous
 62
     7
100
AcDbCircle
 10
-255.8331009388064
 20
63.13627992056296
 30
0.0
 40
7.2943683120267
100
AcDbArc
 50
70.94360889505555
 51
75.72108124125387
  0
ARC
  5
2163
330
1F
100
AcDbEntity
  8
0
  6
Continuous
 62
     7
100
AcDbCircle
 10
-252.023403151138
 20
69.93616463723022
 30
0.0
 40
0.1000300891708523
100
AcDbArc
 50
109.0789151820242
 51
240.7368545689721
  0
ARC
  5
2164
330
1F
100
AcDbEntity
  8
0
  6
Continuous
 62
     7
100
AcDbCircle
 10
-249.6752102567547
 20
63.1360670024858
 30
0.0
 40
7.294399279019103
100
AcDbArc
 50
104.2730925751756
 51
109.0495660423693
  0
ARC
  5
2165
330
1F
100
AcDbEntity
  8
0
  6
Continuous
 62
     7
100
AcDbCircle
 10
-252.7538999999999
 20
70.62200000000007
 30
0.0
 40
0.4000430101875608
100
AcDbArc
 50
247.6533635032197
 51
292.3466364967767
  0
ARC
  5
2166
330
1F
100
AcDbEntity
  8
0
  6
Continuous
 62
     7
100
AcDbCircle
 10
-255.8325815889353
 20
63.13612741388242
 30
0.0
 40
7.69437254411241
100
AcDbArc
 50
67.64441852862372
 51
75.21088445056435
  0
ARC
  5
2167
330
1F
100
AcDbEntity
  8
0
  6
Continuous
 62
     7
100
AcDbCircle
 10
-249.6747451784755
 20
63.13621923242017
 30
0.0
 40
7.694353518644981
100
AcDbArc
 50
104.7912572937405
 51
112.3570345469257
  0
ARC
  5
2168
330
1F
100
AcDbEntity
  8
0
  6
Continuous
 62
     7
100
AcDbCircle
 10
-252.7538999999999
 20
69.30480000000009
 30
0.0
 40
0.3999879623188379
100
AcDbArc
 50
63.47979121723038
 51
116.5202087827586
  0
LINE
  5
2169
330
1F
100
AcDbEntity
  8
0
  6
Continuous
 62
     7
100
AcDbLine
 10
-251.5015
 20
70.54259999999998
 30
0.0
 11
-251.4111000000001
 21
70.4628
 31
0.0
  0
LINE
  5
216A
330
1F
100
AcDbEntity
  8
0
  6
Continuous
 62
     7
100
AcDbLine
 10
-254.0061
 20
70.54259999999998
 30
0.0
 11
-254.0964
 21
70.4628
 31
0.0
  0
ARC
  5
216B
330
1F
100
AcDbEntity
  8
0
  6
Continuous
 62
     7
100
AcDbCircle
 10
-250.5376042579774
 20
68.87686241081727
 30
0.0
 40
1.200006053555011
100
AcDbArc
 50
318.6264631744658
 51
28.4480833998973
  0
ARC
  5
216E
330
1F
100
AcDbEntity
  8
0
  6
Continuous
 62
     7
100
AcDbCircle
 10
-257.3917828124777
 20
135.25721695048
 30
0.0
 40
9.999983050206571
100
AcDbArc
 50
90.00067143618082
 51
179.2036587953757
  0
LINE
  5
216F
330
1F
100
AcDbEntity
  8
0
  6
Continuous
 62
     7
100
AcDbLine
 10
-281.7538
 20
98.71571252122247
 30
0.0
 11
-281.9147
 21
100.5553125212224
 31
0.0
  0
ARC
  5
2185
330
1F
100
AcDbEntity
  8
0
  6
Continuous
 62
     7
100
AcDbCircle
 10
-125.5314965625466
 20
93.2571966099884
 30
0.0
 40
1.999996609991353
100
AcDbArc
 50
180.7963412070575
 51
269.9999015240523
  0
LINE
  5
2186
330
1F
100
AcDbEntity
  8
0
  6
Continuous
 62
     7
100
AcDbLine
 10
-127.3953
 20
83.4515000000001
 30
0.0
 11
-128.1172
 21
135.3962
 31
0.0
  0
LINE
  5
2187
330
1F
100
AcDbEntity
  8
0
  6
Continuous
 62
     7
100
AcDbLine
 10
-92.75369999999998
 20
15.05729999999999
 30
0.0
 11
-55.25370000000001
 21
15.05729999999999
 31
0.0
  0
LINE
  5
2188
330
1F
100
AcDbEntity
  8
0
  6
Continuous
 62
     7
100
AcDbLine
 10
-86.25370000000003
 20
17.0573
 30
0.0
 11
-54.2537
 21
17.0573
 31
0.0
  0
ARC
  5
2189
330
1F
100
AcDbEntity
  8
0
  6
Continuous
 62
     7
100
AcDbCircle
 10
-99.25395228843946
 20
46.05729999999995
 30
0.0
 40
1.0
100
AcDbArc
 50
0.0
 51
90.0
  0
LINE
  5
218A
330
1F
100
AcDbEntity
  8
0
  6
Continuous
 62
     7
100
AcDbLine
 10
-117.2539522884395
 20
90.05729999999994
 30
0.0
 11
-117.2539522884395
 21
7.057299999999999
 31
0.0
  0
LINE
  5
218B
330
1F
100
AcDbEntity
  8
0
  6
Continuous
 62
     7
100
AcDbLine
 10
-102.3119522884395
 20
7.057299999999999
 30
0.0
 11
-102.3119522884395
 21
47.99389999999995
 31
0.0
  0
LINE
  5
218C
330
1F
100
AcDbEntity
  8
0
  6
Continuous
 62
     7
100
AcDbLine
 10
-106.1194522884392
 20
7.057299999999999
 30
0.0
 11
-106.1194522884392
 21
48.22529999999985
 31
0.0
  0
LINE
  5
218D
330
1F
100
AcDbEntity
  8
0
  6
Continuous
 62
     7
100
AcDbLine
 10
-98.25395228843945
 20
46.05729999999995
 30
0.0
 11
-98.25395228843945
 21
7.057299999999999
 31
0.0
  0
ARC
  5
218E
330
1F
100
AcDbEntity
  8
0
  6
Continuous
 62
     7
100
AcDbCircle
 10
-92.75369999999998
 20
16.5573
 30
0.0
 40
1.5
100
AcDbArc
 50
180.0
 51
270.0
  0
LINE
  5
218F
330
1F
100
AcDbEntity
  8
0
  6
Continuous
 62
     7
100
AcDbLine
 10
-94.25369999999999
 20
16.9573
 30
0.0
 11
-98.25395228843945
 21
16.9573
 31
0.0
  0
LINE
  5
2190
330
1F
100
AcDbEntity
  8
0
  6
Continuous
 62
     7
100
AcDbLine
 10
-86.25370000000003
 20
17.0573
 30
0.0
 11
-86.25370000000003
 21
15.05729999999999
 31
0.0
  0
LINE
  5
2191
330
1F
100
AcDbEntity
  8
0
  6
DASH_CENTER
 62
    30
100
AcDbLine
 10
-98.15694933283726
 20
60.09033264609922
 30
0.0
 11
-121.1734382979682
 21
60.09033264609922
 31
0.0
  0
LINE
  5
2192
330
1F
100
AcDbEntity
  8
0
  6
Continuous
 62
     7
100
AcDbLine
 10
-122.7544
 20
90.25719999999999
 30
0.0
 11
-117.2541045763298
 21
90.25719999999999
 31
0.0
  0
ARC
  5
2193
330
1F
100
AcDbEntity
  8
0
  6
Continuous
 62
     7
100
AcDbCircle
 10
-130.7541999999999
 20
71.72180000000001
 30
0.0
 40
7.999999999999992
100
AcDbArc
 50
270.0
 51
0.0
  0
ARC
  5
2194
330
1F
100
AcDbEntity
  8
0
  6
Continuous
 62
     7
100
AcDbCircle
 10
-130.7540000003124
 20
72.16489999968745
 30
0.0
 40
8.000000000312491
100
AcDbArc
 50
270.0007161994812
 51
0.0000000022381945
  0
ARC
  5
2195
330
1F
100
AcDbEntity
  8
0
  6
Continuous
 62
     7
100
AcDbCircle
 10
-145.832676825317
 20
63.13608378416724
 30
0.0
 40
7.694371647782543
100
AcDbArc
 50
49.29028176753379
 51
60.74706917215589
  0
ARC
  5
2196
330
1F
100
AcDbEntity
  8
0
  6
Continuous
 62
     7
100
AcDbCircle
 10
-139.6753231746822
 20
63.13608378416762
 30
0.0
 40
7.69437164778248
100
AcDbArc
 50
119.2529308278496
 51
130.7097182324686
  0
ARC
  5
2197
330
1F
100
AcDbEntity
  8
0
  6
Continuous
 62
     7
100
AcDbCircle
 10
-139.6753360341284
 20
63.13607623822147
 30
0.0
 40
7.294329315511893
100
AcDbArc
 50
116.521507217471
 51
130.2821468822231
  0
ARC
  5
2198
330
1F
100
AcDbEntity
  8
0
  6
Continuous
 62
     7
100
AcDbCircle
 10
-145.8326639658714
 20
63.13607623822147
 30
0.0
 40
7.294329315511893
100
AcDbArc
 50
49.71785311777682
 51
63.478492782529
  0
ARC
  5
2199
330
1F
100
AcDbEntity
  8
0
  6
Continuous
 62
     7
100
AcDbCircle
 10
-142.7541770875684
 20
67.67640000117833
 30
0.0
 40
3.720341105874186
100
AcDbArc
 50
28.44580501170156
 51
151.5524434397759
  0
LINE
  5
219A
330
1F
100
AcDbEntity
  8
0
  6
DASH_CENTER
 62
    30
100
AcDbLine
 10
-142.7538999999999
 20
65.78956446369109
 30
0.0
 11
-142.7538999999999
 21
72.36195726263506
 31
0.0
  0
ARC
  5
219B
330
1F
100
AcDbEntity
  8
0
  6
Continuous
 62
     7
100
AcDbCircle
 10
-142.7541559578051
 20
70.82880000089777
 30
0.0
 40
4.153121811585662
100
AcDbArc
 50
221.3740961685638
 51
318.6240653658661
  0
LINE
  5
219C
330
1F
100
AcDbEntity
  8
0
  6
DASH_CENTER
 62
    30
100
AcDbLine
 10
-137.3525462927229
 20
69.55069999999999
 30
0.0
 11
-148.2009536837509
 21
69.55069999999999
 31
0.0
  0
ARC
  5
219D
330
1F
100
AcDbEntity
  8
0
  6
Continuous
 62
     7
100
AcDbCircle
 10
-144.5962147098492
 20
68.85468170711054
 30
0.0
 40
0.1499793756072353
100
AcDbArc
 50
130.6919273504305
 51
249.7195104925356
  0
ARC
  5
219E
330
1F
100
AcDbEntity
  8
0
  6
Continuous
 62
     7
100
AcDbCircle
 10
-144.4885134403165
 20
68.81509762764885
 30
0.0
 40
0.1499947492871184
100
AcDbArc
 50
249.7211635285819
 51
310.2991833616886
  0
ARC
  5
219F
330
1F
100
AcDbEntity
  8
0
  6
Continuous
 62
     7
100
AcDbCircle
 10
-144.9701957420225
 20
68.87686241081718
 30
0.0
 40
1.200006053555022
100
AcDbArc
 50
151.5519166000987
 51
221.3735368255289
  0
LINE
  5
21A0
330
1F
100
AcDbEntity
  8
0
  6
Continuous
 62
     7
100
AcDbLine
 10
-144.5404999999998
 20
68.67420000000014
 30
0.0
 11
-144.6481999999999
 21
68.71400000000015
 31
0.0
  0
ARC
  5
21A1
330
1F
100
AcDbEntity
  8
0
  6
Continuous
 62
     7
100
AcDbCircle
 10
-140.9118821507698
 20
68.85469914506796
 30
0.0
 40
0.1500293299712719
100
AcDbArc
 50
290.3128788442994
 51
49.27568331273481
  0
ARC
  5
21A2
330
1F
100
AcDbEntity
  8
0
  6
Continuous
 62
     7
100
AcDbCircle
 10
-141.0192865596835
 20
68.81509762764884
 30
0.0
 40
0.1499947492871509
100
AcDbArc
 50
229.7008166382902
 51
290.2788364714701
  0
ARC
  5
21A3
330
1F
100
AcDbEntity
  8
0
  6
Continuous
 62
     7
100
AcDbCircle
 10
-140.5381002952386
 20
68.87689739552526
 30
0.0
 40
1.200026203877725
100
AcDbArc
 50
318.625084652239
 51
28.4402324399226
  0
LINE
  5
21A4
330
1F
100
AcDbEntity
  8
0
  6
Continuous
 62
     7
100
AcDbLine
 10
-140.9672999999999
 20
68.67420000000014
 30
0.0
 11
-140.8598
 21
68.71400000000015
 31
0.0
  0
ARC
  5
21A5
330
1F
100
AcDbEntity
  8
0
  6
Continuous
 62
     7
100
AcDbCircle
 10
-137.3939674111787
 20
83.31243304511049
 30
0.0
 40
10.00003304533769
100
AcDbArc
 50
270.0003862363273
 51
0.7962449990216213
  0
ARC
  5
21A6
330
1F
100
AcDbEntity
  8
0
  6
Continuous
 62
     7
100
AcDbCircle
 10
-145.8330548215243
 20
63.13621923242013
 30
0.0
 40
7.694353518645006
100
AcDbArc
 50
67.64296545307423
 51
75.20874270626112
  0
ARC
  5
21A7
330
1F
100
AcDbEntity
  8
0
  6
Continuous
 62
     7
100
AcDbCircle
 10
-143.9068994934651
 20
70.43032394055439
 30
0.0
 40
0.1500208796311756
100
AcDbArc
 50
75.24846558385945
 51
131.5477801995309
  0
ARC
  5
21A8
330
1F
100
AcDbEntity
  8
0
  6
Continuous
 62
     7
100
AcDbCircle
 10
-143.9970950579913
 20
70.3504796231104
 30
0.0
 40
0.1499906982460627
100
AcDbArc
 50
131.5092314733042
 51
255.7562121844518
  0
ARC
  5
21A9
330
1F
100
AcDbEntity
  8
0
  6
Continuous
 62
     7
100
AcDbCircle
 10
-143.4843968488619
 20
69.93616463723019
 30
0.0
 40
0.100030089170853
100
AcDbArc
 50
299.2631454310315
 51
70.92108481797753
  0
ARC
  5
21AA
330
1F
100
AcDbEntity
  8
0
  6
Continuous
 62
     7
100
AcDbCircle
 10
-145.8325897432452
 20
63.1360670024858
 30
0.0
 40
7.294399279019097
100
AcDbArc
 50
70.9504339576307
 51
75.72690742482435
  0
LINE
  5
21AB
330
1F
100
AcDbEntity
  8
0
  6
Continuous
 62
     7
100
AcDbLine
 10
-144.0966999999999
 20
70.4628
 30
0.0
 11
-144.0062999999997
 21
70.54259999999998
 31
0.0
  0
ARC
  5
21AC
330
1F
100
AcDbEntity
  8
0
  6
Continuous
 62
     7
100
AcDbCircle
 10
-141.6011058757667
 20
70.43030139960166
 30
0.0
 40
0.1500413108565228
100
AcDbArc
 50
48.45639429526515
 51
104.7473599213407
  0
ARC
  5
21AD
330
1F
100
AcDbEntity
  8
0
  6
Continuous
 62
     7
100
AcDbCircle
 10
-141.5109993866931
 20
70.35050252878672
 30
0.0
 40
0.1500361622850107
100
AcDbArc
 50
284.2765933264113
 51
48.45796301583281
  0
ARC
  5
21AE
330
1F
100
AcDbEntity
  8
0
  6
Continuous
 62
     7
100
AcDbCircle
 10
-142.0237023633534
 20
69.93617347792266
 30
0.0
 40
0.0999893458873481
100
AcDbArc
 50
109.0268434297777
 51
240.7889263212147
  0
ARC
  5
21AF
330
1F
100
AcDbEntity
  8
0
  6
Continuous
 62
     7
100
AcDbCircle
 10
-139.6746990611937
 20
63.13627992056288
 30
0.0
 40
7.294368312026707
100
AcDbArc
 50
104.2789187587427
 51
109.0563911049427
  0
ARC
  5
21B0
330
1F
100
AcDbEntity
  8
0
  6
Continuous
 62
     7
100
AcDbCircle
 10
-142.7538999999999
 20
70.62200000000007
 30
0.0
 40
0.4000430101875608
100
AcDbArc
 50
247.6533635032197
 51
292.3466364967767
  0
ARC
  5
21B1
330
1F
100
AcDbEntity
  8
0
  6
Continuous
 62
     7
100
AcDbCircle
 10
-139.6752184110646
 20
63.1361274138824
 30
0.0
 40
7.694372544112429
100
AcDbArc
 50
104.7891155494356
 51
112.3555814713762
  0
ARC
  5
21B2
330
1F
100
AcDbEntity
  8
0
  6
Continuous
 62
     7
100
AcDbCircle
 10
-142.7538999999999
 20
69.30480000000009
 30
0.0
 40
0.3999879623188379
100
AcDbArc
 50
63.47979121723038
 51
116.5202087827586
  0
LINE
  5
21B3
330
1F
100
AcDbEntity
  8
0
  6
Continuous
 62
     7
100
AcDbLine
 10
-141.4113999999999
 20
70.4628
 30
0.0
 11
-141.5016999999999
 21
70.54259999999998
 31
0.0
  0
LINE
  5
21B4
330
1F
100
AcDbEntity
  8
0
  6
Continuous
 62
     7
100
AcDbLine
 10
-122.7544
 20
72.16489999999997
 30
0.0
 11
-122.7544
 21
91.25719999999999
 31
0.0
  0
POINT
  5
21B5
330
1F
100
AcDbEntity
  8
0
 62
     2
100
AcDbPoint
 10
-122.7544
 20
70.99240000000008
 30
0.0
  0
LINE
  5
21BA
330
1F
100
AcDbEntity
  8
0
  6
Continuous
 62
     7
100
AcDbLine
 10
-122.8099
 20
91.25719999999999
 30
0.0
 11
-125.5314999999999
 21
91.25719999999999
 31
0.0
  0
ARC
  5
21BB
330
1F
100
AcDbEntity
  8
0
  6
Continuous
 62
     7
100
AcDbCircle
 10
-751.0215259815482
 20
7.05596276580687
 30
0.0
 40
650.0000197739117
100
AcDbArc
 50
3.610960630401559
 51
7.180634488066733
  0
ARC
  5
21BC
330
1F
100
AcDbEntity
  8
0
  6
Continuous
 62
     7
100
AcDbCircle
 10
-752.205237207856
 20
7.057299999999999
 30
0.0
 40
650.000061610497
100
AcDbArc
 50
4.422422969033929
 51
6.21144797527971
  0
LINE
  5
21BD
330
1F
100
AcDbEntity
  8
0
  6
Continuous
 62
     7
100
AcDbLine
 10
-110.2539522884395
 20
49.22529999999984
 30
0.0
 11
-110.2539522884395
 21
76.38599999999996
 31
0.0
  0
ARC
  5
21BE
330
1F
100
AcDbEntity
  8
0
  6
Continuous
 62
     7
100
AcDbCircle
 10
-101.3140518196942
 20
48.05709955999935
 30
0.0
 40
0.9999995599997003
100
AcDbArc
 50
183.6234845300773
 51
269.999973142871
  0
LINE
  5
21BF
330
1F
100
AcDbEntity
  8
0
  6
Continuous
 62
     7
100
AcDbLine
 10
-106.9541522884394
 20
62.8354326460991
 30
0.0
 11
-106.9541522884394
 21
57.34523264609914
 31
0.0
  0
LINE
  5
21C0
330
1F
100
AcDbEntity
  8
0
  6
Continuous
 62
     7
100
AcDbLine
 10
-110.2539522884395
 20
55.59033264609922
 30
0.0
 11
-110.2539522884395
 21
64.59033264609923
 31
0.0
  0
ARC
  5
21C1
330
1F
100
AcDbEntity
  8
0
  6
Continuous
 62
     7
100
AcDbCircle
 10
-109.2539522884395
 20
49.22529999999984
 30
0.0
 40
1.0
100
AcDbArc
 50
180.0
 51
270.0
  0
LINE
  5
21C2
330
1F
100
AcDbEntity
  8
0
  6
Continuous
 62
     7
100
AcDbLine
 10
-108.4143522884394
 20
55.75153264609924
 30
0.0
 11
-110.2539522884395
 21
55.59033264609922
 31
0.0
  0
ARC
  5
21C3
330
1F
100
AcDbEntity
  8
0
  6
Continuous
 62
     7
100
AcDbCircle
 10
-104.6404522884393
 20
48.72529999999985
 30
0.0
 40
0.5
100
AcDbArc
 50
270.0
 51
0.0
  0
ARC
  5
21C4
330
1F
100
AcDbEntity
  8
0
  6
Continuous
 62
     7
100
AcDbCircle
 10
-108.5540522884393
 20
57.34523264609914
 30
0.0
 40
1.599992956234563
100
AcDbArc
 50
275.0018485855006
 51
354.011239872821
  0
ARC
  5
21C5
330
1F
100
AcDbEntity
  8
0
  6
Continuous
 62
     7
100
AcDbCircle
 10
-108.5540487637235
 20
57.34529997383131
 30
0.0
 40
1.599996476700674
100
AcDbArc
 50
354.0088288600861
 51
359.9975889978789
  0
LINE
  5
21C6
330
1F
100
AcDbEntity
  8
0
  6
Continuous
 62
     7
100
AcDbLine
 10
-106.1194522884392
 20
48.22529999999985
 30
0.0
 11
-104.6404522884393
 21
48.22529999999985
 31
0.0
  0
LINE
  5
21C7
330
1F
100
AcDbEntity
  8
0
  6
Continuous
 62
     7
100
AcDbLine
 10
-104.1404522884392
 20
57.17829999999981
 30
0.0
 11
-104.1404522884392
 21
48.72529999999985
 31
0.0
  0
LINE
  5
21C8
330
1F
100
AcDbEntity
  8
0
  6
Continuous
 62
     7
100
AcDbLine
 10
-109.2539522884395
 20
48.22529999999985
 30
0.0
 11
-106.1194522884392
 21
48.22529999999985
 31
0.0
  0
LINE
  5
21C9
330
1F
100
AcDbEntity
  8
0
  6
Continuous
 62
     7
100
AcDbLine
 10
-104.1404522884392
 20
57.17829999999981
 30
0.0
 11
-106.9627914827677
 21
57.17829999999981
 31
0.0
  0
POINT
  5
21CA
330
1F
100
AcDbEntity
  8
0
 62
     2
100
AcDbPoint
 10
-102.8534522884393
 20
55.81969999999978
 30
0.0
  0
LINE
  5
21CB
330
1F
100
AcDbEntity
  8
0
  6
Continuous
 62
     7
100
AcDbLine
 10
-108.4143522884394
 20
64.42943264609914
 30
0.0
 11
-110.2539522884395
 21
64.59033264609923
 31
0.0
  0
ARC
  5
21CC
330
1F
100
AcDbEntity
  8
0
  6
Continuous
 62
     7
100
AcDbCircle
 10
-108.5540985761626
 20
62.83548316167746
 30
0.0
 40
1.600046288488416
100
AcDbArc
 50
0.0017719790555758
 51
84.99665471254745
  0
LINE
  5
21CD
330
1F
100
AcDbEntity
  8
0
  6
Continuous
 62
     7
100
AcDbLine
 10
-99.25395228843946
 20
47.05729999999995
 30
0.0
 11
-101.3140522884394
 21
47.05729999999995
 31
0.0
  0
LINE
  5
21CE
330
1F
100
AcDbEntity
  8
0
  6
Continuous
 62
     7
100
AcDbLine
 10
-106.1194522884392
 20
88.30459999999993
 30
0.0
 11
-106.1194522884392
 21
77.38599999999997
 31
0.0
  0
ARC
  5
21CF
330
1F
100
AcDbEntity
  8
0
  6
Continuous
 62
     7
100
AcDbCircle
 10
-109.2539522884395
 20
76.38599999999996
 30
0.0
 40
1.0
100
AcDbArc
 50
90.0
 51
180.0
  0
LINE
  5
21D0
330
1F
100
AcDbEntity
  8
0
  6
Continuous
 62
     7
100
AcDbLine
 10
-106.1194522884392
 20
77.38599999999997
 30
0.0
 11
-106.0210884932967
 21
77.38599999999997
 31
0.0
  0
LINE
  5
21D1
330
1F
100
AcDbEntity
  8
0
  6
Continuous
 62
     7
100
AcDbLine
 10
-106.1194522884392
 20
77.38599999999997
 30
0.0
 11
-106.0210884932967
 21
77.38599999999997
 31
0.0
  0
LINE
  5
21D2
330
1F
100
AcDbEntity
  8
0
  6
Continuous
 62
     7
100
AcDbLine
 10
-109.2539522884395
 20
77.38599999999997
 30
0.0
 11
-106.1194522884392
 21
77.38599999999997
 31
0.0
  0
LINE
  5
21D3
330
1F
100
AcDbEntity
  8
0
  6
Continuous
 62
     7
100
AcDbLine
 10
-107.5395522884393
 20
89.61569999999984
 30
0.0
 11
-117.2539522884395
 21
90.05729999999994
 31
0.0
  0
ARC
  5
21D4
330
1F
100
AcDbEntity
  8
0
  6
Continuous
 62
     7
100
AcDbCircle
 10
-107.6076488991972
 20
88.1171968711383
 30
0.0
 40
1.499949694149371
100
AcDbArc
 50
7.177268313386761
 51
87.39791945544778
  0
LINE
  5
21D5
330
1F
100
AcDbEntity
  8
0
  6
Continuous
 62
     7
100
AcDbLine
 10
-54.2537
 20
17.0573
 30
0.0
 11
-54.2537
 21
0.0572999999999899
 31
0.0
  0
LINE
  5
21D6
330
1F
100
AcDbEntity
  8
0
  6
Continuous
 62
     7
100
AcDbLine
 10
-54.2537
 20
14.0573
 30
0.0
 11
-55.25370000000001
 21
15.05729999999999
 31
0.0
  0
ARC
  5
21DC
330
1F
100
AcDbEntity
  8
0
  6
Continuous
 62
     7
100
AcDbCircle
 10
-138.1160171875221
 20
135.25721695048
 30
0.0
 40
9.99998305020656
100
AcDbArc
 50
0.7963412046240917
 51
89.99932856381919
  0
ARC
  5
2202
330
1F
100
AcDbEntity
  8
0
  6
Continuous
 62
     7
100
AcDbCircle
 10
87.10355521479108
 20
-3.942700000000028
 30
0.0
 40
5.0
100
AcDbArc
 50
90.0
 51
180.0
  0
ARC
  5
2203
330
1F
100
AcDbEntity
  8
0
  6
Continuous
 62
     7
100
AcDbCircle
 10
87.10355521479108
 20
-3.942700000000028
 30
0.0
 40
7.999999999999997
100
AcDbArc
 50
90.0
 51
180.0
  0
ARC
  5
2204
330
1F
100
AcDbEntity
  8
0
  6
Continuous
 62
     7
100
AcDbCircle
 10
87.10355521479108
 20
-3.942700000000028
 30
0.0
 40
11.0
100
AcDbArc
 50
90.0
 51
180.0
  0
ARC
  5
2205
330
1F
100
AcDbEntity
  8
0
  6
Continuous
 62
     7
100
AcDbCircle
 10
87.10355521479108
 20
-3.942700000000028
 30
0.0
 40
14.00000000000001
100
AcDbArc
 50
90.0
 51
180.0
  0
ARC
  5
2206
330
1F
100
AcDbEntity
  8
0
  6
Continuous
 62
     7
100
AcDbCircle
 10
87.10355521479108
 20
-3.942700000000028
 30
0.0
 40
17.0
100
AcDbArc
 50
90.0
 51
180.0
  0
CIRCLE
  5
2207
330
1F
100
AcDbEntity
  8
0
  6
Continuous
 62
     7
100
AcDbCircle
 10
194.0088
 20
7.057299999999999
 30
0.0
 40
83.19999999999998
  0
CIRCLE
  5
2208
330
1F
100
AcDbEntity
  8
0
  6
Continuous
 62
     7
100
AcDbCircle
 10
194.009
 20
7.057299999999999
 30
0.0
 40
40.00002551024173
  0
ARC
  5
2209
330
1F
100
AcDbEntity
  8
0
  6
Continuous
 62
     7
100
AcDbCircle
 10
194.009
 20
7.057299999999999
 30
0.0
 40
93.00000870585977
100
AcDbArc
 50
183.699070716408
 51
222.4785448977098
  0
ARC
  5
220A
330
1F
100
AcDbEntity
  8
0
  6
Continuous
 62
     7
100
AcDbCircle
 10
194.009
 20
7.057299999999999
 30
0.0
 40
7.999999999999997
100
AcDbArc
 50
108.2099568642829
 51
71.790043135717
  0
ARC
  5
220B
330
1F
100
AcDbEntity
  8
0
  6
Continuous
 62
     7
100
AcDbCircle
 10
194.009
 20
7.057299999999999
 30
0.0
 40
9.900000000000003
100
AcDbArc
 50
104.6269940834783
 51
75.37300591652169
  0
ARC
  5
220C
330
1F
100
AcDbEntity
  8
0
  6
Continuous
 62
     7
100
AcDbCircle
 10
194.009
 20
7.057299999999999
 30
0.0
 40
10.25004238918046
100
AcDbArc
 50
104.1169209795729
 51
75.88307902042704
  0
ARC
  5
220D
330
1F
100
AcDbEntity
  8
0
  6
Continuous
 62
     7
100
AcDbCircle
 10
194.009
 20
7.057299999999999
 30
0.0
 40
91.99996506483037
100
AcDbArc
 50
317.5066386146052
 51
54.93075136531084
  0
ARC
  5
220E
330
1F
100
AcDbEntity
  8
0
  6
Continuous
 62
     7
100
AcDbCircle
 10
194.0088
 20
7.057299999999999
 30
0.0
 40
87.20000000000004
100
AcDbArc
 50
174.0981086896834
 51
185.9018913103165
  0
ARC
  5
220F
330
1F
100
AcDbEntity
  8
0
  6
Continuous
 62
     7
100
AcDbCircle
 10
194.009
 20
7.057299999999999
 30
0.0
 40
91.99996506483037
100
AcDbArc
 50
183.7393366534806
 51
222.4933690800887
  0
ARC
  5
2210
330
1F
100
AcDbEntity
  8
0
  6
Continuous
 62
     7
100
AcDbCircle
 10
194.0088
 20
7.057299999999999
 30
0.0
 40
83.99999999999993
100
AcDbArc
 50
346.2258530019731
 51
0.0
  0
ARC
  5
2211
330
1F
100
AcDbEntity
  8
0
  6
Continuous
 62
     7
100
AcDbCircle
 10
194.009
 20
7.057299999999999
 30
0.0
 40
93.00000870585977
100
AcDbArc
 50
317.5772747607975
 51
0.0
  0
LINE
  5
2212
330
1F
100
AcDbEntity
  8
0
  6
Continuous
 62
     7
100
AcDbLine
 10
93.48195769282341
 20
1.05729999999998
 30
0.0
 11
88.01673448277213
 21
-20.22669008869526
 31
0.0
  0
LINE
  5
2213
330
1F
100
AcDbEntity
  8
0
  6
Continuous
 62
     7
100
AcDbLine
 10
96.57928014841999
 20
1.057299999999959
 30
0.0
 11
90.92247004276776
 21
-20.97281397611402
 31
0.0
  0
LINE
  5
2214
330
1F
100
AcDbEntity
  8
0
  6
Continuous
 62
     7
100
AcDbLine
 10
93.82820560276341
 20
-21.71893786353276
 30
0.0
 11
99.67660260401657
 21
1.057299999999989
 31
0.0
  0
LINE
  5
2215
330
1F
100
AcDbEntity
  8
0
  6
DASH_CENTER
 62
    30
100
AcDbLine
 10
194.009
 20
158.040235984732
 30
0.0
 11
194.009
 21
-94.38559720962448
 31
0.0
  0
LINE
  5
2216
330
1F
100
AcDbEntity
  8
0
  6
DASH_CENTER
 62
    30
100
AcDbLine
 10
7.254825402553706
 20
12.05730000000032
 30
0.0
 11
7.254825402553706
 21
-8.41675834965765
 31
0.0
  0
ARC
  5
2217
330
1F
100
AcDbEntity
  8
0
  6
Continuous
 62
     7
100
AcDbCircle
 10
7.254825402553706
 20
7.05730000000033
 30
0.0
 40
8.0
100
AcDbArc
 50
180.0
 51
0.0
  0
ARC
  5
221C
330
1F
100
AcDbEntity
  8
0
  6
Continuous
 62
     7
100
AcDbCircle
 10
194.0089
 20
7.05720000000003
 30
0.0
 40
64.49995587696175
100
AcDbArc
 50
310.0747512887276
 51
319.9252487112719
  0
ARC
  5
221D
330
1F
100
AcDbEntity
  8
0
  6
Continuous
 62
     7
100
AcDbCircle
 10
194.0090256971257
 20
7.057325696964789
 30
0.0
 40
82.49995921252745
100
AcDbArc
 50
299.1144868787955
 51
330.8851542914677
  0
ARC
  5
221E
330
1F
100
AcDbEntity
  8
0
  6
DASH_CENTER
 62
    30
100
AcDbCircle
 10
194.0088388996508
 20
7.057139829522969
 30
0.0
 40
74.99997984032003
100
AcDbArc
 50
305.9142855201648
 51
323.7540466389144
  0
LINE
  5
221F
330
1F
100
AcDbEntity
  8
0
  6
Continuous
 62
     7
100
AcDbLine
 10
244.009
 20
-81.44249999999999
 30
0.0
 11
144.0089999999999
 21
-81.44249999999999
 31
0.0
  0
LINE
  5
2220
330
1F
100
AcDbEntity
  8
0
  6
Continuous
 62
     7
100
AcDbLine
 10
146.9324
 20
-78.24250000000002
 30
0.0
 11
284.009
 21
-78.24250000000002
 31
0.0
  0
LINE
  5
2221
330
1F
100
AcDbEntity
  8
0
  6
DASH_CENTER
 62
    30
100
AcDbLine
 10
254.1263075236299
 20
-53.06002122832086
 30
0.0
 11
241.1998492120972
 21
-40.13361604584264
 31
0.0
  0
LINE
  5
2222
330
1F
100
AcDbEntity
  8
0
  6
Continuous
 62
     7
100
AcDbLine
 10
237.08458405712
 20
-167.86889182789
 30
0.0
 11
274.0086999999999
 21
-167.86889182789
 31
0.0
  0
ARC
  5
2223
330
1F
100
AcDbEntity
  8
0
  6
Continuous
 62
     7
100
AcDbCircle
 10
254.0088999999999
 20
-187.86889182789
 30
0.0
 40
10.0
100
AcDbArc
 50
180.0
 51
270.0
  0
SPLINE
  5
2224
330
1F
100
AcDbEntity
  8
0
  6
Continuous
 62
    54
100
AcDbSpline
210
0.0
220
0.0
230
1.0
 70
     8
 71
     3
 72
    68
 73
    64
 74
    62
 42
0.0000000001
 43
0.0000000001
 44
0.00000001
 40
0.0
 40
0.0
 40
0.0
 40
0.0
 40
0.7765120862830952
 40
1.553309470076863
 40
2.597572422040297
 40
3.640125412160602
 40
4.713754877703992
 40
5.789324290538552
 40
6.863771447985921
 40
7.938218695888289
 40
8.680674566984674
 40
9.422509098754725
 40
10.88932746374107
 40
12.34688829649444
 40
13.38469129691555
 40
14.42798321011586
 40
15.3901296180909
 40
16.36021325845345
 40
17.53144904721553
 40
18.66754115166571
 40
19.92940154546991
 40
21.16045755600439
 40
21.8594838340878
 40
22.57073680203531
 40
23.9161639583245
 40
25.30080099381973
 40
26.61285638862855
 40
27.9282219386
 40
28.97567495156046
 40
30.00032127062587
 40
31.33506300955042
 40
32.71073619463462
 40
33.22506432974106
 40
33.71963262230178
 40
34.82269310538455
 40
36.00188681043823
 40
37.09041739813908
 40
38.14223860387166
 40
39.27793070827148
 40
40.55344152024256
 40
41.77939546200707
 40
42.71256689888916
 40
43.64512775766564
 40
44.89820630923167
 40
46.21038213605293
 40
48.23325029803766
 40
50.20697296155568
 40
51.42535307894402
 40
52.63447589191615
 40
53.92527059651563
 40
55.23434733711374
 40
56.75436720715481
 40
58.27470649702179
 40
59.57342003891556
 40
60.86968963134316
 40
63.45569910419362
 40
66.02693813608874
 40
67.06426118498375
 40
68.10304598498571
 40
70.39165769626411
 40
72.65332086040216
 40
73.93860123352794
 40
75.24966209291715
 40
75.24966209291715
 40
75.24966209291715
 40
75.24966209291715
 10
237.08458405712
 20
-167.86889182789
 30
0.0
 10
237.1069577031692
 20
-168.1267567048401
 30
0.0
 10
237.1517132291307
 20
-168.6425811993994
 30
0.0
 10
237.2382235678241
 20
-169.5042342209402
 30
0.0
 10
237.3635252790021
 20
-170.4504057935268
 30
0.0
 10
237.4723273233788
 20
-171.4991879689366
 30
0.0
 10
237.4816263133923
 20
-172.5641789268864
 30
0.0
 10
237.4512320843134
 20
-173.638157573998
 30
0.0
 10
237.4439042068113
 20
-174.7130658894969
 30
0.0
 10
237.4524017601681
 20
-175.6768727017041
 30
0.0
 10
237.4667452067502
 20
-176.5295288297509
 30
0.0
 10
237.534013703668
 20
-177.5127028776657
 30
0.0
 10
237.7894603084805
 20
-178.7083680824137
 30
0.0
 10
238.015607139784
 20
-180.0172625644556
 30
0.0
 10
237.9440445530054
 20
-181.1999548561199
 30
0.0
 10
237.8183391388015
 20
-182.2060031332995
 30
0.0
 10
237.7533915298017
 20
-183.1958566246534
 30
0.0
 10
237.6831752088719
 20
-184.2293230597767
 30
0.0
 10
237.5317503916879
 20
-185.3069626401653
 30
0.0
 10
237.5970455754851
 20
-186.529403411201
 30
0.0
 10
238.2204740739564
 20
-187.5780964315547
 30
0.0
 10
238.7002109185436
 20
-188.5679866140596
 30
0.0
 10
238.627793775068
 20
-189.4596569037366
 30
0.0
 10
238.505230201653
 20
-190.3724207545366
 30
0.0
 10
238.815260378578
 20
-191.5127208802354
 30
0.0
 10
239.4027000547259
 20
-192.7195016479524
 30
0.0
 10
239.8072200960608
 20
-193.9999273024631
 30
0.0
 10
240.0982798598669
 20
-195.1891500170113
 30
0.0
 10
240.3808464468552
 20
-196.2820320765381
 30
0.0
 10
240.8558174758118
 20
-197.3316150966935
 30
0.0
 10
241.8044097234827
 20
-198.1934464879838
 30
0.0
 10
242.8050395906461
 20
-198.6293505612797
 30
0.0
 10
243.578719332168
 20
-198.8036381678185
 30
0.0
 10
244.2578473784104
 20
-199.0187297222252
 30
0.0
 10
244.9254369597656
 20
-199.7231989874641
 30
0.0
 10
245.5060579638743
 20
-200.6590452116451
 30
0.0
 10
246.2773985098394
 20
-201.5281403844851
 30
0.0
 10
247.3987271240066
 20
-201.7199545555062
 30
0.0
 10
248.5490919253925
 20
-201.7463741767667
 30
0.0
 10
249.7094466223464
 20
-202.116858435346
 30
0.0
 10
250.843589157942
 20
-202.3884963024059
 30
0.0
 10
251.8669725826592
 20
-202.2010573432854
 30
0.0
 10
252.8990880718922
 20
-202.0147964998297
 30
0.0
 10
254.0588115889365
 20
-202.3172153397086
 30
0.0
 10
255.4409655818405
 20
-202.9566774780846
 30
0.0
 10
257.1596344131528
 20
-203.444174769373
 30
0.0
 10
258.9314723630597
 20
-203.4633394125297
 30
0.0
 10
260.3458657226158
 20
-203.0671081533096
 30
0.0
 10
261.5574188392952
 20
-202.7695588029079
 30
0.0
 10
262.8374181546213
 20
-202.8359087196494
 30
0.0
 10
264.1971161424743
 20
-203.0193464174084
 30
0.0
 10
265.651924987795
 20
-203.007074285521
 30
0.0
 10
267.0939169351715
 20
-202.9044855066308
 30
0.0
 10
268.4646832027117
 20
-202.8469966714388
 30
0.0
 10
270.1954026025461
 20
-202.8950546698772
 30
0.0
 10
272.3071527551386
 20
-203.3140510598884
 30
0.0
 10
274.3632794611528
 20
-203.6298040648858
 30
0.0
 10
275.910706995188
 20
-203.5269463173025
 30
0.0
 10
277.3681452173903
 20
-203.4523371593777
 30
0.0
 10
279.2044182620667
 20
-203.8093091753151
 30
0.0
 10
281.1457251620693
 20
-204.1227980200659
 30
0.0
 10
282.7567285175241
 20
-203.856210541314
 30
0.0
 10
283.5886227285324
 20
-203.6194921710977
 30
0.0
 10
284.0087
 20
-203.4999577349459
 30
0.0
 11
237.08458405712
 21
-167.86889182789
 31
0.0
 11
237.1534484502338
 21
-168.6423442968401
 31
0.0
 11
237.232779176729
 21
-169.4150802247661
 31
0.0
 11
237.3587244438809
 21
-170.4517204257031
 31
0.0
 11
237.455071856143
 21
-171.4898118992979
 31
0.0
 11
237.475001281402
 21
-172.5632563752935
 31
0.0
 11
237.455071856143
 21
-173.638641133636
 31
0.0
 11
237.4467039619916
 21
-174.7130557054978
 31
0.0
 11
237.455071856143
 21
-175.7874703679731
 31
0.0
 11
237.4731322546806
 21
-176.5297065450955
 31
0.0
 11
237.5291694159479
 21
-177.2694215640681
 31
0.0
 11
237.7808354625233
 21
-178.7144891466357
 31
0.0
 11
237.973754774776
 21
-180.159226396453
 31
0.0
 11
237.9332442329725
 21
-181.1962384327721
 31
0.0
 11
237.825559655167
 21
-182.2339580709851
 31
0.0
 11
237.7531825301036
 21
-183.193378344925
 31
0.0
 11
237.6773645355569
 21
-184.1604946259088
 31
0.0
 11
237.5684723644091
 21
-185.326657465256
 31
0.0
 11
237.6773645355569
 21
-186.4575189798559
 31
0.0
 11
238.2120371001049
 21
-187.6005049390276
 31
0.0
 11
238.6406328130189
 21
-188.7545433338028
 31
0.0
 11
238.6222181877952
 21
-189.4533270192478
 31
0.0
 11
238.5665352532141
 21
-190.162396970093
 31
0.0
 11
238.848354291124
 21
-191.4779775504143
 31
0.0
 11
239.3816084110659
 21
-192.755811563259
 31
0.0
 11
239.7927186475675
 21
-194.0017962072607
 31
0.0
 11
240.1225840091139
 21
-195.27512859662
 31
0.0
 11
240.4124011471393
 21
-196.2816889977771
 31
0.0
 11
240.8635596071609
 21
-197.201665151543
 31
0.0
 11
241.8310382682144
 21
-198.1211870656576
 31
0.0
 11
243.0864864013029
 21
-198.683616347638
 31
0.0
 11
243.5843729126875
 21
-198.8126219765143
 31
0.0
 11
244.0497546787649
 21
-198.9800065868571
 31
0.0
 11
244.8707930182933
 21
-199.716646576822
 31
0.0
 11
245.558533762181
 21
-200.6745142419644
 31
0.0
 11
246.3467790327118
 21
-201.425226060413
 31
0.0
 11
247.3649135147493
 21
-201.6892904941771
 31
0.0
 11
248.4956082670491
 21
-201.7957138594369
 31
0.0
 11
249.7325276909921
 21
-202.1070949280504
 31
0.0
 11
250.9408277406059
 21
-202.3143967780699
 31
0.0
 11
251.867137794099
 21
-202.2014427391873
 31
0.0
 11
252.7932667357239
 21
-202.092104098656
 31
0.0
 11
254.020664306132
 21
-202.3444947880053
 31
0.0
 11
255.2384862092809
 21
-202.8330796967031
 31
0.0
 11
257.1919454759556
 21
-203.3584295743169
 31
0.0
 11
259.165656878932
 21
-203.351762615336
 31
0.0
 11
260.3515753044935
 21
-203.0723926108296
 31
0.0
 11
261.536778792684
 21
-202.8330796967031
 31
0.0
 11
262.8274203771723
 21
-202.8529611307389
 31
0.0
 11
264.1301933858489
 21
-202.981274816313
 31
0.0
 11
265.6501805101815
 21
-202.9912523155866
 31
0.0
 11
267.1681933378438
 21
-202.9071772565079
 31
0.0
 11
268.4661233483875
 21
-202.8620712239281
 31
0.0
 11
269.76160793101
 21
-202.9071772565079
 31
0.0
 11
272.3180796428503
 21
-203.2969174042313
 31
0.0
 11
274.8743395575368
 21
-203.574055294751
 31
0.0
 11
275.9107091695195
 21
-203.5295902956084
 31
0.0
 11
276.9490712320691
 21
-203.4999577349459
 31
0.0
 11
279.2180157500336
 21
-203.7993476800348
 31
0.0
 11
281.4690223801589
 21
-204.0186406535789
 31
0.0
 11
282.7410479441163
 21
-203.8345303966924
 31
0.0
 11
284.0087
 21
-203.4999577349459
 31
0.0
  0
LINE
  5
2257
330
1F
100
AcDbEntity
  8
0
  6
Continuous
 62
     7
100
AcDbLine
 10
106.5411
 20
-78.2423
 30
0.0
 11
146.9324
 21
-78.2423
 31
0.0
  0
LINE
  5
2258
330
1F
100
AcDbEntity
  8
0
  6
Continuous
 62
     7
100
AcDbLine
 10
108.1096
 20
-77.48319999999999
 30
0.0
 11
124.5203
 21
-56.7384
 31
0.0
  0
LINE
  5
2259
330
1F
100
AcDbEntity
  8
0
  6
Continuous
 62
     7
100
AcDbLine
 10
144.0089999999999
 20
-82.94249999999999
 30
0.0
 11
104.0089999999999
 21
-82.94249999999999
 31
0.0
  0
LINE
  5
225A
330
1F
100
AcDbEntity
  8
0
  6
Continuous
 62
     7
100
AcDbLine
 10
144.0088
 20
-79.74250000000002
 30
0.0
 11
104.0087999999999
 21
-79.74250000000002
 31
0.0
  0
LINE
  5
225B
330
1F
100
AcDbEntity
  8
0
  6
DASH_CENTER
 62
    30
100
AcDbLine
 10
104.7149394595711
 20
-44.49664599522583
 30
0.0
 11
120.6842537476224
 21
-35.27676378481027
 31
0.0
  0
LINE
  5
225C
330
1F
100
AcDbEntity
  8
0
  6
Continuous
 62
     7
100
AcDbLine
 10
109.8067577404054
 20
-30.00988185115443
 30
0.0
 11
115.959150973
 21
-26.45779596215556
 31
0.0
  0
LINE
  5
225D
330
1F
100
AcDbEntity
  8
0
  6
Continuous
 62
     7
100
AcDbLine
 10
111.9834958665245
 20
-43.46997673608901
 30
0.0
 11
109.2383958665245
 21
-38.71532406423174
 31
0.0
  0
LINE
  5
225E
330
1F
100
AcDbEntity
  8
0
  6
Continuous
 62
     7
100
AcDbLine
 10
111.2186564939322
 20
-35.54563608313031
 30
0.0
 11
115.7186564939322
 21
-43.33986471719027
 31
0.0
  0
LINE
  5
225F
330
1F
100
AcDbEntity
  8
0
  6
DASH_CENTER
 62
    30
100
AcDbLine
 10
109.5629779364883
 20
-58.65685235041965
 30
0.0
 11
122.7716
 21
-69.1055
 31
0.0
  0
LINE
  5
2260
330
1F
100
AcDbEntity
  8
0
  6
Continuous
 62
     7
100
AcDbLine
 10
111.4734360083555
 20
-3.438112844036719
 30
0.0
 11
109.5127027012751
 21
-3.687444821744451
 31
0.0
  0
LINE
  5
2278
330
1F
100
AcDbEntity
  8
0
  6
Continuous
 62
     7
100
AcDbLine
 10
72.85248405387097
 20
-50.93035267448764
 30
0.0
 11
72.85248405387097
 21
-29.22754843258545
 31
0.0
  0
LINE
  5
2279
330
1F
100
AcDbEntity
  8
0
  6
Continuous
 62
     7
100
AcDbLine
 10
75.85248405387097
 20
-50.93035267448764
 30
0.0
 11
75.85248405387097
 21
-29.22754843258545
 31
0.0
  0
LINE
  5
227A
330
1F
100
AcDbEntity
  8
0
  6
DASH_CENTER
 62
    30
100
AcDbLine
 10
79.13802587922979
 20
-60.53075267448746
 30
0.0
 11
69.65181159162781
 21
-60.53075267448746
 31
0.0
  0
ARC
  5
227C
330
1F
100
AcDbEntity
  8
0
  6
Continuous
 62
     7
100
AcDbCircle
 10
74.35247093324512
 20
-60.53075267424708
 30
0.0
 40
2.821499182141962
100
AcDbArc
 50
165.2953357749011
 51
14.70256478647479
  0
LINE
  5
227D
330
1F
100
AcDbEntity
  8
0
  6
DASH_CENTER
 62
    30
100
AcDbLine
 10
74.35248405387096
 20
-65.0260771176456
 30
0.0
 11
74.35248405387096
 21
-56.1496908913894
 31
0.0
  0
LINE
  5
227E
330
1F
100
AcDbEntity
  8
0
  6
Continuous
 62
     7
100
AcDbLine
 10
76.10248405387096
 20
-55.13055267448763
 30
0.0
 11
77.08158405387099
 21
-59.8145526744876
 31
0.0
  0
LINE
  5
227F
330
1F
100
AcDbEntity
  8
0
  6
Continuous
 62
     7
100
AcDbLine
 10
72.60238405387098
 20
-55.13035267448746
 30
0.0
 11
71.62338405387095
 21
-59.8145526744876
 31
0.0
  0
CIRCLE
  5
2281
330
1F
100
AcDbEntity
  8
0
  6
Continuous
 62
     7
100
AcDbCircle
 10
74.35248405387096
 20
-60.53075267448746
 30
0.0
 40
1.83820000000055
  0
LINE
  5
2282
330
1F
100
AcDbEntity
  8
0
  6
Continuous
 62
     7
100
AcDbLine
 10
72.60238405387098
 20
-50.93035267448764
 30
0.0
 11
72.60248405387097
 21
-50.93035267448764
 31
0.0
  0
LINE
  5
2283
330
1F
100
AcDbEntity
  8
0
  6
Continuous
 62
     7
100
AcDbLine
 10
72.60238405387098
 20
-55.13035267448746
 30
0.0
 11
72.60238405387098
 21
-50.93035267448764
 31
0.0
  0
LINE
  5
2284
330
1F
100
AcDbEntity
  8
0
  6
Continuous
 62
     7
100
AcDbLine
 10
76.10248405387096
 20
-55.13055267448763
 30
0.0
 11
76.10248405387096
 21
-55.13035267448746
 31
0.0
  0
LINE
  5
2285
330
1F
100
AcDbEntity
  8
0
  6
Continuous
 62
     7
100
AcDbLine
 10
76.10248405387096
 20
-55.13035267448746
 30
0.0
 11
72.60238405387098
 21
-55.13035267448746
 31
0.0
  0
LINE
  5
2286
330
1F
100
AcDbEntity
  8
0
  6
Continuous
 62
     7
100
AcDbLine
 10
76.10248405387096
 20
-55.13035267448746
 30
0.0
 11
76.10248405387096
 21
-50.93035267448764
 31
0.0
  0
LINE
  5
2287
330
1F
100
AcDbEntity
  8
0
  6
Continuous
 62
     7
100
AcDbLine
 10
76.10248405387096
 20
-50.93035267448764
 30
0.0
 11
75.85248405387097
 21
-50.93035267448764
 31
0.0
  0
LINE
  5
2288
330
1F
100
AcDbEntity
  8
0
  6
Continuous
 62
     7
100
AcDbLine
 10
72.60248405387097
 20
-50.93035267448764
 30
0.0
 11
72.85248405387097
 21
-50.93035267448764
 31
0.0
  0
LINE
  5
2289
330
1F
100
AcDbEntity
  8
0
  6
Continuous
 62
     7
100
AcDbLine
 10
72.85248405387097
 20
-50.93035267448764
 30
0.0
 11
72.60248405387097
 21
-50.93035267448764
 31
0.0
  0
LINE
  5
228A
330
1F
100
AcDbEntity
  8
0
  6
Continuous
 62
     7
100
AcDbLine
 10
72.85248405387097
 20
-50.93035267448764
 30
0.0
 11
75.85248405387097
 21
-50.93035267448764
 31
0.0
  0
LINE
  5
228B
330
1F
100
AcDbEntity
  8
0
  6
Continuous
 62
     7
100
AcDbLine
 10
75.85248405387097
 20
-50.93035267448764
 30
0.0
 11
72.85248405387097
 21
-50.93035267448764
 31
0.0
  0
LINE
  5
228C
330
1F
100
AcDbEntity
  8
0
  6
Continuous
 62
     7
100
AcDbLine
 10
75.85248405387097
 20
-50.93035267448764
 30
0.0
 11
76.10248405387096
 21
-50.93035267448764
 31
0.0
  0
LINE
  5
228D
330
1F
100
AcDbEntity
  8
0
  6
Continuous
 62
     7
100
AcDbLine
 10
104.0089999999999
 20
-82.94249999999999
 30
0.0
 11
104.0089999999999
 21
-78.24250000000002
 31
0.0
  0
ARC
  5
228E
330
1F
100
AcDbEntity
  8
0
  6
Continuous
 62
     7
100
AcDbCircle
 10
106.5411064696757
 20
-76.24229686909931
 30
0.0
 40
2.000003133734624
100
AcDbArc
 50
269.9969498732461
 51
321.6509533466366
  0
LINE
  5
228F
330
1F
100
AcDbEntity
  8
0
  6
Continuous
 62
     7
100
AcDbLine
 10
104.0089999999999
 20
-78.24250000000002
 30
0.0
 11
106.5411
 21
-78.24250000000002
 31
0.0
  0
ARC
  5
2290
330
1F
100
AcDbEntity
  8
0
  6
Continuous
 62
    30
100
AcDbCircle
 10
78.3535552147911
 20
-16.81710095724454
 30
0.0
 40
1.5
100
AcDbArc
 50
240.0
 51
299.9999999999999
  0
ARC
  5
2291
330
1F
100
AcDbEntity
  8
0
  6
Continuous
 62
    30
100
AcDbCircle
 10
73.60248405387096
 20
-30.52658653826157
 30
0.0
 40
1.499999999999532
100
AcDbArc
 50
59.99999999999055
 51
120.0000000000094
  0
ARC
  5
2292
330
1F
100
AcDbEntity
  8
0
  6
Continuous
 62
    30
100
AcDbCircle
 10
75.10248405387097
 20
-27.92851032690865
 30
0.0
 40
1.500000000000123
100
AcDbArc
 50
240.0000000000019
 51
299.999999999998
  0
ARC
  5
2293
330
1F
100
AcDbEntity
  8
0
  6
Continuous
 62
    30
100
AcDbCircle
 10
75.10248405387097
 20
-30.52658653826157
 30
0.0
 40
1.499999999999532
100
AcDbArc
 50
59.99999999999055
 51
120.0000000000094
  0
LINE
  5
2294
330
1F
100
AcDbEntity
  8
0
  6
Continuous
 62
     7
100
AcDbLine
 10
70.1035552147911
 20
-3.942700000000019
 30
0.0
 11
70.1035552147911
 21
-18.11613906292119
 31
0.0
  0
LINE
  5
2295
330
1F
100
AcDbEntity
  8
0
  6
Continuous
 62
     7
100
AcDbLine
 10
73.1035552147911
 20
-3.942700000000028
 30
0.0
 11
73.1035552147911
 21
-18.11613906292119
 31
0.0
  0
LINE
  5
2296
330
1F
100
AcDbEntity
  8
0
  6
Continuous
 62
     7
100
AcDbLine
 10
76.1035552147911
 20
-18.11613906292119
 30
0.0
 11
76.1035552147911
 21
-3.942700000000028
 31
0.0
  0
ARC
  5
2297
330
1F
100
AcDbEntity
  8
0
  6
Continuous
 62
    30
100
AcDbCircle
 10
70.8535552147911
 20
-19.41517716859786
 30
0.0
 40
1.500000000000003
100
AcDbArc
 50
60.00000000000002
 51
120.0
  0
ARC
  5
2298
330
1F
100
AcDbEntity
  8
0
  6
Continuous
 62
    30
100
AcDbCircle
 10
70.8535552147911
 20
-16.81710095724454
 30
0.0
 40
1.5
100
AcDbArc
 50
240.0
 51
299.9999999999999
  0
ARC
  5
2299
330
1F
100
AcDbEntity
  8
0
  6
Continuous
 62
    30
100
AcDbCircle
 10
72.3535552147911
 20
-16.81710095724454
 30
0.0
 40
1.5
100
AcDbArc
 50
240.0
 51
299.9999999999999
  0
ARC
  5
229A
330
1F
100
AcDbEntity
  8
0
  6
Continuous
 62
    30
100
AcDbCircle
 10
73.8535552147911
 20
-19.41517716859786
 30
0.0
 40
1.500000000000003
100
AcDbArc
 50
60.00000000000002
 51
120.0
  0
ARC
  5
229B
330
1F
100
AcDbEntity
  8
0
  6
Continuous
 62
    30
100
AcDbCircle
 10
75.3535552147911
 20
-16.81710095724454
 30
0.0
 40
1.5
100
AcDbArc
 50
240.0
 51
299.9999999999999
  0
ARC
  5
229C
330
1F
100
AcDbEntity
  8
0
  6
Continuous
 62
    30
100
AcDbCircle
 10
73.8535552147911
 20
-16.81710095724454
 30
0.0
 40
1.5
100
AcDbArc
 50
240.0
 51
299.9999999999999
  0
ARC
  5
229D
330
1F
100
AcDbEntity
  8
0
  6
Continuous
 62
    30
100
AcDbCircle
 10
76.8535552147911
 20
-19.41517716859786
 30
0.0
 40
1.500000000000003
100
AcDbArc
 50
60.00000000000002
 51
120.0
  0
ARC
  5
229E
330
1F
100
AcDbEntity
  8
0
  6
Continuous
 62
    30
100
AcDbCircle
 10
76.8535552147911
 20
-16.81710095724454
 30
0.0
 40
1.5
100
AcDbArc
 50
240.0
 51
299.9999999999999
  0
ARC
  5
229F
330
1F
100
AcDbEntity
  8
0
  6
Continuous
 62
     7
100
AcDbCircle
 10
110.6239647385943
 20
-37.91530717259595
 30
0.0
 40
1.600046288488423
100
AcDbArc
 50
125.0033452874542
 51
209.998228020945
  0
LINE
  5
22A0
330
1F
100
AcDbEntity
  8
0
  6
Continuous
 62
     7
100
AcDbLine
 10
111.2186564939322
 20
-35.54563608313031
 30
0.0
 11
109.7059661611305
 21
-36.60477957059931
 31
0.0
  0
LINE
  5
22A1
330
1F
100
AcDbEntity
  8
0
  6
Continuous
 62
     7
100
AcDbLine
 10
79.1035552147911
 20
-18.11613906292119
 30
0.0
 11
79.1035552147911
 21
-3.942700000000028
 31
0.0
  0
LINE
  5
22A2
330
1F
100
AcDbEntity
  8
0
  6
Continuous
 62
     7
100
AcDbLine
 10
82.1035552147911
 20
-18.11613906292119
 30
0.0
 11
82.1035552147911
 21
-3.942700000000028
 31
0.0
  0
ARC
  5
22A3
330
1F
100
AcDbEntity
  8
0
  6
Continuous
 62
    30
100
AcDbCircle
 10
79.8535552147911
 20
-19.41517716859786
 30
0.0
 40
1.500000000000003
100
AcDbArc
 50
60.00000000000002
 51
120.0
  0
ARC
  5
22A4
330
1F
100
AcDbEntity
  8
0
  6
Continuous
 62
    30
100
AcDbCircle
 10
81.35355521479111
 20
-16.81710095724454
 30
0.0
 40
1.5
100
AcDbArc
 50
240.0
 51
299.9999999999999
  0
ARC
  5
22A5
330
1F
100
AcDbEntity
  8
0
  6
Continuous
 62
    30
100
AcDbCircle
 10
79.8535552147911
 20
-16.81710095724454
 30
0.0
 40
1.5
100
AcDbArc
 50
240.0
 51
299.9999999999999
  0
ARC
  5
22A6
330
1F
100
AcDbEntity
  8
0
  6
Continuous
 62
    30
100
AcDbCircle
 10
88.42008725233354
 20
-21.67144146636795
 30
0.0
 40
1.499999999999984
100
AcDbArc
 50
45.59893076672416
 51
105.5989307667241
  0
ARC
  5
22A7
330
1F
100
AcDbEntity
  8
0
  6
Continuous
 62
    30
100
AcDbCircle
 10
90.51911727320636
 20
-19.52806259844132
 30
0.0
 40
1.500000000000006
100
AcDbArc
 50
225.5989307667239
 51
285.5989307667241
  0
ARC
  5
22A8
330
1F
100
AcDbEntity
  8
0
  6
Continuous
 62
    30
100
AcDbCircle
 10
89.06624949320855
 20
-19.15500065473194
 30
0.0
 40
1.499999999999986
100
AcDbArc
 50
225.5989307667241
 51
285.5989307667241
  0
ARC
  5
22A9
330
1F
100
AcDbEntity
  8
0
  6
Continuous
 62
    30
100
AcDbCircle
 10
91.32582281232913
 20
-22.41756535378672
 30
0.0
 40
1.500000000000006
100
AcDbArc
 50
45.59893076672403
 51
105.5989307667223
  0
ARC
  5
22AA
330
1F
100
AcDbEntity
  8
0
  6
Continuous
 62
    30
100
AcDbCircle
 10
93.42485283320199
 20
-20.27418648586007
 30
0.0
 40
1.500000000000011
100
AcDbArc
 50
225.598930766724
 51
285.5989307667241
  0
ARC
  5
22AB
330
1F
100
AcDbEntity
  8
0
  6
Continuous
 62
    30
100
AcDbCircle
 10
91.9719850532042
 20
-19.9011245421507
 30
0.0
 40
1.500000000000004
100
AcDbArc
 50
225.5989307667239
 51
285.5989307667223
  0
ARC
  5
22AC
330
1F
100
AcDbEntity
  8
0
  6
Continuous
 62
     7
100
AcDbCircle
 10
109.2604091232933
 20
-1.703421648868379
 30
0.0
 40
2.00000000000005
100
AcDbArc
 50
185.9018913103163
 51
277.2469862125367
  0
CIRCLE
  5
22C5
330
1F
100
AcDbEntity
  8
0
  6
Continuous
 62
     7
100
AcDbCircle
 10
140.9760091618948
 20
-45.97564801597827
 30
0.0
 40
4.5
  0
ARC
  5
22C6
330
1F
100
AcDbEntity
  8
0
  6
Continuous
 62
     7
100
AcDbCircle
 10
194.0090256969647
 20
7.057274302874269
 30
0.0
 40
82.49995921252741
100
AcDbArc
 50
209.1144868787949
 51
240.8851542914666
  0
ARC
  5
22C7
330
1F
100
AcDbEntity
  8
0
  6
DASH_CENTER
 62
    30
100
AcDbCircle
 10
194.008839829523
 20
7.057461100349058
 30
0.0
 40
74.99997984031999
100
AcDbArc
 50
215.9142855201646
 51
233.7540466389147
  0
ARC
  5
22C8
330
1F
100
AcDbEntity
  8
0
  6
Continuous
 62
     7
100
AcDbCircle
 10
141.9760091618948
 20
-46.97564801597827
 30
0.0
 40
0.5
100
AcDbArc
 50
90.0
 51
180.0
  0
ARC
  5
22C9
330
1F
100
AcDbEntity
  8
0
  6
Continuous
 62
     7
100
AcDbCircle
 10
139.9760091618948
 20
-46.97564801597827
 30
0.0
 40
0.5
100
AcDbArc
 50
0.0
 51
90.0
  0
LINE
  5
22CA
330
1F
100
AcDbEntity
  8
0
  6
Continuous
 62
     7
100
AcDbLine
 10
152.8409999999998
 20
-43.06360000000011
 30
0.0
 11
152.8409999999998
 21
-63.27130000000005
 31
0.0
  0
LINE
  5
22CB
330
1F
100
AcDbEntity
  8
0
  6
Continuous
 62
     7
100
AcDbLine
 10
138.5761091618949
 20
-45.47564801597824
 30
0.0
 11
138.5761091618949
 21
-46.47564801597824
 31
0.0
  0
LINE
  5
22CC
330
1F
100
AcDbEntity
  8
0
  6
Continuous
 62
     7
100
AcDbLine
 10
143.3759091618949
 20
-45.47564801597827
 30
0.0
 11
143.3759091618949
 21
-46.47564801597827
 31
0.0
  0
LINE
  5
22CD
330
1F
100
AcDbEntity
  8
0
  6
Continuous
 62
     7
100
AcDbLine
 10
119.8067577404054
 20
-47.3303899268432
 30
0.0
 11
125.9591509729999
 21
-43.77830403784428
 31
0.0
  0
LINE
  5
22CE
330
1F
100
AcDbEntity
  8
0
  6
DASH_CENTER
 62
    30
100
AcDbLine
 10
133.8916579411412
 20
-53.06002835425339
 30
0.0
 11
146.2827135915711
 21
-40.66892177511892
 31
0.0
  0
LINE
  5
22CF
330
1F
100
AcDbEntity
  8
0
  6
DASH_CENTER
 62
    30
100
AcDbLine
 10
124.009
 20
-72.0347
 30
0.0
 11
124.009
 21
-87.91289999999998
 31
0.0
  0
LINE
  5
22D0
330
1F
100
AcDbEntity
  8
0
  6
Continuous
 62
     7
100
AcDbLine
 10
144.0089999999999
 20
-81.44249999999999
 30
0.0
 11
144.0089999999999
 21
-82.94249999999999
 31
0.0
  0
LINE
  5
22D1
330
1F
100
AcDbEntity
  8
0
  6
Continuous
 62
     7
100
AcDbLine
 10
144.0088
 20
-78.24250000000002
 30
0.0
 11
144.0088
 21
-79.74250000000002
 31
0.0
  0
ARC
  5
22D2
330
1F
100
AcDbEntity
  8
0
  6
Continuous
 62
     7
100
AcDbCircle
 10
132.3630084548782
 20
-62.94249924218334
 30
0.0
 40
10.00000820724302
100
AcDbArc
 50
48.59031800612394
 51
141.6532311469216
  0
LINE
  5
22D3
330
1F
100
AcDbEntity
  8
0
  6
Continuous
 62
     7
100
AcDbLine
 10
113.9432319287031
 20
-68.49707673825948
 30
0.0
 11
120.1474101629369
 21
-60.65436212928267
 31
0.0
  0
LINE
  5
22D4
330
1F
100
AcDbEntity
  8
0
  6
Continuous
 62
     7
100
AcDbLine
 10
114.7275033896008
 20
-69.11749456168286
 30
0.0
 11
120.9316816238347
 21
-61.27477995270607
 31
0.0
  0
LINE
  5
22D5
330
1F
100
AcDbEntity
  8
0
  6
Continuous
 62
     7
100
AcDbLine
 10
119.3631387020394
 20
-60.03394430585927
 30
0.0
 11
120.9316816238347
 21
-61.27477995270607
 31
0.0
  0
ARC
  5
22D6
330
1F
100
AcDbEntity
  8
0
  6
Continuous
 62
     7
100
AcDbCircle
 10
116.6310325145764
 20
-60.74775229456071
 30
0.0
 40
1.600046288488411
100
AcDbArc
 50
56.65669271060822
 51
141.6515754440986
  0
ARC
  5
22D7
330
1F
100
AcDbEntity
  8
0
  6
Continuous
 62
     7
100
AcDbCircle
 10
113.2247465600159
 20
-65.05356516992712
 30
0.0
 40
1.5999964781126
100
AcDbArc
 50
141.6534850614023
 51
226.6516364765096
  0
LINE
  5
22D8
330
1F
100
AcDbEntity
  8
0
  6
Continuous
 62
     7
100
AcDbLine
 10
113.4691587555662
 20
-67.48453661414576
 30
0.0
 11
112.1264243292346
 21
-66.21679142667935
 31
0.0
  0
LINE
  5
22D9
330
1F
100
AcDbEntity
  8
0
  6
Continuous
 62
     7
100
AcDbLine
 10
119.0529191663767
 20
-60.42609346606662
 30
0.0
 11
117.5103481591204
 21
-59.41096211615543
 31
0.0
  0
LINE
  5
22DA
330
1F
100
AcDbEntity
  8
0
  6
Continuous
 62
     7
100
AcDbLine
 10
111.9699910272216
 20
-64.06096389368396
 30
0.0
 11
115.3762089613808
 21
-59.75515671906355
 31
0.0
  0
LINE
  5
22DB
330
1F
100
AcDbEntity
  8
0
  6
Continuous
 62
     7
100
AcDbLine
 10
113.1589604678054
 20
-67.87665891483609
 30
0.0
 11
119.3631387020394
 21
-60.03394430585927
 31
0.0
  0
LINE
  5
22DC
330
1F
100
AcDbEntity
  8
0
  6
Continuous
 62
     7
100
AcDbLine
 10
113.1589604678054
 20
-67.87665891483609
 30
0.0
 11
114.7275033896008
 21
-69.11749456168286
 31
0.0
  0
LINE
  5
22DD
330
1F
100
AcDbEntity
  8
0
  6
Continuous
 62
     7
100
AcDbLine
 10
140.4760091618948
 20
-48.37554801597838
 30
0.0
 11
141.4760091618948
 21
-48.37554801597838
 31
0.0
  0
LINE
  5
22DE
330
1F
100
AcDbEntity
  8
0
  6
Continuous
 62
     7
100
AcDbLine
 10
140.4760091618948
 20
-46.97564801597827
 30
0.0
 11
140.4760091618948
 21
-48.37554801597838
 31
0.0
  0
LINE
  5
22DF
330
1F
100
AcDbEntity
  8
0
  6
Continuous
 62
     7
100
AcDbLine
 10
141.9760091618948
 20
-46.47564801597827
 30
0.0
 11
143.3759091618949
 21
-46.47564801597827
 31
0.0
  0
LINE
  5
22E0
330
1F
100
AcDbEntity
  8
0
  6
Continuous
 62
     7
100
AcDbLine
 10
141.4760091618948
 20
-46.97564801597827
 30
0.0
 11
141.4760091618948
 21
-48.37554801597838
 31
0.0
  0
LINE
  5
22E1
330
1F
100
AcDbEntity
  8
0
  6
Continuous
 62
     7
100
AcDbLine
 10
138.5761091618949
 20
-46.47564801597824
 30
0.0
 11
139.9760091618948
 21
-46.47564801597827
 31
0.0
  0
ARC
  5
22E2
330
1F
100
AcDbEntity
  8
0
  6
Continuous
 62
     7
100
AcDbCircle
 10
158.6672101370414
 20
-74.9424971385329
 30
0.0
 40
6.000046380228151
100
AcDbArc
 50
66.65842048161852
 51
144.8680253561033
  0
LINE
  5
22E3
330
1F
100
AcDbEntity
  8
0
  6
Continuous
 62
     7
100
AcDbLine
 10
150.2037
 20
-76.54430000000002
 30
0.0
 11
153.7601999999999
 21
-71.4898
 31
0.0
  0
ARC
  5
22E4
330
1F
100
AcDbEntity
  8
0
  6
Continuous
 62
     7
100
AcDbCircle
 10
146.9323623067993
 20
-74.24231956732592
 30
0.0
 40
3.999980432851677
100
AcDbArc
 50
270.0005399179693
 51
324.8689934368898
  0
ARC
  5
22E5
330
1F
100
AcDbEntity
  8
0
  6
Continuous
 62
     7
100
AcDbCircle
 10
154.841041294955
 20
-63.27117026053722
 30
0.0
 40
2.000041299163106
100
AcDbArc
 50
180.0037166850831
 51
240.8852306258899
  0
ARC
  5
22E6
330
1F
100
AcDbEntity
  8
0
  6
Continuous
 62
     7
100
AcDbCircle
 10
143.8880181382321
 20
-35.11050844459989
 30
0.0
 40
1.000008444764229
100
AcDbArc
 50
40.06850102921616
 51
90.00103923538089
  0
ARC
  5
22E7
330
1F
100
AcDbEntity
  8
0
  6
Continuous
 62
     7
100
AcDbCircle
 10
126.9591792278941
 20
-45.51036031250317
 30
0.0
 40
2.000018862204059
100
AcDbArc
 50
38.09750397722611
 51
120.0006226821158
  0
LINE
  5
22E8
330
1F
100
AcDbEntity
  8
0
  6
Continuous
 62
     7
100
AcDbLine
 10
123.6804
 20
-34.11060000000015
 30
0.0
 11
143.8879999999999
 21
-34.11060000000015
 31
0.0
  0
ARC
  5
22E9
330
1F
100
AcDbEntity
  8
0
  6
Continuous
 62
     7
100
AcDbCircle
 10
113.3690449382029
 20
-42.67002516840011
 30
0.0
 40
1.599996478112613
100
AcDbArc
 50
210.0001376382481
 51
294.998289053354
  0
LINE
  5
22EA
330
1F
100
AcDbEntity
  8
0
  6
Continuous
 62
     7
100
AcDbLine
 10
115.7186564939322
 20
-43.33986471719027
 30
0.0
 11
114.0449161611305
 21
-44.1200614221002
 31
0.0
  0
ARC
  5
22EB
330
1F
100
AcDbEntity
  8
0
  6
Continuous
 62
     7
100
AcDbCircle
 10
114.9591603658084
 20
-24.72571795158557
 30
0.0
 40
2.000018862203956
100
AcDbArc
 50
299.9993773178837
 51
21.9024960227764
  0
ARC
  5
22EC
330
1F
100
AcDbEntity
  8
0
  6
Continuous
 62
     7
100
AcDbCircle
 10
123.6803626642893
 20
-32.11047805968785
 30
0.0
 40
2.000021940660792
100
AcDbArc
 50
209.1177227012917
 51
270.00106957759
  0
ARC
  5
22ED
330
1F
100
AcDbEntity
  8
0
  6
Continuous
 62
     7
100
AcDbCircle
 10
139.9760091618948
 20
-44.97564801597827
 30
0.0
 40
0.5
100
AcDbArc
 50
270.0
 51
0.0
  0
ARC
  5
22EE
330
1F
100
AcDbEntity
  8
0
  6
Continuous
 62
     7
100
AcDbCircle
 10
141.9760091618948
 20
-44.97564801597827
 30
0.0
 40
0.5
100
AcDbArc
 50
180.0
 51
270.0
  0
LINE
  5
22EF
330
1F
100
AcDbEntity
  8
0
  6
Continuous
 62
     7
100
AcDbLine
 10
140.4760091618948
 20
-43.57574801597835
 30
0.0
 11
141.4760091618948
 21
-43.57574801597838
 31
0.0
  0
LINE
  5
22F0
330
1F
100
AcDbEntity
  8
0
  6
Continuous
 62
     7
100
AcDbLine
 10
141.9760091618948
 20
-45.47564801597827
 30
0.0
 11
143.3759091618949
 21
-45.47564801597827
 31
0.0
  0
LINE
  5
22F1
330
1F
100
AcDbEntity
  8
0
  6
Continuous
 62
     7
100
AcDbLine
 10
138.5761091618949
 20
-45.47564801597824
 30
0.0
 11
139.9760091618948
 21
-45.47564801597827
 31
0.0
  0
LINE
  5
22F2
330
1F
100
AcDbEntity
  8
0
  6
Continuous
 62
     7
100
AcDbLine
 10
140.4760091618948
 20
-43.57574801597835
 30
0.0
 11
140.4760091618948
 21
-44.97564801597827
 31
0.0
  0
LINE
  5
22F3
330
1F
100
AcDbEntity
  8
0
  6
Continuous
 62
     7
100
AcDbLine
 10
141.4760091618948
 20
-43.57574801597838
 30
0.0
 11
141.4760091618948
 21
-44.97564801597827
 31
0.0
  0
ARC
  5
22F4
330
1F
100
AcDbEntity
  8
0
  6
Continuous
 62
     7
100
AcDbCircle
 10
194.0089
 20
7.05739999999994
 30
0.0
 40
64.49995587696171
100
AcDbArc
 50
220.0747512887281
 51
229.9252487112723
  0
ARC
  5
22F5
330
1F
100
AcDbEntity
  8
0
  6
Continuous
 62
     7
100
AcDbCircle
 10
151.8410298185863
 20
-43.06356404761224
 30
0.0
 40
0.9999701820598795
100
AcDbArc
 50
359.9979400184867
 51
49.9325197169099
  0
LINE
  5
22F6
330
1F
100
AcDbEntity
  8
0
  6
Continuous
 62
     7
100
AcDbLine
 10
235.1769000000001
 20
-63.27130000000005
 30
0.0
 11
235.1769000000001
 21
-43.0637000000001
 31
0.0
  0
ARC
  5
22F7
330
1F
100
AcDbEntity
  8
0
  6
Continuous
 62
     7
100
AcDbCircle
 10
186.5302691237794
 20
-75.24228434373282
 30
0.0
 40
3.000015656426091
100
AcDbArc
 50
216.2234199914808
 51
270.0005896892968
  0
ARC
  5
22F8
330
1F
100
AcDbEntity
  8
0
  6
Continuous
 62
     7
100
AcDbCircle
 10
181.3366899266572
 20
-78.30563355332095
 30
0.0
 40
2.999941084999601
100
AcDbArc
 50
36.220152073495
 51
81.54459542911704
  0
LINE
  5
22F9
330
1F
100
AcDbEntity
  8
0
  6
Continuous
 62
     7
100
AcDbLine
 10
183.7569
 20
-76.533
 30
0.0
 11
184.1100999999999
 21
-77.01519999999998
 31
0.0
  0
ARC
  5
22FA
330
1F
100
AcDbEntity
  8
0
  6
Continuous
 62
     7
100
AcDbCircle
 10
206.6813100733427
 20
-78.30563355332095
 30
0.0
 40
2.999941084999606
100
AcDbArc
 50
98.45540457088297
 51
143.7798479265052
  0
ARC
  5
22FB
330
1F
100
AcDbEntity
  8
0
  6
Continuous
 62
     7
100
AcDbCircle
 10
201.4877308762205
 20
-75.24228434373282
 30
0.0
 40
3.000015656426084
100
AcDbArc
 50
269.9994103107031
 51
323.7765800085191
  0
LINE
  5
22FC
330
1F
100
AcDbEntity
  8
0
  6
Continuous
 62
     7
100
AcDbLine
 10
204.2610999999999
 20
-76.533
 30
0.0
 11
203.9079
 21
-77.01519999999998
 31
0.0
  0
ARC
  5
22FD
330
1F
100
AcDbEntity
  8
0
  6
Continuous
 62
     7
100
AcDbCircle
 10
229.3507898629584
 20
-74.9424971385329
 30
0.0
 40
6.000046380228167
100
AcDbArc
 50
35.13197464389658
 51
113.3415795183832
  0
LINE
  5
22FE
330
1F
100
AcDbEntity
  8
0
  6
Continuous
 62
     7
100
AcDbLine
 10
234.2578
 20
-71.4898
 30
0.0
 11
237.8143
 21
-76.54430000000002
 31
0.0
  0
LINE
  5
22FF
330
1F
100
AcDbEntity
  8
0
  6
Continuous
 62
     7
100
AcDbLine
 10
234.2578
 20
-71.4898
 30
0.0
 11
237.8143
 21
-76.54430000000002
 31
0.0
  0
ARC
  5
2300
330
1F
100
AcDbEntity
  8
0
  6
Continuous
 62
     7
100
AcDbCircle
 10
241.0856376932005
 20
-74.24231956732592
 30
0.0
 40
3.999980432851671
100
AcDbArc
 50
215.1310065631101
 51
269.9994600820306
  0
ARC
  5
2301
330
1F
100
AcDbEntity
  8
0
  6
Continuous
 62
     7
100
AcDbCircle
 10
233.1767780596879
 20
-63.27133733571071
 30
0.0
 40
2.000021940660786
100
AcDbArc
 50
299.1177227012914
 51
0.0010695775889735
  0
ARC
  5
2302
330
1F
100
AcDbEntity
  8
0
  6
Continuous
 62
     7
100
AcDbCircle
 10
236.1768084445999
 20
-43.06368186176777
 30
0.0
 40
1.000008444764231
100
AcDbArc
 50
130.0685010292186
 51
180.0010392353841
  0
LINE
  5
2303
330
1F
100
AcDbEntity
  8
0
  6
Continuous
 62
     7
100
AcDbLine
 10
244.0088999999999
 20
-187.86889182789
 30
0.0
 11
244.0088999999999
 21
-167.86889182789
 31
0.0
  0
LINE
  5
2304
330
1F
100
AcDbEntity
  8
0
  6
DASH_CENTER
 62
    30
100
AcDbLine
 10
264.0086999999999
 20
-172.55121827819
 30
0.0
 11
264.0086999999999
 21
-193.3452988168159
 31
0.0
  0
LINE
  5
2305
330
1F
100
AcDbEntity
  8
0
  6
Continuous
 62
     7
100
AcDbLine
 10
284.0087
 20
-203.4999577349459
 30
0.0
 11
284.0087
 21
-177.86889182789
 31
0.0
  0
ARC
  5
2306
330
1F
100
AcDbEntity
  8
0
  6
Continuous
 62
     7
100
AcDbCircle
 10
271.5087
 20
-182.86889182789
 30
0.0
 40
5.0
100
AcDbArc
 50
270.0
 51
0.0
  0
ARC
  5
2307
330
1F
100
AcDbEntity
  8
0
  6
Continuous
 62
     7
100
AcDbCircle
 10
256.5086999999999
 20
-182.86889182789
 30
0.0
 40
4.999999999999971
100
AcDbArc
 50
180.0
 51
270.0
  0
LINE
  5
2316
330
1F
100
AcDbEntity
  8
0
  6
Continuous
 62
     7
100
AcDbLine
 10
284.0087
 20
-197.86889182789
 30
0.0
 11
254.0088999999999
 21
-197.86889182789
 31
0.0
  0
LINE
  5
2317
330
1F
100
AcDbEntity
  8
0
  6
Continuous
 62
     7
100
AcDbLine
 10
271.5087
 20
-187.86889182789
 30
0.0
 11
256.5086999999999
 21
-187.86889182789
 31
0.0
  0
LINE
  5
2327
330
1F
100
AcDbEntity
  8
0
  6
DASH_CENTER
 62
    30
100
AcDbLine
 10
246.7263232001559
 20
-182.86889182789
 30
0.0
 11
281.330212951458
 21
-182.86889182789
 31
0.0
  0
ARC
  5
2328
330
1F
100
AcDbEntity
  8
0
  6
Continuous
 62
     7
100
AcDbCircle
 10
274.0086999999999
 20
-177.86889182789
 30
0.0
 40
10.0
100
AcDbArc
 50
0.0
 51
90.0
  0
ARC
  5
2329
330
1F
100
AcDbEntity
  8
0
  6
Continuous
 62
     7
100
AcDbCircle
 10
271.5087
 20
-182.86889182789
 30
0.0
 40
5.0
100
AcDbArc
 50
0.0
 51
90.0
  0
LINE
  5
232B
330
1F
100
AcDbEntity
  8
0
  6
Continuous
 62
     7
100
AcDbLine
 10
256.5086999999999
 20
-177.86889182789
 30
0.0
 11
271.5087
 21
-177.86889182789
 31
0.0
  0
ARC
  5
232C
330
1F
100
AcDbEntity
  8
0
  6
Continuous
 62
     7
100
AcDbCircle
 10
256.5086999999999
 20
-182.86889182789
 30
0.0
 40
5.0
100
AcDbArc
 50
90.0
 51
180.0
  0
CIRCLE
  5
234C
330
1F
100
AcDbEntity
  8
0
  6
Continuous
 62
     7
100
AcDbCircle
 10
247.0419480159783
 20
-45.97569083810528
 30
0.0
 40
4.5
  0
ARC
  5
234D
330
1F
100
AcDbEntity
  8
0
  6
Continuous
 62
     7
100
AcDbCircle
 10
248.0419480159782
 20
-46.97569083810527
 30
0.0
 40
0.5
100
AcDbArc
 50
90.0
 51
180.0
  0
ARC
  5
234E
330
1F
100
AcDbEntity
  8
0
  6
Continuous
 62
     7
100
AcDbCircle
 10
246.0419480159782
 20
-46.97569083810527
 30
0.0
 40
0.5
100
AcDbArc
 50
0.0
 51
90.0
  0
LINE
  5
234F
330
1F
100
AcDbEntity
  8
0
  6
Continuous
 62
     7
100
AcDbLine
 10
249.4418480159783
 20
-46.47569083810528
 30
0.0
 11
249.4418480159783
 21
-45.47569083810528
 31
0.0
  0
LINE
  5
2350
330
1F
100
AcDbEntity
  8
0
  6
Continuous
 62
     7
100
AcDbLine
 10
244.6420480159783
 20
-46.47569083810528
 30
0.0
 11
244.6420480159783
 21
-45.47569083810528
 31
0.0
  0
LINE
  5
2351
330
1F
100
AcDbEntity
  8
0
  6
Continuous
 62
     7
100
AcDbLine
 10
268.2112580710371
 20
-47.33036835496079
 30
0.0
 11
262.0588
 21
-43.77830000000011
 31
0.0
  0
LINE
  5
2352
330
1F
100
AcDbEntity
  8
0
  6
Continuous
 62
     7
100
AcDbLine
 10
244.0087
 20
-79.7424
 30
0.0
 11
284.0087
 21
-79.7423
 31
0.0
  0
LINE
  5
2353
330
1F
100
AcDbEntity
  8
0
  6
Continuous
 62
     7
100
AcDbLine
 10
279.9083999999999
 20
-77.48319999999999
 30
0.0
 11
263.4977
 21
-56.7384
 31
0.0
  0
LINE
  5
2354
330
1F
100
AcDbEntity
  8
0
  6
Continuous
 62
     7
100
AcDbLine
 10
244.009
 20
-82.94249999999999
 30
0.0
 11
284.009
 21
-82.94249999999999
 31
0.0
  0
LINE
  5
2355
330
1F
100
AcDbEntity
  8
0
  6
Continuous
 62
     7
100
AcDbLine
 10
244.009
 20
-81.44249999999999
 30
0.0
 11
244.009
 21
-82.94249999999999
 31
0.0
  0
LINE
  5
2356
330
1F
100
AcDbEntity
  8
0
  6
Continuous
 62
     7
100
AcDbLine
 10
244.0087
 20
-78.2424
 30
0.0
 11
244.0087
 21
-79.7424
 31
0.0
  0
LINE
  5
2357
330
1F
100
AcDbEntity
  8
0
  6
DASH_CENTER
 62
    30
100
AcDbLine
 10
264.009
 20
-72.0347
 30
0.0
 11
264.009
 21
-87.91289999999998
 31
0.0
  0
ARC
  5
2358
330
1F
100
AcDbEntity
  8
0
  6
Continuous
 62
     7
100
AcDbCircle
 10
255.6549915451217
 20
-62.94249924218334
 30
0.0
 40
10.000008207243
100
AcDbArc
 50
38.34676885307833
 51
131.4096819938761
  0
LINE
  5
2359
330
1F
100
AcDbEntity
  8
0
  6
Continuous
 62
     7
100
AcDbLine
 10
246.5419480159783
 20
-48.37559083810514
 30
0.0
 11
247.5419480159783
 21
-48.37559083810514
 31
0.0
  0
LINE
  5
235A
330
1F
100
AcDbEntity
  8
0
  6
Continuous
 62
     7
100
AcDbLine
 10
248.0419480159782
 20
-46.47569083810528
 30
0.0
 11
249.4418480159783
 21
-46.47569083810528
 31
0.0
  0
LINE
  5
235B
330
1F
100
AcDbEntity
  8
0
  6
Continuous
 62
     7
100
AcDbLine
 10
247.5419480159783
 20
-48.37559083810514
 30
0.0
 11
247.5419480159783
 21
-46.97569083810527
 31
0.0
  0
LINE
  5
235C
330
1F
100
AcDbEntity
  8
0
  6
Continuous
 62
     7
100
AcDbLine
 10
246.5419480159783
 20
-48.37559083810514
 30
0.0
 11
246.5419480159783
 21
-46.97569083810527
 31
0.0
  0
LINE
  5
235D
330
1F
100
AcDbEntity
  8
0
  6
Continuous
 62
     7
100
AcDbLine
 10
244.6420480159783
 20
-46.47569083810528
 30
0.0
 11
246.0419480159782
 21
-46.47569083810528
 31
0.0
  0
LINE
  5
2360
330
1F
100
AcDbEntity
  8
0
  6
Continuous
 62
     7
100
AcDbLine
 10
284.009
 20
-82.94249999999999
 30
0.0
 11
284.009
 21
-78.24250000000002
 31
0.0
  0
ARC
  5
2361
330
1F
100
AcDbEntity
  8
0
  6
Continuous
 62
     7
100
AcDbCircle
 10
281.4768935303243
 20
-76.24229686909929
 30
0.0
 40
2.000003133734637
100
AcDbArc
 50
218.3490466533652
 51
270.0030501267538
  0
ARC
  5
236B
330
1F
100
AcDbEntity
  8
0
  6
Continuous
 62
     7
100
AcDbCircle
 10
274.6489379165891
 20
-42.66995524554061
 30
0.0
 40
1.600046288488405
100
AcDbArc
 50
245.0033452874546
 51
329.998228020944
  0
LINE
  5
236C
330
1F
100
AcDbEntity
  8
0
  6
DASH_CENTER
 62
    30
100
AcDbLine
 10
267.3337462523775
 20
-35.27676378481027
 30
0.0
 11
283.3030605404288
 21
-44.49664599522583
 31
0.0
  0
LINE
  5
236D
330
1F
100
AcDbEntity
  8
0
  6
Continuous
 62
     7
100
AcDbLine
 10
278.211250201034
 20
-30.00986381128266
 30
0.0
 11
272.0588
 21
-26.45780000000007
 31
0.0
  0
LINE
  5
236E
330
1F
100
AcDbEntity
  8
0
  6
Continuous
 62
     7
100
AcDbLine
 10
272.2993966768294
 20
-43.3397726227295
 30
0.0
 11
276.7993966768294
 21
-35.54554398866955
 31
0.0
  0
LINE
  5
236F
330
1F
100
AcDbEntity
  8
0
  6
Continuous
 62
     7
100
AcDbLine
 10
274.8161188757741
 20
-12.75222336905031
 30
0.0
 11
275.5931122174845
 21
-12.9427
 31
0.0
  0
LINE
  5
2370
330
1F
100
AcDbEntity
  8
0
  6
Continuous
 62
     7
100
AcDbLine
 10
244.1299
 20
-34.11070000000012
 30
0.0
 11
264.3376
 21
-34.11070000000012
 31
0.0
  0
ARC
  5
2371
330
1F
100
AcDbEntity
  8
0
  6
Continuous
 62
     7
100
AcDbCircle
 10
248.0419480159782
 20
-44.97569083810527
 30
0.0
 40
0.5
100
AcDbArc
 50
180.0
 51
270.0
  0
ARC
  5
2372
330
1F
100
AcDbEntity
  8
0
  6
Continuous
 62
     7
100
AcDbCircle
 10
246.0419480159782
 20
-44.97569083810527
 30
0.0
 40
0.5
100
AcDbArc
 50
270.0
 51
0.0
  0
LINE
  5
2373
330
1F
100
AcDbEntity
  8
0
  6
Continuous
 62
     7
100
AcDbLine
 10
246.5419480159783
 20
-43.57579083810514
 30
0.0
 11
247.5419480159783
 21
-43.57579083810514
 31
0.0
  0
LINE
  5
2374
330
1F
100
AcDbEntity
  8
0
  6
Continuous
 62
     7
100
AcDbLine
 10
247.5419480159783
 20
-44.97569083810527
 30
0.0
 11
247.5419480159783
 21
-43.57579083810514
 31
0.0
  0
LINE
  5
2375
330
1F
100
AcDbEntity
  8
0
  6
Continuous
 62
     7
100
AcDbLine
 10
246.5419480159783
 20
-44.97569083810527
 30
0.0
 11
246.5419480159783
 21
-43.57579083810514
 31
0.0
  0
LINE
  5
2376
330
1F
100
AcDbEntity
  8
0
  6
Continuous
 62
     7
100
AcDbLine
 10
248.0419480159782
 20
-45.47569083810528
 30
0.0
 11
249.4418480159783
 21
-45.47569083810528
 31
0.0
  0
LINE
  5
2377
330
1F
100
AcDbEntity
  8
0
  6
Continuous
 62
     7
100
AcDbLine
 10
244.6420480159783
 20
-45.47569083810528
 30
0.0
 11
246.0419480159782
 21
-45.47569083810528
 31
0.0
  0
ARC
  5
2378
330
1F
100
AcDbEntity
  8
0
  6
Continuous
 62
     7
100
AcDbCircle
 10
244.1298640476122
 20
-35.11067018141369
 30
0.0
 40
0.9999701820598724
100
AcDbArc
 50
89.99794001849002
 51
139.9325197169121
  0
ARC
  5
2379
330
1F
100
AcDbEntity
  8
0
  6
Continuous
 62
     7
100
AcDbCircle
 10
261.0586825466002
 20
-45.51030337689629
 30
0.0
 40
1.999967650909393
100
AcDbArc
 50
59.9988875723012
 51
141.9017624470252
  0
LINE
  5
237A
330
1F
100
AcDbEntity
  8
0
  6
Continuous
 62
     7
100
AcDbLine
 10
272.2993966768294
 20
-43.3397726227295
 30
0.0
 11
273.9729870096313
 21
-44.12022913526054
 31
0.0
  0
ARC
  5
237B
330
1F
100
AcDbEntity
  8
0
  6
Continuous
 62
     7
100
AcDbCircle
 10
264.3374702605372
 20
-32.11065870504501
 30
0.0
 40
2.000041299163099
100
AcDbArc
 50
270.0037166850848
 51
330.88523062589
  0
ARC
  5
237C
330
1F
100
AcDbEntity
  8
0
  6
Continuous
 62
     7
100
AcDbCircle
 10
273.0587157986951
 20
-24.72584576008244
 30
0.0
 40
2.000010871884573
100
AcDbArc
 50
158.0948701983851
 51
239.9996572041647
  0
ARC
  5
237D
330
1F
100
AcDbEntity
  8
0
  6
Continuous
 62
     7
100
AcDbCircle
 10
277.3941043889823
 20
-37.91528705935159
 30
0.0
 40
1.599996478112576
100
AcDbArc
 50
330.0001376382432
 51
54.99828905335327
  0
LINE
  5
237E
330
1F
100
AcDbEntity
  8
0
  6
Continuous
 62
     7
100
AcDbLine
 10
276.7993966768294
 20
-35.54554398866955
 30
0.0
 11
278.3119370096313
 21
-36.60494728375963
 31
0.0
  0
LINE
  5
237F
330
1F
100
AcDbEntity
  8
0
  6
Continuous
 62
     7
100
AcDbLine
 10
278.7796573042373
 20
-38.71523196977079
 30
0.0
 11
276.0345573042373
 21
-43.46988464162808
 31
0.0
  0
ARC
  5
2395
330
1F
100
AcDbEntity
  8
0
  6
Continuous
 62
     7
100
AcDbCircle
 10
194.0090999999999
 20
7.05720000000007
 30
0.0
 40
64.49995587696178
100
AcDbArc
 50
40.07475128872812
 51
49.9252487112723
  0
ARC
  5
2396
330
1F
100
AcDbEntity
  8
0
  6
Continuous
 62
     7
100
AcDbCircle
 10
194.0089743030351
 20
7.05732569712573
 30
0.0
 40
82.49995921252745
100
AcDbArc
 50
29.11448687879494
 51
60.88515429146664
  0
ARC
  5
2397
330
1F
100
AcDbEntity
  8
0
  6
DASH_CENTER
 62
    30
100
AcDbCircle
 10
194.0091601704769
 20
7.057138899650919
 30
0.0
 40
74.99997984032003
100
AcDbArc
 50
35.91428552016468
 51
53.75404663891478
  0
ARC
  5
2398
330
1F
100
AcDbEntity
  8
0
  6
Continuous
 62
     7
100
AcDbCircle
 10
217.9021760113414
 20
115.7572914212772
 30
0.0
 40
28.49997634260189
100
AcDbArc
 50
0.7962895505263949
 51
90.00015281167348
  0
ARC
  5
2399
330
1F
100
AcDbEntity
  8
0
  6
Continuous
 62
     7
100
AcDbCircle
 10
194.009
 20
6.757267763777849
 30
0.0
 40
84.29998670047359
100
AcDbArc
 50
41.99999888701837
 51
90.0
  0
ARC
  5
239A
330
1F
100
AcDbEntity
  8
0
  6
DASHED
 62
    30
100
AcDbCircle
 10
194.009
 20
7.057299999999999
 30
0.0
 40
93.0000087058598
100
AcDbArc
 50
55.37493638995589
 51
90.0
  0
LINE
  5
239B
330
1F
100
AcDbEntity
  8
0
  6
DASH_CENTER
 62
    30
100
AcDbLine
 10
254.9196222839583
 20
67.96791183982842
 30
0.0
 11
241.5636357263899
 21
54.61187038757538
 31
0.0
  0
LINE
  5
239C
330
1F
100
AcDbEntity
  8
0
  6
DASH_CENTER
 62
    30
100
AcDbLine
 10
106.8088
 20
7.057299999999981
 30
0.0
 11
297.346201109461
 21
7.057299999999999
 31
0.0
  0
ARC
  5
23A0
330
1F
100
AcDbEntity
  8
0
  6
Continuous
 62
     7
100
AcDbCircle
 10
194.009
 20
7.057299999999999
 30
0.0
 40
91.9999650648304
100
AcDbArc
 50
125.0695562196225
 51
176.2606633465192
  0
ARC
  5
23A1
330
1F
100
AcDbEntity
  8
0
  6
Continuous
 62
     7
100
AcDbCircle
 10
194.009
 20
7.057299999999999
 30
0.0
 40
93.0000087058598
100
AcDbArc
 50
124.6253662310648
 51
176.300929283592
  0
LINE
  5
23A2
330
1F
100
AcDbEntity
  8
0
  6
Continuous
 62
     7
100
AcDbLine
 10
111.4734360083555
 20
17.55271284403668
 30
0.0
 11
109.5127027012751
 21
17.8020448217444
 31
0.0
  0
LINE
  5
23A9
330
1F
100
AcDbEntity
  8
0
  6
DASH_CENTER
 62
    30
100
AcDbLine
 10
22.72888375221168
 20
7.05730000000033
 30
0.0
 11
-8.219232947105183
 21
7.05730000000033
 31
0.0
  0
ARC
  5
23AA
330
1F
100
AcDbEntity
  8
0
  6
Continuous
 62
     7
100
AcDbCircle
 10
7.254825402553706
 20
7.05730000000033
 30
0.0
 40
8.0
100
AcDbArc
 50
0.0
 51
71.790043135717
  0
ARC
  5
23B2
330
1F
100
AcDbEntity
  8
0
  6
Continuous
 62
     7
100
AcDbCircle
 10
7.254825402553706
 20
7.05730000000033
 30
0.0
 40
7.999999999999656
100
AcDbArc
 50
108.2099568642829
 51
180.0
  0
LINE
  5
23B3
330
1F
100
AcDbEntity
  8
0
  6
Continuous
 62
     7
100
AcDbLine
 10
4.754825402553706
 20
17.05730000000032
 30
0.0
 11
9.754825402553706
 21
17.05730000000032
 31
0.0
  0
LINE
  5
23B4
330
1F
100
AcDbEntity
  8
0
  6
Continuous
 62
     7
100
AcDbLine
 10
9.754825402553706
 20
17.05730000000032
 30
0.0
 11
9.754825402553706
 21
12.05730000000032
 31
0.0
  0
LINE
  5
23B5
330
1F
100
AcDbEntity
  8
0
  6
Continuous
 62
     7
100
AcDbLine
 10
9.754825402553706
 20
12.05730000000032
 30
0.0
 11
7.254825402553706
 21
12.05730000000032
 31
0.0
  0
LINE
  5
23B6
330
1F
100
AcDbEntity
  8
0
  6
Continuous
 62
     7
100
AcDbLine
 10
4.754825402553706
 20
12.05730000000032
 30
0.0
 11
4.754825402553706
 21
14.24876464842525
 31
0.0
  0
LINE
  5
23B7
330
1F
100
AcDbEntity
  8
0
  6
DASH_CENTER
 62
    30
100
AcDbLine
 10
7.254825402553706
 20
22.53135834965829
 30
0.0
 11
7.254825402553706
 21
15.05730000000032
 31
0.0
  0
LINE
  5
23B8
330
1F
100
AcDbEntity
  8
0
  6
Continuous
 62
     7
100
AcDbLine
 10
4.754825402553706
 20
14.24876464842525
 30
0.0
 11
4.754825402553706
 21
17.05730000000032
 31
0.0
  0
LINE
  5
23B9
330
1F
100
AcDbEntity
  8
0
  6
Continuous
 62
     7
100
AcDbLine
 10
7.254825402553706
 20
12.05730000000032
 30
0.0
 11
4.754825402553706
 21
12.05730000000032
 31
0.0
  0
LINE
  5
23BB
330
1F
100
AcDbEntity
  8
0
  6
DASH_CENTER
 62
    30
100
AcDbLine
 10
7.254825402553706
 20
15.05730000000032
 30
0.0
 11
7.254825402553706
 21
12.05730000000032
 31
0.0
  0
ARC
  5
23BC
330
1F
100
AcDbEntity
  8
0
  6
Continuous
 62
    30
100
AcDbCircle
 10
7.254825402553706
 20
7.05730000000033
 30
0.0
 40
8.000000000000003
100
AcDbArc
 50
90.0
 51
108.2099568642829
  0
LINE
  5
23D1
330
1F
100
AcDbEntity
  8
0
  6
Continuous
 62
     7
100
AcDbLine
 10
87.10355521479108
 20
1.057299999999969
 30
0.0
 11
107.015466922114
 21
1.05729999999998
 31
0.0
  0
LINE
  5
23D2
330
1F
100
AcDbEntity
  8
0
  6
Continuous
 62
     7
100
AcDbLine
 10
87.10355521479108
 20
4.05729999999997
 30
0.0
 11
106.8604207838607
 21
4.05729999999998
 31
0.0
  0
LINE
  5
23D3
330
1F
100
AcDbEntity
  8
0
  6
Continuous
 62
     7
100
AcDbLine
 10
87.10355521479108
 20
7.057299999999981
 30
0.0
 11
101.0089912941402
 21
7.057299999999981
 31
0.0
  0
LINE
  5
23D4
330
1F
100
AcDbEntity
  8
0
  6
Continuous
 62
     7
100
AcDbLine
 10
87.10355521479108
 20
10.05729999999998
 30
0.0
 11
106.8604207838607
 21
10.05729999999998
 31
0.0
  0
LINE
  5
23D5
330
1F
100
AcDbEntity
  8
0
  6
Continuous
 62
     7
100
AcDbLine
 10
87.10355521479108
 20
13.05729999999997
 30
0.0
 11
107.015466922114
 21
13.05729999999998
 31
0.0
  0
ARC
  5
23D6
330
1F
100
AcDbEntity
  8
0
  6
DASHED
 62
    30
100
AcDbCircle
 10
194.009
 20
7.057299999999999
 30
0.0
 40
93.00000870585977
100
AcDbArc
 50
176.300929283592
 51
183.699070716408
  0
LINE
  5
23D7
330
1F
100
AcDbEntity
  8
0
  6
Continuous
 62
     7
100
AcDbLine
 10
101.0089912941402
 20
7.057299999999981
 30
0.0
 11
106.8088
 21
7.057299999999981
 31
0.0
  0
ARC
  5
23D8
330
1F
100
AcDbEntity
  8
0
  6
Continuous
 62
     7
100
AcDbCircle
 10
109.2604091232933
 20
15.81802164886833
 30
0.0
 40
1.999999999999998
100
AcDbArc
 50
82.75301378746165
 51
174.0981086896837
  0
ARC
  5
23DD
330
1F
100
AcDbEntity
  8
0
  6
Continuous
 62
     7
100
AcDbCircle
 10
194.009
 20
6.757267763777849
 30
0.0
 40
84.29998670047348
100
AcDbArc
 50
90.0
 51
138.0000011129815
  0
ARC
  5
23DE
330
1F
100
AcDbEntity
  8
0
  6
DASHED
 62
    30
100
AcDbCircle
 10
194.009
 20
7.057299999999999
 30
0.0
 40
93.0000087058598
100
AcDbArc
 50
90.0
 51
124.6253662310648
  0
LINE
  5
23DF
330
1F
100
AcDbEntity
  8
0
  6
Continuous
 62
     7
100
AcDbLine
 10
141.6183
 20
116.153367763778
 30
0.0
 11
141.0283
 21
73.70426776377795
 31
0.0
  0
CIRCLE
  5
23E0
330
1F
100
AcDbEntity
  8
0
  6
Continuous
 62
     7
100
AcDbCircle
 10
140.9760519840216
 20
60.09029083810526
 30
0.0
 40
4.5
  0
ARC
  5
23E1
330
1F
100
AcDbEntity
  8
0
  6
Continuous
 62
     7
100
AcDbCircle
 10
143.8881359523876
 20
49.2252701814137
 30
0.0
 40
0.9999701820598867
100
AcDbArc
 50
269.9979400184884
 51
319.9325197169098
  0
ARC
  5
23E2
330
1F
100
AcDbEntity
  8
0
  6
Continuous
 62
     7
100
AcDbCircle
 10
194.0089743028742
 20
7.057274303035219
 30
0.0
 40
82.49995921252741
100
AcDbArc
 50
119.1144868787955
 51
150.8851542914678
  0
ARC
  5
23E3
330
1F
100
AcDbEntity
  8
0
  6
DASH_CENTER
 62
    30
100
AcDbCircle
 10
194.009161100349
 20
7.05746017047701
 30
0.0
 40
74.99997984032001
100
AcDbArc
 50
125.9142855201648
 51
143.7540466389144
  0
LINE
  5
23E4
330
1F
100
AcDbEntity
  8
0
  6
DASH_CENTER
 62
    30
100
AcDbLine
 10
133.2785173801884
 20
67.78779380429071
 30
0.0
 11
146.5153096789103
 21
54.55105591012753
 31
0.0
  0
LINE
  5
23E5
330
1F
100
AcDbEntity
  8
0
  6
Continuous
 62
     7
100
AcDbLine
 10
134.1019115160017
 20
66.17006736212544
 30
0.0
 11
139.2330647648172
 21
70.93150268534142
 31
0.0
  0
LINE
  5
23E6
330
1F
100
AcDbEntity
  8
0
  6
Continuous
 62
     7
100
AcDbLine
 10
133.3732485346017
 20
69.04100448431005
 30
0.0
 11
136.4245254651046
 21
71.87242600951285
 31
0.0
  0
LINE
  5
23E7
330
1F
100
AcDbEntity
  8
0
  6
DASH_CENTER
 62
    30
100
AcDbLine
 10
132.8485292975055
 20
72.66627998348091
 30
0.0
 11
139.4416000000001
 21
65.56126776377793
 31
0.0
  0
LINE
  5
23E8
330
1F
100
AcDbEntity
  8
0
  6
Continuous
 62
     7
100
AcDbLine
 10
143.8880999999998
 20
48.22530000000011
 30
0.0
 11
123.6803999999999
 21
48.22530000000011
 31
0.0
  0
ARC
  5
23E9
330
1F
100
AcDbEntity
  8
0
  6
Continuous
 62
     7
100
AcDbCircle
 10
123.6805297394627
 20
46.22525870504499
 30
0.0
 40
2.000041299163127
100
AcDbArc
 50
90.00371668508323
 51
150.8852306258878
  0
LINE
  5
23EA
330
1F
100
AcDbEntity
  8
0
  6
Continuous
 62
     7
100
AcDbLine
 10
140.4760519840218
 20
59.09029083810526
 30
0.0
 11
140.4760519840216
 21
57.69039083810515
 31
0.0
  0
LINE
  5
23EB
330
1F
100
AcDbEntity
  8
0
  6
Continuous
 62
     7
100
AcDbLine
 10
141.4760519840218
 20
59.09029083810526
 30
0.0
 11
141.4760519840218
 21
57.69039083810515
 31
0.0
  0
LINE
  5
23EC
330
1F
100
AcDbEntity
  8
0
  6
Continuous
 62
     7
100
AcDbLine
 10
141.4760519840218
 20
57.69039083810515
 30
0.0
 11
140.4760519840216
 21
57.69039083810515
 31
0.0
  0
ARC
  5
23ED
330
1F
100
AcDbEntity
  8
0
  6
Continuous
 62
     7
100
AcDbCircle
 10
134.2575123099614
 20
68.08804172302162
 30
0.0
 40
1.300023249336646
100
AcDbArc
 50
132.858549900825
 51
217.858838310686
  0
LINE
  5
23EE
330
1F
100
AcDbEntity
  8
0
  6
Continuous
 62
     7
100
AcDbLine
 10
131.9563999999999
 20
62.62976776377779
 30
0.0
 11
131.3619
 21
63.1650677637778
 31
0.0
  0
LINE
  5
23EF
330
1F
100
AcDbEntity
  8
0
  6
Continuous
 62
     7
100
AcDbLine
 10
134.1019115160017
 20
66.17006736212544
 30
0.0
 11
133.2310379074865
 21
67.29012582845307
 31
0.0
  0
ARC
  5
23F0
330
1F
100
AcDbEntity
  8
0
  6
Continuous
 62
     7
100
AcDbCircle
 10
139.9760519840216
 20
59.09029083810526
 30
0.0
 40
0.5000000000001137
100
AcDbArc
 50
0.0
 51
89.99999999998697
  0
ARC
  5
23F1
330
1F
100
AcDbEntity
  8
0
  6
Continuous
 62
     7
100
AcDbCircle
 10
139.9760519840216
 20
61.09029083810526
 30
0.0
 40
0.5
100
AcDbArc
 50
270.000000000013
 51
0.0
  0
ARC
  5
23F2
330
1F
100
AcDbEntity
  8
0
  6
Continuous
 62
     7
100
AcDbCircle
 10
141.9760519840217
 20
61.09029083810526
 30
0.0
 40
0.4999999999998864
100
AcDbArc
 50
180.0
 51
270.000000000013
  0
ARC
  5
23F3
330
1F
100
AcDbEntity
  8
0
  6
Continuous
 62
     7
100
AcDbCircle
 10
141.9760519840217
 20
59.09029083810526
 30
0.0
 40
0.5
100
AcDbArc
 50
89.99999999998697
 51
180.0
  0
LINE
  5
23F4
330
1F
100
AcDbEntity
  8
0
  6
Continuous
 62
     7
100
AcDbLine
 10
138.5761519840215
 20
60.59029083810526
 30
0.0
 11
138.5761519840215
 21
59.59029083810526
 31
0.0
  0
LINE
  5
23F5
330
1F
100
AcDbEntity
  8
0
  6
Continuous
 62
     7
100
AcDbLine
 10
143.3759519840215
 20
60.59029083810526
 30
0.0
 11
143.3759519840215
 21
59.59029083810526
 31
0.0
  0
LINE
  5
23F6
330
1F
100
AcDbEntity
  8
0
  6
Continuous
 62
     7
100
AcDbLine
 10
141.4760519840218
 20
62.49019083810514
 30
0.0
 11
140.4760519840218
 21
62.49019083810514
 31
0.0
  0
LINE
  5
23F7
330
1F
100
AcDbEntity
  8
0
  6
Continuous
 62
     7
100
AcDbLine
 10
139.9760519840218
 20
60.59029083810526
 30
0.0
 11
138.5761519840215
 21
60.59029083810526
 31
0.0
  0
LINE
  5
23F8
330
1F
100
AcDbEntity
  8
0
  6
Continuous
 62
     7
100
AcDbLine
 10
139.9760519840218
 20
59.59029083810526
 30
0.0
 11
138.5761519840215
 21
59.59029083810526
 31
0.0
  0
LINE
  5
23F9
330
1F
100
AcDbEntity
  8
0
  6
Continuous
 62
     7
100
AcDbLine
 10
140.4760519840218
 20
62.49019083810514
 30
0.0
 11
140.4760519840218
 21
61.09029083810526
 31
0.0
  0
LINE
  5
23FA
330
1F
100
AcDbEntity
  8
0
  6
Continuous
 62
     7
100
AcDbLine
 10
141.4760519840218
 20
62.49019083810514
 30
0.0
 11
141.4760519840218
 21
61.09029083810526
 31
0.0
  0
LINE
  5
23FB
330
1F
100
AcDbEntity
  8
0
  6
Continuous
 62
     7
100
AcDbLine
 10
143.3759519840215
 20
60.59029083810526
 30
0.0
 11
141.9760519840218
 21
60.59029083810526
 31
0.0
  0
LINE
  5
23FC
330
1F
100
AcDbEntity
  8
0
  6
Continuous
 62
     7
100
AcDbLine
 10
143.3759519840215
 20
59.59029083810526
 30
0.0
 11
141.9760519840218
 21
59.59029083810526
 31
0.0
  0
ARC
  5
23FD
330
1F
100
AcDbEntity
  8
0
  6
Continuous
 62
     7
100
AcDbCircle
 10
138.0285378893267
 20
73.74593727883044
 30
0.0
 40
3.000051511077121
100
AcDbArc
 50
309.8870603692822
 51
359.2041589583439
  0
ARC
  5
23FE
330
1F
100
AcDbEntity
  8
0
  6
Continuous
 62
     7
100
AcDbCircle
 10
137.3087527118569
 20
70.91949730307416
 30
0.0
 40
1.299973439518707
100
AcDbArc
 50
47.8584863600594
 51
132.8583906611258
  0
LINE
  5
23FF
330
1F
100
AcDbEntity
  8
0
  6
Continuous
 62
     7
100
AcDbLine
 10
139.2330647648172
 20
70.93150268534142
 30
0.0
 11
138.1809148422404
 21
71.88334644375031
 31
0.0
  0
LINE
  5
2400
330
1F
100
AcDbEntity
  8
0
  6
Continuous
 62
     7
100
AcDbLine
 10
152.8410999999998
 20
77.38590000000005
 30
0.0
 11
152.8410999999998
 21
57.17830000000009
 31
0.0
  0
ARC
  5
2401
330
1F
100
AcDbEntity
  8
0
  6
Continuous
 62
     7
100
AcDbCircle
 10
194.0090999999999
 20
7.05739999999998
 30
0.0
 40
64.49995587696175
100
AcDbArc
 50
130.0747512887276
 51
139.9252487112718
  0
ARC
  5
2402
330
1F
100
AcDbEntity
  8
0
  6
Continuous
 62
     7
100
AcDbCircle
 10
151.8411915554001
 20
57.17828186176776
 30
0.0
 40
1.000008444764225
100
AcDbArc
 50
310.0685010292187
 51
0.0010392353845748
  0
ARC
  5
2403
330
1F
100
AcDbEntity
  8
0
  6
Continuous
 62
     7
100
AcDbCircle
 10
154.841221940312
 20
77.38593733571069
 30
0.0
 40
2.000021940660799
100
AcDbArc
 50
119.1177227012896
 51
180.0010695775885
  0
ARC
  5
2404
330
1F
100
AcDbEntity
  8
0
  6
Continuous
 62
     7
100
AcDbCircle
 10
194.009
 20
7.057299999999999
 30
0.0
 40
10.25004238918048
100
AcDbArc
 50
77.3185634515286
 51
102.6814365484713
  0
LINE
  5
2405
330
1F
100
AcDbEntity
  8
0
  6
Continuous
 62
     7
100
AcDbLine
 10
196.509
 20
12.05729999999999
 30
0.0
 11
191.509
 21
12.05729999999999
 31
0.0
  0
LINE
  5
2406
330
1F
100
AcDbEntity
  8
0
  6
Continuous
 62
     7
100
AcDbLine
 10
191.509
 20
17.0573
 30
0.0
 11
196.509
 21
17.0573
 31
0.0
  0
LINE
  5
2407
330
1F
100
AcDbEntity
  8
0
  6
Continuous
 62
     7
100
AcDbLine
 10
191.509
 20
12.05729999999999
 30
0.0
 11
191.509
 21
17.0573
 31
0.0
  0
LINE
  5
2408
330
1F
100
AcDbEntity
  8
0
  6
Continuous
 62
     7
100
AcDbLine
 10
196.509
 20
17.0573
 30
0.0
 11
196.509
 21
12.05729999999999
 31
0.0
  0
LINE
  5
2409
330
1F
100
AcDbEntity
  8
0
  6
Continuous
 62
     7
100
AcDbLine
 10
235.1770000000001
 20
57.17820000000012
 30
0.0
 11
235.1770000000001
 21
77.38590000000005
 31
0.0
  0
ARC
  5
240A
330
1F
100
AcDbEntity
  8
0
  6
Continuous
 62
     7
100
AcDbCircle
 10
236.1769701814136
 20
57.17816404761233
 30
0.0
 40
0.9999701820598511
100
AcDbArc
 50
179.9979400184918
 51
229.9325197169185
  0
ARC
  5
240B
330
1F
100
AcDbEntity
  8
0
  6
Continuous
 62
     7
100
AcDbCircle
 10
233.176958705045
 20
77.38577026053725
 30
0.0
 40
2.000041299163134
100
AcDbArc
 50
0.003716685081756
 51
60.88523062588627
  0
LINE
  5
240D
330
1F
100
AcDbEntity
  8
0
  6
Continuous
 62
     7
100
AcDbLine
 10
218.509
 20
144.2572677637779
 30
0.0
 11
170.1156000000001
 21
144.2572677637779
 31
0.0
  0
ARC
  5
240E
330
1F
100
AcDbEntity
  8
0
  6
Continuous
 62
     7
100
AcDbCircle
 10
170.1154732937443
 20
115.7572414262892
 30
0.0
 40
28.50002633777021
100
AcDbArc
 50
89.99974527273707
 51
179.2036113279753
  0
POINT
  5
2412
330
1F
100
AcDbEntity
  8
0
 62
     2
100
AcDbPoint
 10
168.9431000000001
 20
144.2572677637779
 30
0.0
  0
LINE
  5
2413
330
1F
100
AcDbEntity
  8
0
  6
DASHED
 62
    30
100
AcDbLine
 10
191.2638468292382
 20
103.3571087058598
 30
0.0
 11
196.754046829238
 21
103.3571087058598
 31
0.0
  0
LINE
  5
2414
330
1F
100
AcDbEntity
  8
0
  6
DASHED
 62
    30
100
AcDbLine
 10
198.5089468292383
 20
100.0573087058598
 30
0.0
 11
189.5089468292383
 21
100.0573087058598
 31
0.0
  0
ARC
  5
2415
330
1F
100
AcDbEntity
  8
0
  6
DASHED
 62
    30
100
AcDbCircle
 10
191.2638506728146
 20
101.7572122277518
 30
0.0
 40
1.599996478112628
100
AcDbArc
 50
90.00013763824757
 51
174.9982890533543
  0
LINE
  5
2416
330
1F
100
AcDbEntity
  8
0
  6
DASHED
 62
    30
100
AcDbLine
 10
189.5089468292383
 20
100.0573087058598
 30
0.0
 11
189.6701468292383
 21
101.8969087058598
 31
0.0
  0
ARC
  5
2417
330
1F
100
AcDbEntity
  8
0
  6
DASHED
 62
    30
100
AcDbCircle
 10
196.7540973448165
 20
101.7571624181365
 30
0.0
 40
1.600046288488446
100
AcDbArc
 50
5.003345287453804
 51
89.99822802094458
  0
LINE
  5
2418
330
1F
100
AcDbEntity
  8
0
  6
DASHED
 62
    30
100
AcDbLine
 10
198.5089468292383
 20
100.0573087058598
 30
0.0
 11
198.3480468292382
 21
101.8969087058598
 31
0.0
  0
LINE
  5
2425
330
1F
100
AcDbEntity
  8
0
  6
Continuous
 62
     7
100
AcDbLine
 10
246.3993
 20
116.1532677637777
 30
0.0
 11
246.9893000000002
 21
73.70426776377795
 31
0.0
  0
ARC
  5
242A
330
1F
100
AcDbEntity
  8
0
  6
Continuous
 62
     7
100
AcDbCircle
 10
194.009
 20
7.057299999999999
 30
0.0
 40
93.0000087058598
100
AcDbArc
 50
0.0
 51
55.37493638995589
  0
LINE
  5
242B
330
1F
100
AcDbEntity
  8
0
  6
Continuous
 62
     7
100
AcDbLine
 10
274.8161188757741
 20
26.86682336905031
 30
0.0
 11
275.5931122174845
 21
27.05729999999999
 31
0.0
  0
ARC
  5
242C
330
1F
100
AcDbEntity
  8
0
  6
Continuous
 62
     7
100
AcDbCircle
 10
194.0088
 20
7.057299999999999
 30
0.0
 40
84.0
100
AcDbArc
 50
0.0
 51
13.77414699802683
  0
LINE
  5
242E
330
1F
100
AcDbEntity
  8
0
  6
Continuous
 62
     7
100
AcDbLine
 10
248.7849352351826
 20
70.93150268534142
 30
0.0
 11
253.9160884839982
 21
66.17006736212544
 31
0.0
  0
LINE
  5
242F
330
1F
100
AcDbEntity
  8
0
  6
Continuous
 62
     7
100
AcDbLine
 10
251.5934745348953
 20
71.87242600951285
 30
0.0
 11
254.6447514653983
 21
69.04100448431005
 31
0.0
  0
LINE
  5
2430
330
1F
100
AcDbEntity
  8
0
  6
DASH_CENTER
 62
    30
100
AcDbLine
 10
248.5763999999999
 20
65.56126776377793
 30
0.0
 11
255.1694707024943
 21
72.66627998348091
 31
0.0
  0
LINE
  5
2431
330
1F
100
AcDbEntity
  8
0
  6
Continuous
 62
     7
100
AcDbLine
 10
264.3376
 20
48.22520000000015
 30
0.0
 11
244.13
 21
48.22520000000015
 31
0.0
  0
CIRCLE
  5
2432
330
1F
100
AcDbEntity
  8
0
  6
Continuous
 62
     7
100
AcDbCircle
 10
247.0419908381053
 20
60.09024801597826
 30
0.0
 40
4.5
  0
LINE
  5
2433
330
1F
100
AcDbEntity
  8
0
  6
Continuous
 62
     7
100
AcDbLine
 10
247.5419908381053
 20
57.69034801597836
 30
0.0
 11
247.5419908381053
 21
59.09024801597826
 31
0.0
  0
LINE
  5
2434
330
1F
100
AcDbEntity
  8
0
  6
Continuous
 62
     7
100
AcDbLine
 10
246.5419908381053
 20
57.69034801597836
 30
0.0
 11
246.5419908381053
 21
59.09024801597826
 31
0.0
  0
ARC
  5
2435
330
1F
100
AcDbEntity
  8
0
  6
Continuous
 62
     7
100
AcDbCircle
 10
244.1299818617678
 20
49.22510844459988
 30
0.0
 40
1.000008444764213
100
AcDbArc
 50
220.0685010292165
 51
270.0010392353825
  0
LINE
  5
2436
330
1F
100
AcDbEntity
  8
0
  6
Continuous
 62
     7
100
AcDbLine
 10
247.5419908381053
 20
57.69034801597836
 30
0.0
 11
246.5419908381053
 21
57.69034801597836
 31
0.0
  0
ARC
  5
2437
330
1F
100
AcDbEntity
  8
0
  6
Continuous
 62
     7
100
AcDbCircle
 10
246.0419908381052
 20
61.09024801597826
 30
0.0
 40
0.5
100
AcDbArc
 50
270.0
 51
0.0
  0
ARC
  5
2438
330
1F
100
AcDbEntity
  8
0
  6
Continuous
 62
     7
100
AcDbCircle
 10
248.0419908381052
 20
61.09024801597826
 30
0.0
 40
0.5
100
AcDbArc
 50
180.0
 51
270.0
  0
ARC
  5
2439
330
1F
100
AcDbEntity
  8
0
  6
Continuous
 62
     7
100
AcDbCircle
 10
248.0419908381052
 20
59.09024801597826
 30
0.0
 40
0.5
100
AcDbArc
 50
90.0
 51
180.0
  0
ARC
  5
243A
330
1F
100
AcDbEntity
  8
0
  6
Continuous
 62
     7
100
AcDbCircle
 10
246.0419908381052
 20
59.09024801597826
 30
0.0
 40
0.5
100
AcDbArc
 50
0.0
 51
90.0
  0
LINE
  5
243B
330
1F
100
AcDbEntity
  8
0
  6
Continuous
 62
     7
100
AcDbLine
 10
247.5419908381053
 20
62.49014801597838
 30
0.0
 11
246.5419908381053
 21
62.49014801597838
 31
0.0
  0
LINE
  5
243C
330
1F
100
AcDbEntity
  8
0
  6
Continuous
 62
     7
100
AcDbLine
 10
249.4418908381052
 20
59.59024801597826
 30
0.0
 11
249.4418908381052
 21
60.59024801597826
 31
0.0
  0
LINE
  5
243D
330
1F
100
AcDbEntity
  8
0
  6
Continuous
 62
     7
100
AcDbLine
 10
244.6420908381051
 20
59.59024801597826
 30
0.0
 11
244.6420908381051
 21
60.59024801597826
 31
0.0
  0
LINE
  5
243E
330
1F
100
AcDbEntity
  8
0
  6
Continuous
 62
     7
100
AcDbLine
 10
247.5419908381053
 20
61.09024801597826
 30
0.0
 11
247.5419908381053
 21
62.49014801597838
 31
0.0
  0
LINE
  5
243F
330
1F
100
AcDbEntity
  8
0
  6
Continuous
 62
     7
100
AcDbLine
 10
246.0419908381052
 20
60.59024801597826
 30
0.0
 11
244.6420908381051
 21
60.59024801597826
 31
0.0
  0
LINE
  5
2440
330
1F
100
AcDbEntity
  8
0
  6
Continuous
 62
     7
100
AcDbLine
 10
246.0419908381052
 20
59.59024801597826
 30
0.0
 11
244.6420908381051
 21
59.59024801597826
 31
0.0
  0
LINE
  5
2441
330
1F
100
AcDbEntity
  8
0
  6
Continuous
 62
     7
100
AcDbLine
 10
246.5419908381053
 20
61.09024801597826
 30
0.0
 11
246.5419908381053
 21
62.49014801597838
 31
0.0
  0
LINE
  5
2442
330
1F
100
AcDbEntity
  8
0
  6
Continuous
 62
     7
100
AcDbLine
 10
249.4418908381052
 20
60.59024801597826
 30
0.0
 11
248.0419908381052
 21
60.59024801597826
 31
0.0
  0
LINE
  5
2443
330
1F
100
AcDbEntity
  8
0
  6
Continuous
 62
     7
100
AcDbLine
 10
249.4418908381052
 20
59.59024801597826
 30
0.0
 11
248.0419908381052
 21
59.59024801597826
 31
0.0
  0
ARC
  5
2444
330
1F
100
AcDbEntity
  8
0
  6
Continuous
 62
     7
100
AcDbCircle
 10
253.7604876900386
 20
68.0880417230216
 30
0.0
 40
1.300023249336635
100
AcDbArc
 50
322.1411616893141
 51
47.14145009917525
  0
LINE
  5
2445
330
1F
100
AcDbEntity
  8
0
  6
Continuous
 62
     7
100
AcDbLine
 10
256.0615
 20
62.62966776377782
 30
0.0
 11
256.6560000000001
 21
63.16496776377782
 31
0.0
  0
LINE
  5
2446
330
1F
100
AcDbEntity
  8
0
  6
Continuous
 62
     7
100
AcDbLine
 10
254.7869620925133
 20
67.29012582845307
 30
0.0
 11
253.9160884839982
 21
66.17006736212544
 31
0.0
  0
ARC
  5
2447
330
1F
100
AcDbEntity
  8
0
  6
Continuous
 62
     7
100
AcDbCircle
 10
264.3376373357108
 20
46.22507805968786
 30
0.0
 40
2.000021940660784
100
AcDbArc
 50
29.1177227012916
 51
90.00106957759003
  0
ARC
  5
2448
330
1F
100
AcDbEntity
  8
0
  6
Continuous
 62
     7
100
AcDbCircle
 10
250.7092472881431
 20
70.91949730307416
 30
0.0
 40
1.299973439518711
100
AcDbArc
 50
47.14160933887434
 51
132.1415136399425
  0
ARC
  5
2449
330
1F
100
AcDbEntity
  8
0
  6
Continuous
 62
     7
100
AcDbCircle
 10
249.9888902740347
 20
73.74598819463269
 30
0.0
 40
2.999980389017348
100
AcDbArc
 50
180.7968324307608
 51
230.1160814284847
  0
LINE
  5
244A
330
1F
100
AcDbEntity
  8
0
  6
Continuous
 62
     7
100
AcDbLine
 10
249.8370851577595
 20
71.88334644375031
 30
0.0
 11
248.7849352351826
 21
70.93150268534142
 31
0.0
  0
MTEXT
  5
2464
330
1F
100
AcDbEntity
  8
0
100
AcDbMText
 10
-70.29210625997871
 20
-152.0872368404863
 30
0.0
 40
8.0
 41
134.116871774964
 71
     1
 72
     1
  1
AET-FBF 4P 0.55kW
 73
     1
 44
1.0
  0
VIEWPORT
  5
71
330
55
100
AcDbEntity
 67
     1
  8
0
100
AcDbViewport
 10
133.3499908447265
 20
101.5999970436096
 30
0.0
 40
381.3957395593834
 41
218.2856291881582
 68
     1
 69
     1
 12
133.3499908447265
 22
101.5999970436096
 13
0.0
 23
0.0
 14
10.0
 24
10.0
 15
10.0
 25
10.0
 16
0.0
 26
0.0
 36
1.0
 17
0.0
 27
0.0
 37
0.0
 42
50.0
 43
0.0
 44
0.0
 45
218.2856291881582
 50
0.0
 51
0.0
 72
   100
 90
    32800
  1

281
     0
 71
     1
 74
     0
110
0.0
120
0.0
130
0.0
111
1.0
121
0.0
131
0.0
112
0.0
122
1.0
132
0.0
 79
     0
146
0.0
  0
VIEWPORT
  5
73
330
55
100
AcDbEntity
 67
     1
  8
0
100
AcDbViewport
 10
133.349993944168
 20
101.599993944168
 30
0.0
 40
213.3599903106689
 41
162.5599903106689
 68
     2
 69
     2
 12
210.0
 22
148.5
 13
0.0
 23
0.0
 14
10.0
 24
10.0
 15
10.0
 25
10.0
 16
0.0
 26
0.0
 36
1.0
 17
0.0
 27
0.0
 37
0.0
 42
50.0
 43
0.0
 44
0.0
 45
324.0677920111345
 50
0.0
 51
0.0
 72
   100
 90
    32864
  1

281
     0
 71
     1
 74
     0
110
0.0
120
0.0
130
0.0
111
1.0
121
0.0
131
0.0
112
0.0
122
1.0
132
0.0
 79
     0
146
0.0
  0
ENDSEC
  0
SECTION
  2
OBJECTS
  0
DICTIONARY
  5
C
330
0
100
AcDbDictionary
281
     1
  3
ACAD_GROUP
350
D
  3
ACAD_LAYOUT
350
1A
  3
ACAD_MLINESTYLE
350
17
  3
ACAD_PLOTSETTINGS
350
19
  3
ACAD_PLOTSTYLENAME
350
E
  3
AcDbVariableDictionary
350
5E
  0
DICTIONARY
  5
D
102
{ACAD_REACTORS
330
C
102
}
330
C
100
AcDbDictionary
281
     1
  0
DICTIONARY
  5
1A
102
{ACAD_REACTORS
330
C
102
}
330
C
100
AcDbDictionary
281
     1
  3
Model
350
22
  3
ﾚｲｱｳﾄ1
350
51
  3
ﾚｲｱｳﾄ2
350
56
  0
DICTIONARY
  5
17
102
{ACAD_REACTORS
330
C
102
}
330
C
100
AcDbDictionary
281
     1
  3
Standard
350
18
  0
DICTIONARY
  5
19
102
{ACAD_REACTORS
330
C
102
}
330
C
100
AcDbDictionary
281
     1
  0
ACDBDICTIONARYWDFLT
  5
E
102
{ACAD_REACTORS
330
C
102
}
330
C
100
AcDbDictionary
281
     1
  3
Normal
350
F
100
AcDbDictionaryWithDefault
340
F
  0
DICTIONARY
  5
5E
102
{ACAD_REACTORS
330
C
102
}
330
C
100
AcDbDictionary
281
     1
  3
DIMASSOC
350
5F
  3
HIDETEXT
350
63
  0
LAYOUT
  5
22
102
{ACAD_REACTORS
330
1A
102
}
330
1A
100
AcDbPlotSettings
  1

  2
none_device
  4
ANSI_A_(8.50_x_11.00_Inches)
  6

 40
6.349999904632568
 41
19.04999923706054
 42
6.350006103515625
 43
19.04998779296875
 44
215.8999938964843
 45
279.3999938964843
 46
0.0
 47
0.0
 48
0.0
 49
0.0
140
0.0
141
0.0
142
1.0
143
78.436453180766
 70
 11952
 72
     0
 73
     1
 74
     0
  7

 75
     0
147
0.0127491741332998
148
0.0
149
0.0
100
AcDbLayout
  1
Model
 70
     1
 71
     0
 10
0.0
 20
0.0
 11
12.0
 21
9.0
 12
0.0
 22
0.0
 32
0.0
 14
0.0
 24
0.0
 34
0.0
 15
0.0
 25
0.0
 35
0.0
146
0.0
 13
0.0
 23
0.0
 33
0.0
 16
1.0
 26
0.0
 36
0.0
 17
0.0
 27
1.0
 37
0.0
 76
     0
330
1F
  0
LAYOUT
  5
51
102
{ACAD_REACTORS
330
1A
102
}
330
1A
100
AcDbPlotSettings
  1

  2
none_device
  4
Letter_(8.50_x_11.00_Inches)
  6

 40
6.349999904632568
 41
6.349999904632568
 42
6.350006103515625
 43
6.350006103515625
 44
215.8999938964843
 45
279.3999938964843
 46
0.0
 47
0.0
 48
0.0
 49
0.0
140
0.0
141
0.0
142
1.0
143
1.0
 70
   688
 72
     1
 73
     1
 74
     5
  7

 75
    16
147
1.0
148
0.0
149
0.0
100
AcDbLayout
  1
ﾚｲｱｳﾄ1
 70
     1
 71
     1
 10
-6.350006103515625
 20
-6.349999904632568
 11
273.0499877929687
 21
209.5499939918517
 12
0.0
 22
0.0
 32
0.0
 14
26.66076962115562
 24
20.31135699206657
 34
-0.0015258207003583
 15
240.039213369355
 25
182.8886381005154
 35
0.0000000349246037
146
0.0
 13
0.0
 23
0.0
 33
0.0
 16
1.0
 26
0.0
 36
0.0
 17
0.0
 27
1.0
 37
0.0
 76
     0
330
50
331
6B
  0
LAYOUT
  5
56
102
{ACAD_REACTORS
330
1A
102
}
330
1A
100
AcDbPlotSettings
  1

  2
none_device
  4
Letter_(8.50_x_11.00_Inches)
  6

 40
6.349999904632568
 41
6.349999904632568
 42
6.350006103515625
 43
6.350006103515625
 44
215.8999938964843
 45
279.3999938964843
 46
0.0
 47
0.0
 48
0.0
 49
0.0
140
0.0
141
0.0
142
1.0
143
1.0
 70
   688
 72
     1
 73
     1
 74
     5
  7

 75
    16
147
1.0
148
0.0
149
0.0
100
AcDbLayout
  1
ﾚｲｱｳﾄ2
 70
     1
 71
     2
 10
-6.350006103515625
 20
-6.349999904632568
 11
273.0499877929687
 21
209.5499939918517
 12
0.0
 22
0.0
 32
0.0
 14
26.66076962115562
 24
20.31135699206657
 34
-0.0015258207003583
 15
240.039213369355
 25
182.8886381005154
 35
0.0000000349246037
146
0.0
 13
0.0
 23
0.0
 33
0.0
 16
1.0
 26
0.0
 36
0.0
 17
0.0
 27
1.0
 37
0.0
 76
     0
330
55
331
71
  0
MLINESTYLE
  5
18
102
{ACAD_REACTORS
330
17
102
}
330
17
100
AcDbMlineStyle
  2
STANDARD
 70
     0
  3

 62
   256
 51
90.0
 52
90.0
 71
     2
 49
0.5
 62
   256
  6
BYLAYER
 49
-0.5
 62
   256
  6
BYLAYER
  0
ACDBPLACEHOLDER
  5
F
102
{ACAD_REACTORS
330
E
102
}
330
E
  0
DICTIONARYVAR
  5
5F
102
{ACAD_REACTORS
330
5E
102
}
330
5E
100
DictionaryVariables
280
     0
  1
2
  0
DICTIONARYVAR
  5
63
102
{ACAD_REACTORS
330
5E
102
}
330
5E
100
DictionaryVariables
280
     0
  1
1
  0
ENDSEC
  0
EOF
