  0
SECTION
  2
HEADER
  9
$ACADVER
  1
AC1015
  9
$ACADMAINTVER
 70
    14
  9
$DWGCODEPAGE
  3
ANSI_932
  9
$INSBASE
 10
0.0
 20
0.0
 30
0.0
  9
$EXTMIN
 10
-394.0084562561104
 20
-217.4250636485231
 30
-0.0015258207003583
  9
$EXTMAX
 10
303.8552864872097
 20
152.5333562362163
 30
0.0000000349246037
  9
$LIMMIN
 10
0.0
 20
0.0
  9
$LIMMAX
 10
420.0
 20
297.0
  9
$ORTHOMODE
 70
     0
  9
$REGENMODE
 70
     1
  9
$FILLMODE
 70
     1
  9
$QTEXTMODE
 70
     0
  9
$MIRRTEXT
 70
     1
  9
$LTSCALE
 40
1.0
  9
$ATTMODE
 70
     1
  9
$TEXTSIZE
 40
2.5
  9
$TRACEWID
 40
1.0
  9
$TEXTSTYLE
  7
Standard
  9
$CLAYER
  8
0
  9
$CELTYPE
  6
ByLayer
  9
$CECOLOR
 62
   256
  9
$CELTSCALE
 40
1.0
  9
$DISPSILH
 70
     0
  9
$DIMSCALE
 40
1.0
  9
$DIMASZ
 40
2.5
  9
$DIMEXO
 40
0.625
  9
$DIMDLI
 40
3.75
  9
$DIMRND
 40
0.0
  9
$DIMDLE
 40
0.0
  9
$DIMEXE
 40
1.25
  9
$DIMTP
 40
0.0
  9
$DIMTM
 40
0.0
  9
$DIMTXT
 40
2.5
  9
$DIMCEN
 40
2.5
  9
$DIMTSZ
 40
0.0
  9
$DIMTOL
 70
     0
  9
$DIMLIM
 70
     0
  9
$DIMTIH
 70
     0
  9
$DIMTOH
 70
     0
  9
$DIMSE1
 70
     0
  9
$DIMSE2
 70
     0
  9
$DIMTAD
 70
     1
  9
$DIMZIN
 70
     8
  9
$DIMBLK
  1

  9
$DIMASO
 70
     1
  9
$DIMSHO
 70
     1
  9
$DIMPOST
  1

  9
$DIMAPOST
  1

  9
$DIMALT
 70
     0
  9
$DIMALTD
 70
     3
  9
$DIMALTF
 40
0.03937007874016
  9
$DIMLFAC
 40
1.0
  9
$DIMTOFL
 70
     1
  9
$DIMTVP
 40
0.0
  9
$DIMTIX
 70
     0
  9
$DIMSOXD
 70
     0
  9
$DIMSAH
 70
     0
  9
$DIMBLK1
  1

  9
$DIMBLK2
  1

  9
$DIMSTYLE
  2
ISO-25
  9
$DIMCLRD
 70
     0
  9
$DIMCLRE
 70
     0
  9
$DIMCLRT
 70
     0
  9
$DIMTFAC
 40
1.0
  9
$DIMGAP
 40
0.625
  9
$DIMJUST
 70
     0
  9
$DIMSD1
 70
     0
  9
$DIMSD2
 70
     0
  9
$DIMTOLJ
 70
     0
  9
$DIMTZIN
 70
     8
  9
$DIMALTZ
 70
     0
  9
$DIMALTTZ
 70
     0
  9
$DIMUPT
 70
     0
  9
$DIMDEC
 70
     2
  9
$DIMTDEC
 70
     2
  9
$DIMALTU
 70
     2
  9
$DIMALTTD
 70
     3
  9
$DIMTXSTY
  7
Standard
  9
$DIMAUNIT
 70
     0
  9
$DIMADEC
 70
     0
  9
$DIMALTRND
 40
0.0
  9
$DIMAZIN
 70
     0
  9
$DIMDSEP
 70
    44
  9
$DIMATFIT
 70
     3
  9
$DIMFRAC
 70
     0
  9
$DIMLDRBLK
  1

  9
$DIMLUNIT
 70
     2
  9
$DIMLWD
 70
    -2
  9
$DIMLWE
 70
    -2
  9
$DIMTMOVE
 70
     0
  9
$LUNITS
 70
     2
  9
$LUPREC
 70
     4
  9
$SKETCHINC
 40
1.0
  9
$FILLETRAD
 40
10.0
  9
$AUNITS
 70
     0
  9
$AUPREC
 70
     0
  9
$MENU
  1
.
  9
$ELEVATION
 40
0.0
  9
$PELEVATION
 40
0.0
  9
$THICKNESS
 40
0.0
  9
$LIMCHECK
 70
     0
  9
$CHAMFERA
 40
10.0
  9
$CHAMFERB
 40
10.0
  9
$CHAMFERC
 40
20.0
  9
$CHAMFERD
 40
0.0
  9
$SKPOLY
 70
     0
  9
$TDCREATE
 40
2456037.763214514
  9
$TDUCREATE
 40
2456037.388214513
  9
$TDUPDATE
 40
2456037.765276145
  9
$TDUUPDATE
 40
2456037.390276145
  9
$TDINDWG
 40
0.0020616319
  9
$TDUSRTIMER
 40
0.0020616319
  9
$USRTIMER
 70
     1
  9
$ANGBASE
 50
0.0
  9
$ANGDIR
 70
     0
  9
$PDMODE
 70
     0
  9
$PDSIZE
 40
0.0
  9
$PLINEWID
 40
0.0
  9
$SPLFRAME
 70
     0
  9
$SPLINETYPE
 70
     6
  9
$SPLINESEGS
 70
     8
  9
$HANDSEED
  5
12BD
  9
$SURFTAB1
 70
     6
  9
$SURFTAB2
 70
     6
  9
$SURFTYPE
 70
     6
  9
$SURFU
 70
     6
  9
$SURFV
 70
     6
  9
$UCSBASE
  2

  9
$UCSNAME
  2

  9
$UCSORG
 10
0.0
 20
0.0
 30
0.0
  9
$UCSXDIR
 10
1.0
 20
0.0
 30
0.0
  9
$UCSYDIR
 10
0.0
 20
1.0
 30
0.0
  9
$UCSORTHOREF
  2

  9
$UCSORTHOVIEW
 70
     0
  9
$UCSORGTOP
 10
0.0
 20
0.0
 30
0.0
  9
$UCSORGBOTTOM
 10
0.0
 20
0.0
 30
0.0
  9
$UCSORGLEFT
 10
0.0
 20
0.0
 30
0.0
  9
$UCSORGRIGHT
 10
0.0
 20
0.0
 30
0.0
  9
$UCSORGFRONT
 10
0.0
 20
0.0
 30
0.0
  9
$UCSORGBACK
 10
0.0
 20
0.0
 30
0.0
  9
$PUCSBASE
  2

  9
$PUCSNAME
  2

  9
$PUCSORG
 10
0.0
 20
0.0
 30
0.0
  9
$PUCSXDIR
 10
1.0
 20
0.0
 30
0.0
  9
$PUCSYDIR
 10
0.0
 20
1.0
 30
0.0
  9
$PUCSORTHOREF
  2

  9
$PUCSORTHOVIEW
 70
     0
  9
$PUCSORGTOP
 10
0.0
 20
0.0
 30
0.0
  9
$PUCSORGBOTTOM
 10
0.0
 20
0.0
 30
0.0
  9
$PUCSORGLEFT
 10
0.0
 20
0.0
 30
0.0
  9
$PUCSORGRIGHT
 10
0.0
 20
0.0
 30
0.0
  9
$PUCSORGFRONT
 10
0.0
 20
0.0
 30
0.0
  9
$PUCSORGBACK
 10
0.0
 20
0.0
 30
0.0
  9
$USERI1
 70
     0
  9
$USERI2
 70
     0
  9
$USERI3
 70
     0
  9
$USERI4
 70
     0
  9
$USERI5
 70
     0
  9
$USERR1
 40
0.0
  9
$USERR2
 40
0.0
  9
$USERR3
 40
0.0
  9
$USERR4
 40
0.0
  9
$USERR5
 40
0.0
  9
$WORLDVIEW
 70
     1
  9
$SHADEDGE
 70
     3
  9
$SHADEDIF
 70
    70
  9
$TILEMODE
 70
     1
  9
$MAXACTVP
 70
    64
  9
$PINSBASE
 10
0.0
 20
0.0
 30
0.0
  9
$PLIMCHECK
 70
     0
  9
$PEXTMIN
 10
26.66076962115562
 20
20.31135699206657
 30
-0.0015258207003583
  9
$PEXTMAX
 10
240.039213369355
 20
182.8886381005154
 30
0.0000000349246037
  9
$PLIMMIN
 10
-6.350006103515625
 20
-6.349999904632568
  9
$PLIMMAX
 10
273.0499877929687
 20
209.5499939918517
  9
$UNITMODE
 70
     0
  9
$VISRETAIN
 70
     1
  9
$PLINEGEN
 70
     0
  9
$PSLTSCALE
 70
     1
  9
$TREEDEPTH
 70
  3020
  9
$CMLSTYLE
  2
Standard
  9
$CMLJUST
 70
     0
  9
$CMLSCALE
 40
20.0
  9
$PROXYGRAPHICS
 70
     1
  9
$MEASUREMENT
 70
     1
  9
$CELWEIGHT
370
    -1
  9
$ENDCAPS
280
     0
  9
$JOINSTYLE
280
     0
  9
$LWDISPLAY
290
     0
  9
$INSUNITS
 70
     4
  9
$HYPERLINKBASE
  1

  9
$STYLESHEET
  1

  9
$XEDIT
290
     1
  9
$CEPSNTYPE
380
     0
  9
$PSTYLEMODE
290
     1
  9
$FINGERPRINTGUID
  2
{FDEAD578-A652-11D2-9A35-0060089B3A3F}
  9
$VERSIONGUID
  2
{CAC418DA-965C-4963-A90E-4BFA44A4C9E3}
  9
$EXTNAMES
290
     1
  9
$PSVPSCALE
 40
0.0
  9
$OLESTARTUP
290
     0
  0
ENDSEC
  0
SECTION
  2
CLASSES
  0
CLASS
  1
ACDBDICTIONARYWDFLT
  2
AcDbDictionaryWithDefault
  3
AutoCAD 2000
 90
        0
280
     0
281
     0
  0
CLASS
  1
ACDBPLACEHOLDER
  2
AcDbPlaceHolder
  3
AutoCAD 2000
 90
        0
280
     0
281
     0
  0
CLASS
  1
LAYOUT
  2
AcDbLayout
  3
AutoCAD 2000
 90
        0
280
     0
281
     0
  0
CLASS
  1
DICTIONARYVAR
  2
AcDbDictionaryVar
  3
AutoCAD 2000
 90
        0
280
     0
281
     0
  0
ENDSEC
  0
SECTION
  2
TABLES
  0
TABLE
  2
VPORT
  5
8
330
0
100
AcDbSymbolTable
 70
     4
  0
VPORT
  5
12BC
330
8
100
AcDbSymbolTableRecord
100
AcDbViewportTableRecord
  2
*Active
 70
     0
 10
0.0
 20
0.0
 11
1.0
 21
1.0
 12
-29.10827566765743
 22
-32.44585370615337
 13
0.0
 23
0.0
 14
10.0
 24
10.0
 15
10.0
 25
10.0
 16
0.0
 26
0.0
 36
1.0
 17
0.0
 27
0.0
 37
0.0
 40
372.6820401538296
 41
1.97051597051597
 42
50.0
 43
0.0
 44
0.0
 50
0.0
 51
0.0
 71
     0
 72
   100
 73
     1
 74
     3
 75
     0
 76
     0
 77
     0
 78
     0
281
     0
 65
     1
110
0.0
120
0.0
130
0.0
111
1.0
121
0.0
131
0.0
112
0.0
122
1.0
132
0.0
 79
     0
146
0.0
  0
ENDTAB
  0
TABLE
  2
LTYPE
  5
5
330
0
100
AcDbSymbolTable
 70
     5
  0
LTYPE
  5
14
330
5
100
AcDbSymbolTableRecord
100
AcDbLinetypeTableRecord
  2
ByBlock
 70
     0
  3

 72
    65
 73
     0
 40
0.0
  0
LTYPE
  5
15
330
5
100
AcDbSymbolTableRecord
100
AcDbLinetypeTableRecord
  2
ByLayer
 70
     0
  3

 72
    65
 73
     0
 40
0.0
  0
LTYPE
  5
16
330
5
100
AcDbSymbolTableRecord
100
AcDbLinetypeTableRecord
  2
Continuous
 70
     0
  3
Solid line
 72
    65
 73
     0
 40
0.0
  0
LTYPE
  5
86
330
5
100
AcDbSymbolTableRecord
100
AcDbLinetypeTableRecord
  2
DASHED
 70
     0
  3
Dashed
 72
    65
 73
     2
 40
15.0
 49
7.0
 74
     0
 49
-8.0
 74
     0
  0
LTYPE
  5
87
330
5
100
AcDbSymbolTableRecord
100
AcDbLinetypeTableRecord
  2
DASH_CENTER
 70
     0
  3
Dash_Center
 72
    65
 73
     4
 40
14.0
 49
11.0
 74
     0
 49
-1.0
 74
     0
 49
1.0
 74
     0
 49
-1.0
 74
     0
  0
LTYPE
  5
88
330
5
100
AcDbSymbolTableRecord
100
AcDbLinetypeTableRecord
  2
PHANTOM
 70
     0
  3
Phantom
 72
    65
 73
     6
 40
13.0
 49
10.0
 74
     0
 49
-1.0
 74
     0
 49
0.0
 74
     0
 49
-1.0
 74
     0
 49
0.0
 74
     0
 49
-1.0
 74
     0
  0
LTYPE
  5
89
330
5
100
AcDbSymbolTableRecord
100
AcDbLinetypeTableRecord
  2
CENTER_DASH_DASH
 70
     0
  3
Center_Dash_Dash
 72
    65
 73
     6
 40
14.0
 49
9.0
 74
     0
 49
-1.0
 74
     0
 49
1.0
 74
     0
 49
-1.0
 74
     0
 49
1.0
 74
     0
 49
-1.0
 74
     0
  0
ENDTAB
  0
TABLE
  2
LAYER
  5
2
330
0
100
AcDbSymbolTable
 70
     1
  0
LAYER
  5
10
330
2
100
AcDbSymbolTableRecord
100
AcDbLayerTableRecord
  2
0
 70
     0
 62
     7
  6
Continuous
370
    -3
390
F
  0
ENDTAB
  0
TABLE
  2
STYLE
  5
3
330
0
100
AcDbSymbolTable
 70
    22
  0
STYLE
  5
11
330
3
100
AcDbSymbolTableRecord
100
AcDbTextStyleTableRecord
  2
Standard
 70
     0
 40
0.0
 41
1.0
 50
0.0
 71
     0
 42
2.5
  3
txt
  4

  0
STYLE
  5
8A
330
3
100
AcDbSymbolTableRecord
100
AcDbTextStyleTableRecord
  2
CONVERTER_1
 70
     0
 40
0.0
 41
0.89
 50
0.0
 71
     0
 42
0.2
  3
txt.shx
  4

  0
STYLE
  5
8B
330
3
100
AcDbSymbolTableRecord
100
AcDbTextStyleTableRecord
  2
CONVERTER_3
 70
     0
 40
0.0
 41
0.89
 50
0.0
 71
     0
 42
0.2
  3
txt.shx
  4
bigfont.shx
  0
STYLE
  5
8C
330
3
100
AcDbSymbolTableRecord
100
AcDbTextStyleTableRecord
  2
CONVERTER_4
 70
     0
 40
0.0
 41
1.68111111111111
 50
0.0
 71
     0
 42
0.2
  3
txt.shx
  4
bigfont.shx
  0
STYLE
  5
8D
330
3
100
AcDbSymbolTableRecord
100
AcDbTextStyleTableRecord
  2
CONVERTER_5
 70
     0
 40
0.0
 41
1.62688172043011
 50
0.0
 71
     0
 42
0.2
  3
txt.shx
  4
bigfont.shx
  0
STYLE
  5
8E
330
3
100
AcDbSymbolTableRecord
100
AcDbTextStyleTableRecord
  2
CONVERTER_6
 70
     0
 40
0.0
 41
1.008666666666669
 50
0.0
 71
     0
 42
0.2
  3
txt.shx
  4
bigfont.shx
  0
STYLE
  5
8F
330
3
100
AcDbSymbolTableRecord
100
AcDbTextStyleTableRecord
  2
CONVERTER_7
 70
     0
 40
0.0
 41
0.9761290322580601
 50
0.0
 71
     0
 42
0.2
  3
txt.shx
  4
bigfont.shx
  0
STYLE
  5
90
330
3
100
AcDbSymbolTableRecord
100
AcDbTextStyleTableRecord
  2
CONVERTER_8
 70
     0
 40
0.0
 41
0.73514
 50
0.0
 71
     0
 42
0.2
  3
txt.shx
  4

  0
STYLE
  5
91
330
3
100
AcDbSymbolTableRecord
100
AcDbTextStyleTableRecord
  2
CONVERTER_9
 70
     0
 40
0.0
 41
0.945625
 50
0.0
 71
     0
 42
0.2
  3
txt.shx
  4
bigfont.shx
  0
STYLE
  5
92
330
3
100
AcDbSymbolTableRecord
100
AcDbTextStyleTableRecord
  2
CONVERTER_10
 70
     0
 40
0.0
 41
1.080714285714289
 50
0.0
 71
     0
 42
0.2
  3
txt.shx
  4
bigfont.shx
  0
STYLE
  5
93
330
3
100
AcDbSymbolTableRecord
100
AcDbTextStyleTableRecord
  2
CONVERTER_11
 70
     0
 40
0.0
 41
0.7120000000000001
 50
0.0
 71
     0
 42
0.2
  3
txt.shx
  4
bigfont.shx
  0
STYLE
  5
94
330
3
100
AcDbSymbolTableRecord
100
AcDbTextStyleTableRecord
  2
CONVERTER_12
 70
     0
 40
0.0
 41
1.87368421052632
 50
0.0
 71
     0
 42
0.2
  3
txt.shx
  4

  0
STYLE
  5
95
330
3
100
AcDbSymbolTableRecord
100
AcDbTextStyleTableRecord
  2
CONVERTER_13
 70
     0
 40
0.0
 41
0.534
 50
0.0
 71
     0
 42
0.2
  3
txt.shx
  4

  0
STYLE
  5
96
330
3
100
AcDbSymbolTableRecord
100
AcDbTextStyleTableRecord
  2
CONVERTER_14
 70
     0
 40
0.0
 41
0.7758974358974399
 50
0.0
 71
     0
 42
0.2
  3
txt.shx
  4
bigfont.shx
  0
STYLE
  5
97
330
3
100
AcDbSymbolTableRecord
100
AcDbTextStyleTableRecord
  2
CONVERTER_15
 70
     0
 40
0.0
 41
0.8009999999999999
 50
0.0
 71
     0
 42
0.2
  3
txt.shx
  4

  0
STYLE
  5
98
330
3
100
AcDbSymbolTableRecord
100
AcDbTextStyleTableRecord
  2
CONVERTER_16
 70
     0
 40
0.0
 41
0.8009999999999999
 50
0.0
 71
     0
 42
0.2
  3
txt.shx
  4
bigfont.shx
  0
STYLE
  5
99
330
3
100
AcDbSymbolTableRecord
100
AcDbTextStyleTableRecord
  2
CONVERTER_17
 70
     0
 40
0.0
 41
1.0235
 50
0.0
 71
     0
 42
0.2
  3
txt.shx
  4

  0
STYLE
  5
9A
330
3
100
AcDbSymbolTableRecord
100
AcDbTextStyleTableRecord
  2
CONVERTER_18
 70
     0
 40
0.0
 41
0.7400000000000001
 50
0.0
 71
     0
 42
0.2
  3
txt.shx
  4

  0
STYLE
  5
9B
330
3
100
AcDbSymbolTableRecord
100
AcDbTextStyleTableRecord
  2
CONVERTER_19
 70
     0
 40
0.0
 41
0.7565
 50
0.0
 71
     0
 42
0.2
  3
txt.shx
  4

  0
STYLE
  5
9C
330
3
100
AcDbSymbolTableRecord
100
AcDbTextStyleTableRecord
  2
CONVERTER_20
 70
     0
 40
0.0
 41
0.7565
 50
0.0
 71
     0
 42
0.2
  3
txt.shx
  4
bigfont.shx
  0
STYLE
  5
9D
330
3
100
AcDbSymbolTableRecord
100
AcDbTextStyleTableRecord
  2
CONVERTER_21
 70
     0
 40
0.0
 41
0.7120000000000001
 50
0.0
 71
     0
 42
0.2
  3
txt.shx
  4

  0
STYLE
  5
9E
330
3
100
AcDbSymbolTableRecord
100
AcDbTextStyleTableRecord
  2
CONVERTER_22
 70
     0
 40
0.0
 41
0.834375
 50
0.0
 71
     0
 42
0.2
  3
txt.shx
  4
bigfont.shx
  0
ENDTAB
  0
TABLE
  2
VIEW
  5
6
330
0
100
AcDbSymbolTable
 70
     0
  0
ENDTAB
  0
TABLE
  2
UCS
  5
7
330
0
100
AcDbSymbolTable
 70
     0
  0
ENDTAB
  0
TABLE
  2
APPID
  5
9
330
0
100
AcDbSymbolTable
 70
     1
  0
APPID
  5
12
330
9
100
AcDbSymbolTableRecord
100
AcDbRegAppTableRecord
  2
ACAD
 70
     0
  0
ENDTAB
  0
TABLE
  2
DIMSTYLE
  5
A
330
0
100
AcDbSymbolTable
 70
     2
100
AcDbDimStyleTable
 71
     0
  0
DIMSTYLE
105
27
330
A
100
AcDbSymbolTableRecord
100
AcDbDimStyleTableRecord
  2
ISO-25
 70
     0
 41
2.5
 42
0.625
 43
3.75
 44
1.25
 73
     0
 74
     0
 77
     1
 78
     8
140
2.5
141
2.5
143
0.03937007874016
147
0.625
171
     3
172
     1
271
     2
272
     2
274
     3
278
    44
283
     0
284
     8
340
11
  0
DIMSTYLE
105
9F
330
A
100
AcDbSymbolTableRecord
100
AcDbDimStyleTableRecord
  2
Standard
 70
     0
340
11
  0
ENDTAB
  0
TABLE
  2
BLOCK_RECORD
  5
1
330
0
100
AcDbSymbolTable
 70
     2
  0
BLOCK_RECORD
  5
1F
330
1
100
AcDbSymbolTableRecord
100
AcDbBlockTableRecord
  2
*Model_Space
340
22
  0
BLOCK_RECORD
  5
55
330
1
100
AcDbSymbolTableRecord
100
AcDbBlockTableRecord
  2
*Paper_Space
340
56
  0
BLOCK_RECORD
  5
50
330
1
100
AcDbSymbolTableRecord
100
AcDbBlockTableRecord
  2
*Paper_Space0
340
51
  0
ENDTAB
  0
ENDSEC
  0
SECTION
  2
BLOCKS
  0
BLOCK
  5
20
330
1F
100
AcDbEntity
  8
0
100
AcDbBlockBegin
  2
*Model_Space
 70
     0
 10
0.0
 20
0.0
 30
0.0
  3
*Model_Space
  1

  0
ENDBLK
  5
21
330
1F
100
AcDbEntity
  8
0
100
AcDbBlockEnd
  0
BLOCK
  5
57
330
55
100
AcDbEntity
 67
     1
  8
0
100
AcDbBlockBegin
  2
*Paper_Space
 70
     0
 10
0.0
 20
0.0
 30
0.0
  3
*Paper_Space
  1

  0
ENDBLK
  5
58
330
55
100
AcDbEntity
 67
     1
  8
0
100
AcDbBlockEnd
  0
BLOCK
  5
52
330
50
100
AcDbEntity
  8
0
100
AcDbBlockBegin
  2
*Paper_Space0
 70
     0
 10
0.0
 20
0.0
 30
0.0
  3
*Paper_Space0
  1

  0
VIEWPORT
  5
6B
330
50
100
AcDbEntity
  8
0
100
AcDbViewport
 10
133.3499908447265
 20
101.5999970436096
 30
0.0
 40
381.3957395593834
 41
218.2856291881582
 69
     0
 12
133.3499908447265
 22
101.5999970436096
 13
0.0
 23
0.0
 14
10.0
 24
10.0
 15
10.0
 25
10.0
 16
0.0
 26
0.0
 36
1.0
 17
0.0
 27
0.0
 37
0.0
 42
50.0
 43
0.0
 44
0.0
 45
218.2856291881582
 50
0.0
 51
0.0
 72
   100
 90
    32800
  1

281
     0
 71
     1
 74
     0
110
0.0
120
0.0
130
0.0
111
1.0
121
0.0
131
0.0
112
0.0
122
1.0
132
0.0
 79
     0
146
0.0
  0
VIEWPORT
  5
6D
330
50
100
AcDbEntity
  8
0
100
AcDbViewport
 10
133.349993944168
 20
101.599993944168
 30
0.0
 40
213.3599903106689
 41
162.5599903106689
 69
     0
 12
210.0
 22
148.5
 13
0.0
 23
0.0
 14
10.0
 24
10.0
 15
10.0
 25
10.0
 16
0.0
 26
0.0
 36
1.0
 17
0.0
 27
0.0
 37
0.0
 42
50.0
 43
0.0
 44
0.0
 45
324.0677920111345
 50
0.0
 51
0.0
 72
   100
 90
    32864
  1

281
     0
 71
     1
 74
     0
110
0.0
120
0.0
130
0.0
111
1.0
121
0.0
131
0.0
112
0.0
122
1.0
132
0.0
 79
     0
146
0.0
  0
ENDBLK
  5
53
330
50
100
AcDbEntity
  8
0
100
AcDbBlockEnd
  0
ENDSEC
  0
SECTION
  2
ENTITIES
  0
LINE
  5
9B7
330
1F
100
AcDbEntity
  8
0
  6
DASH_CENTER
 62
    30
100
AcDbLine
 10
-79.42795158780075
 20
-9.239458962694849
 30
0.0
 11
-12.31572289353991
 21
-9.23945896269419
 31
0.0
  0
ARC
  5
9BA
330
1F
100
AcDbEntity
  8
0
  6
Continuous
 62
     7
100
AcDbCircle
 10
755.5706877408822
 20
-9.239183286351462
 30
0.0
 40
1099.999962270115
100
AcDbArc
 50
175.5817208293584
 51
180.000014359174
  0
ARC
  5
9BB
330
1F
100
AcDbEntity
  8
0
  6
Continuous
 62
     7
100
AcDbCircle
 10
-253.4286228935399
 20
-9.23945896269419
 30
0.0
 40
11.0000022531816
100
AcDbArc
 50
359.9999999999992
 51
222.9558802208145
  0
LINE
  5
9BC
330
1F
100
AcDbEntity
  8
0
  6
DASH_CENTER
 62
    30
100
AcDbLine
 10
-180.4283228935399
 20
152.512387987061
 30
0.0
 11
-180.4283228935399
 21
-117.7646589626942
 31
0.0
  0
LINE
  5
9BD
330
1F
100
AcDbEntity
  8
0
  6
Continuous
 62
     7
100
AcDbLine
 10
-35.4283228935399
 20
2.760541037305809
 30
0.0
 11
-35.4283228935399
 21
-17.73945896269419
 31
0.0
  0
LINE
  5
9BE
330
1F
100
AcDbEntity
  8
0
  6
Continuous
 62
     7
100
AcDbLine
 10
-75.42822289353989
 20
0.6606410373058207
 30
0.0
 11
-75.42822289353989
 21
-19.13965896269418
 31
0.0
  0
LINE
  5
9BF
330
1F
100
AcDbEntity
  8
0
  6
Continuous
 62
     7
100
AcDbLine
 10
-35.4283228935399
 20
-0.7394589626941901
 30
0.0
 11
-36.42822289353989
 21
0.2605410373058099
 31
0.0
  0
LINE
  5
9C0
330
1F
100
AcDbEntity
  8
0
  6
Continuous
 62
     7
100
AcDbLine
 10
-36.42822289353989
 20
0.2605410373058099
 30
0.0
 11
-36.42822289353989
 21
-18.73945896269419
 31
0.0
  0
LINE
  5
9C3
330
1F
100
AcDbEntity
  8
0
  6
Continuous
 62
     7
100
AcDbLine
 10
-87.4515228935399
 20
-9.239658962694189
 30
0.0
 11
-87.45142289353987
 21
31.92784103730581
 31
0.0
  0
LINE
  5
9C4
330
1F
100
AcDbEntity
  8
0
  6
Continuous
 62
     7
100
AcDbLine
 10
-75.42822289353989
 20
0.6607410373058098
 30
0.0
 11
-75.42822289353989
 21
-19.13955896269418
 31
0.0
  0
LINE
  5
9C5
330
1F
100
AcDbEntity
  8
0
  6
Continuous
 62
     7
100
AcDbLine
 10
-83.42632289353991
 20
31.44224103730582
 30
0.0
 11
-83.42642289353989
 21
-9.239658962694189
 31
0.0
  0
LINE
  5
9C6
330
1F
100
AcDbEntity
  8
0
  6
Continuous
 62
     7
100
AcDbLine
 10
-98.42862289353991
 20
-9.23945896269419
 30
0.0
 11
-98.42852289353988
 21
73.96074103730581
 31
0.0
  0
LINE
  5
9C7
330
1F
100
AcDbEntity
  8
0
  6
Continuous
 62
     7
100
AcDbLine
 10
-79.42795158780075
 20
-9.239458962694849
 30
0.0
 11
-79.4282228935399
 21
29.76074103730582
 31
0.0
  0
LINE
  5
9C8
330
1F
100
AcDbEntity
  8
0
  6
Continuous
 62
     7
100
AcDbLine
 10
-281.4288228935399
 20
-9.23945896269419
 30
0.0
 11
-281.4288228935399
 21
73.96044103730581
 31
0.0
  0
LINE
  5
9CD
330
1F
100
AcDbEntity
  8
0
  6
Continuous
 62
     7
100
AcDbLine
 10
-281.4288228935399
 20
-92.43945896269421
 30
0.0
 11
-241.2435228935399
 21
-92.43945896269421
 31
0.0
  0
LINE
  5
9CE
330
1F
100
AcDbEntity
  8
0
  6
DASH_CENTER
 62
    30
100
AcDbLine
 10
-281.4288228935399
 20
-9.23945896269419
 30
0.0
 11
-254.9286228935399
 21
-9.23945896269419
 31
0.0
  0
ARC
  5
9FE
330
1F
100
AcDbEntity
  8
0
  6
Continuous
 62
     7
100
AcDbCircle
 10
-333.6397248121768
 20
-87.23885717644504
 30
0.0
 40
8.000001786249351
100
AcDbArc
 50
184.0929783974099
 51
270.0000137412224
  0
LINE
  5
9FF
330
1F
100
AcDbEntity
  8
0
  6
Continuous
 62
     7
100
AcDbLine
 10
-281.4288228935399
 20
-9.23945896269419
 30
0.0
 11
-281.4288228935399
 21
-95.23935896269419
 31
0.0
  0
LINE
  5
A00
330
1F
100
AcDbEntity
  8
0
  6
Continuous
 62
     7
100
AcDbLine
 10
-281.4288228935399
 20
-95.23935896269419
 30
0.0
 11
-333.6397228935398
 21
-95.23935896269419
 31
0.0
  0
LINE
  5
A01
330
1F
100
AcDbEntity
  8
0
  6
DASH_CENTER
 62
    30
100
AcDbLine
 10
-344.429274529198
 20
-9.23945896269419
 30
0.0
 11
-281.4288228935399
 21
-9.23945896269419
 31
0.0
  0
ARC
  5
A02
330
1F
100
AcDbEntity
  8
0
  6
Continuous
 62
     7
100
AcDbCircle
 10
755.5706771064603
 20
-9.23945896269419
 30
0.0
 40
1099.999951635657
100
AcDbArc
 50
180.0
 51
184.0960006701725
  0
LINE
  5
A03
330
1F
100
AcDbEntity
  8
0
  6
DASH_CENTER
 62
    30
100
AcDbLine
 10
-362.0450228935399
 20
-9.23945896269419
 30
0.0
 11
-344.429274529198
 21
-9.23945896269419
 31
0.0
  0
ARC
  5
A04
330
1F
100
AcDbEntity
  8
0
  6
Continuous
 62
     7
100
AcDbCircle
 10
-287.5807605541348
 20
-48.89355791030594
 30
0.0
 40
9.117929367229612
100
AcDbArc
 50
250.9504477869881
 51
255.7276054128741
  0
ARC
  5
A05
330
1F
100
AcDbEntity
  8
0
  6
Continuous
 62
     7
100
AcDbCircle
 10
-295.2771140452471
 20
-48.89372274745023
 30
0.0
 40
9.617933358192496
100
AcDbArc
 50
299.254537914115
 51
310.711411601074
  0
ARC
  5
A06
330
1F
100
AcDbEntity
  8
0
  6
Continuous
 62
     7
100
AcDbCircle
 10
-287.5806972798001
 20
-48.89356677839799
 30
0.0
 40
9.617944883977479
100
AcDbArc
 50
247.6463087945628
 51
255.2125545468685
  0
ARC
  5
A07
330
1F
100
AcDbEntity
  8
0
  6
Continuous
 62
     7
100
AcDbCircle
 10
-295.2769198775158
 20
-48.89359103097842
 30
0.0
 40
9.117897509830866
100
AcDbArc
 50
296.5218466935112
 51
310.2821564815306
  0
ARC
  5
A08
330
1F
100
AcDbEntity
  8
0
  6
Continuous
 62
     7
100
AcDbCircle
 10
-291.4286609738338
 20
-58.50955896171726
 30
0.0
 40
5.191330140103481
100
AcDbArc
 50
41.37222346350621
 51
138.6248350104672
  0
ARC
  5
A09
330
1F
100
AcDbEntity
  8
0
  6
Continuous
 62
     7
100
AcDbCircle
 10
-291.4286187207074
 20
-54.56895896279696
 30
0.0
 40
4.650395695527728
100
AcDbArc
 50
208.4442583149073
 51
331.5529392160185
  0
LINE
  5
A0A
330
1F
100
AcDbEntity
  8
0
  6
DASH_CENTER
 62
    30
100
AcDbLine
 10
-283.8657228935396
 20
-56.91195896269476
 30
0.0
 11
-299.2913228935392
 21
-56.91195896269476
 31
0.0
  0
ARC
  5
A0B
330
1F
100
AcDbEntity
  8
0
  6
Continuous
 62
     7
100
AcDbCircle
 10
-293.7313281269079
 20
-56.04208799738443
 30
0.0
 40
0.1874571127740124
100
AcDbArc
 50
110.2867079187104
 51
229.2781119741327
  0
ARC
  5
A0C
330
1F
100
AcDbEntity
  8
0
  6
Continuous
 62
     7
100
AcDbCircle
 10
-287.5807511971156
 20
-48.89344248178545
 30
0.0
 40
9.117929830578868
100
AcDbArc
 50
229.719047649584
 51
243.4798368290517
  0
ARC
  5
A0D
330
1F
100
AcDbEntity
  8
0
  6
Continuous
 62
     7
100
AcDbCircle
 10
-294.1986215771358
 20
-56.06964734455954
 30
0.0
 40
1.500009178258846
100
AcDbArc
 50
138.6247170775034
 51
208.4465135700247
  0
LINE
  5
A0E
330
1F
100
AcDbEntity
  8
0
  6
Continuous
 62
     7
100
AcDbLine
 10
-293.6620228935396
 20
-55.81645896269529
 30
0.0
 11
-293.7963228935393
 21
-55.86605896269468
 31
0.0
  0
LINE
  5
A0F
330
1F
100
AcDbEntity
  8
0
  6
DASH_CENTER
 62
    30
100
AcDbLine
 10
-291.4288228935398
 20
-64.06415896269519
 30
0.0
 11
-291.4288228935398
 21
-48.6287589626949
 31
0.0
  0
ARC
  5
A10
330
1F
100
AcDbEntity
  8
0
  6
Continuous
 62
     7
100
AcDbCircle
 10
-292.8698189081472
 20
-58.01155990928376
 30
0.0
 40
0.1875189989920272
100
AcDbArc
 50
228.4795426096168
 51
284.7984456947348
  0
ARC
  5
A11
330
1F
100
AcDbEntity
  8
0
  6
Continuous
 62
     7
100
AcDbCircle
 10
-292.9825331814537
 20
-57.91170139210787
 30
0.0
 40
0.1875447895673906
100
AcDbArc
 50
104.2893863389048
 51
228.4515328386959
  0
ARC
  5
A12
330
1F
100
AcDbEntity
  8
0
  6
Continuous
 62
     7
100
AcDbCircle
 10
-292.3417271207609
 20
-57.39390627425901
 30
0.0
 40
0.1250001709753386
100
AcDbArc
 50
289.0524379875715
 51
60.73608332901555
  0
ARC
  5
A13
330
1F
100
AcDbEntity
  8
0
  6
Continuous
 62
     7
100
AcDbCircle
 10
-287.5803317418334
 20
-48.89372274744883
 30
0.0
 40
9.617933358192743
100
AcDbArc
 50
229.2885883989367
 51
240.7454620858997
  0
ARC
  5
A14
330
1F
100
AcDbEntity
  8
0
  6
Continuous
 62
     7
100
AcDbCircle
 10
-295.2766852329432
 20
-48.89355791030583
 30
0.0
 40
9.117929367229633
100
AcDbArc
 50
284.2723945871225
 51
289.0495522130101
  0
ARC
  5
A15
330
1F
100
AcDbEntity
  8
0
  6
Continuous
 62
     7
100
AcDbCircle
 10
-290.5160186663183
 20
-57.39390627425928
 30
0.0
 40
0.1250001709750452
100
AcDbArc
 50
119.2639166704916
 51
250.947562012437
  0
ARC
  5
A16
330
1F
100
AcDbEntity
  8
0
  6
Continuous
 62
     7
100
AcDbCircle
 10
-291.4288728935396
 20
-58.25105896269488
 30
0.0
 40
0.4999707816467087
100
AcDbArc
 50
67.6463565732681
 51
112.3536434267318
  0
ARC
  5
A17
330
1F
100
AcDbEntity
  8
0
  6
Continuous
 62
     7
100
AcDbCircle
 10
-295.2770217283251
 20
-48.89365857118983
 30
0.0
 40
9.617925870997854
100
AcDbArc
 50
284.7891587424952
 51
292.3548535421431
  0
ARC
  5
A18
330
1F
100
AcDbEntity
  8
0
  6
Continuous
 62
     7
100
AcDbCircle
 10
-291.4288728935396
 20
-56.60455896269417
 30
0.0
 40
0.5000073224463994
100
AcDbArc
 50
243.4810703652718
 51
296.5189296347281
  0
LINE
  5
A19
330
1F
100
AcDbEntity
  8
0
  6
Continuous
 62
     7
100
AcDbLine
 10
-293.1068228935388
 20
-58.05205896269528
 30
0.0
 11
-292.9940228935398
 21
-58.15195896269457
 31
0.0
  0
ARC
  5
A1A
330
1F
100
AcDbEntity
  8
0
  6
Continuous
 62
     7
100
AcDbCircle
 10
-293.5970364559661
 20
-55.99225657489275
 30
0.0
 40
0.1874594484424675
100
AcDbArc
 50
49.71334099800817
 51
110.3163184525458
  0
ARC
  5
A1B
330
1F
100
AcDbEntity
  8
0
  6
Continuous
 62
     7
100
AcDbCircle
 10
-289.1261176601715
 20
-56.04208799738427
 30
0.0
 40
0.1874571127741379
100
AcDbArc
 50
310.721888025835
 51
69.71329208102739
  0
ARC
  5
A1C
330
1F
100
AcDbEntity
  8
0
  6
Continuous
 62
     7
100
AcDbCircle
 10
-288.6586250890971
 20
-56.06963957655381
 30
0.0
 40
1.500013651477595
100
AcDbArc
 50
331.5532415371096
 51
41.36964703079909
  0
LINE
  5
A1D
330
1F
100
AcDbEntity
  8
0
  6
Continuous
 62
     7
100
AcDbLine
 10
-289.1954228935389
 20
-55.81645896269529
 30
0.0
 11
-289.0612228935393
 21
-55.86605896269468
 31
0.0
  0
ARC
  5
A1E
330
1F
100
AcDbEntity
  8
0
  6
Continuous
 62
     7
100
AcDbCircle
 10
-289.9877005637609
 20
-58.01155365596722
 30
0.0
 40
0.1875062384905943
100
AcDbArc
 50
255.2238112022525
 51
311.5131702467361
  0
ARC
  5
A1F
330
1F
100
AcDbEntity
  8
0
  6
Continuous
 62
     7
100
AcDbCircle
 10
-289.8749214483371
 20
-57.91166493063731
 30
0.0
 40
0.1875116395380406
100
AcDbArc
 50
311.5202320721316
 51
75.7052454458473
  0
LINE
  5
A20
330
1F
100
AcDbEntity
  8
0
  6
Continuous
 62
     7
100
AcDbLine
 10
-289.7506228935396
 20
-58.05205896269528
 30
0.0
 11
-289.8634228935394
 21
-58.15195896269457
 31
0.0
  0
ARC
  5
A21
330
1F
100
AcDbEntity
  8
0
  6
Continuous
 62
     7
100
AcDbCircle
 10
-289.2604432083796
 20
-55.99226254124928
 30
0.0
 40
0.1874420965908447
100
AcDbArc
 50
69.70326924045892
 51
130.2775805042221
  0
LINE
  5
A27
330
1F
100
AcDbEntity
  8
0
  6
Continuous
 62
     7
100
AcDbLine
 10
-215.4283228935399
 20
-97.7394589626942
 30
0.0
 11
-145.4283228935398
 21
-97.7394589626942
 31
0.0
  0
LINE
  5
A28
330
1F
100
AcDbEntity
  8
0
  6
Continuous
 62
     7
100
AcDbLine
 10
-115.4283228935398
 20
-94.5395589626942
 30
0.0
 11
-245.4284228935399
 21
-94.5395589626942
 31
0.0
  0
LINE
  5
A29
330
1F
100
AcDbEntity
  8
0
  6
Continuous
 62
     7
100
AcDbLine
 10
-150.7042228935399
 20
-85.23945896269419
 30
0.0
 11
-126.2974228935398
 21
-85.23945896269419
 31
0.0
  0
LINE
  5
A2A
330
1F
100
AcDbEntity
  8
0
  6
DASH_CENTER
 62
    30
100
AcDbLine
 10
-242.4286206403583
 20
-9.23945896269431
 30
0.0
 11
-79.42795158780075
 21
-9.239458962694849
 31
0.0
  0
ARC
  5
A2C
330
1F
100
AcDbEntity
  8
0
  6
Continuous
 62
     7
100
AcDbCircle
 10
-234.5592855872364
 20
-91.2394317973392
 30
0.0
 40
5.999972834761016
100
AcDbArc
 50
90.00035625056998
 51
162.1216596579542
  0
LINE
  5
A2E
330
1F
100
AcDbEntity
  8
0
  6
Continuous
 62
     7
100
AcDbLine
 10
-209.4284228935399
 20
-92.0099589626942
 30
0.0
 11
-202.9279228935399
 21
-75.56365896269419
 31
0.0
  0
LINE
  5
A2F
330
1F
100
AcDbEntity
  8
0
  6
Continuous
 62
     7
100
AcDbLine
 10
-151.4283228935398
 20
-92.0099589626942
 30
0.0
 11
-157.9288228935399
 21
-75.56365896269419
 31
0.0
  0
ARC
  5
A33
330
1F
100
AcDbEntity
  8
0
  6
Continuous
 62
     7
100
AcDbCircle
 10
-213.1483791312153
 20
-90.5395292051134
 30
0.0
 40
4.000029760164207
100
AcDbArc
 50
269.9979407717072
 51
338.4320311587107
  0
ARC
  5
A40
330
1F
100
AcDbEntity
  8
0
  6
Continuous
 62
     7
100
AcDbCircle
 10
-243.3847353289744
 20
-92.53956801781249
 30
0.0
 40
1.999990944920348
100
AcDbArc
 50
270.0003562505683
 51
342.1216596579538
  0
LINE
  5
A41
330
1F
100
AcDbEntity
  8
0
  6
Continuous
 62
     7
100
AcDbLine
 10
-215.4284228935399
 20
-96.03925896269419
 30
0.0
 11
-245.4284228935399
 21
-96.03925896269419
 31
0.0
  0
LINE
  5
A42
330
1F
100
AcDbEntity
  8
0
  6
Continuous
 62
     7
100
AcDbLine
 10
-245.4284228935399
 20
-99.23945896269421
 30
0.0
 11
-215.4284228935399
 21
-99.23945896269421
 31
0.0
  0
LINE
  5
A44
330
1F
100
AcDbEntity
  8
0
  6
Continuous
 62
     7
100
AcDbLine
 10
-245.4284228935399
 20
-94.5395589626942
 30
0.0
 11
-245.4284228935399
 21
-99.23945896269421
 31
0.0
  0
LINE
  5
A4C
330
1F
100
AcDbEntity
  8
0
  6
DASH_CENTER
 62
    30
100
AcDbLine
 10
-230.4284228935399
 20
-90.34805896269421
 30
0.0
 11
-230.4284228935399
 21
-103.9215589626942
 31
0.0
  0
LINE
  5
A4D
330
1F
100
AcDbEntity
  8
0
  6
Continuous
 62
     7
100
AcDbLine
 10
-240.2695228935399
 20
-89.39765896269419
 30
0.0
 11
-241.4811228935399
 21
-93.15355896269421
 31
0.0
  0
LINE
  5
A4E
330
1F
100
AcDbEntity
  8
0
  6
Continuous
 62
     7
100
AcDbLine
 10
-215.4284228935399
 20
-96.03925896269419
 30
0.0
 11
-215.4284228935399
 21
-94.5395589626942
 31
0.0
  0
LINE
  5
A4F
330
1F
100
AcDbEntity
  8
0
  6
Continuous
 62
     7
100
AcDbLine
 10
-215.4284228935399
 20
-97.7394589626942
 30
0.0
 11
-215.4284228935399
 21
-99.23945896269421
 31
0.0
  0
ARC
  5
A5D
330
1F
100
AcDbEntity
  8
0
  6
Continuous
 62
     7
100
AcDbCircle
 10
-147.708298276472
 20
-90.53957570230032
 30
0.0
 40
3.999983261104205
100
AcDbArc
 50
201.5675159496411
 51
270.001079785483
  0
LINE
  5
A5E
330
1F
100
AcDbEntity
  8
0
  6
Continuous
 62
     7
100
AcDbLine
 10
-210.1525228935399
 20
-85.23945896269419
 30
0.0
 11
-234.5593228935399
 21
-85.23945896269419
 31
0.0
  0
ARC
  5
A5F
330
1F
100
AcDbEntity
  8
0
  6
Continuous
 62
    30
100
AcDbCircle
 10
-243.2183280006978
 20
-23.97818241132087
 30
0.0
 40
1.500000000000007
100
AcDbArc
 50
262.2948478435231
 51
322.2948478435216
  0
ARC
  5
A60
330
1F
100
AcDbEntity
  8
0
  6
Continuous
 62
     7
100
AcDbCircle
 10
-253.4286228935399
 20
-9.23945896269419
 30
0.0
 40
10.99999999999996
100
AcDbArc
 50
317.0464661004324
 51
0.0
  0
LINE
  5
A61
330
1F
100
AcDbEntity
  8
0
  6
DASH_CENTER
 62
    30
100
AcDbLine
 10
-247.9286228935399
 20
-9.23945896269419
 30
0.0
 11
-242.4286228935399
 21
-9.23945896269419
 31
0.0
  0
LINE
  5
A62
330
1F
100
AcDbEntity
  8
0
  6
Continuous
 62
     7
100
AcDbLine
 10
-245.3776508162874
 20
-16.73491415976537
 30
0.0
 11
-242.0315751907329
 21
-24.89557969060637
 31
0.0
  0
LINE
  5
A63
330
1F
100
AcDbEntity
  8
0
  6
Continuous
 62
     7
100
AcDbLine
 10
-253.4286720106479
 20
-5.530282315336719
 30
0.0
 11
-253.4283228935399
 21
-31.89455896269417
 31
0.0
  0
LINE
  5
A64
330
1F
100
AcDbEntity
  8
0
  6
Continuous
 62
     7
100
AcDbLine
 10
-256.4290591329963
 20
-31.89455896269417
 30
0.0
 11
-256.4282441175806
 21
-5.51705075826123
 31
0.0
  0
LINE
  5
A65
330
1F
100
AcDbEntity
  8
0
  6
Continuous
 62
     7
100
AcDbLine
 10
-250.4289568378908
 20
-8.14086943974709
 30
0.0
 11
-250.4282228935398
 21
-31.89455896269417
 31
0.0
  0
LINE
  5
A66
330
1F
100
AcDbEntity
  8
0
  6
Continuous
 62
     7
100
AcDbLine
 10
-258.9285228935399
 20
-31.89465896269419
 30
0.0
 11
-258.9285228935399
 21
-9.305792136899539
 31
0.0
  0
LINE
  5
A67
330
1F
100
AcDbEntity
  8
0
  6
Continuous
 62
     7
100
AcDbLine
 10
-247.9286228935399
 20
-18.4211935596997
 30
0.0
 11
-244.8073066991456
 21
-26.0336985742052
 31
0.0
  0
LINE
  5
A68
330
1F
100
AcDbEntity
  8
0
  6
Continuous
 62
     7
100
AcDbLine
 10
-247.9286228935399
 20
-18.4211935596997
 30
0.0
 11
-247.9286228935399
 21
-31.89455896269417
 31
0.0
  0
LINE
  5
A69
330
1F
100
AcDbEntity
  8
0
  6
Continuous
 62
     7
100
AcDbLine
 10
-262.0494979732557
 20
-26.0336985742052
 30
0.0
 11
-258.9281817788614
 21
-18.4211935596997
 31
0.0
  0
LINE
  5
A6A
330
1F
100
AcDbEntity
  8
0
  6
Continuous
 62
     7
100
AcDbLine
 10
-264.8252294816685
 20
-24.89557969060637
 30
0.0
 11
-261.4792896664785
 21
-16.73524538448496
 31
0.0
  0
ARC
  5
A6B
330
1F
100
AcDbEntity
  8
0
  6
Continuous
 62
    30
100
AcDbCircle
 10
-258.1785228935399
 20
-30.59565896269419
 30
0.0
 40
1.499966999636991
100
AcDbArc
 50
239.9992722191732
 51
300.0007277808267
  0
ARC
  5
A6C
330
1F
100
AcDbEntity
  8
0
  6
Continuous
 62
    30
100
AcDbCircle
 10
-258.1785228935399
 20
-33.19375896269419
 30
0.0
 40
1.500053602375594
100
AcDbArc
 50
60.00118205226046
 51
119.9988179477395
  0
ARC
  5
A6D
330
1F
100
AcDbEntity
  8
0
  6
Continuous
 62
    30
100
AcDbCircle
 10
-263.2362507832206
 20
-26.9510958534907
 30
0.0
 40
1.500000000000007
100
AcDbArc
 50
37.70515215647663
 51
97.70515215647677
  0
ARC
  5
A6E
330
1F
100
AcDbEntity
  8
0
  6
Continuous
 62
    30
100
AcDbCircle
 10
-263.6384766717035
 20
-23.97818241132087
 30
0.0
 40
1.500000000000014
100
AcDbArc
 50
217.7051521564783
 51
277.7051521564751
  0
ARC
  5
A6F
330
1F
100
AcDbEntity
  8
0
  6
Continuous
 62
    30
100
AcDbCircle
 10
-262.2506109174971
 20
-24.54724185312028
 30
0.0
 40
1.500000000000014
100
AcDbArc
 50
217.7051521564783
 51
277.7051521564767
  0
ARC
  5
A70
330
1F
100
AcDbEntity
  8
0
  6
Continuous
 62
    30
100
AcDbCircle
 10
-251.1782228935398
 20
-30.59545896269419
 30
0.0
 40
1.499966999636958
100
AcDbArc
 50
289.4598579387675
 51
300.0007277808267
  0
ARC
  5
A71
330
1F
100
AcDbEntity
  8
0
  6
Continuous
 62
    30
100
AcDbCircle
 10
-250.1785228935399
 20
-30.59555896269417
 30
0.0
 40
1.499966999637018
100
AcDbArc
 50
250.5286794665836
 51
300.0007277808267
  0
ARC
  5
A72
330
1F
100
AcDbEntity
  8
0
  6
Continuous
 62
    30
100
AcDbCircle
 10
-252.6782228935398
 20
-33.19365896269419
 30
0.0
 40
1.500053602375601
100
AcDbArc
 50
60.00118205226046
 51
119.9988179477395
  0
ARC
  5
A73
330
1F
100
AcDbEntity
  8
0
  6
Continuous
 62
    30
100
AcDbCircle
 10
-252.6782228935398
 20
-30.59555896269417
 30
0.0
 40
1.499966999636991
100
AcDbArc
 50
239.9992722191732
 51
300.0007277808267
  0
ARC
  5
A74
330
1F
100
AcDbEntity
  8
0
  6
Continuous
 62
    30
100
AcDbCircle
 10
-255.6781228935399
 20
-30.59555896269417
 30
0.0
 40
1.500053602375603
100
AcDbArc
 50
240.0011820522604
 51
299.9988179477396
  0
ARC
  5
A75
330
1F
100
AcDbEntity
  8
0
  6
Continuous
 62
    30
100
AcDbCircle
 10
-254.1782228935399
 20
-30.59555896269417
 30
0.0
 40
1.499966999636991
100
AcDbArc
 50
239.9992722191732
 51
300.0007277808267
  0
ARC
  5
A76
330
1F
100
AcDbEntity
  8
0
  6
Continuous
 62
    30
100
AcDbCircle
 10
-255.6782228935399
 20
-33.19365896269419
 30
0.0
 40
1.499966999636988
100
AcDbArc
 50
59.99927221917328
 51
120.0007277808266
  0
ARC
  5
A77
330
1F
100
AcDbEntity
  8
0
  6
Continuous
 62
    30
100
AcDbCircle
 10
-256.6785228935399
 20
-30.59555896269417
 30
0.0
 40
1.500053602375603
100
AcDbArc
 50
240.0011820522604
 51
289.4716496961549
  0
ARC
  5
A78
330
1F
100
AcDbEntity
  8
0
  6
Continuous
 62
    30
100
AcDbCircle
 10
-251.1783259662054
 20
-30.5954494628213
 30
0.0
 40
1.500010298059883
100
AcDbArc
 50
240.0047731122716
 51
289.4634492061161
  0
LINE
  5
A79
330
1F
100
AcDbEntity
  8
0
  6
Continuous
 62
     7
100
AcDbLine
 10
-256.4283228935399
 20
-29.04895896269419
 30
0.0
 11
-256.4283228935399
 21
-29.59975896269417
 31
0.0
  0
LINE
  5
A7A
330
1F
100
AcDbEntity
  8
0
  6
Continuous
 62
     7
100
AcDbLine
 10
-256.4283228935399
 20
-28.03925896269417
 30
0.0
 11
-256.4284228935398
 21
-25.20505896269417
 31
0.0
  0
LINE
  5
A7B
330
1F
100
AcDbEntity
  8
0
  6
Continuous
 62
     7
100
AcDbLine
 10
-253.4283228935399
 20
-29.32435896269417
 30
0.0
 11
-253.4283228935399
 21
-29.04895896269419
 31
0.0
  0
LINE
  5
A7C
330
1F
100
AcDbEntity
  8
0
  6
Continuous
 62
     7
100
AcDbLine
 10
-256.4283228935399
 20
-29.32435896269417
 30
0.0
 11
-256.4283228935399
 21
-29.04905896269419
 31
0.0
  0
ARC
  5
A7D
330
1F
100
AcDbEntity
  8
0
  6
Continuous
 62
    30
100
AcDbCircle
 10
-248.6785728935399
 20
-30.59545896269419
 30
0.0
 40
1.50002860389392
100
AcDbArc
 50
240.0028360271083
 51
299.9971639728933
  0
ARC
  5
A7E
330
1F
100
AcDbEntity
  8
0
  6
Continuous
 62
    30
100
AcDbCircle
 10
-250.1785354915822
 20
-33.19365669481977
 30
0.0
 40
1.500057937159805
100
AcDbArc
 50
60.00072201351541
 51
99.58933243388635
  0
ARC
  5
A7F
330
1F
100
AcDbEntity
  8
0
  6
Continuous
 62
    30
100
AcDbCircle
 10
-243.6205538891807
 20
-26.9510958534907
 30
0.0
 40
1.499999999999993
100
AcDbArc
 50
82.29484784352322
 51
142.2948478435233
  0
ARC
  5
A80
330
1F
100
AcDbEntity
  8
0
  6
Continuous
 62
    30
100
AcDbCircle
 10
-244.6061937549042
 20
-24.54724185312028
 30
0.0
 40
1.500000000000004
100
AcDbArc
 50
262.2948478435231
 51
322.2948478435216
  0
ARC
  5
A81
330
1F
100
AcDbEntity
  8
0
  6
Continuous
 62
     7
100
AcDbCircle
 10
-253.4286228935399
 20
-9.23945896269419
 30
0.0
 40
5.500300000909051
100
AcDbArc
 50
359.401577794069
 51
180.6909992285749
  0
ARC
  5
A82
330
1F
100
AcDbEntity
  8
0
  6
Continuous
 62
     7
100
AcDbCircle
 10
-257.4286438742689
 20
-9.258083096905979
 30
0.0
 40
1.499813178237803
100
AcDbArc
 50
48.15067191630008
 51
179.2885035760036
  0
LINE
  5
A83
330
1F
100
AcDbEntity
  8
0
  6
Continuous
 62
     7
100
AcDbLine
 10
-261.4792896664785
 20
-16.73524538448496
 30
0.0
 11
-258.9281817788614
 21
-10.51340806409198
 31
0.0
  0
LINE
  5
A84
330
1F
100
AcDbEntity
  8
0
  6
Continuous
 62
     7
100
AcDbLine
 10
-258.9285228935399
 20
-9.305792136899539
 30
0.0
 11
-258.9285228935399
 21
-9.23945896269419
 31
0.0
  0
LINE
  5
A85
330
1F
100
AcDbEntity
  8
0
  6
Continuous
 62
     7
100
AcDbLine
 10
-247.9286228935399
 20
-10.51340806409198
 30
0.0
 11
-245.3776508162874
 21
-16.73491415976537
 31
0.0
  0
LINE
  5
A86
330
1F
100
AcDbEntity
  8
0
  6
Continuous
 62
     7
100
AcDbLine
 10
-247.9286228935399
 20
-10.51340806409198
 30
0.0
 11
-247.9286228935399
 21
-18.4211935596997
 31
0.0
  0
ARC
  5
A87
330
1F
100
AcDbEntity
  8
0
  6
Continuous
 62
     7
100
AcDbCircle
 10
-251.928864949735
 20
-5.53456596470996
 30
0.0
 40
1.499813178237799
100
AcDbArc
 50
0.7114964239963474
 51
179.8363560427062
  0
LINE
  5
A88
330
1F
100
AcDbEntity
  8
0
  6
DASH_CENTER
 62
    30
100
AcDbLine
 10
-251.9286228935399
 20
-9.23945896269422
 30
0.0
 11
-247.9286228935399
 21
-9.23945896269419
 31
0.0
  0
ARC
  5
A89
330
1F
100
AcDbEntity
  8
0
  6
Continuous
 62
     7
100
AcDbCircle
 10
-251.928864949735
 20
-5.53456596470996
 30
0.0
 40
1.49981317823781
100
AcDbArc
 50
179.8363560427062
 51
179.9982296681257
  0
ARC
  5
A8A
330
1F
100
AcDbEntity
  8
0
  6
Continuous
 62
     7
100
AcDbCircle
 10
-254.9284170768431
 20
-5.53456596470996
 30
0.0
 40
1.499813178237839
100
AcDbArc
 50
0.1636439572937113
 51
179.2885035760036
  0
LINE
  5
A8B
330
1F
100
AcDbEntity
  8
0
  6
DASH_CENTER
 62
    30
100
AcDbLine
 10
-254.9286228935399
 20
-9.23945896269419
 30
0.0
 11
-251.9286228935399
 21
-9.23945896269422
 31
0.0
  0
ARC
  5
A8C
330
1F
100
AcDbEntity
  8
0
  6
Continuous
 62
     7
100
AcDbCircle
 10
-249.4283204334594
 20
-9.258083096905979
 30
0.0
 40
1.499813178237884
100
AcDbArc
 50
0.7114964239963474
 51
131.8493280836998
  0
LINE
  5
A8D
330
1F
100
AcDbEntity
  8
0
  6
Continuous
 62
     7
100
AcDbLine
 10
-247.9286228935399
 20
-9.23945896269419
 30
0.0
 11
-247.9286228935399
 21
-9.29690545954226
 31
0.0
  0
LINE
  5
A8E
330
1F
100
AcDbEntity
  8
0
  6
Continuous
 62
     7
100
AcDbLine
 10
-250.4290379089555
 20
-5.51705075826123
 30
0.0
 11
-250.4289568378908
 21
-8.14086943974709
 31
0.0
  0
LINE
  5
A8F
330
1F
100
AcDbEntity
  8
0
  6
Continuous
 62
     7
100
AcDbLine
 10
-247.9286228935399
 20
-9.29690545954226
 30
0.0
 11
-247.9286228935399
 21
-10.51340806409198
 31
0.0
  0
LINE
  5
A90
330
1F
100
AcDbEntity
  8
0
  6
DASH_CENTER
 62
    30
100
AcDbLine
 10
-242.4286228935399
 20
-9.23945896269419
 30
0.0
 11
-242.4286206403583
 21
-9.23945896269431
 31
0.0
  0
CIRCLE
  5
A91
330
1F
100
AcDbEntity
  8
0
  6
Continuous
 62
     7
100
AcDbCircle
 10
-180.4283228935399
 20
-81.49285896269418
 30
0.0
 40
4.500000000000026
  0
CIRCLE
  5
A92
330
1F
100
AcDbEntity
  8
0
  6
Continuous
 62
     7
100
AcDbCircle
 10
-180.4283228935399
 20
-81.49285896269418
 30
0.0
 40
5.000000000000001
  0
LINE
  5
A93
330
1F
100
AcDbEntity
  8
0
  6
Continuous
 62
     7
100
AcDbLine
 10
-178.377783938777
 20
-82.8362911362705
 30
0.0
 11
-179.3676627217601
 21
-81.84641235328745
 31
0.0
  0
LINE
  5
A94
330
1F
100
AcDbEntity
  8
0
  6
Continuous
 62
     7
100
AcDbLine
 10
-178.377783938777
 20
-80.14942678911785
 30
0.0
 11
-179.3676627217601
 21
-81.13930557210091
 31
0.0
  0
LINE
  5
A95
330
1F
100
AcDbEntity
  8
0
  6
Continuous
 62
     7
100
AcDbLine
 10
-178.377783938777
 20
-80.14942678911785
 30
0.0
 11
-179.0848907199636
 21
-79.44232000793132
 31
0.0
  0
LINE
  5
A96
330
1F
100
AcDbEntity
  8
0
  6
Continuous
 62
     7
100
AcDbLine
 10
-178.377783938777
 20
-82.8362911362705
 30
0.0
 11
-179.0848907199636
 21
-83.54339791745706
 31
0.0
  0
LINE
  5
A97
330
1F
100
AcDbEntity
  8
0
  6
CENTER_DASH_DASH
 62
    30
100
AcDbLine
 10
-172.2987228935398
 20
-81.49285896269418
 30
0.0
 11
-188.3417228935399
 21
-81.49285896269418
 31
0.0
  0
LINE
  5
A98
330
1F
100
AcDbEntity
  8
0
  6
Continuous
 62
     7
100
AcDbLine
 10
-193.6282228935399
 20
-69.23945896269419
 30
0.0
 11
-167.2286228935398
 21
-69.23945896269419
 31
0.0
  0
ARC
  5
A99
330
1F
100
AcDbEntity
  8
0
  6
Continuous
 62
     7
100
AcDbCircle
 10
-193.6281098664819
 20
-79.23945010391934
 30
0.0
 40
9.999991141233651
100
AcDbArc
 50
90.0000746396101
 51
158.4335876939369
  0
ARC
  5
A9A
330
1F
100
AcDbEntity
  8
0
  6
Continuous
 62
     7
100
AcDbCircle
 10
-210.1525365696886
 20
-80.23946826247536
 30
0.0
 40
4.999990700963999
100
AcDbArc
 50
269.999010799691
 51
338.4323934651833
  0
ARC
  5
A9B
330
1F
100
AcDbEntity
  8
0
  6
Continuous
 62
     7
100
AcDbCircle
 10
-180.4283228935399
 20
-82.90707252506727
 30
0.0
 40
0.5000000000000241
100
AcDbArc
 50
44.99999999999734
 51
135.0000000000026
  0
ARC
  5
A9C
330
1F
100
AcDbEntity
  8
0
  6
Continuous
 62
     7
100
AcDbCircle
 10
-179.0141093311667
 20
-81.49285896269416
 30
0.0
 40
0.5000000000000142
100
AcDbArc
 50
135.0000000000029
 51
224.9999999999973
  0
ARC
  5
A9D
330
1F
100
AcDbEntity
  8
0
  6
Continuous
 62
     7
100
AcDbCircle
 10
-180.4283228935399
 20
-80.07864540032109
 30
0.0
 40
0.5000000000000142
100
AcDbArc
 50
224.999999999997
 51
315.0000000000029
  0
ARC
  5
A9E
330
1F
100
AcDbEntity
  8
0
  6
Continuous
 62
     7
100
AcDbCircle
 10
-181.8425364559129
 20
-81.49285896269416
 30
0.0
 40
0.5000000000000241
100
AcDbArc
 50
315.0000000000026
 51
44.99999999999705
  0
LINE
  5
A9F
330
1F
100
AcDbEntity
  8
0
  6
Continuous
 62
     7
100
AcDbLine
 10
-179.0848907199636
 20
-83.54339791745706
 30
0.0
 11
-180.0747695029466
 21
-82.553519134474
 31
0.0
  0
LINE
  5
AA0
330
1F
100
AcDbEntity
  8
0
  6
Continuous
 62
     7
100
AcDbLine
 10
-179.0848907199636
 20
-79.44232000793132
 30
0.0
 11
-180.0747695029466
 21
-80.43219879091436
 31
0.0
  0
LINE
  5
AA1
330
1F
100
AcDbEntity
  8
0
  6
Continuous
 62
     7
100
AcDbLine
 10
-181.4889830653196
 20
-81.13930557210091
 30
0.0
 11
-182.4788618483028
 21
-80.14942678911785
 31
0.0
  0
LINE
  5
AA2
330
1F
100
AcDbEntity
  8
0
  6
Continuous
 62
     7
100
AcDbLine
 10
-180.7818762841332
 20
-82.553519134474
 30
0.0
 11
-181.7717550671162
 21
-83.54339791745706
 31
0.0
  0
LINE
  5
AA3
330
1F
100
AcDbEntity
  8
0
  6
Continuous
 62
     7
100
AcDbLine
 10
-181.4889830653196
 20
-81.84641235328745
 30
0.0
 11
-182.4788618483028
 21
-82.8362911362705
 31
0.0
  0
LINE
  5
AA4
330
1F
100
AcDbEntity
  8
0
  6
Continuous
 62
     7
100
AcDbLine
 10
-180.7818762841332
 20
-80.43219879091436
 30
0.0
 11
-181.7717550671162
 21
-79.44232000793132
 31
0.0
  0
LINE
  5
AA5
330
1F
100
AcDbEntity
  8
0
  6
Continuous
 62
     7
100
AcDbLine
 10
-181.7717550671162
 20
-83.54339791745706
 30
0.0
 11
-182.4788618483028
 21
-82.8362911362705
 31
0.0
  0
LINE
  5
AA6
330
1F
100
AcDbEntity
  8
0
  6
Continuous
 62
     7
100
AcDbLine
 10
-181.7717550671162
 20
-79.44232000793132
 30
0.0
 11
-182.4788618483028
 21
-80.14942678911785
 31
0.0
  0
ARC
  5
AA7
330
1F
100
AcDbEntity
  8
0
  6
Continuous
 62
     7
100
AcDbCircle
 10
-167.2286359205979
 20
-79.23945010391934
 30
0.0
 40
9.999991141233657
100
AcDbArc
 50
21.56641230606309
 51
89.99992536038991
  0
ARC
  5
B96
330
1F
100
AcDbEntity
  8
0
  6
Continuous
 62
     7
100
AcDbCircle
 10
-150.7042092152934
 20
-80.23946826370178
 30
0.0
 40
4.999990702463998
100
AcDbArc
 50
201.5676065129106
 51
270.0021350939926
  0
ARC
  5
B98
330
1F
100
AcDbEntity
  8
0
  6
Continuous
 62
     7
100
AcDbCircle
 10
-732.1945510917178
 20
-9.243598721862948
 30
0.0
 40
649.9999603346042
100
AcDbArc
 50
352.8197981440257
 51
356.3894786203697
  0
ARC
  5
B99
330
1F
100
AcDbEntity
  8
0
  6
Continuous
 62
     7
100
AcDbCircle
 10
-126.2974602006162
 20
-91.23943179630078
 30
0.0
 40
5.999972835177682
100
AcDbArc
 50
17.87834033034294
 51
89.9986888080685
  0
LINE
  5
B9A
330
1F
100
AcDbEntity
  8
0
  6
Continuous
 62
     7
100
AcDbLine
 10
-98.42722289353986
 20
-92.2392589626942
 30
0.0
 11
-98.42792289353992
 21
-9.23945896269419
 31
0.0
  0
LINE
  5
B9B
330
1F
100
AcDbEntity
  8
0
  6
Continuous
 62
     7
100
AcDbLine
 10
-98.42852289353988
 20
-92.4396589626942
 30
0.0
 11
-98.42862289353991
 21
-9.23945896269419
 31
0.0
  0
LINE
  5
B9C
330
1F
100
AcDbEntity
  8
0
  6
Continuous
 62
     7
100
AcDbLine
 10
-87.4515228935399
 20
-90.99365896269418
 30
0.0
 11
-87.4515228935399
 21
-81.35985896269419
 31
0.0
  0
LINE
  5
BAC
330
1F
100
AcDbEntity
  8
0
  6
Continuous
 62
     7
100
AcDbLine
 10
-119.6131228935399
 20
-92.43915896269419
 30
0.0
 11
-98.42852289353988
 21
-92.43945896269421
 31
0.0
  0
LINE
  5
BB8
330
1F
100
AcDbEntity
  8
0
  6
Continuous
 62
     7
100
AcDbLine
 10
-115.4283228935398
 20
-99.23945896269421
 30
0.0
 11
-145.4283228935398
 21
-99.23945896269421
 31
0.0
  0
LINE
  5
BB9
330
1F
100
AcDbEntity
  8
0
  6
Continuous
 62
     7
100
AcDbLine
 10
-145.4283228935398
 20
-96.03925896269419
 30
0.0
 11
-115.4283228935398
 21
-96.03925896269419
 31
0.0
  0
LINE
  5
BBA
330
1F
100
AcDbEntity
  8
0
  6
Continuous
 62
     7
100
AcDbLine
 10
-145.4283228935398
 20
-97.7394589626942
 30
0.0
 11
-145.4283228935398
 21
-99.23945896269421
 31
0.0
  0
LINE
  5
BBB
330
1F
100
AcDbEntity
  8
0
  6
Continuous
 62
     7
100
AcDbLine
 10
-145.4283228935398
 20
-96.03925896269419
 30
0.0
 11
-145.4283228935398
 21
-94.5395589626942
 31
0.0
  0
LINE
  5
BBC
330
1F
100
AcDbEntity
  8
0
  6
DASH_CENTER
 62
    30
100
AcDbLine
 10
-130.4283228935398
 20
-90.34805896269421
 30
0.0
 11
-130.4283228935398
 21
-103.9215589626942
 31
0.0
  0
ARC
  5
BBD
330
1F
100
AcDbEntity
  8
0
  6
Continuous
 62
     7
100
AcDbCircle
 10
-117.4720104581053
 20
-92.53956801781249
 30
0.0
 40
1.999990944920344
100
AcDbArc
 50
197.8783403420461
 51
269.9996437494316
  0
LINE
  5
BBE
330
1F
100
AcDbEntity
  8
0
  6
Continuous
 62
     7
100
AcDbLine
 10
-120.5872228935398
 20
-89.39765896269419
 30
0.0
 11
-119.3755228935399
 21
-93.15355896269421
 31
0.0
  0
LINE
  5
BBF
330
1F
100
AcDbEntity
  8
0
  6
Continuous
 62
     7
100
AcDbLine
 10
-115.4283228935398
 20
-94.5395589626942
 30
0.0
 11
-115.4283228935398
 21
-99.23945896269421
 31
0.0
  0
LINE
  5
BC0
330
1F
100
AcDbEntity
  8
0
  6
Continuous
 62
     7
100
AcDbLine
 10
-88.71292289353993
 20
-91.7978589626942
 30
0.0
 11
-98.42722289353986
 21
-92.2394589626942
 31
0.0
  0
ARC
  5
BC1
330
1F
100
AcDbEntity
  8
0
  6
Continuous
 62
     7
100
AcDbCircle
 10
-88.78107646755523
 20
-90.29930842462752
 30
0.0
 40
1.499999641561084
100
AcDbArc
 50
272.6041719243077
 51
352.8249966152509
  0
LINE
  5
BC5
330
1F
100
AcDbEntity
  8
0
  6
Continuous
 62
     7
100
AcDbLine
 10
-80.42762289353992
 20
-49.23945896269419
 30
0.0
 11
-82.48772289353992
 21
-49.23945896269419
 31
0.0
  0
LINE
  5
BC6
330
1F
100
AcDbEntity
  8
0
  6
DASH_CENTER
 62
    30
100
AcDbLine
 10
-75.8075228935399
 20
-62.27165896269418
 30
0.0
 11
-106.8705228935398
 21
-62.27165896269418
 31
0.0
  0
LINE
  5
BC7
330
1F
100
AcDbEntity
  8
0
  6
Continuous
 62
     7
100
AcDbLine
 10
-87.45142289353987
 20
-50.40675896269418
 30
0.0
 11
-87.4515228935399
 21
-9.239258962694188
 31
0.0
  0
LINE
  5
BC8
330
1F
100
AcDbEntity
  8
0
  6
Continuous
 62
     7
100
AcDbLine
 10
-83.42642289353989
 20
-9.239258962694188
 30
0.0
 11
-83.42632289353991
 21
-49.92115896269417
 31
0.0
  0
LINE
  5
BC9
330
1F
100
AcDbEntity
  8
0
  6
Continuous
 62
     7
100
AcDbLine
 10
-85.40752289353987
 20
-58.93695896269419
 30
0.0
 11
-87.44732289353988
 21
-81.26905896269418
 31
0.0
  0
LINE
  5
BCA
330
1F
100
AcDbEntity
  8
0
  6
Continuous
 62
     7
100
AcDbLine
 10
-91.4273228935399
 20
-80.31465896269422
 30
0.0
 11
-91.42752289353991
 21
-51.40695896269419
 31
0.0
  0
ARC
  5
BCB
330
1F
100
AcDbEntity
  8
0
  6
Continuous
 62
     7
100
AcDbCircle
 10
-90.42732290354184
 20
-80.3144589526942
 30
0.0
 40
1.000000010000003
100
AcDbArc
 50
180.0114597288221
 51
270.0000005730722
  0
ARC
  5
BCC
330
1F
100
AcDbEntity
  8
0
  6
Continuous
 62
     7
100
AcDbCircle
 10
-86.45155789743716
 20
-81.36061571361537
 30
0.0
 40
0.9999652824487226
100
AcDbArc
 50
174.7466449424257
 51
179.9566398565768
  0
ARC
  5
BCD
330
1F
100
AcDbEntity
  8
0
  6
Continuous
 62
     7
100
AcDbCircle
 10
-88.4515228860414
 20
-82.31445897019494
 30
0.0
 40
1.000000012499999
100
AcDbArc
 50
359.9885412739248
 51
89.994270851743
  0
LINE
  5
BCE
330
1F
100
AcDbEntity
  8
0
  6
Continuous
 62
     7
100
AcDbLine
 10
-88.4515228935399
 20
-81.31445896269418
 30
0.0
 11
-90.4273228935399
 21
-81.31445896269418
 31
0.0
  0
LINE
  5
BCF
330
1F
100
AcDbEntity
  8
0
  6
Continuous
 62
     7
100
AcDbLine
 10
-85.40342289353992
 20
-51.40675896269418
 30
0.0
 11
-85.40342289353992
 21
-58.84595896269418
 31
0.0
  0
LINE
  5
BD0
330
1F
100
AcDbEntity
  8
0
  6
Continuous
 62
     7
100
AcDbLine
 10
-91.42742289353993
 20
-66.77165896269419
 30
0.0
 11
-89.58782289353985
 21
-66.61085896269421
 31
0.0
  0
LINE
  5
BD1
330
1F
100
AcDbEntity
  8
0
  6
Continuous
 62
     7
100
AcDbLine
 10
-91.42742289353993
 20
-57.77165896269419
 30
0.0
 11
-89.58782289353985
 21
-57.93285896269418
 31
0.0
  0
LINE
  5
BD2
330
1F
100
AcDbEntity
  8
0
  6
Continuous
 62
     7
100
AcDbLine
 10
-91.42742289353993
 20
-66.77165896269419
 30
0.0
 11
-91.42742289353993
 21
-57.77165896269419
 31
0.0
  0
ARC
  5
BD3
330
1F
100
AcDbEntity
  8
0
  6
Continuous
 62
     7
100
AcDbCircle
 10
-89.72751937164792
 20
-59.5265628062708
 30
0.0
 40
1.599996478112628
100
AcDbArc
 50
0.0001376382518388
 51
84.9982890533583
  0
ARC
  5
BD4
330
1F
100
AcDbEntity
  8
0
  6
Continuous
 62
     7
100
AcDbCircle
 10
-89.72751937164792
 20
-65.01685511911758
 30
0.0
 40
1.599996478112635
100
AcDbArc
 50
275.0017109466433
 51
359.9998623617483
  0
ARC
  5
BD5
330
1F
100
AcDbEntity
  8
0
  6
Continuous
 62
     7
100
AcDbCircle
 10
-86.40344705780734
 20
-58.84649529155693
 30
0.0
 40
1.000024308088282
100
AcDbArc
 50
354.8098442048079
 51
0.0307286347854331
  0
LINE
  5
BD6
330
1F
100
AcDbEntity
  8
0
  6
Continuous
 62
     7
100
AcDbLine
 10
-88.12762289353987
 20
-59.52655896269418
 30
0.0
 11
-88.12762289353987
 21
-65.01685896269418
 31
0.0
  0
LINE
  5
BD7
330
1F
100
AcDbEntity
  8
0
  6
Continuous
 62
     7
100
AcDbLine
 10
-85.40342289353992
 20
-58.89185896269419
 30
0.0
 11
-88.25882289353989
 21
-58.89185896269419
 31
0.0
  0
ARC
  5
BD8
330
1F
100
AcDbEntity
  8
0
  6
Continuous
 62
     7
100
AcDbCircle
 10
-90.42752290353792
 20
-51.40675897269417
 30
0.0
 40
1.000000010000001
100
AcDbArc
 50
89.99999942715737
 51
180.0114585829072
  0
ARC
  5
BD9
330
1F
100
AcDbEntity
  8
0
  6
Continuous
 62
     7
100
AcDbCircle
 10
-82.4877224247948
 20
-50.23925852269377
 30
0.0
 40
0.999999559999704
100
AcDbArc
 50
90.00002685712727
 51
176.3765154699121
  0
ARC
  5
BDA
330
1F
100
AcDbEntity
  8
0
  6
Continuous
 62
     7
100
AcDbCircle
 10
-86.40342289353993
 20
-51.40675896269418
 30
0.0
 40
1.0
100
AcDbArc
 50
0.0
 51
90.0
  0
LINE
  5
BDB
330
1F
100
AcDbEntity
  8
0
  6
Continuous
 62
     7
100
AcDbLine
 10
-86.40342289353993
 20
-50.40675896269418
 30
0.0
 11
-90.42752289353989
 21
-50.40675896269418
 31
0.0
  0
LINE
  5
BDC
330
1F
100
AcDbEntity
  8
0
  6
Continuous
 62
     7
100
AcDbLine
 10
-79.42762289353993
 20
-48.23925896269419
 30
0.0
 11
-79.42802289353989
 21
-9.239258962694188
 31
0.0
  0
ARC
  5
BDD
330
1F
100
AcDbEntity
  8
0
  6
Continuous
 62
     7
100
AcDbCircle
 10
-80.42762289353992
 20
-48.23945896269418
 30
0.0
 40
1.0
100
AcDbArc
 50
270.0
 51
0.0
  0
LINE
  5
BDE
330
1F
100
AcDbEntity
  8
0
  6
Continuous
 62
     7
100
AcDbLine
 10
-36.42832289353989
 20
-18.73945896269444
 30
0.0
 11
-74.8625228935399
 21
-18.73945896269419
 31
0.0
  0
ARC
  5
BE4
330
1F
100
AcDbEntity
  8
0
  6
Continuous
 62
     7
100
AcDbCircle
 10
-74.86253261028213
 20
-19.33956583329148
 30
0.0
 40
0.6000068706759691
100
AcDbArc
 50
89.99907213009187
 51
160.5283154445001
  0
LINE
  5
BE5
330
1F
100
AcDbEntity
  8
0
  6
Continuous
 62
     7
100
AcDbLine
 10
-79.42792289353992
 20
-19.13965896269418
 30
0.0
 11
-75.42822289353989
 21
-19.13965896269418
 31
0.0
  0
LINE
  5
BEB
330
1F
100
AcDbEntity
  8
0
  6
Continuous
 62
     7
100
AcDbLine
 10
-36.42832289353989
 20
-18.73945896269444
 30
0.0
 11
-35.4283228935399
 21
-17.73945896269419
 31
0.0
  0
LINE
  5
BEE
330
1F
100
AcDbEntity
  8
0
  6
Continuous
 62
     7
100
AcDbLine
 10
-281.4288228935399
 20
73.96044103730581
 30
0.0
 11
-263.4285228935399
 21
73.96044103730581
 31
0.0
  0
LINE
  5
BF0
330
1F
100
AcDbEntity
  8
0
  6
DASH_CENTER
 62
    30
100
AcDbLine
 10
-291.4288228935398
 20
77.61354103730581
 30
0.0
 11
-291.4288228935398
 21
90.26354103730581
 31
0.0
  0
ARC
  5
BF1
330
1F
100
AcDbEntity
  8
0
  6
Continuous
 62
     7
100
AcDbCircle
 10
-333.1836592024828
 20
74.88480685296018
 30
0.0
 40
7.999979477318235
100
AcDbArc
 50
90.96951977820216
 51
175.5778501490586
  0
LINE
  5
BF2
330
1F
100
AcDbEntity
  8
0
  6
Continuous
 62
     7
100
AcDbLine
 10
-333.3191228935398
 20
82.88314103730582
 30
0.0
 11
-281.4288228935399
 21
83.0677410373058
 31
0.0
  0
LINE
  5
BF3
330
1F
100
AcDbEntity
  8
0
  6
Continuous
 62
     7
100
AcDbLine
 10
-294.1739228935399
 20
86.33194103730581
 30
0.0
 11
-288.6836228935399
 21
86.33194103730581
 31
0.0
  0
LINE
  5
BF4
330
1F
100
AcDbEntity
  8
0
  6
DASH_CENTER
 62
    30
100
AcDbLine
 10
-291.4283228935398
 20
75.8224866054778
 30
0.0
 11
-291.4283228935398
 21
88.54364103730581
 31
0.0
  0
ARC
  5
BF5
330
1F
100
AcDbEntity
  8
0
  6
Continuous
 62
     7
100
AcDbCircle
 10
-294.1739142946288
 20
84.73214891707831
 30
0.0
 40
1.59999212025059
100
AcDbArc
 50
90.00030792733465
 51
175.0020267294215
  0
LINE
  5
BF6
330
1F
100
AcDbEntity
  8
0
  6
Continuous
 62
     7
100
AcDbLine
 10
-295.9288228935398
 20
83.0321410373058
 30
0.0
 11
-295.7676228935399
 21
84.87174103730581
 31
0.0
  0
LINE
  5
BF7
330
1F
100
AcDbEntity
  8
0
  6
Continuous
 62
     7
100
AcDbLine
 10
-281.4288228935399
 20
73.96044103730581
 30
0.0
 11
-281.4288228935399
 21
83.0677410373058
 31
0.0
  0
ARC
  5
BF8
330
1F
100
AcDbEntity
  8
0
  6
Continuous
 62
     7
100
AcDbCircle
 10
-288.6836314924508
 20
84.73214891707831
 30
0.0
 40
1.599992120250594
100
AcDbArc
 50
4.99797327057944
 51
89.99969207266536
  0
LINE
  5
BF9
330
1F
100
AcDbEntity
  8
0
  6
Continuous
 62
     7
100
AcDbLine
 10
-286.9302228935399
 20
83.04814103730581
 30
0.0
 11
-287.0897228935398
 21
84.87154103730581
 31
0.0
  0
LINE
  5
F89
330
1F
100
AcDbEntity
  8
0
  6
Continuous
 62
     7
100
AcDbLine
 10
-121.4288228935399
 20
46.43235072856657
 30
0.0
 11
-255.4285228935399
 21
46.43235072856656
 31
0.0
  0
LINE
  5
F8A
330
1F
100
AcDbEntity
  8
0
  6
Continuous
 62
     7
100
AcDbLine
 10
-121.4288228935399
 20
47.1682410373058
 30
0.0
 11
-255.4285228935399
 21
47.1682410373058
 31
0.0
  0
LINE
  5
F8B
330
1F
100
AcDbEntity
  8
0
  6
Continuous
 62
     7
100
AcDbLine
 10
-248.0667228935399
 20
128.7602410373058
 30
0.0
 11
-128.7907228935399
 21
128.7602410373058
 31
0.0
  0
LINE
  5
F8C
330
1F
100
AcDbEntity
  8
0
  6
Continuous
 62
     7
100
AcDbLine
 10
-248.7855435788921
 20
57.05122670577073
 30
0.0
 11
-128.0720248377816
 21
57.05122670577065
 31
0.0
  0
LINE
  5
F8F
330
1F
100
AcDbEntity
  8
0
  6
Continuous
 62
     7
100
AcDbLine
 10
-258.7845774094874
 20
67.19023193809684
 30
0.0
 11
-258.0657228935399
 21
118.8994410373057
 31
0.0
  0
ARC
  5
F91
330
1F
100
AcDbEntity
  8
0
  6
Continuous
 62
     7
100
AcDbCircle
 10
-248.7855435788921
 20
67.05122670577075
 30
0.0
 40
10.00000000000005
100
AcDbArc
 50
179.2035330348488
 51
270.0
  0
LINE
  5
F92
330
1F
100
AcDbEntity
  8
0
  6
Continuous
 62
     7
100
AcDbLine
 10
-263.4285228935399
 20
54.43235072856656
 30
0.0
 11
-263.4285228935399
 21
74.76024103730582
 31
0.0
  0
ARC
  5
F93
330
1F
100
AcDbEntity
  8
0
  6
Continuous
 62
     7
100
AcDbCircle
 10
-255.4285228935399
 20
55.16824103730581
 30
0.0
 40
7.999999999999972
100
AcDbArc
 50
180.0
 51
270.0
  0
ARC
  5
F94
330
1F
100
AcDbEntity
  8
0
  6
Continuous
 62
     7
100
AcDbCircle
 10
-255.4285228935399
 20
54.43235072856656
 30
0.0
 40
7.999999999999972
100
AcDbArc
 50
180.0
 51
270.0
  0
LINE
  5
F95
330
1F
100
AcDbEntity
  8
0
  6
DASH_CENTER
 62
    40
100
AcDbLine
 10
-251.4291228935397
 20
57.91002507384582
 30
0.0
 11
-251.4291228935397
 21
47.28152507384487
 31
0.0
  0
ARC
  5
F96
330
1F
100
AcDbEntity
  8
0
  6
Continuous
 62
     7
100
AcDbCircle
 10
-254.5078997188568
 20
46.13940885801182
 30
0.0
 40
7.694371647782527
100
AcDbArc
 50
49.29028176753582
 51
60.74706917215774
  0
ARC
  5
F97
330
1F
100
AcDbEntity
  8
0
  6
Continuous
 62
     7
100
AcDbCircle
 10
-248.3499219547236
 20
46.13960499441058
 30
0.0
 40
7.294368312027379
100
AcDbArc
 50
104.2789187588234
 51
109.0563911050254
  0
ARC
  5
F98
330
1F
100
AcDbEntity
  8
0
  6
Continuous
 62
     7
100
AcDbCircle
 10
-248.3504413046043
 20
46.13945248772712
 30
0.0
 40
7.694372544112417
100
AcDbArc
 50
104.7891155494356
 51
112.3555814713762
  0
ARC
  5
F99
330
1F
100
AcDbEntity
  8
0
  6
Continuous
 62
     7
100
AcDbCircle
 10
-254.507886859415
 20
46.13940131206867
 30
0.0
 40
7.294329315512384
100
AcDbArc
 50
49.71785311774256
 51
63.47849278249807
  0
ARC
  5
F9A
330
1F
100
AcDbEntity
  8
0
  6
Continuous
 62
     7
100
AcDbCircle
 10
-251.429378851345
 20
53.83212507474358
 30
0.0
 40
4.15312181158635
100
AcDbArc
 50
221.3740961685762
 51
318.6240653658537
  0
ARC
  5
F9B
330
1F
100
AcDbEntity
  8
0
  6
Continuous
 62
     7
100
AcDbCircle
 10
-251.4293999811083
 20
50.67972507502417
 30
0.0
 40
3.720341105873643
100
AcDbArc
 50
28.4458050116855
 51
151.5524434397921
  0
LINE
  5
F9C
330
1F
100
AcDbEntity
  8
0
  6
DASH_CENTER
 62
    40
100
AcDbLine
 10
-246.1549228935398
 20
52.55402507384582
 30
0.0
 11
-256.8048228935399
 21
52.55402507384582
 31
0.0
  0
ARC
  5
F9D
330
1F
100
AcDbEntity
  8
0
  6
Continuous
 62
     7
100
AcDbCircle
 10
-252.5821223870061
 20
53.43364901439992
 30
0.0
 40
0.1500208796306539
100
AcDbArc
 50
75.24846558336943
 51
131.5477801991288
  0
ARC
  5
F9E
330
1F
100
AcDbEntity
  8
0
  6
Continuous
 62
     7
100
AcDbCircle
 10
-252.672317951531
 20
53.35380469695564
 30
0.0
 40
0.1499906982466603
100
AcDbArc
 50
131.5092314732174
 51
255.7562121844182
  0
ARC
  5
F9F
330
1F
100
AcDbEntity
  8
0
  6
Continuous
 62
     7
100
AcDbCircle
 10
-253.2714376033892
 20
51.85800678095535
 30
0.0
 40
0.1499793756073346
100
AcDbArc
 50
130.6919273504113
 51
249.7195104925391
  0
ARC
  5
FA0
330
1F
100
AcDbEntity
  8
0
  6
Continuous
 62
     7
100
AcDbCircle
 10
-253.1637363338566
 20
51.81842270149461
 30
0.0
 40
0.1499947492880558
100
AcDbArc
 50
249.7211635287954
 51
310.2991833614921
  0
ARC
  5
FA1
330
1F
100
AcDbEntity
  8
0
  6
Continuous
 62
     7
100
AcDbCircle
 10
-250.6989252568932
 20
52.93949855176794
 30
0.0
 40
0.0999893458878704
100
AcDbArc
 50
109.0268434297088
 51
240.7889263213528
  0
ARC
  5
FA2
330
1F
100
AcDbEntity
  8
0
  6
Continuous
 62
     7
100
AcDbCircle
 10
-252.1596197424017
 20
52.93948971107544
 30
0.0
 40
0.1000300891713767
100
AcDbArc
 50
299.2631454309008
 51
70.92108481811365
  0
ARC
  5
FA3
330
1F
100
AcDbEntity
  8
0
  6
Continuous
 62
     7
100
AcDbCircle
 10
-254.5078126367976
 20
46.13939207633428
 30
0.0
 40
7.294399279019653
100
AcDbArc
 50
70.95043395752734
 51
75.72690742472186
  0
ARC
  5
FA4
330
1F
100
AcDbEntity
  8
0
  6
Continuous
 62
     7
100
AcDbCircle
 10
-248.350546068222
 20
46.13940885801237
 30
0.0
 40
7.694371647782487
100
AcDbArc
 50
119.2529308278497
 51
130.7097182324705
  0
ARC
  5
FA5
330
1F
100
AcDbEntity
  8
0
  6
Continuous
 62
     7
100
AcDbCircle
 10
-251.4291228935397
 20
53.62532507384473
 30
0.0
 40
0.4000430101875759
100
AcDbArc
 50
247.653363503211
 51
292.3466364967819
  0
ARC
  5
FA6
330
1F
100
AcDbEntity
  8
0
  6
Continuous
 62
     7
100
AcDbCircle
 10
-254.5082777150643
 20
46.13954430626485
 30
0.0
 40
7.694353518644994
100
AcDbArc
 50
67.6429654530725
 51
75.20874270625943
  0
ARC
  5
FA7
330
1F
100
AcDbEntity
  8
0
  6
Continuous
 62
     7
100
AcDbCircle
 10
-251.4291228935397
 20
52.30812507384477
 30
0.0
 40
0.3999879623187936
100
AcDbArc
 50
63.4797912172413
 51
116.5202087827696
  0
ARC
  5
FA8
330
1F
100
AcDbEntity
  8
0
  6
Continuous
 62
     7
100
AcDbCircle
 10
-248.3505589276646
 20
46.13940131206854
 30
0.0
 40
7.294329315512417
100
AcDbArc
 50
116.5215072175001
 51
130.2821468822554
  0
ARC
  5
FA9
330
1F
100
AcDbEntity
  8
0
  6
Continuous
 62
     7
100
AcDbCircle
 10
-253.6454186355624
 20
51.88018748466188
 30
0.0
 40
1.20000605355507
100
AcDbArc
 50
151.5519166000997
 51
221.3735368255267
  0
LINE
  5
FAA
330
1F
100
AcDbEntity
  8
0
  6
Continuous
 62
     7
100
AcDbLine
 10
-252.7719228935396
 20
53.46612507384584
 30
0.0
 11
-252.6815228935396
 21
53.5459250738458
 31
0.0
  0
LINE
  5
FAB
330
1F
100
AcDbEntity
  8
0
  6
Continuous
 62
     7
100
AcDbLine
 10
-253.2157228935397
 20
51.67752507384482
 30
0.0
 11
-253.3234228935398
 21
51.71732507384485
 31
0.0
  0
ARC
  5
FAC
330
1F
100
AcDbEntity
  8
0
  6
Continuous
 62
     7
100
AcDbCircle
 10
-249.5871050443096
 20
51.85802421891274
 30
0.0
 40
0.1500293299713289
100
AcDbArc
 50
290.3128788442559
 51
49.27568331279257
  0
ARC
  5
FAD
330
1F
100
AcDbEntity
  8
0
  6
Continuous
 62
     7
100
AcDbCircle
 10
-249.694509453223
 20
51.81842270149463
 30
0.0
 40
0.1499947492881087
100
AcDbArc
 50
229.7008166385014
 51
290.2788364712532
  0
ARC
  5
FAE
330
1F
100
AcDbEntity
  8
0
  6
Continuous
 62
     7
100
AcDbCircle
 10
-250.2763287693054
 20
53.43362647344719
 30
0.0
 40
0.1500413108559869
100
AcDbArc
 50
48.45639429566343
 51
104.7473599218425
  0
ARC
  5
FAF
330
1F
100
AcDbEntity
  8
0
  6
Continuous
 62
     7
100
AcDbCircle
 10
-250.1862222802332
 20
53.35382760263198
 30
0.0
 40
0.1500361622856109
100
AcDbArc
 50
284.2765933264533
 51
48.45796301590894
  0
ARC
  5
FB0
330
1F
100
AcDbEntity
  8
0
  6
Continuous
 62
     7
100
AcDbCircle
 10
-249.2133231887786
 20
51.88022246937042
 30
0.0
 40
1.200026203878014
100
AcDbArc
 50
318.6250846522216
 51
28.44023243995074
  0
LINE
  5
FB1
330
1F
100
AcDbEntity
  8
0
  6
Continuous
 62
     7
100
AcDbLine
 10
-249.6425228935397
 20
51.67752507384482
 30
0.0
 11
-249.5350228935399
 21
51.71732507384485
 31
0.0
  0
LINE
  5
FB2
330
1F
100
AcDbEntity
  8
0
  6
Continuous
 62
     7
100
AcDbLine
 10
-250.0866228935399
 20
53.46612507384584
 30
0.0
 11
-250.1769228935396
 21
53.5459250738458
 31
0.0
  0
ARC
  5
FB6
330
1F
100
AcDbEntity
  8
0
  6
Continuous
 62
     7
100
AcDbCircle
 10
-260.6516263309931
 20
76.76023764729419
 30
0.0
 40
1.999996609991326
100
AcDbArc
 50
270.0000984759477
 51
359.2036587929385
  0
LINE
  5
FB7
330
1F
100
AcDbEntity
  8
0
  6
Continuous
 62
     7
100
AcDbLine
 10
-263.4285228935399
 20
74.76024103730582
 30
0.0
 11
-260.6516228935399
 21
74.76024103730582
 31
0.0
  0
ARC
  5
FB9
330
1F
100
AcDbEntity
  8
0
  6
Continuous
 62
     7
100
AcDbCircle
 10
-248.066756401353
 20
118.7602079922773
 30
0.0
 40
10.00003304508467
100
AcDbArc
 50
89.99980801500697
 51
179.2033762970206
  0
LINE
  5
FD0
330
1F
100
AcDbEntity
  8
0
  6
Continuous
 62
     7
100
AcDbLine
 10
-118.0729906776243
 20
67.19020822974127
 30
0.0
 11
-118.7917228935399
 21
118.8994410373057
 31
0.0
  0
LINE
  5
FD1
330
1F
100
AcDbEntity
  8
0
  6
Continuous
 62
     7
100
AcDbLine
 10
-80.4282228935399
 20
30.7605410373058
 30
0.0
 11
-82.48832289353993
 21
30.7605410373058
 31
0.0
  0
LINE
  5
FD2
330
1F
100
AcDbEntity
  8
0
  6
DASH_CENTER
 62
    30
100
AcDbLine
 10
-106.8705228935398
 20
43.79274103730582
 30
0.0
 11
-75.8075228935399
 21
43.79274103730582
 31
0.0
  0
ARC
  5
FD3
330
1F
100
AcDbEntity
  8
0
  6
Continuous
 62
     7
100
AcDbCircle
 10
-732.1946312271954
 20
-9.244270738702368
 30
0.0
 40
649.9999306695671
100
AcDbArc
 50
3.611347497530637
 51
7.180970823746829
  0
LINE
  5
FD4
330
1F
100
AcDbEntity
  8
0
  6
Continuous
 62
     7
100
AcDbLine
 10
-91.42742289353993
 20
39.29274103730581
 30
0.0
 11
-91.42742289353993
 21
48.29274103730582
 31
0.0
  0
LINE
  5
FD5
330
1F
100
AcDbEntity
  8
0
  6
Continuous
 62
     7
100
AcDbLine
 10
-88.12762289353987
 20
46.53794103730581
 30
0.0
 11
-88.12762289353987
 21
41.04764103730582
 31
0.0
  0
LINE
  5
FD6
330
1F
100
AcDbEntity
  8
0
  6
Continuous
 62
     7
100
AcDbLine
 10
-87.44732289353988
 20
62.79014103730581
 30
0.0
 11
-85.40752289353987
 21
40.4580410373058
 31
0.0
  0
LINE
  5
FD7
330
1F
100
AcDbEntity
  8
0
  6
Continuous
 62
     7
100
AcDbLine
 10
-91.42752289353991
 20
32.92804103730581
 30
0.0
 11
-91.4273228935399
 21
61.83574103730582
 31
0.0
  0
LINE
  5
FD8
330
1F
100
AcDbEntity
  8
0
  6
Continuous
 62
     7
100
AcDbLine
 10
-85.40342289353992
 20
40.36704103730582
 30
0.0
 11
-85.40342289353992
 21
32.92784103730581
 31
0.0
  0
ARC
  5
FD9
330
1F
100
AcDbEntity
  8
0
  6
Continuous
 62
     7
100
AcDbCircle
 10
-90.42752290353792
 20
32.9278410473058
 30
0.0
 40
1.000000009999995
100
AcDbArc
 50
179.988541417093
 51
270.0000005728426
  0
ARC
  5
FDA
330
1F
100
AcDbEntity
  8
0
  6
Continuous
 62
     7
100
AcDbCircle
 10
-82.48840900462045
 20
31.76072799583173
 30
0.0
 40
0.9999869622335191
100
AcDbArc
 50
183.5998425619146
 51
270.0049338658176
  0
ARC
  5
FDB
330
1F
100
AcDbEntity
  8
0
  6
Continuous
 62
     7
100
AcDbCircle
 10
-86.40342289353993
 20
32.92784103730581
 30
0.0
 40
1.0
100
AcDbArc
 50
270.0
 51
0.0
  0
LINE
  5
FDC
330
1F
100
AcDbEntity
  8
0
  6
Continuous
 62
     7
100
AcDbLine
 10
-90.42752289353989
 20
31.92784103730581
 30
0.0
 11
-86.40342289353993
 21
31.92784103730581
 31
0.0
  0
LINE
  5
FDD
330
1F
100
AcDbEntity
  8
0
  6
Continuous
 62
     7
100
AcDbLine
 10
-89.58782289353985
 20
39.45394103730582
 30
0.0
 11
-91.42742289353993
 21
39.29274103730581
 31
0.0
  0
ARC
  5
FDE
330
1F
100
AcDbEntity
  8
0
  6
Continuous
 62
     7
100
AcDbCircle
 10
-89.72751937164792
 20
41.04764488088243
 30
0.0
 40
1.599996478112635
100
AcDbArc
 50
275.0017109466433
 51
359.9998623617483
  0
ARC
  5
FDF
330
1F
100
AcDbEntity
  8
0
  6
Continuous
 62
     7
100
AcDbCircle
 10
-86.40344705780734
 20
40.36757736616855
 30
0.0
 40
1.000024308088282
100
AcDbArc
 50
359.9692713652153
 51
5.190155795192028
  0
LINE
  5
FE0
330
1F
100
AcDbEntity
  8
0
  6
Continuous
 62
     7
100
AcDbLine
 10
-88.25882289353989
 20
40.41294103730581
 30
0.0
 11
-85.40342289353992
 21
40.41294103730581
 31
0.0
  0
ARC
  5
FE1
330
1F
100
AcDbEntity
  8
0
  6
Continuous
 62
     7
100
AcDbCircle
 10
-121.4288228935399
 20
55.16824103730581
 30
0.0
 40
8.0
100
AcDbArc
 50
270.0
 51
359.9999999999998
  0
ARC
  5
FE2
330
1F
100
AcDbEntity
  8
0
  6
Continuous
 62
     7
100
AcDbCircle
 10
-121.4288228935399
 20
54.43235072856658
 30
0.0
 40
8.0
100
AcDbArc
 50
270.0
 51
0.0
  0
LINE
  5
FE3
330
1F
100
AcDbEntity
  8
0
  6
Continuous
 62
     7
100
AcDbLine
 10
-116.2058228935399
 20
74.76024103730582
 30
0.0
 11
-113.4288228935399
 21
74.76024103730582
 31
0.0
  0
ARC
  5
FE4
330
1F
100
AcDbEntity
  8
0
  6
Continuous
 62
     7
100
AcDbCircle
 10
-128.0720248377816
 20
67.05122670577066
 30
0.0
 40
10.0
100
AcDbArc
 50
270.0
 51
0.7963311131568945
  0
LINE
  5
FE5
330
1F
100
AcDbEntity
  8
0
  6
DASH_CENTER
 62
    40
100
AcDbLine
 10
-120.0526228935399
 20
52.55402507384582
 30
0.0
 11
-130.7025228935399
 21
52.55402507384582
 31
0.0
  0
LINE
  5
FE6
330
1F
100
AcDbEntity
  8
0
  6
DASH_CENTER
 62
    40
100
AcDbLine
 10
-125.4283228935398
 20
47.28152507384487
 30
0.0
 11
-125.4283228935398
 21
57.91002507384582
 31
0.0
  0
ARC
  5
FE7
330
1F
100
AcDbEntity
  8
0
  6
Continuous
 62
     7
100
AcDbCircle
 10
-125.4280669357347
 20
53.83212507474358
 30
0.0
 40
4.153121811586343
100
AcDbArc
 50
221.3759346341462
 51
318.6259038314236
  0
ARC
  5
FE8
330
1F
100
AcDbEntity
  8
0
  6
Continuous
 62
     7
100
AcDbCircle
 10
-125.4280458059713
 20
50.67972507502417
 30
0.0
 40
3.720341105873667
100
AcDbArc
 50
28.44755656020794
 51
151.5541949883145
  0
ARC
  5
FE9
330
1F
100
AcDbEntity
  8
0
  6
Continuous
 62
     7
100
AcDbCircle
 10
-124.2753234000736
 20
53.43364901439993
 30
0.0
 40
0.1500208796306354
100
AcDbArc
 50
48.45221980086485
 51
104.7515344166322
  0
ARC
  5
FEA
330
1F
100
AcDbEntity
  8
0
  6
Continuous
 62
     7
100
AcDbCircle
 10
-127.27034074277
 20
51.85802421891274
 30
0.0
 40
0.150029329971356
100
AcDbArc
 50
130.7243166872329
 51
249.6871211557197
  0
ARC
  5
FEB
330
1F
100
AcDbEntity
  8
0
  6
Continuous
 62
     7
100
AcDbCircle
 10
-127.1629363338568
 20
51.81842270149459
 30
0.0
 40
0.1499947492880918
100
AcDbArc
 50
249.7211635287433
 51
310.2991833615072
  0
ARC
  5
FEC
330
1F
100
AcDbEntity
  8
0
  6
Continuous
 62
     7
100
AcDbCircle
 10
-124.1851278355487
 20
53.35380469695564
 30
0.0
 40
0.1499906982466206
100
AcDbArc
 50
284.2437878155566
 51
48.49076852680646
  0
ARC
  5
FED
330
1F
100
AcDbEntity
  8
0
  6
Continuous
 62
     7
100
AcDbCircle
 10
-126.5811170177743
 20
53.4336264734472
 30
0.0
 40
0.1500413108559855
100
AcDbArc
 50
75.25264007815073
 51
131.5436057043407
  0
ARC
  5
FEE
330
1F
100
AcDbEntity
  8
0
  6
Continuous
 62
     7
100
AcDbCircle
 10
-123.5860081836905
 20
51.85800678095535
 30
0.0
 40
0.1499793756073379
100
AcDbArc
 50
290.2804895074556
 51
49.30807264959288
  0
ARC
  5
FEF
330
1F
100
AcDbEntity
  8
0
  6
Continuous
 62
     7
100
AcDbCircle
 10
-123.6937094532232
 20
51.81842270149463
 30
0.0
 40
0.1499947492880828
100
AcDbArc
 50
229.7008166385208
 51
290.278836471201
  0
ARC
  5
FF0
330
1F
100
AcDbEntity
  8
0
  6
Continuous
 62
     7
100
AcDbCircle
 10
-126.6712235068466
 20
53.35382760263195
 30
0.0
 40
0.150036162285558
100
AcDbArc
 50
131.5420369840517
 51
255.7234066735853
  0
ARC
  5
FF1
330
1F
100
AcDbEntity
  8
0
  6
Continuous
 62
     7
100
AcDbCircle
 10
-126.1585205301864
 20
52.93949855176794
 30
0.0
 40
0.0999893458878851
100
AcDbArc
 50
299.2110736786564
 51
70.97315657028601
  0
ARC
  5
FF2
330
1F
100
AcDbEntity
  8
0
  6
Continuous
 62
     7
100
AcDbCircle
 10
-122.3495460682229
 20
46.13940885801177
 30
0.0
 40
7.694371647782584
100
AcDbArc
 50
119.2529308278422
 51
130.7097182324641
  0
ARC
  5
FF3
330
1F
100
AcDbEntity
  8
0
  6
Continuous
 62
     7
100
AcDbCircle
 10
-128.5075238323562
 20
46.13960499441058
 30
0.0
 40
7.29436831202737
100
AcDbArc
 50
70.94360889497456
 51
75.72108124117656
  0
ARC
  5
FF4
330
1F
100
AcDbEntity
  8
0
  6
Continuous
 62
     7
100
AcDbCircle
 10
-124.6978260446779
 20
52.93948971107546
 30
0.0
 40
0.1000300891713833
100
AcDbArc
 50
109.0789151819449
 51
240.736854569114
  0
ARC
  5
FF5
330
1F
100
AcDbEntity
  8
0
  6
Continuous
 62
     7
100
AcDbCircle
 10
-122.349633150282
 20
46.13939207633428
 30
0.0
 40
7.294399279019646
100
AcDbArc
 50
104.2730925752781
 51
109.0495660424726
  0
ARC
  5
FF6
330
1F
100
AcDbEntity
  8
0
  6
Continuous
 62
     7
100
AcDbCircle
 10
-128.5068997188577
 20
46.13940885801234
 30
0.0
 40
7.694371647782486
100
AcDbArc
 50
49.29028176752954
 51
60.74706917215031
  0
ARC
  5
FF7
330
1F
100
AcDbEntity
  8
0
  6
Continuous
 62
     7
100
AcDbCircle
 10
-125.4283228935398
 20
53.62532507384473
 30
0.0
 40
0.4000430101875868
100
AcDbArc
 50
247.6533635032074
 51
292.3466364967801
  0
ARC
  5
FF8
330
1F
100
AcDbEntity
  8
0
  6
Continuous
 62
     7
100
AcDbCircle
 10
-128.5070044824755
 20
46.13945248772718
 30
0.0
 40
7.694372544112431
100
AcDbArc
 50
67.64441852862195
 51
75.21088445056268
  0
ARC
  5
FF9
330
1F
100
AcDbEntity
  8
0
  6
Continuous
 62
     7
100
AcDbCircle
 10
-122.3491680720155
 20
46.1395443062648
 30
0.0
 40
7.694353518645017
100
AcDbArc
 50
104.7912572937405
 51
112.3570345469257
  0
ARC
  5
FFA
330
1F
100
AcDbEntity
  8
0
  6
Continuous
 62
     7
100
AcDbCircle
 10
-125.4283228935398
 20
52.30812507384477
 30
0.0
 40
0.3999879623187936
100
AcDbArc
 50
63.4797912172413
 51
116.5202087827714
  0
ARC
  5
FFB
330
1F
100
AcDbEntity
  8
0
  6
Continuous
 62
     7
100
AcDbCircle
 10
-128.5068868594149
 20
46.13940131206851
 30
0.0
 40
7.294329315512417
100
AcDbArc
 50
49.71785311774461
 51
63.47849278249987
  0
ARC
  5
FFC
330
1F
100
AcDbEntity
  8
0
  6
Continuous
 62
     7
100
AcDbCircle
 10
-122.3495589276649
 20
46.13940131206852
 30
0.0
 40
7.294329315512412
100
AcDbArc
 50
116.5215072175001
 51
130.2821468822554
  0
ARC
  5
FFD
330
1F
100
AcDbEntity
  8
0
  6
Continuous
 62
     7
100
AcDbCircle
 10
-127.6441225983011
 20
51.88022246937042
 30
0.0
 40
1.200026203878014
100
AcDbArc
 50
151.5597675600492
 51
221.3749153477783
  0
LINE
  5
FFE
330
1F
100
AcDbEntity
  8
0
  6
Continuous
 62
     7
100
AcDbLine
 10
-127.3224228935399
 20
51.71732507384485
 30
0.0
 11
-127.2149228935401
 21
51.67752507384482
 31
0.0
  0
LINE
  5
FFF
330
1F
100
AcDbEntity
  8
0
  6
Continuous
 62
     7
100
AcDbLine
 10
-124.17592289354
 20
53.5459250738458
 30
0.0
 11
-124.0855228935399
 21
53.46612507384584
 31
0.0
  0
LINE
  5
1000
330
1F
100
AcDbEntity
  8
0
  6
Continuous
 62
     7
100
AcDbLine
 10
-123.53402289354
 20
51.71732507384485
 30
0.0
 11
-123.6417228935399
 21
51.67752507384482
 31
0.0
  0
LINE
  5
1001
330
1F
100
AcDbEntity
  8
0
  6
Continuous
 62
     7
100
AcDbLine
 10
-126.6805228935401
 20
53.5459250738458
 30
0.0
 11
-126.7708228935399
 21
53.46612507384584
 31
0.0
  0
ARC
  5
1002
330
1F
100
AcDbEntity
  8
0
  6
Continuous
 62
     7
100
AcDbCircle
 10
-123.2120271515174
 20
51.88018748466189
 30
0.0
 40
1.20000605355504
100
AcDbArc
 50
318.6264631744709
 51
28.44808339990044
  0
ARC
  5
1003
330
1F
100
AcDbEntity
  8
0
  6
Continuous
 62
     7
100
AcDbCircle
 10
-116.2058194560866
 20
76.76023764729416
 30
0.0
 40
1.999996609991299
100
AcDbArc
 50
180.7963412070605
 51
269.9999015240507
  0
LINE
  5
1007
330
1F
100
AcDbEntity
  8
0
  6
Continuous
 62
     7
100
AcDbLine
 10
-87.4515228935399
 20
62.88094103730582
 30
0.0
 11
-87.4515228935399
 21
72.51474103730583
 31
0.0
  0
LINE
  5
1008
330
1F
100
AcDbEntity
  8
0
  6
Continuous
 62
     7
100
AcDbLine
 10
-113.4288228935399
 20
54.43235072856658
 30
0.0
 11
-113.4288228935399
 21
73.96044103730581
 31
0.0
  0
LINE
  5
1009
330
1F
100
AcDbEntity
  8
0
  6
Continuous
 62
     7
100
AcDbLine
 10
-89.58782289353985
 20
48.13194103730582
 30
0.0
 11
-91.42742289353993
 21
48.29274103730582
 31
0.0
  0
ARC
  5
100A
330
1F
100
AcDbEntity
  8
0
  6
Continuous
 62
     7
100
AcDbCircle
 10
-89.72751937164792
 20
46.5379371937292
 30
0.0
 40
1.599996478112641
100
AcDbArc
 50
0.0001376382516352
 51
84.99828905335666
  0
ARC
  5
100B
330
1F
100
AcDbEntity
  8
0
  6
Continuous
 62
     7
100
AcDbCircle
 10
-90.42732290354184
 20
61.83554102730584
 30
0.0
 40
1.000000010000001
100
AcDbArc
 50
89.99999942692776
 51
179.9885402711785
  0
ARC
  5
100C
330
1F
100
AcDbEntity
  8
0
  6
Continuous
 62
     7
100
AcDbCircle
 10
-86.45155789743716
 20
62.88169778822698
 30
0.0
 40
0.9999652824487219
100
AcDbArc
 50
180.043360143423
 51
185.2533550575738
  0
ARC
  5
100D
330
1F
100
AcDbEntity
  8
0
  6
Continuous
 62
     7
100
AcDbCircle
 10
-88.4515228860414
 20
63.83554104480658
 30
0.0
 40
1.000000012500002
100
AcDbArc
 50
270.005729148257
 51
0.0114587260735263
  0
LINE
  5
100E
330
1F
100
AcDbEntity
  8
0
  6
Continuous
 62
     7
100
AcDbLine
 10
-90.4273228935399
 20
62.83554103730584
 30
0.0
 11
-88.4515228935399
 21
62.83554103730584
 31
0.0
  0
LINE
  5
100F
330
1F
100
AcDbEntity
  8
0
  6
Continuous
 62
     7
100
AcDbLine
 10
-98.42862289353991
 20
73.76024103730582
 30
0.0
 11
-98.62862289353991
 21
73.96044103730581
 31
0.0
  0
LINE
  5
1010
330
1F
100
AcDbEntity
  8
0
  6
Continuous
 62
     7
100
AcDbLine
 10
-113.4288228935399
 20
73.96044103730581
 30
0.0
 11
-98.62892289353988
 21
73.96044103730581
 31
0.0
  0
LINE
  5
1011
330
1F
100
AcDbEntity
  8
0
  6
Continuous
 62
     7
100
AcDbLine
 10
-113.4288228935399
 20
73.96044103730581
 30
0.0
 11
-113.4288228935399
 21
74.76024103730582
 31
0.0
  0
LINE
  5
1012
330
1F
100
AcDbEntity
  8
0
  6
Continuous
 62
     7
100
AcDbLine
 10
-88.71412289353987
 20
73.31874103730581
 30
0.0
 11
-98.42852289353988
 21
73.76024103730582
 31
0.0
  0
LINE
  5
1013
330
1F
100
AcDbEntity
  8
0
  6
Continuous
 62
     7
100
AcDbLine
 10
-98.42722289353986
 20
73.76054103730583
 30
0.0
 11
-88.71292289353993
 21
73.31894103730582
 31
0.0
  0
LINE
  5
1014
330
1F
100
AcDbEntity
  8
0
  6
Continuous
 62
     7
100
AcDbLine
 10
-98.42862289353991
 20
73.76024103730582
 30
0.0
 11
-98.42872289353989
 21
71.46044103730581
 31
0.0
  0
ARC
  5
1015
330
1F
100
AcDbEntity
  8
0
  6
CENTER_DASH_DASH
 62
     7
100
AcDbCircle
 10
-88.78231237721752
 20
71.82033132964647
 30
0.0
 40
1.49995594261804
100
AcDbArc
 50
7.181341557067876
 51
87.39820282594221
  0
LINE
  5
1016
330
1F
100
AcDbEntity
  8
0
  6
Continuous
 62
     7
100
AcDbLine
 10
-36.42822289353989
 20
0.2605410373058099
 30
0.0
 11
-74.8625228935399
 21
0.2605410373058099
 31
0.0
  0
LINE
  5
1017
330
1F
100
AcDbEntity
  8
0
  6
Continuous
 62
     7
100
AcDbLine
 10
-67.42822289353989
 20
2.76044103730581
 30
0.0
 11
-35.4283228935399
 21
2.760541037305809
 31
0.0
  0
ARC
  5
1018
330
1F
100
AcDbEntity
  8
0
  6
Continuous
 62
     7
100
AcDbCircle
 10
-74.86250904845878
 20
0.8606312451598601
 30
0.0
 40
0.5999902080137768
100
AcDbArc
 50
199.4604310514075
 51
269.9986778705625
  0
LINE
  5
1019
330
1F
100
AcDbEntity
  8
0
  6
Continuous
 62
     7
100
AcDbLine
 10
-75.42822289353989
 20
0.6607410373058098
 30
0.0
 11
-79.42792289353992
 21
0.660741037305801
 31
0.0
  0
LINE
  5
101A
330
1F
100
AcDbEntity
  8
0
  6
Continuous
 62
     7
100
AcDbLine
 10
-67.42822289353989
 20
2.76044103730581
 30
0.0
 11
-67.42822289353989
 21
0.2605410373058099
 31
0.0
  0
ARC
  5
101B
330
1F
100
AcDbEntity
  8
0
  6
Continuous
 62
     7
100
AcDbCircle
 10
-80.4282228935399
 20
29.7605410373058
 30
0.0
 40
1.0
100
AcDbArc
 50
0.0
 51
90.0
  0
ARC
  5
1020
330
1F
100
AcDbEntity
  8
0
  6
Continuous
 62
     7
100
AcDbCircle
 10
-128.7907400808061
 20
118.760257987364
 30
0.0
 40
9.999983049956496
100
AcDbArc
 50
0.7963412070605856
 51
89.99990152405066
  0
CIRCLE
  5
1049
330
1F
100
AcDbEntity
  8
0
  6
Continuous
 62
     7
100
AcDbCircle
 10
187.83417710646
 20
-9.239658962694189
 30
0.0
 40
40.000000001125
  0
ARC
  5
104A
330
1F
100
AcDbEntity
  8
0
  6
Continuous
 62
     7
100
AcDbCircle
 10
187.83417710646
 20
-9.23945896269419
 30
0.0
 40
84.00000000000012
100
AcDbArc
 50
346.2258530019926
 51
13.77414699804628
  0
ARC
  5
104B
330
1F
100
AcDbEntity
  8
0
  6
Continuous
 62
     7
100
AcDbCircle
 10
187.83417710646
 20
-9.23945896269419
 30
0.0
 40
83.20000000000002
100
AcDbArc
 50
137.9998672613807
 51
346.2258517279979
  0
ARC
  5
104C
330
1F
100
AcDbEntity
  8
0
  6
Continuous
 62
     7
100
AcDbCircle
 10
187.83417710646
 20
-9.23945896269419
 30
0.0
 40
83.20000000000016
100
AcDbArc
 50
346.2258517279979
 51
13.77414572405294
  0
ARC
  5
104D
330
1F
100
AcDbEntity
  8
0
  6
Continuous
 62
     7
100
AcDbCircle
 10
187.83437710646
 20
-9.239658962694189
 30
0.0
 40
92.99997956924507
100
AcDbArc
 50
124.6286849864072
 51
177.2264166268881
  0
ARC
  5
104E
330
1F
100
AcDbEntity
  8
0
  6
Continuous
 62
     7
100
AcDbCircle
 10
103.0857615604886
 20
-0.4786712950317096
 30
0.0
 40
1.999992017385628
100
AcDbArc
 50
82.75235029970131
 51
174.0963112309312
  0
ARC
  5
104F
330
1F
100
AcDbEntity
  8
0
  6
Continuous
 62
     7
100
AcDbCircle
 10
187.8343775316786
 20
-9.23966286596457
 30
0.0
 40
92.00002601249625
100
AcDbArc
 50
317.5066057128978
 51
54.92785427448519
  0
ARC
  5
1050
330
1F
100
AcDbEntity
  8
0
  6
Continuous
 62
     7
100
AcDbCircle
 10
187.83437710646
 20
-9.239658962694189
 30
0.0
 40
92.99998731747228
100
AcDbArc
 50
0.0001232167582141
 51
55.372048654977
  0
ARC
  5
1051
330
1F
100
AcDbEntity
  8
0
  6
Continuous
 62
     7
100
AcDbCircle
 10
187.834216652824
 20
-9.23960549909086
 30
0.0
 40
10.25003954751286
100
AcDbArc
 50
107.0193955008461
 51
180.0008578324736
  0
ARC
  5
1052
330
1F
100
AcDbEntity
  8
0
  6
Continuous
 62
     7
100
AcDbCircle
 10
187.8341873853943
 20
-9.2396513590958
 30
0.0
 40
10.25001027949905
100
AcDbArc
 50
180.0006014854501
 51
72.98201485372462
  0
ARC
  5
1053
330
1F
100
AcDbEntity
  8
0
  6
Continuous
 62
     7
100
AcDbCircle
 10
187.83412710646
 20
-9.239658962694189
 30
0.0
 40
9.500036484798357
100
AcDbArc
 50
108.4087247543069
 51
71.59127524569301
  0
ARC
  5
1054
330
1F
100
AcDbEntity
  8
0
  6
Continuous
 62
     7
100
AcDbCircle
 10
187.83437710646
 20
-9.239658962694189
 30
0.0
 40
91.9999673156464
100
AcDbArc
 50
125.072856568541
 51
177.1962446439158
  0
LINE
  5
1055
330
1F
100
AcDbEntity
  8
0
  6
DASH_CENTER
 62
    30
100
AcDbLine
 10
187.83417710646
 20
-118.5173589626941
 30
0.0
 11
187.83417710646
 21
136.1902410373057
 31
0.0
  0
LINE
  5
1056
330
1F
100
AcDbEntity
  8
0
  6
Continuous
 62
     7
100
AcDbLine
 10
190.83417710646
 20
-3.239658962694189
 30
0.0
 11
190.83417710646
 21
2.76044103730581
 31
0.0
  0
LINE
  5
1057
330
1F
100
AcDbEntity
  8
0
  6
Continuous
 62
     7
100
AcDbLine
 10
184.83417710646
 20
-3.239658962694189
 30
0.0
 11
184.83417710646
 21
2.76044103730581
 31
0.0
  0
ARC
  5
105A
330
1F
100
AcDbEntity
  8
0
  6
Continuous
 62
    40
100
AcDbCircle
 10
20.93335707541169
 20
-9.23946930988526
 30
0.0
 40
9.500010347405645
100
AcDbArc
 50
89.9996148617487
 51
108.4080534920659
  0
ARC
  5
105B
330
1F
100
AcDbEntity
  8
0
  6
Continuous
 62
     7
100
AcDbCircle
 10
20.93342093382159
 20
-9.239458962694241
 30
0.0
 40
9.500020695240543
100
AcDbArc
 50
108.4084386294776
 51
71.59156137052239
  0
LINE
  5
105C
330
1F
100
AcDbEntity
  8
0
  6
DASH_CENTER
 62
    40
100
AcDbLine
 10
20.93342093382159
 20
-23.935109266577
 30
0.0
 11
20.93342093382159
 21
8.163190312909588
 31
0.0
  0
LINE
  5
105D
330
1F
100
AcDbEntity
  8
0
  6
Continuous
 62
     7
100
AcDbLine
 10
23.93342093382159
 20
2.76054103730576
 30
0.0
 11
23.93342093382159
 21
-3.239458962694239
 31
0.0
  0
LINE
  5
105E
330
1F
100
AcDbEntity
  8
0
  6
Continuous
 62
     7
100
AcDbLine
 10
17.93342093382159
 20
2.76054103730576
 30
0.0
 11
17.93342093382159
 21
-3.239458962694239
 31
0.0
  0
CIRCLE
  5
1061
330
1F
100
AcDbEntity
  8
0
  6
Continuous
 62
     7
100
AcDbCircle
 10
240.86757710646
 20
-62.27205896269419
 30
0.0
 40
4.5
  0
ARC
  5
1062
330
1F
100
AcDbEntity
  8
0
  6
Continuous
 62
     7
100
AcDbCircle
 10
187.8341885613684
 20
-9.23964750767813
 30
0.0
 40
82.49993488527577
100
AcDbArc
 50
299.1149050783906
 51
330.885633165373
  0
ARC
  5
1063
330
1F
100
AcDbEntity
  8
0
  6
Continuous
 62
     7
100
AcDbCircle
 10
237.9552720152195
 20
-51.40716133266265
 30
0.0
 40
1.000002369981423
100
AcDbArc
 50
89.99970829409919
 51
139.9241736833517
  0
ARC
  5
1064
330
1F
100
AcDbEntity
  8
0
  6
DASH_CENTER
 62
    30
100
AcDbCircle
 10
187.834047527507
 20
-9.23978779528365
 30
0.0
 40
74.99997839357428
100
AcDbArc
 50
305.9146338934429
 51
323.7543950429338
  0
LINE
  5
1065
330
1F
100
AcDbEntity
  8
0
  6
Continuous
 62
     7
100
AcDbLine
 10
137.83437710646
 20
-97.73925896269421
 30
0.0
 11
237.83417710646
 21
-97.73925896269421
 31
0.0
  0
LINE
  5
1066
330
1F
100
AcDbEntity
  8
0
  6
Continuous
 62
     7
100
AcDbLine
 10
97.8343771064601
 20
-94.53925896269419
 30
0.0
 11
277.83417710646
 21
-94.53925896269419
 31
0.0
  0
LINE
  5
1067
330
1F
100
AcDbEntity
  8
0
  6
DASH_CENTER
 62
    30
100
AcDbLine
 10
251.28627710646
 20
-72.69075896269419
 30
0.0
 11
226.95597710646
 21
-48.36075896269419
 31
0.0
  0
LINE
  5
1068
330
1F
100
AcDbEntity
  8
0
  6
DASH_CENTER
 62
    30
100
AcDbLine
 10
95.83440979103114
 20
-9.239458962527979
 30
0.0
 11
280.8343644237173
 21
-9.239458962675799
 31
0.0
  0
ARC
  5
1071
330
1F
100
AcDbEntity
  8
0
  6
Continuous
 62
     7
100
AcDbCircle
 10
247.8343771064595
 20
-201.2899874677871
 30
0.0
 40
10.0
100
AcDbArc
 50
180.0
 51
270.0
  0
SPLINE
  5
1072
330
1F
100
AcDbEntity
  8
0
  6
Continuous
 62
    54
100
AcDbSpline
210
0.0
220
0.0
230
1.0
 70
     8
 71
     3
 72
    68
 73
    64
 74
    62
 42
0.0000000001
 43
0.0000000001
 44
0.00000001
 40
0.0
 40
0.0
 40
0.0
 40
0.0
 40
0.7765120862821994
 40
1.553309470075944
 40
2.597572422039514
 40
3.640125412159727
 40
4.713754877703321
 40
5.789324290537658
 40
6.86377144798503
 40
7.938218695887399
 40
8.680674566983382
 40
9.42250909875382
 40
10.88932746374042
 40
12.34688829649365
 40
13.38469129691448
 40
14.42798321011488
 40
15.3901296180904
 40
16.36021325845179
 40
17.53144904721496
 40
18.66754115166497
 40
19.92940154546945
 40
21.16045755600353
 40
21.85948383408719
 40
22.57073680203447
 40
23.91616395832415
 40
25.30080099381882
 40
26.61285638862762
 40
27.92822193859907
 40
28.97567495155937
 40
30.000321270625
 40
31.33506300954948
 40
32.7107361946339
 40
33.22506432974
 40
33.71963262230083
 40
34.8226931053837
 40
36.00188681043736
 40
37.09041739813853
 40
38.1422386038705
 40
39.27793070827007
 40
40.55344152024161
 40
41.77939546200678
 40
42.71256689888833
 40
43.64512775766459
 40
44.89820630923111
 40
46.21038213605254
 40
48.2332502980373
 40
50.20697296155507
 40
51.42535307894348
 40
52.63447589191581
 40
53.9252705965147
 40
55.23434733711359
 40
56.75436720715421
 40
58.27470649702132
 40
59.57342003891538
 40
60.86968963134252
 40
63.45569910419307
 40
66.02693813608777
 40
67.0642611849831
 40
68.10304598498525
 40
70.39165769626345
 40
72.65332086040136
 40
73.93860123352803
 40
75.24966209291631
 40
75.24966209291631
 40
75.24966209291631
 40
75.24966209291631
 10
230.9100611635799
 20
-181.289987467787
 30
0.0
 10
230.9324348096291
 20
-181.5478523447367
 30
0.0
 10
230.9771903355907
 20
-182.0636768392958
 30
0.0
 10
231.0637006742843
 20
-182.9253298608364
 30
0.0
 10
231.1890023854616
 20
-183.871501433423
 30
0.0
 10
231.2978044298389
 20
-184.9202836088327
 30
0.0
 10
231.3071034198527
 20
-185.9852745667826
 30
0.0
 10
231.2767091907734
 20
-187.0592532138941
 30
0.0
 10
231.2693813132709
 20
-188.134161529393
 30
0.0
 10
231.2778788666282
 20
-189.0979683416001
 30
0.0
 10
231.29222231321
 20
-189.9506244696469
 30
0.0
 10
231.3594908101274
 20
-190.9337985175619
 30
0.0
 10
231.6149374149422
 20
-192.1294637223095
 30
0.0
 10
231.841084246244
 20
-193.4383582043517
 30
0.0
 10
231.7695216594653
 20
-194.6210504960158
 30
0.0
 10
231.6438162452613
 20
-195.6270987731956
 30
0.0
 10
231.5788686362619
 20
-196.6169522645491
 30
0.0
 10
231.5086523153317
 20
-197.6504186996726
 30
0.0
 10
231.3572274981475
 20
-198.7280582800612
 30
0.0
 10
231.4225226819452
 20
-199.9504990510972
 30
0.0
 10
232.0459511804158
 20
-200.9991920714511
 30
0.0
 10
232.5256880250033
 20
-201.9890822539559
 30
0.0
 10
232.4532708815279
 20
-202.8807525436329
 30
0.0
 10
232.3307073081129
 20
-203.7935163944328
 30
0.0
 10
232.6407374850376
 20
-204.9338165201318
 30
0.0
 10
233.2281771611858
 20
-206.1405972878486
 30
0.0
 10
233.6326972025202
 20
-207.4210229423593
 30
0.0
 10
233.9237569663268
 20
-208.6102456569073
 30
0.0
 10
234.2063235533144
 20
-209.7031277164344
 30
0.0
 10
234.6812945822716
 20
-210.7527107365893
 30
0.0
 10
235.6298868299419
 20
-211.6145421278805
 30
0.0
 10
236.6305166971057
 20
-212.0504462011754
 30
0.0
 10
237.4041964386274
 20
-212.2247338077149
 30
0.0
 10
238.08332448487
 20
-212.4398253621212
 30
0.0
 10
238.7509140662253
 20
-213.14429462736
 30
0.0
 10
239.3315350703344
 20
-214.0801408515408
 30
0.0
 10
240.1028756162991
 20
-214.9492360243812
 30
0.0
 10
241.2242042304664
 20
-215.1410501954019
 30
0.0
 10
242.3745690318522
 20
-215.1674698166615
 30
0.0
 10
243.534923728806
 20
-215.5379540752424
 30
0.0
 10
244.669066264402
 20
-215.8095919423025
 30
0.0
 10
245.6924496891189
 20
-215.6221529831801
 30
0.0
 10
246.724565178352
 20
-215.4358921397264
 30
0.0
 10
247.8842886953966
 20
-215.738310979604
 30
0.0
 10
249.2664426883007
 20
-216.3777731179807
 30
0.0
 10
250.9851115196129
 20
-216.8652704092689
 30
0.0
 10
252.7569494695197
 20
-216.8844350524258
 30
0.0
 10
254.1713428290758
 20
-216.4882037932055
 30
0.0
 10
255.3828959457551
 20
-216.1906544428038
 30
0.0
 10
256.6628952610813
 20
-216.2570043595456
 30
0.0
 10
258.0225932489343
 20
-216.4404420573043
 30
0.0
 10
259.4774020942551
 20
-216.4281699254177
 30
0.0
 10
260.9193940416316
 20
-216.3255811465267
 30
0.0
 10
262.2901603091718
 20
-216.2680923113351
 30
0.0
 10
264.0208797090061
 20
-216.3161503097733
 30
0.0
 10
266.1326298615984
 20
-216.7351466997843
 30
0.0
 10
268.1887565676126
 20
-217.050899704782
 30
0.0
 10
269.7361841016478
 20
-216.9480419571985
 30
0.0
 10
271.1936223238503
 20
-216.8734327992755
 30
0.0
 10
273.0298953685267
 20
-217.230404815211
 30
0.0
 10
274.9712022685296
 20
-217.5438936599623
 30
0.0
 10
276.5822056239841
 20
-217.2773061812096
 30
0.0
 10
277.4140998349926
 20
-217.0405878109942
 30
0.0
 10
277.83417710646
 20
-216.9210533748429
 30
0.0
 11
230.9100611635799
 21
-181.289987467787
 31
0.0
 11
230.9789255566938
 21
-182.0634399367362
 31
0.0
 11
231.0582562831891
 21
-182.8361758646621
 31
0.0
 11
231.1842015503406
 21
-183.8728160655994
 31
0.0
 11
231.2805489626029
 21
-184.9109075391941
 31
0.0
 11
231.3004783878623
 21
-185.9843520151898
 31
0.0
 11
231.2805489626029
 21
-187.0597367735322
 31
0.0
 11
231.2721810684514
 21
-188.1341513453939
 31
0.0
 11
231.2805489626029
 21
-189.2085660078691
 31
0.0
 11
231.2986093611405
 21
-189.9508021849912
 31
0.0
 11
231.3546465224076
 21
-190.6905172039641
 31
0.0
 11
231.6063125689843
 21
-192.1355847865318
 31
0.0
 11
231.7992318812361
 21
-193.5803220363491
 31
0.0
 11
231.7587213394324
 21
-194.617334072668
 31
0.0
 11
231.6510367616269
 21
-195.6550537108809
 31
0.0
 11
231.5786596365636
 21
-196.6144739848213
 31
0.0
 11
231.5028416420168
 21
-197.5815902658041
 31
0.0
 11
231.3939494708689
 21
-198.7477531051523
 31
0.0
 11
231.5028416420168
 21
-199.878614619752
 31
0.0
 11
232.0375142065646
 21
-201.0216005789241
 31
0.0
 11
232.4661099194786
 21
-202.175638973699
 31
0.0
 11
232.4476952942551
 21
-202.8744226591441
 31
0.0
 11
232.392012359674
 21
-203.5834926099892
 31
0.0
 11
232.6738313975839
 21
-204.8990731903109
 31
0.0
 11
233.2070855175256
 21
-206.1769072031551
 31
0.0
 11
233.618195754027
 21
-207.4228918471568
 31
0.0
 11
233.9480611155735
 21
-208.6962242365161
 31
0.0
 11
234.2378782535986
 21
-209.7027846376731
 31
0.0
 11
234.6890367136206
 21
-210.622760791439
 31
0.0
 11
235.6565153746738
 21
-211.542282705554
 31
0.0
 11
236.9119635077626
 21
-212.1047119875341
 31
0.0
 11
237.4098500191468
 21
-212.2337176164105
 31
0.0
 11
237.8752317852244
 21
-212.4011022267532
 31
0.0
 11
238.6962701247531
 21
-213.1377422167179
 31
0.0
 11
239.384010868641
 21
-214.0956098818602
 31
0.0
 11
240.172256139172
 21
-214.8463217003091
 31
0.0
 11
241.1903906212089
 21
-215.1103861340726
 31
0.0
 11
242.3210853735084
 21
-215.216809499332
 31
0.0
 11
243.5580047974517
 21
-215.5281905679465
 31
0.0
 11
244.7663048470662
 21
-215.735492417966
 31
0.0
 11
245.6926149005587
 21
-215.6225383790826
 31
0.0
 11
246.6187438421834
 21
-215.5131997385521
 31
0.0
 11
247.846141412592
 21
-215.7655904279009
 31
0.0
 11
249.063963315741
 21
-216.254175336599
 31
0.0
 11
251.0174225824158
 21
-216.7795252142129
 31
0.0
 11
252.9911339853919
 21
-216.7728582552321
 31
0.0
 11
254.1770524109534
 21
-216.4934882507255
 31
0.0
 11
255.3622558991441
 21
-216.254175336599
 31
0.0
 11
256.6528974836318
 21
-216.2740567706351
 31
0.0
 11
257.9556704923092
 21
-216.4023704562091
 31
0.0
 11
259.4756576166415
 21
-216.412347955483
 31
0.0
 11
260.9936704443039
 21
-216.328272896404
 31
0.0
 11
262.2916004548479
 21
-216.2831668638243
 31
0.0
 11
263.5870850374698
 21
-216.328272896404
 31
0.0
 11
266.1435567493102
 21
-216.7180130441273
 31
0.0
 11
268.6998166639964
 21
-216.9951509346471
 31
0.0
 11
269.7361862759794
 21
-216.9506859355046
 31
0.0
 11
270.7745483385291
 21
-216.9210533748429
 31
0.0
 11
273.0434928564936
 21
-217.2204433199311
 31
0.0
 11
275.2944994866187
 21
-217.4397362934751
 31
0.0
 11
276.566525050577
 21
-217.2556260365881
 31
0.0
 11
277.83417710646
 21
-216.9210533748429
 31
0.0
  0
LINE
  5
1073
330
1F
100
AcDbEntity
  8
0
  6
Continuous
 62
     7
100
AcDbLine
 10
230.9100611635799
 20
-181.289987467787
 30
0.0
 11
267.83417710646
 21
-181.289987467787
 31
0.0
  0
ARC
  5
10CB
330
1F
100
AcDbEntity
  8
0
  6
Continuous
 62
     7
100
AcDbCircle
 10
110.4550303647207
 20
-77.04436651425999
 30
0.0
 40
1.600042676855261
100
AcDbArc
 50
56.67914119117952
 51
141.6756000939235
  0
ARC
  5
10CC
330
1F
100
AcDbEntity
  8
0
  6
Continuous
 62
     7
100
AcDbCircle
 10
187.83437710646
 20
-9.239658962694189
 30
0.0
 40
92.99999164731142
100
AcDbArc
 50
182.7733362901414
 51
222.4225995554948
  0
ARC
  5
10CD
330
1F
100
AcDbEntity
  8
0
  6
Continuous
 62
     7
100
AcDbCircle
 10
187.83437710646
 20
-9.239658962694189
 30
0.0
 40
91.99997378287667
100
AcDbArc
 50
182.8035057481434
 51
222.4931739992476
  0
LINE
  5
10CE
330
1F
100
AcDbEntity
  8
0
  6
DASH_CENTER
 62
    30
100
AcDbLine
 10
113.6781771064601
 20
-52.05385896269418
 30
0.0
 11
101.30947710646
 21
-59.19495896269419
 31
0.0
  0
LINE
  5
10CF
330
1F
100
AcDbEntity
  8
0
  6
Continuous
 62
     7
100
AcDbLine
 10
111.30347710646
 20
-41.87775896269418
 30
0.0
 11
103.63217710646
 21
-46.30685896269419
 31
0.0
  0
LINE
  5
10D0
330
1F
100
AcDbEntity
  8
0
  6
Continuous
 62
     7
100
AcDbLine
 10
113.97277710646
 20
-76.95105896269419
 30
0.0
 11
107.7685771064601
 21
-84.79385896269418
 31
0.0
  0
LINE
  5
10D1
330
1F
100
AcDbEntity
  8
0
  6
DASH_CENTER
 62
    30
100
AcDbLine
 10
116.59697710646
 20
-85.40225896269419
 30
0.0
 11
103.68997710646
 21
-75.19215896269419
 31
0.0
  0
LINE
  5
10D2
330
1F
100
AcDbEntity
  8
0
  6
Continuous
 62
     7
100
AcDbLine
 10
101.93487710646
 20
-93.77995896269418
 30
0.0
 11
118.3456771064601
 21
-73.03515896269418
 31
0.0
  0
LINE
  5
10D3
330
1F
100
AcDbEntity
  8
0
  6
Continuous
 62
     7
100
AcDbLine
 10
137.83437710646
 20
-99.23925896269421
 30
0.0
 11
97.8343771064601
 21
-99.23925896269421
 31
0.0
  0
LINE
  5
10D4
330
1F
100
AcDbEntity
  8
0
  6
Continuous
 62
     7
100
AcDbLine
 10
137.83417710646
 20
-96.03925896269419
 30
0.0
 11
97.83417710646013
 21
-96.03925896269419
 31
0.0
  0
LINE
  5
10D5
330
1F
100
AcDbEntity
  8
0
  6
Continuous
 62
     7
100
AcDbLine
 10
113.1869648744657
 20
-76.32946265472416
 30
0.0
 11
106.9857893853416
 21
-84.1746552113466
 31
0.0
  0
LINE
  5
10D6
330
1F
100
AcDbEntity
  8
0
  6
Continuous
 62
     7
100
AcDbLine
 10
109.5437771064601
 20
-59.63655896269421
 30
0.0
 11
105.04377710646
 21
-51.84235896269417
 31
0.0
  0
LINE
  5
10D7
330
1F
100
AcDbEntity
  8
0
  6
Continuous
 62
     7
100
AcDbLine
 10
109.5437771064601
 20
-59.63655896269421
 30
0.0
 11
107.87017710646
 21
-60.41705896269419
 31
0.0
  0
ARC
  5
10E5
330
1F
100
AcDbEntity
  8
0
  6
Continuous
 62
     7
100
AcDbCircle
 10
100.3664835761358
 20
-92.53905583179347
 30
0.0
 40
2.000003133734638
100
AcDbArc
 50
269.9969498732461
 51
321.6509533466364
  0
LINE
  5
10E6
330
1F
100
AcDbEntity
  8
0
  6
Continuous
 62
     7
100
AcDbLine
 10
97.8343771064601
 20
-99.23925896269421
 30
0.0
 11
97.8343771064601
 21
-94.53925896269419
 31
0.0
  0
LINE
  5
10EF
330
1F
100
AcDbEntity
  8
0
  6
DASH_CENTER
 62
    40
100
AcDbLine
 10
5.998120933821496
 20
-9.239458962694241
 30
0.0
 11
35.89702093382157
 21
-9.239458962694241
 31
0.0
  0
LINE
  5
10FD
330
1F
100
AcDbEntity
  8
0
  6
Continuous
 62
     7
100
AcDbLine
 10
23.93342093382159
 20
-3.239458962694239
 30
0.0
 11
20.93342093382159
 21
-3.239458962694239
 31
0.0
  0
LINE
  5
10FE
330
1F
100
AcDbEntity
  8
0
  6
Continuous
 62
     7
100
AcDbLine
 10
20.93342093382159
 20
-3.239458962694239
 30
0.0
 11
17.93342093382159
 21
-3.239458962694239
 31
0.0
  0
LINE
  5
1100
330
1F
100
AcDbEntity
  8
0
  6
Continuous
 62
     7
100
AcDbLine
 10
71.73247710646011
 20
-22.73945896269419
 30
0.0
 11
71.73247710646011
 21
-48.69995896269418
 31
0.0
  0
LINE
  5
1101
330
1F
100
AcDbEntity
  8
0
  6
Continuous
 62
     7
100
AcDbLine
 10
68.73247710646011
 20
-48.69995896269418
 30
0.0
 11
68.73247710646011
 21
-22.73945896269419
 31
0.0
  0
LINE
  5
1102
330
1F
100
AcDbEntity
  8
0
  6
Continuous
 62
     7
100
AcDbLine
 10
74.73247710646011
 20
-48.70001669428275
 30
0.0
 11
74.73247710646011
 21
-22.73945896269419
 31
0.0
  0
LINE
  5
1103
330
1F
100
AcDbEntity
  8
0
  6
Continuous
 62
     7
100
AcDbLine
 10
62.73247710646012
 20
-48.69995896269418
 30
0.0
 11
62.73247710646012
 21
-25.73955896269419
 31
0.0
  0
LINE
  5
1104
330
1F
100
AcDbEntity
  8
0
  6
Continuous
 62
     7
100
AcDbLine
 10
65.73247710646011
 20
-48.69995896269418
 30
0.0
 11
65.73247710646011
 21
-22.73955896269419
 31
0.0
  0
LINE
  5
1105
330
1F
100
AcDbEntity
  8
0
  6
Continuous
 62
     7
100
AcDbLine
 10
77.7324771064601
 20
-48.69995896269418
 30
0.0
 11
77.7324771064601
 21
-22.73945896269419
 31
0.0
  0
ARC
  5
1106
330
1F
100
AcDbEntity
  8
0
  6
Continuous
 62
    30
100
AcDbCircle
 10
76.98247710646011
 20
-47.40095896269418
 30
0.0
 40
1.499966999636985
100
AcDbArc
 50
239.9992722191732
 51
300.0007277808267
  0
LINE
  5
1107
330
1F
100
AcDbEntity
  8
0
  6
Continuous
 62
     7
100
AcDbLine
 10
71.73247710646011
 20
-74.71545896269418
 30
0.0
 11
71.73247710646011
 21
-53.0126547207917
 31
0.0
  0
LINE
  5
1108
330
1F
100
AcDbEntity
  8
0
  6
Continuous
 62
     7
100
AcDbLine
 10
68.73247710646011
 20
-74.71545896269418
 30
0.0
 11
68.73247710646011
 21
-53.0126547207917
 31
0.0
  0
LINE
  5
1109
330
1F
100
AcDbEntity
  8
0
  6
Continuous
 62
     7
100
AcDbLine
 10
71.98247710646011
 20
-78.91545896269419
 30
0.0
 11
71.98247710646011
 21
-74.71545896269418
 31
0.0
  0
LINE
  5
110A
330
1F
100
AcDbEntity
  8
0
  6
Continuous
 62
     7
100
AcDbLine
 10
68.48237710646012
 20
-78.91545896269419
 30
0.0
 11
68.48237710646012
 21
-74.71545896269418
 31
0.0
  0
CIRCLE
  5
110B
330
1F
100
AcDbEntity
  8
0
  6
Continuous
 62
     7
100
AcDbCircle
 10
70.2324771064601
 20
-84.31585896269419
 30
0.0
 40
1.838200000000003
  0
ARC
  5
110C
330
1F
100
AcDbEntity
  8
0
  6
Continuous
 62
     7
100
AcDbCircle
 10
70.23246398583427
 20
-84.31585896245378
 30
0.0
 40
2.821499182141984
100
AcDbArc
 50
165.2953357748986
 51
14.70256478647715
  0
LINE
  5
110D
330
1F
100
AcDbEntity
  8
0
  6
Continuous
 62
     7
100
AcDbLine
 10
71.98247710646011
 20
-78.91545896269419
 30
0.0
 11
68.48237710646012
 21
-78.91545896269419
 31
0.0
  0
LINE
  5
110E
330
1F
100
AcDbEntity
  8
0
  6
Continuous
 62
     7
100
AcDbLine
 10
68.48237710646012
 20
-78.91545896269419
 30
0.0
 11
67.50337710646011
 21
-83.5996589626942
 31
0.0
  0
LINE
  5
110F
330
1F
100
AcDbEntity
  8
0
  6
Continuous
 62
     7
100
AcDbLine
 10
71.98247710646011
 20
-78.91565896269421
 30
0.0
 11
71.98247710646011
 21
-78.91545896269419
 31
0.0
  0
LINE
  5
1110
330
1F
100
AcDbEntity
  8
0
  6
Continuous
 62
     7
100
AcDbLine
 10
71.98247710646011
 20
-78.91565896269421
 30
0.0
 11
72.96157710646011
 21
-83.5996589626942
 31
0.0
  0
LINE
  5
1111
330
1F
100
AcDbEntity
  8
0
  6
Continuous
 62
     7
100
AcDbLine
 10
71.73247710646011
 20
-74.71545896269418
 30
0.0
 11
68.73247710646011
 21
-74.71545896269418
 31
0.0
  0
LINE
  5
1112
330
1F
100
AcDbEntity
  8
0
  6
Continuous
 62
     7
100
AcDbLine
 10
68.73247710646011
 20
-74.71545896269418
 30
0.0
 11
71.73247710646011
 21
-74.71545896269418
 31
0.0
  0
LINE
  5
1113
330
1F
100
AcDbEntity
  8
0
  6
Continuous
 62
     7
100
AcDbLine
 10
68.73247710646011
 20
-74.71545896269418
 30
0.0
 11
68.48247710646011
 21
-74.71545896269418
 31
0.0
  0
LINE
  5
1114
330
1F
100
AcDbEntity
  8
0
  6
Continuous
 62
     7
100
AcDbLine
 10
68.48247710646011
 20
-74.71545896269418
 30
0.0
 11
68.73247710646011
 21
-74.71545896269418
 31
0.0
  0
LINE
  5
1115
330
1F
100
AcDbEntity
  8
0
  6
Continuous
 62
     7
100
AcDbLine
 10
68.48237710646012
 20
-74.71545896269418
 30
0.0
 11
68.48247710646011
 21
-74.71545896269418
 31
0.0
  0
LINE
  5
1116
330
1F
100
AcDbEntity
  8
0
  6
Continuous
 62
     7
100
AcDbLine
 10
71.73247710646011
 20
-74.71545896269418
 30
0.0
 11
71.98247710646011
 21
-74.71545896269418
 31
0.0
  0
LINE
  5
1117
330
1F
100
AcDbEntity
  8
0
  6
Continuous
 62
     7
100
AcDbLine
 10
71.98247710646011
 20
-74.71545896269418
 30
0.0
 11
71.73247710646011
 21
-74.71545896269418
 31
0.0
  0
ARC
  5
1118
330
1F
100
AcDbEntity
  8
0
  6
Continuous
 62
    30
100
AcDbCircle
 10
69.48247710646011
 20
-47.40092085701752
 30
0.0
 40
1.500000000000006
100
AcDbArc
 50
240.0
 51
299.9999999999999
  0
ARC
  5
1119
330
1F
100
AcDbEntity
  8
0
  6
Continuous
 62
    30
100
AcDbCircle
 10
69.48247710646011
 20
-54.31169282646836
 30
0.0
 40
1.5
100
AcDbArc
 50
60.00000000000002
 51
119.9999999999999
  0
ARC
  5
111A
330
1F
100
AcDbEntity
  8
0
  6
Continuous
 62
    30
100
AcDbCircle
 10
69.48247710646011
 20
-49.99899706837085
 30
0.0
 40
1.5
100
AcDbArc
 50
60.00000000000002
 51
119.9999999999999
  0
ARC
  5
111B
330
1F
100
AcDbEntity
  8
0
  6
Continuous
 62
    30
100
AcDbCircle
 10
66.4824771064601
 20
-49.99905896269417
 30
0.0
 40
1.500053602375591
100
AcDbArc
 50
60.00118205226046
 51
119.9988179477395
  0
ARC
  5
111C
330
1F
100
AcDbEntity
  8
0
  6
Continuous
 62
    30
100
AcDbCircle
 10
67.98247710646011
 20
-47.40095896269418
 30
0.0
 40
1.499966999636985
100
AcDbArc
 50
239.9992722191732
 51
300.0007277808267
  0
ARC
  5
111D
330
1F
100
AcDbEntity
  8
0
  6
Continuous
 62
    30
100
AcDbCircle
 10
66.48237710646012
 20
-47.40095896269418
 30
0.0
 40
1.499966999636985
100
AcDbArc
 50
239.9992722191732
 51
300.0007277808267
  0
ARC
  5
111E
330
1F
100
AcDbEntity
  8
0
  6
Continuous
 62
    30
100
AcDbCircle
 10
64.98247710646011
 20
-47.40095896269418
 30
0.0
 40
1.499966999636985
100
AcDbArc
 50
239.9992722191732
 51
300.0007277808267
  0
ARC
  5
111F
330
1F
100
AcDbEntity
  8
0
  6
Continuous
 62
    30
100
AcDbCircle
 10
63.48247710646012
 20
-49.99905896269417
 30
0.0
 40
1.500053602375591
100
AcDbArc
 50
60.00118205226046
 51
119.9988179477395
  0
ARC
  5
1120
330
1F
100
AcDbEntity
  8
0
  6
Continuous
 62
    30
100
AcDbCircle
 10
63.48237710646012
 20
-47.40095896269418
 30
0.0
 40
1.499966999636985
100
AcDbArc
 50
239.9992722191732
 51
300.0007277808267
  0
ARC
  5
1121
330
1F
100
AcDbEntity
  8
0
  6
Continuous
 62
    30
100
AcDbCircle
 10
72.48247710646011
 20
-47.40092085701752
 30
0.0
 40
1.500000000000006
100
AcDbArc
 50
240.0
 51
299.9999999999999
  0
ARC
  5
1122
330
1F
100
AcDbEntity
  8
0
  6
Continuous
 62
    30
100
AcDbCircle
 10
73.9824771064601
 20
-47.40092085701752
 30
0.0
 40
1.500000000000006
100
AcDbArc
 50
240.0
 51
299.9999999999999
  0
ARC
  5
1123
330
1F
100
AcDbEntity
  8
0
  6
Continuous
 62
    30
100
AcDbCircle
 10
72.48247710646011
 20
-49.99899706837085
 30
0.0
 40
1.5
100
AcDbArc
 50
60.00000000000002
 51
119.9999999999999
  0
ARC
  5
1124
330
1F
100
AcDbEntity
  8
0
  6
Continuous
 62
    30
100
AcDbCircle
 10
70.98247710646011
 20
-54.31169282646836
 30
0.0
 40
1.5
100
AcDbArc
 50
60.00000000000002
 51
119.9999999999999
  0
ARC
  5
1125
330
1F
100
AcDbEntity
  8
0
  6
Continuous
 62
    30
100
AcDbCircle
 10
70.98247710646011
 20
-51.71361661511504
 30
0.0
 40
1.5
100
AcDbArc
 50
240.0
 51
299.9999999999999
  0
ARC
  5
1126
330
1F
100
AcDbEntity
  8
0
  6
Continuous
 62
    30
100
AcDbCircle
 10
70.98247710646011
 20
-47.40092085701752
 30
0.0
 40
1.500000000000006
100
AcDbArc
 50
240.0
 51
299.9999999999999
  0
LINE
  5
1127
330
1F
100
AcDbEntity
  8
0
  6
Continuous
 62
    30
100
AcDbLine
 10
74.73237710646012
 20
-48.69995896269418
 30
0.0
 11
74.73247710646011
 21
-48.70001669428275
 31
0.0
  0
ARC
  5
1128
330
1F
100
AcDbEntity
  8
0
  6
Continuous
 62
    30
100
AcDbCircle
 10
75.48247710646011
 20
-49.99905896269417
 30
0.0
 40
1.500053602375591
100
AcDbArc
 50
60.00118205226046
 51
119.9988179477395
  0
ARC
  5
1129
330
1F
100
AcDbEntity
  8
0
  6
Continuous
 62
    30
100
AcDbCircle
 10
75.48237710646012
 20
-47.40095896269418
 30
0.0
 40
1.499966999636985
100
AcDbArc
 50
240.0036828817062
 51
300.0007277808267
  0
LINE
  5
112A
330
1F
100
AcDbEntity
  8
0
  6
Continuous
 62
     7
100
AcDbLine
 10
105.79537710646
 20
-80.35935896269419
 30
0.0
 11
109.19997710646
 21
-76.05225896269418
 31
0.0
  0
ARC
  5
112B
330
1F
100
AcDbEntity
  8
0
  6
Continuous
 62
     7
100
AcDbCircle
 10
107.050478334955
 20
-81.35147579166874
 30
0.0
 40
1.600007612392911
100
AcDbArc
 50
141.674184086128
 51
226.6760502541992
  0
LINE
  5
112C
330
1F
100
AcDbEntity
  8
0
  6
Continuous
 62
     7
100
AcDbLine
 10
108.55287710646
 20
-85.41425896269419
 30
0.0
 11
106.9857893853416
 21
-84.1746552113466
 31
0.0
  0
LINE
  5
112D
330
1F
100
AcDbEntity
  8
0
  6
Continuous
 62
     7
100
AcDbLine
 10
107.29587710646
 20
-83.78235896269419
 30
0.0
 11
105.95257710646
 21
-82.51515896269419
 31
0.0
  0
LINE
  5
112E
330
1F
100
AcDbEntity
  8
0
  6
Continuous
 62
     7
100
AcDbLine
 10
106.9857893853416
 20
-84.1746552113466
 30
0.0
 11
106.9842771064601
 21
-84.17345896269418
 31
0.0
  0
LINE
  5
112F
330
1F
100
AcDbEntity
  8
0
  6
Continuous
 62
     7
100
AcDbLine
 10
103.0634771064601
 20
-55.01205896269418
 30
0.0
 11
105.80857710646
 21
-59.7666589626942
 31
0.0
  0
ARC
  5
1130
330
1F
100
AcDbEntity
  8
0
  6
Continuous
 62
     7
100
AcDbCircle
 10
107.1941099923
 20
-58.96686933183016
 30
0.0
 40
1.59998809489664
100
AcDbArc
 50
209.9998173745192
 51
294.9993253993943
  0
ARC
  5
1131
330
1F
100
AcDbEntity
  8
0
  6
Continuous
 62
     7
100
AcDbCircle
 10
104.4488703340902
 20
-54.21238951145197
 30
0.0
 40
1.600030263470326
100
AcDbArc
 50
125.0023418891271
 51
209.9981111805233
  0
LINE
  5
1132
330
1F
100
AcDbEntity
  8
0
  6
Continuous
 62
     7
100
AcDbLine
 10
105.04377710646
 20
-51.84235896269417
 30
0.0
 11
103.53117710646
 21
-52.90165896269418
 31
0.0
  0
ARC
  5
1133
330
1F
100
AcDbEntity
  8
0
  6
Continuous
 62
     7
100
AcDbCircle
 10
86.73237710662675
 20
-22.73945896252751
 30
0.0
 40
15.00000000016665
100
AcDbArc
 50
89.99961802877264
 51
180.0000000006366
  0
ARC
  5
1134
330
1F
100
AcDbEntity
  8
0
  6
Continuous
 62
     7
100
AcDbCircle
 10
83.7324771064601
 20
-22.73945896269419
 30
0.0
 40
9.0
100
AcDbArc
 50
90.0
 51
180.0
  0
ARC
  5
1135
330
1F
100
AcDbEntity
  8
0
  6
Continuous
 62
     7
100
AcDbCircle
 10
86.73237710659899
 20
-22.73945896255529
 30
0.0
 40
18.00000000013888
100
AcDbArc
 50
89.99968169055646
 51
180.000000000442
  0
ARC
  5
1136
330
1F
100
AcDbEntity
  8
0
  6
Continuous
 62
     7
100
AcDbCircle
 10
86.73237710666844
 20
-22.73945896248585
 30
0.0
 40
12.00000000020832
100
AcDbArc
 50
89.99952253616529
 51
180.0000000009947
  0
ARC
  5
1137
330
1F
100
AcDbEntity
  8
0
  6
Continuous
 62
     7
100
AcDbCircle
 10
86.73237710646009
 20
-22.73945896269419
 30
0.0
 40
9.0
100
AcDbArc
 50
90.0
 51
180.0
  0
LINE
  5
1138
330
1F
100
AcDbEntity
  8
0
  6
DASH_CENTER
 62
    30
100
AcDbLine
 10
64.5383771064601
 20
-9.23945896269419
 30
0.0
 11
94.83438545936373
 21
-9.2394589626084
 31
0.0
  0
ARC
  5
1139
330
1F
100
AcDbEntity
  8
0
  6
Continuous
 62
     7
100
AcDbCircle
 10
77.7324771064601
 20
-25.73955896269419
 30
0.0
 40
15.0
100
AcDbArc
 50
126.8698976458436
 51
180.0
  0
ARC
  5
113A
330
1F
100
AcDbEntity
  8
0
  6
Continuous
 62
     7
100
AcDbCircle
 10
80.73250829842718
 20
-22.73951400904762
 30
0.0
 40
15.00003119203443
100
AcDbArc
 50
110.4886210795021
 51
180.0001717099243
  0
LINE
  5
113F
330
1F
100
AcDbEntity
  8
0
  6
Continuous
 62
     7
100
AcDbLine
 10
86.73227710646013
 20
-7.73955896269419
 30
0.0
 11
100.64707710646
 21
-7.73945896269419
 31
0.0
  0
LINE
  5
1140
330
1F
100
AcDbEntity
  8
0
  6
Continuous
 62
     7
100
AcDbLine
 10
86.73227710646013
 20
-10.73955896269418
 30
0.0
 11
100.64707710646
 21
-10.73945896269419
 31
0.0
  0
LINE
  5
1141
330
1F
100
AcDbEntity
  8
0
  6
Continuous
 62
     7
100
AcDbLine
 10
86.73237710646009
 20
-4.73945896269419
 30
0.0
 11
94.94334201781443
 21
-4.73945896269419
 31
0.0
  0
LINE
  5
1142
330
1F
100
AcDbEntity
  8
0
  6
Continuous
 62
     7
100
AcDbLine
 10
83.7324771064601
 20
-13.73945896269419
 30
0.0
 11
100.75037710646
 21
-13.73945896269419
 31
0.0
  0
ARC
  5
1143
330
1F
100
AcDbEntity
  8
0
  6
Continuous
 62
     7
100
AcDbCircle
 10
187.83417710646
 20
-9.23940896269419
 30
0.0
 40
87.20001820207667
100
AcDbArc
 50
174.0980586609147
 51
185.9019413390853
  0
ARC
  5
1144
330
1F
100
AcDbEntity
  8
0
  6
DASHED
 62
    30
100
AcDbCircle
 10
187.83437710646
 20
-9.239658962694189
 30
0.0
 40
92.99999164731143
100
AcDbArc
 50
179.9998767832059
 51
182.7733362901414
  0
ARC
  5
1145
330
1F
100
AcDbEntity
  8
0
  6
DASHED
 62
    30
100
AcDbCircle
 10
187.83437710646
 20
-9.239658962694189
 30
0.0
 40
91.99997378287667
100
AcDbArc
 50
179.9998754438186
 51
182.8035057481434
  0
ARC
  5
1146
330
1F
100
AcDbEntity
  8
0
  6
Continuous
 62
     7
100
AcDbCircle
 10
103.0857671914741
 20
-18.00025109687318
 30
0.0
 40
1.99998687616689
100
AcDbArc
 50
185.9006952847103
 51
277.2475058151381
  0
LINE
  5
1147
330
1F
100
AcDbEntity
  8
0
  6
Continuous
 62
     7
100
AcDbLine
 10
103.3380771064601
 20
-19.98425896269418
 30
0.0
 11
105.29877710646
 21
-19.73495896269419
 31
0.0
  0
ARC
  5
1148
330
1F
100
AcDbEntity
  8
0
  6
DASHED
 62
    30
100
AcDbCircle
 10
187.83437710646
 20
-9.239658962694189
 30
0.0
 40
92.99997956924507
100
AcDbArc
 50
177.2264166268881
 51
179.9998767831899
  0
ARC
  5
1149
330
1F
100
AcDbEntity
  8
0
  6
DASHED
 62
    30
100
AcDbCircle
 10
187.83437710646
 20
-9.239658962694189
 30
0.0
 40
91.99996731564636
100
AcDbArc
 50
177.1962446439158
 51
179.9998754438098
  0
LINE
  5
114A
330
1F
100
AcDbEntity
  8
0
  6
Continuous
 62
     7
100
AcDbLine
 10
94.94334201781443
 20
-4.73945896269419
 30
0.0
 11
100.75037710646
 21
-4.73945896269419
 31
0.0
  0
LINE
  5
114B
330
1F
100
AcDbEntity
  8
0
  6
DASHED
 62
    30
100
AcDbLine
 10
94.83439753743013
 20
-9.2394589626084
 30
0.0
 11
95.8344033238008
 21
-9.239458962527979
 31
0.0
  0
LINE
  5
114C
330
1F
100
AcDbEntity
  8
0
  6
DASHED
 62
    30
100
AcDbLine
 10
94.83438545936373
 20
-9.2394589626084
 30
0.0
 11
94.83439753743013
 21
-9.2394589626084
 31
0.0
  0
LINE
  5
114D
330
1F
100
AcDbEntity
  8
0
  6
DASHED
 62
    30
100
AcDbLine
 10
95.8344033238008
 20
-9.239458962527979
 30
0.0
 11
95.83440979103114
 21
-9.239458962527979
 31
0.0
  0
LINE
  5
114E
330
1F
100
AcDbEntity
  8
0
  6
Continuous
 62
     7
100
AcDbLine
 10
144.02917710646
 20
-92.8409589626942
 30
0.0
 11
147.58567710646
 21
-87.78655896269418
 31
0.0
  0
LINE
  5
114F
330
1F
100
AcDbEntity
  8
0
  6
DASH_CENTER
 62
    30
100
AcDbLine
 10
117.83437710646
 20
-88.33145896269419
 30
0.0
 11
117.83437710646
 21
-104.2096589626942
 31
0.0
  0
LINE
  5
1150
330
1F
100
AcDbEntity
  8
0
  6
Continuous
 62
     7
100
AcDbLine
 10
231.63907710646
 20
-92.8409589626942
 30
0.0
 11
228.08267710646
 21
-87.78645896269418
 31
0.0
  0
ARC
  5
1158
330
1F
100
AcDbEntity
  8
0
  6
Continuous
 62
     7
100
AcDbCircle
 10
140.7578160676421
 20
-90.53899064735063
 30
0.0
 40
3.999968315533299
100
AcDbArc
 50
269.999441917754
 51
324.8673320691592
  0
LINE
  5
115F
330
1F
100
AcDbEntity
  8
0
  6
Continuous
 62
     7
100
AcDbLine
 10
137.83437710646
 20
-97.73925896269421
 30
0.0
 11
137.83437710646
 21
-99.23925896269421
 31
0.0
  0
LINE
  5
1160
330
1F
100
AcDbEntity
  8
0
  6
Continuous
 62
     7
100
AcDbLine
 10
137.83417710646
 20
-94.53925896269419
 30
0.0
 11
137.83417710646
 21
-96.03925896269419
 31
0.0
  0
ARC
  5
116C
330
1F
100
AcDbEntity
  8
0
  6
Continuous
 62
     7
100
AcDbCircle
 10
175.162040325232
 20
-94.60243675940329
 30
0.0
 40
2.999988774671375
100
AcDbArc
 50
36.22053236720788
 51
81.54421513540516
  0
ARC
  5
116D
330
1F
100
AcDbEntity
  8
0
  6
Continuous
 62
     7
100
AcDbCircle
 10
180.355425776973
 20
-91.53908364285351
 30
0.0
 40
2.999975320235513
100
AcDbArc
 50
216.2230293533915
 51
269.9990704540256
  0
LINE
  5
116E
330
1F
100
AcDbEntity
  8
0
  6
Continuous
 62
     7
100
AcDbLine
 10
177.58227710646
 20
-92.82975896269419
 30
0.0
 11
177.93547710646
 21
-93.3119589626942
 31
0.0
  0
ARC
  5
116F
330
1F
100
AcDbEntity
  8
0
  6
Continuous
 62
     7
100
AcDbCircle
 10
195.3129079826805
 20
-91.53904330642701
 30
0.0
 40
3.000015656426056
100
AcDbArc
 50
269.9994103107031
 51
323.7765800085193
  0
ARC
  5
1170
330
1F
100
AcDbEntity
  8
0
  6
Continuous
 62
     7
100
AcDbCircle
 10
200.5065871798028
 20
-94.60239251601512
 30
0.0
 40
2.999941084999615
100
AcDbArc
 50
98.45540457088297
 51
143.7798479265049
  0
LINE
  5
1171
330
1F
100
AcDbEntity
  8
0
  6
Continuous
 62
     7
100
AcDbLine
 10
198.08637710646
 20
-92.82975896269419
 30
0.0
 11
197.73307710646
 21
-93.3119589626942
 31
0.0
  0
ARC
  5
1172
330
1F
100
AcDbEntity
  8
0
  6
Continuous
 62
     7
100
AcDbCircle
 10
234.9103935716714
 20
-90.53901942221243
 30
0.0
 40
3.999939540515626
100
AcDbArc
 50
215.1307024954874
 51
269.9997641496549
  0
ARC
  5
1173
330
1F
100
AcDbEntity
  8
0
  6
Continuous
 62
     7
100
AcDbCircle
 10
187.8344257134613
 20
-9.239407569086528
 30
0.0
 40
82.50004657904911
100
AcDbArc
 50
209.1149913311526
 51
240.885726326074
  0
ARC
  5
1174
330
1F
100
AcDbEntity
  8
0
  6
Continuous
 62
     7
100
AcDbCircle
 10
187.8344119945388
 20
-9.239393850327449
 30
0.0
 40
64.49998806792575
100
AcDbArc
 50
220.0751510812911
 51
229.9255805300901
  0
ARC
  5
1175
330
1F
100
AcDbEntity
  8
0
  6
DASH_CENTER
 62
    30
100
AcDbCircle
 10
187.834397983377
 20
-9.239379960557108
 30
0.0
 40
75.00004764351231
100
AcDbArc
 50
215.9146421966426
 51
233.7543867397346
  0
LINE
  5
1176
330
1F
100
AcDbEntity
  8
0
  6
DASH_CENTER
 62
    30
100
AcDbLine
 10
124.38337710646
 20
-72.69175896269418
 30
0.0
 11
148.71347710646
 21
-48.36125896269418
 31
0.0
  0
ARC
  5
1177
330
1F
100
AcDbEntity
  8
0
  6
Continuous
 62
     7
100
AcDbCircle
 10
126.1883855613384
 20
-79.23925820487752
 30
0.0
 40
10.00000820724302
100
AcDbArc
 50
48.59031800612399
 51
141.6532311469216
  0
LINE
  5
1178
330
1F
100
AcDbEntity
  8
0
  6
Continuous
 62
     7
100
AcDbLine
 10
114.75707710646
 20
-77.57155896269418
 30
0.0
 11
113.18847710646
 21
-76.33065896269418
 31
0.0
  0
LINE
  5
1179
330
1F
100
AcDbEntity
  8
0
  6
Continuous
 62
     7
100
AcDbLine
 10
112.8768771064601
 20
-76.72175896269418
 30
0.0
 11
111.33387710646
 21
-75.70715896269418
 31
0.0
  0
LINE
  5
117A
330
1F
100
AcDbEntity
  8
0
  6
Continuous
 62
     7
100
AcDbLine
 10
117.50627710646
 20
-50.40785896269419
 30
0.0
 11
137.7139771064601
 21
-50.40755896269418
 31
0.0
  0
LINE
  5
117B
330
1F
100
AcDbEntity
  8
0
  6
Continuous
 62
     7
100
AcDbLine
 10
121.30357710646
 20
-59.19825896269419
 30
0.0
 11
113.63217710646
 21
-63.62735896269419
 31
0.0
  0
ARC
  5
117C
330
1F
100
AcDbEntity
  8
0
  6
Continuous
 62
     7
100
AcDbCircle
 10
117.5062397707494
 20
-48.40783702238187
 30
0.0
 40
2.000021940660819
100
AcDbArc
 50
209.1177227012949
 51
270.00106957759
  0
CIRCLE
  5
117D
330
1F
100
AcDbEntity
  8
0
  6
Continuous
 62
     7
100
AcDbCircle
 10
134.8019771064601
 20
-62.27285896269418
 30
0.0
 40
4.5
  0
LINE
  5
117E
330
1F
100
AcDbEntity
  8
0
  6
Continuous
 62
     7
100
AcDbLine
 10
133.8019771064601
 20
-62.77285896269418
 30
0.0
 11
132.4020771064601
 21
-62.77285896269418
 31
0.0
  0
LINE
  5
117F
330
1F
100
AcDbEntity
  8
0
  6
Continuous
 62
     7
100
AcDbLine
 10
133.8019771064601
 20
-61.77285896269419
 30
0.0
 11
132.4020771064601
 21
-61.77285896269419
 31
0.0
  0
LINE
  5
1180
330
1F
100
AcDbEntity
  8
0
  6
Continuous
 62
     7
100
AcDbLine
 10
132.4020771064601
 20
-62.77285896269418
 30
0.0
 11
132.4020771064601
 21
-61.77285896269419
 31
0.0
  0
ARC
  5
1181
330
1F
100
AcDbEntity
  8
0
  6
Continuous
 62
     7
100
AcDbCircle
 10
133.8019771064601
 20
-63.27285896269419
 30
0.0
 40
0.5
100
AcDbArc
 50
0.0
 51
90.0
  0
ARC
  5
1182
330
1F
100
AcDbEntity
  8
0
  6
Continuous
 62
     7
100
AcDbCircle
 10
135.80197710646
 20
-63.27285896269419
 30
0.0
 40
0.5
100
AcDbArc
 50
90.0
 51
180.0
  0
ARC
  5
1183
330
1F
100
AcDbEntity
  8
0
  6
Continuous
 62
     7
100
AcDbCircle
 10
135.80197710646
 20
-61.27285896269419
 30
0.0
 40
0.5
100
AcDbArc
 50
180.0
 51
270.0
  0
ARC
  5
1184
330
1F
100
AcDbEntity
  8
0
  6
Continuous
 62
     7
100
AcDbCircle
 10
133.8019771064601
 20
-61.27285896269419
 30
0.0
 40
0.5
100
AcDbArc
 50
270.0
 51
0.0
  0
LINE
  5
1185
330
1F
100
AcDbEntity
  8
0
  6
Continuous
 62
     7
100
AcDbLine
 10
134.3019771064601
 20
-64.67275896269419
 30
0.0
 11
134.3019771064601
 21
-63.27285896269419
 31
0.0
  0
LINE
  5
1186
330
1F
100
AcDbEntity
  8
0
  6
Continuous
 62
     7
100
AcDbLine
 10
135.3019771064601
 20
-64.67275896269419
 30
0.0
 11
135.3019771064601
 21
-63.27285896269419
 31
0.0
  0
LINE
  5
1187
330
1F
100
AcDbEntity
  8
0
  6
Continuous
 62
     7
100
AcDbLine
 10
137.2018771064601
 20
-62.77285896269418
 30
0.0
 11
135.80197710646
 21
-62.77285896269418
 31
0.0
  0
LINE
  5
1188
330
1F
100
AcDbEntity
  8
0
  6
Continuous
 62
     7
100
AcDbLine
 10
137.2018771064601
 20
-61.77285896269419
 30
0.0
 11
135.80197710646
 21
-61.77285896269419
 31
0.0
  0
LINE
  5
1189
330
1F
100
AcDbEntity
  8
0
  6
Continuous
 62
     7
100
AcDbLine
 10
134.3019771064601
 20
-61.27285896269419
 30
0.0
 11
134.3019771064601
 21
-59.87295896269419
 31
0.0
  0
LINE
  5
118A
330
1F
100
AcDbEntity
  8
0
  6
Continuous
 62
     7
100
AcDbLine
 10
135.3019771064601
 20
-61.27285896269419
 30
0.0
 11
135.3019771064601
 21
-59.87295896269419
 31
0.0
  0
LINE
  5
118B
330
1F
100
AcDbEntity
  8
0
  6
Continuous
 62
     7
100
AcDbLine
 10
137.2018771064601
 20
-62.77285896269418
 30
0.0
 11
137.2018771064601
 21
-61.77285896269419
 31
0.0
  0
LINE
  5
118C
330
1F
100
AcDbEntity
  8
0
  6
Continuous
 62
     7
100
AcDbLine
 10
135.3019771064601
 20
-64.67275896269419
 30
0.0
 11
134.3019771064601
 21
-64.67275896269419
 31
0.0
  0
LINE
  5
118D
330
1F
100
AcDbEntity
  8
0
  6
Continuous
 62
     7
100
AcDbLine
 10
135.3019771064601
 20
-59.87295896269419
 30
0.0
 11
134.3019771064601
 21
-59.87295896269419
 31
0.0
  0
ARC
  5
118E
330
1F
100
AcDbEntity
  8
0
  6
Continuous
 62
     7
100
AcDbCircle
 10
137.7139952446922
 20
-51.40756740729388
 30
0.0
 40
1.000008444764184
100
AcDbArc
 50
40.06850102920915
 51
90.00103923537928
  0
LINE
  5
118F
330
1F
100
AcDbEntity
  8
0
  6
Continuous
 62
     7
100
AcDbLine
 10
146.66697710646
 20
-59.36075896269419
 30
0.0
 11
146.6670771064601
 21
-79.56825896269418
 31
0.0
  0
ARC
  5
1190
330
1F
100
AcDbEntity
  8
0
  6
Continuous
 62
     7
100
AcDbCircle
 10
152.4926308716006
 20
-91.23917201397199
 30
0.0
 40
5.999951888781451
100
AcDbArc
 50
66.65848485550364
 51
144.8683722762209
  0
ARC
  5
1191
330
1F
100
AcDbEntity
  8
0
  6
Continuous
 62
     7
100
AcDbCircle
 10
148.6670747174958
 20
-79.56825489803501
 30
0.0
 40
1.999997613743004
100
AcDbArc
 50
180.0029812364417
 51
240.885966074526
  0
ARC
  5
1192
330
1F
100
AcDbEntity
  8
0
  6
Continuous
 62
     7
100
AcDbCircle
 10
145.6670069250465
 20
-59.36052301030642
 30
0.0
 40
0.9999701820598227
100
AcDbArc
 50
359.9979400184933
 51
49.93251971691876
  0
LINE
  5
1193
330
1F
100
AcDbEntity
  8
0
  6
Continuous
 62
     7
100
AcDbLine
 10
229.0025771064601
 20
-79.56795896269419
 30
0.0
 11
229.0025771064601
 21
-59.36025896269417
 31
0.0
  0
ARC
  5
1194
330
1F
100
AcDbEntity
  8
0
  6
Continuous
 62
     7
100
AcDbCircle
 10
223.1756971964105
 20
-91.23916463372959
 30
0.0
 40
6.000026569904846
100
AcDbArc
 50
35.13220738407952
 51
113.3409354841962
  0
ARC
  5
1195
330
1F
100
AcDbEntity
  8
0
  6
Continuous
 62
     7
100
AcDbCircle
 10
227.0025551661478
 20
-79.56799629840488
 30
0.0
 40
2.000021940660819
100
AcDbArc
 50
299.1177227012951
 51
0.0010695775901439
  0
ARC
  5
1196
330
1F
100
AcDbEntity
  8
0
  6
Continuous
 62
     7
100
AcDbCircle
 10
187.83437710646
 20
-9.239458962694198
 30
0.0
 40
64.49995587696166
100
AcDbArc
 50
310.0747512887276
 51
319.9252487112719
  0
ARC
  5
1197
330
1F
100
AcDbEntity
  8
0
  6
Continuous
 62
     7
100
AcDbCircle
 10
230.0023855510598
 20
-59.36024082446195
 30
0.0
 40
1.000008444764194
100
AcDbArc
 50
130.0685010292101
 51
180.0010392353788
  0
ARC
  5
1198
330
1F
100
AcDbEntity
  8
0
  6
Continuous
 62
     7
100
AcDbCircle
 10
187.8340771064601
 20
-9.239658962694189
 30
0.0
 40
8.500012294108758
100
AcDbArc
 50
110.6672852333618
 51
69.33271476663819
  0
LINE
  5
1199
330
1F
100
AcDbEntity
  8
0
  6
Continuous
 62
     7
100
AcDbLine
 10
184.83417710646
 20
-3.239658962694189
 30
0.0
 11
190.83417710646
 21
-3.239658962694189
 31
0.0
  0
ARC
  5
11A2
330
1F
100
AcDbEntity
  8
0
  6
Continuous
 62
     7
100
AcDbCircle
 10
265.33417710646
 20
-196.289987467787
 30
0.0
 40
5.0
100
AcDbArc
 50
270.0
 51
0.0
  0
ARC
  5
11A3
330
1F
100
AcDbEntity
  8
0
  6
Continuous
 62
     7
100
AcDbCircle
 10
265.33417710646
 20
-196.289987467787
 30
0.0
 40
5.0
100
AcDbArc
 50
0.0
 51
90.0
  0
ARC
  5
11A4
330
1F
100
AcDbEntity
  8
0
  6
Continuous
 62
     7
100
AcDbCircle
 10
267.83417710646
 20
-191.289987467787
 30
0.0
 40
10.0
100
AcDbArc
 50
0.0
 51
90.0
  0
LINE
  5
11A5
330
1F
100
AcDbEntity
  8
0
  6
DASH_CENTER
 62
    30
100
AcDbLine
 10
240.5518003066158
 20
-196.289987467787
 30
0.0
 11
275.1556900579175
 21
-196.289987467787
 31
0.0
  0
LINE
  5
11A6
330
1F
100
AcDbEntity
  8
0
  6
Continuous
 62
     7
100
AcDbLine
 10
277.83417710646
 20
-211.2899874677871
 30
0.0
 11
247.8343771064595
 21
-211.2899874677871
 31
0.0
  0
ARC
  5
11A7
330
1F
100
AcDbEntity
  8
0
  6
Continuous
 62
     7
100
AcDbCircle
 10
250.33417710646
 20
-196.289987467787
 30
0.0
 40
5.0
100
AcDbArc
 50
180.0
 51
270.0
  0
LINE
  5
11A8
330
1F
100
AcDbEntity
  8
0
  6
DASH_CENTER
 62
    30
100
AcDbLine
 10
257.83417710646
 20
-185.972313918087
 30
0.0
 11
257.83417710646
 21
-206.766394456712
 31
0.0
  0
LINE
  5
11A9
330
1F
100
AcDbEntity
  8
0
  6
Continuous
 62
     7
100
AcDbLine
 10
237.8343771064595
 20
-201.2899874677871
 30
0.0
 11
237.8343771064595
 21
-181.289987467787
 31
0.0
  0
LINE
  5
11AA
330
1F
100
AcDbEntity
  8
0
  6
Continuous
 62
     7
100
AcDbLine
 10
265.33417710646
 20
-201.2899874677871
 30
0.0
 11
250.33417710646
 21
-201.2899874677871
 31
0.0
  0
LINE
  5
11AB
330
1F
100
AcDbEntity
  8
0
  6
Continuous
 62
     7
100
AcDbLine
 10
250.33417710646
 20
-191.289987467787
 30
0.0
 11
265.33417710646
 21
-191.289987467787
 31
0.0
  0
ARC
  5
11AC
330
1F
100
AcDbEntity
  8
0
  6
Continuous
 62
     7
100
AcDbCircle
 10
250.33417710646
 20
-196.289987467787
 30
0.0
 40
5.0
100
AcDbArc
 50
90.0
 51
180.0
  0
LINE
  5
11AE
330
1F
100
AcDbEntity
  8
0
  6
Continuous
 62
     7
100
AcDbLine
 10
277.83417710646
 20
-216.9210533748429
 30
0.0
 11
277.83417710646
 21
-191.289987467787
 31
0.0
  0
LINE
  5
11BC
330
1F
100
AcDbEntity
  8
0
  6
Continuous
 62
     7
100
AcDbLine
 10
273.73377710646
 20
-93.77995896269418
 30
0.0
 11
257.32287710646
 21
-73.03515896269418
 31
0.0
  0
LINE
  5
11BD
330
1F
100
AcDbEntity
  8
0
  6
DASH_CENTER
 62
    30
100
AcDbLine
 10
257.83417710646
 20
-88.33145896269419
 30
0.0
 11
257.83417710646
 21
-104.2096589626942
 31
0.0
  0
LINE
  5
11D5
330
1F
100
AcDbEntity
  8
0
  6
Continuous
 62
     7
100
AcDbLine
 10
237.83387710646
 20
-96.0391589626942
 30
0.0
 11
277.83387710646
 21
-96.03905896269422
 31
0.0
  0
LINE
  5
11D6
330
1F
100
AcDbEntity
  8
0
  6
Continuous
 62
     7
100
AcDbLine
 10
237.83417710646
 20
-99.23925896269421
 30
0.0
 11
277.83417710646
 21
-99.23925896269421
 31
0.0
  0
LINE
  5
11DD
330
1F
100
AcDbEntity
  8
0
  6
Continuous
 62
     7
100
AcDbLine
 10
237.83387710646
 20
-94.53915896269419
 30
0.0
 11
237.83387710646
 21
-96.0391589626942
 31
0.0
  0
LINE
  5
11DE
330
1F
100
AcDbEntity
  8
0
  6
Continuous
 62
     7
100
AcDbLine
 10
237.83417710646
 20
-97.73925896269421
 30
0.0
 11
237.83417710646
 21
-99.23925896269421
 31
0.0
  0
ARC
  5
11E3
330
1F
100
AcDbEntity
  8
0
  6
Continuous
 62
     7
100
AcDbCircle
 10
275.3021706367844
 20
-92.53905583179351
 30
0.0
 40
2.00000313373462
100
AcDbArc
 50
218.3490466533634
 51
270.0030501267538
  0
LINE
  5
11E4
330
1F
100
AcDbEntity
  8
0
  6
Continuous
 62
     7
100
AcDbLine
 10
277.83417710646
 20
-99.23925896269421
 30
0.0
 11
277.83417710646
 21
-94.53925896269419
 31
0.0
  0
LINE
  5
11F7
330
1F
100
AcDbEntity
  8
0
  6
DASH_CENTER
 62
    30
100
AcDbLine
 10
280.8343644237173
 20
-9.239458962675799
 30
0.0
 11
303.8387771064601
 21
-9.23945896269419
 31
0.0
  0
ARC
  5
11F8
330
1F
100
AcDbEntity
  8
0
  6
Continuous
 62
     7
100
AcDbCircle
 10
187.8343813008743
 20
-9.239648155188961
 30
0.0
 40
92.99998312303543
100
AcDbArc
 50
317.5772197076502
 51
0.0001165584353288
  0
LINE
  5
11F9
330
1F
100
AcDbEntity
  8
0
  6
Continuous
 62
     7
100
AcDbLine
 10
264.36517710646
 20
-41.87775896269418
 30
0.0
 11
272.03657710646
 21
-46.30685896269419
 31
0.0
  0
ARC
  5
11FA
330
1F
100
AcDbEntity
  8
0
  6
Continuous
 62
     7
100
AcDbCircle
 10
268.4743053480299
 20
-58.96695005836099
 30
0.0
 40
1.600031396292956
100
AcDbArc
 50
244.9989824231116
 51
330.0002809160072
  0
LINE
  5
11FB
330
1F
100
AcDbEntity
  8
0
  6
DASH_CENTER
 62
    30
100
AcDbLine
 10
261.99067710646
 20
-52.05385896269418
 30
0.0
 11
274.35927710646
 21
-59.19495896269419
 31
0.0
  0
LINE
  5
11FC
330
1F
100
AcDbEntity
  8
0
  6
Continuous
 62
     7
100
AcDbLine
 10
270.62447710646
 20
-51.84255896269418
 30
0.0
 11
266.12447710646
 21
-59.63675896269418
 31
0.0
  0
ARC
  5
11FD
330
1F
100
AcDbEntity
  8
0
  6
Continuous
 62
     7
100
AcDbCircle
 10
249.4801686515818
 20
-79.23925820487752
 30
0.0
 40
10.00000820724304
100
AcDbArc
 50
38.34676885307833
 51
131.4096819938761
  0
LINE
  5
11FE
330
1F
100
AcDbEntity
  8
0
  6
Continuous
 62
     7
100
AcDbLine
 10
237.95547710646
 20
-50.40715896269418
 30
0.0
 11
258.16297710646
 21
-50.40715896269418
 31
0.0
  0
ARC
  5
11FF
330
1F
100
AcDbEntity
  8
0
  6
Continuous
 62
     7
100
AcDbCircle
 10
239.86757710646
 20
-63.27205896269418
 30
0.0
 40
0.5
100
AcDbArc
 50
0.0
 51
90.0
  0
ARC
  5
1200
330
1F
100
AcDbEntity
  8
0
  6
Continuous
 62
     7
100
AcDbCircle
 10
241.86757710646
 20
-63.27205896269418
 30
0.0
 40
0.5
100
AcDbArc
 50
90.0
 51
180.0
  0
ARC
  5
1201
330
1F
100
AcDbEntity
  8
0
  6
Continuous
 62
     7
100
AcDbCircle
 10
241.86757710646
 20
-61.27205896269417
 30
0.0
 40
0.5
100
AcDbArc
 50
180.0
 51
270.0
  0
ARC
  5
1202
330
1F
100
AcDbEntity
  8
0
  6
Continuous
 62
     7
100
AcDbCircle
 10
239.86757710646
 20
-61.27205896269417
 30
0.0
 40
0.5
100
AcDbArc
 50
270.0
 51
0.0
  0
LINE
  5
1203
330
1F
100
AcDbEntity
  8
0
  6
Continuous
 62
     7
100
AcDbLine
 10
240.36757710646
 20
-64.67195896269419
 30
0.0
 11
240.36757710646
 21
-63.27205896269418
 31
0.0
  0
LINE
  5
1204
330
1F
100
AcDbEntity
  8
0
  6
Continuous
 62
     7
100
AcDbLine
 10
241.3675771064601
 20
-64.67195896269419
 30
0.0
 11
241.3675771064601
 21
-63.27205896269418
 31
0.0
  0
LINE
  5
1205
330
1F
100
AcDbEntity
  8
0
  6
Continuous
 62
     7
100
AcDbLine
 10
243.26747710646
 20
-62.77205896269419
 30
0.0
 11
241.86757710646
 21
-62.77205896269419
 31
0.0
  0
LINE
  5
1206
330
1F
100
AcDbEntity
  8
0
  6
Continuous
 62
     7
100
AcDbLine
 10
243.26747710646
 20
-61.77205896269417
 30
0.0
 11
241.86757710646
 21
-61.77205896269417
 31
0.0
  0
LINE
  5
1207
330
1F
100
AcDbEntity
  8
0
  6
Continuous
 62
     7
100
AcDbLine
 10
240.36757710646
 20
-61.27205896269417
 30
0.0
 11
240.36757710646
 21
-59.87215896269418
 31
0.0
  0
LINE
  5
1208
330
1F
100
AcDbEntity
  8
0
  6
Continuous
 62
     7
100
AcDbLine
 10
239.86757710646
 20
-62.77205896269419
 30
0.0
 11
238.46767710646
 21
-62.77205896269419
 31
0.0
  0
LINE
  5
1209
330
1F
100
AcDbEntity
  8
0
  6
Continuous
 62
     7
100
AcDbLine
 10
239.86757710646
 20
-61.77205896269417
 30
0.0
 11
238.46767710646
 21
-61.77205896269417
 31
0.0
  0
LINE
  5
120A
330
1F
100
AcDbEntity
  8
0
  6
Continuous
 62
     7
100
AcDbLine
 10
241.3675771064601
 20
-61.27205896269417
 30
0.0
 11
241.3675771064601
 21
-59.87215896269418
 31
0.0
  0
LINE
  5
120B
330
1F
100
AcDbEntity
  8
0
  6
Continuous
 62
     7
100
AcDbLine
 10
238.46767710646
 20
-62.77205896269419
 30
0.0
 11
238.46767710646
 21
-61.77205896269417
 31
0.0
  0
LINE
  5
120C
330
1F
100
AcDbEntity
  8
0
  6
Continuous
 62
     7
100
AcDbLine
 10
243.26747710646
 20
-62.77205896269419
 30
0.0
 11
243.26747710646
 21
-61.77205896269417
 31
0.0
  0
LINE
  5
120D
330
1F
100
AcDbEntity
  8
0
  6
Continuous
 62
     7
100
AcDbLine
 10
241.3675771064601
 20
-64.67195896269419
 30
0.0
 11
240.36757710646
 21
-64.67195896269419
 31
0.0
  0
LINE
  5
120E
330
1F
100
AcDbEntity
  8
0
  6
Continuous
 62
     7
100
AcDbLine
 10
241.3675771064601
 20
-59.87215896269418
 30
0.0
 11
240.36757710646
 21
-59.87215896269418
 31
0.0
  0
LINE
  5
120F
330
1F
100
AcDbEntity
  8
0
  6
Continuous
 62
     7
100
AcDbLine
 10
254.36487710646
 20
-59.19835896269418
 30
0.0
 11
262.0362771064601
 21
-63.62745896269418
 31
0.0
  0
LINE
  5
1210
330
1F
100
AcDbEntity
  8
0
  6
Continuous
 62
     7
100
AcDbLine
 10
266.12447710646
 20
-59.63675896269418
 30
0.0
 11
267.79797710646
 21
-60.41705896269419
 31
0.0
  0
ARC
  5
1211
330
1F
100
AcDbEntity
  8
0
  6
Continuous
 62
     7
100
AcDbCircle
 10
258.163005972392
 20
-48.40714199536816
 30
0.0
 40
2.00001697464768
100
AcDbArc
 50
270.0049025883132
 51
330.8889192803356
  0
LINE
  5
1212
330
1F
100
AcDbEntity
  8
0
  6
Continuous
 62
     7
100
AcDbLine
 10
269.85957710646
 20
-59.76695896269418
 30
0.0
 11
272.60467710646
 21
-55.01225896269419
 31
0.0
  0
ARC
  5
1213
330
1F
100
AcDbEntity
  8
0
  6
Continuous
 62
     7
100
AcDbCircle
 10
271.2191791943864
 20
-54.21226838089721
 30
0.0
 40
1.59995828223953
100
AcDbArc
 50
329.9995269183433
 51
55.00002001200932
  0
LINE
  5
1214
330
1F
100
AcDbEntity
  8
0
  6
Continuous
 62
     7
100
AcDbLine
 10
270.62447710646
 20
-51.84255896269418
 30
0.0
 11
272.13717710646
 21
-52.90165896269418
 31
0.0
  0
LINE
  5
1215
330
1F
100
AcDbEntity
  8
0
  6
Continuous
 62
     7
100
AcDbLine
 10
268.6414954337883
 20
-29.04898456897397
 30
0.0
 11
269.4184893239515
 21
-29.23945896266667
 31
0.0
  0
CIRCLE
  5
1225
330
1F
100
AcDbEntity
  8
0
  6
Continuous
 62
     7
100
AcDbCircle
 10
240.86687710646
 20
43.79404103730581
 30
0.0
 40
4.5
  0
ARC
  5
1226
330
1F
100
AcDbEntity
  8
0
  6
Continuous
 62
     7
100
AcDbCircle
 10
187.83417710646
 20
-9.23945896269419
 30
0.0
 40
83.20000000000005
100
AcDbArc
 50
13.77414572405294
 51
137.9998672613807
  0
ARC
  5
1227
330
1F
100
AcDbEntity
  8
0
  6
DASHED
 62
    30
100
AcDbCircle
 10
187.83437710646
 20
-9.239658962694189
 30
0.0
 40
92.99997956924507
100
AcDbArc
 50
55.37201291987846
 51
90.00012321675731
  0
ARC
  5
1228
330
1F
100
AcDbEntity
  8
0
  6
Continuous
 62
     7
100
AcDbCircle
 10
211.7273531178015
 20
99.76056469480534
 30
0.0
 40
28.49997634260183
100
AcDbArc
 50
0.7962895505260387
 51
90.00015281167348
  0
ARC
  5
1229
330
1F
100
AcDbEntity
  8
0
  6
Continuous
 62
     7
100
AcDbCircle
 10
187.8344413490841
 20
-9.239923204312349
 30
0.0
 40
82.50000289646509
100
AcDbArc
 50
29.1150979343976
 51
60.88579913854182
  0
ARC
  5
122A
330
1F
100
AcDbEntity
  8
0
  6
Continuous
 62
     7
100
AcDbCircle
 10
237.9547589682279
 20
32.92854948190553
 30
0.0
 40
1.000008444764202
100
AcDbArc
 50
220.0685010292112
 51
270.0010392353809
  0
ARC
  5
122B
330
1F
100
AcDbEntity
  8
0
  6
DASH_CENTER
 62
    30
100
AcDbCircle
 10
187.8344062287089
 20
-9.239888253656449
 30
0.0
 40
74.99997799005206
100
AcDbArc
 50
35.91463384505933
 51
53.75439509131769
  0
ARC
  5
122C
330
1F
100
AcDbEntity
  8
0
  6
Continuous
 62
     7
100
AcDbCircle
 10
187.83417710646
 20
-9.23945896269419
 30
0.0
 40
84.29998670047346
100
AcDbArc
 50
41.99999888701841
 51
129.8844219742809
  0
LINE
  5
122D
330
1F
100
AcDbEntity
  8
0
  6
DASH_CENTER
 62
    30
100
AcDbLine
 10
251.28557710646
 20
54.21254103730581
 30
0.0
 11
226.95527710646
 21
29.88194103730579
 31
0.0
  0
LINE
  5
123A
330
1F
100
AcDbEntity
  8
0
  6
Continuous
 62
     7
100
AcDbLine
 10
23.93342093382159
 20
2.76054103730576
 30
0.0
 11
17.93342093382159
 21
2.76054103730576
 31
0.0
  0
LINE
  5
1248
330
1F
100
AcDbEntity
  8
0
  6
Continuous
 62
     7
100
AcDbLine
 10
105.29877710646
 20
1.25594103730582
 30
0.0
 11
103.3380771064601
 21
1.505341037305809
 31
0.0
  0
LINE
  5
124D
330
1F
100
AcDbEntity
  8
0
  6
Continuous
 62
     7
100
AcDbLine
 10
135.4434771064601
 20
100.1567410373057
 30
0.0
 11
134.9866016411191
 21
67.28555798077424
 31
0.0
  0
ARC
  5
124E
330
1F
100
AcDbEntity
  8
0
  6
DASHED
 62
    30
100
AcDbCircle
 10
187.83437710646
 20
-9.239658962694189
 30
0.0
 40
92.99997956924512
100
AcDbArc
 50
90.00012321675731
 51
124.6286849864072
  0
CIRCLE
  5
124F
330
1F
100
AcDbEntity
  8
0
  6
Continuous
 62
     7
100
AcDbCircle
 10
134.8012771064601
 20
43.79304103730581
 30
0.0
 40
4.5
  0
ARC
  5
1250
330
1F
100
AcDbEntity
  8
0
  6
Continuous
 62
     7
100
AcDbCircle
 10
187.8346656520214
 20
-9.23967041724051
 30
0.0
 40
82.50007090593761
100
AcDbArc
 50
119.1149319615048
 51
150.8856062822581
  0
ARC
  5
1251
330
1F
100
AcDbEntity
  8
0
  6
Continuous
 62
     7
100
AcDbCircle
 10
135.8012771064601
 20
44.79304103730581
 30
0.0
 40
0.5
100
AcDbArc
 50
180.0
 51
270.0
  0
ARC
  5
1252
330
1F
100
AcDbEntity
  8
0
  6
Continuous
 62
     7
100
AcDbCircle
 10
133.8012771064601
 20
44.79304103730581
 30
0.0
 40
0.5
100
AcDbArc
 50
270.0
 51
0.0
  0
ARC
  5
1253
330
1F
100
AcDbEntity
  8
0
  6
DASH_CENTER
 62
    30
100
AcDbCircle
 10
187.8347563965881
 20
-9.23958012927048
 30
0.0
 40
75.00004804703458
100
AcDbArc
 50
125.9146422450263
 51
143.7543866913522
  0
LINE
  5
1254
330
1F
100
AcDbEntity
  8
0
  6
Continuous
 62
     7
100
AcDbLine
 10
146.66627710646
 20
61.08874103730579
 30
0.0
 11
146.66637710646
 21
40.88094103730582
 31
0.0
  0
LINE
  5
1255
330
1F
100
AcDbEntity
  8
0
  6
DASH_CENTER
 62
    30
100
AcDbLine
 10
124.38237710646
 20
54.21154103730581
 30
0.0
 11
148.7128771064601
 21
29.88144103730582
 31
0.0
  0
ARC
  5
1256
330
1F
100
AcDbEntity
  8
0
  6
Continuous
 62
     7
100
AcDbCircle
 10
187.8344271064602
 20
-9.2399089626941
 30
0.0
 40
64.50002632654502
100
AcDbArc
 50
130.0747566815777
 51
139.925243318422
  0
LINE
  5
1257
330
1F
100
AcDbEntity
  8
0
  6
Continuous
 62
     7
100
AcDbLine
 10
137.71337710646
 20
31.92814103730581
 30
0.0
 11
117.50587710646
 21
31.92784103730581
 31
0.0
  0
ARC
  5
1258
330
1F
100
AcDbEntity
  8
0
  6
Continuous
 62
     7
100
AcDbCircle
 10
117.5058811776136
 20
29.92784343022407
 30
0.0
 40
1.999997617493009
100
AcDbArc
 50
90.00584621488185
 51
150.8859662640081
  0
ARC
  5
1259
330
1F
100
AcDbEntity
  8
0
  6
Continuous
 62
     7
100
AcDbCircle
 10
137.7135821919021
 20
32.92814340426578
 30
0.0
 40
1.00000237248144
100
AcDbArc
 50
269.9939790619529
 51
319.9241740291345
  0
LINE
  5
125A
330
1F
100
AcDbEntity
  8
0
  6
Continuous
 62
     7
100
AcDbLine
 10
133.8012771064601
 20
43.29304103730581
 30
0.0
 11
132.4013771064601
 21
43.29304103730581
 31
0.0
  0
LINE
  5
125B
330
1F
100
AcDbEntity
  8
0
  6
Continuous
 62
     7
100
AcDbLine
 10
133.8012771064601
 20
44.29304103730581
 30
0.0
 11
132.4013771064601
 21
44.29304103730581
 31
0.0
  0
LINE
  5
125C
330
1F
100
AcDbEntity
  8
0
  6
Continuous
 62
     7
100
AcDbLine
 10
132.4013771064601
 20
43.29304103730581
 30
0.0
 11
132.4013771064601
 21
44.29304103730581
 31
0.0
  0
ARC
  5
125D
330
1F
100
AcDbEntity
  8
0
  6
Continuous
 62
     7
100
AcDbCircle
 10
133.8012771064601
 20
42.79304103730581
 30
0.0
 40
0.5
100
AcDbArc
 50
0.0
 51
90.0
  0
ARC
  5
125E
330
1F
100
AcDbEntity
  8
0
  6
Continuous
 62
     7
100
AcDbCircle
 10
135.8012771064601
 20
42.79304103730581
 30
0.0
 40
0.5
100
AcDbArc
 50
90.0
 51
180.0
  0
LINE
  5
125F
330
1F
100
AcDbEntity
  8
0
  6
Continuous
 62
     7
100
AcDbLine
 10
134.3012771064601
 20
41.39314103730579
 30
0.0
 11
134.3012771064601
 21
42.79304103730581
 31
0.0
  0
LINE
  5
1260
330
1F
100
AcDbEntity
  8
0
  6
Continuous
 62
     7
100
AcDbLine
 10
135.3012771064601
 20
41.39314103730579
 30
0.0
 11
135.3012771064601
 21
42.79304103730581
 31
0.0
  0
LINE
  5
1261
330
1F
100
AcDbEntity
  8
0
  6
Continuous
 62
     7
100
AcDbLine
 10
137.2011771064601
 20
43.29304103730581
 30
0.0
 11
135.8012771064601
 21
43.29304103730581
 31
0.0
  0
LINE
  5
1262
330
1F
100
AcDbEntity
  8
0
  6
Continuous
 62
     7
100
AcDbLine
 10
137.2011771064601
 20
44.29304103730581
 30
0.0
 11
135.8012771064601
 21
44.29304103730581
 31
0.0
  0
LINE
  5
1263
330
1F
100
AcDbEntity
  8
0
  6
Continuous
 62
     7
100
AcDbLine
 10
137.2011771064601
 20
43.29304103730581
 30
0.0
 11
137.2011771064601
 21
44.29304103730581
 31
0.0
  0
LINE
  5
1264
330
1F
100
AcDbEntity
  8
0
  6
Continuous
 62
     7
100
AcDbLine
 10
135.3012771064601
 20
41.39314103730579
 30
0.0
 11
134.3012771064601
 21
41.39314103730579
 31
0.0
  0
ARC
  5
1265
330
1F
100
AcDbEntity
  8
0
  6
Continuous
 62
     7
100
AcDbCircle
 10
145.6663747364915
 20
40.88093594606529
 30
0.0
 40
1.000002369981418
100
AcDbArc
 50
310.0758263166475
 51
0.0002917059027451
  0
LINE
  5
1266
330
1F
100
AcDbEntity
  8
0
  6
Continuous
 62
     7
100
AcDbLine
 10
134.9866016411191
 20
67.28555798077424
 30
0.0
 11
134.8534771064601
 21
57.70754103730581
 31
0.0
  0
ARC
  5
1267
330
1F
100
AcDbEntity
  8
0
  6
Continuous
 62
     7
100
AcDbCircle
 10
187.8340987310689
 20
-9.2395344961163
 30
0.0
 40
84.29997899799948
100
AcDbArc
 50
129.8843481791563
 51
137.999927317872
  0
LINE
  5
1268
330
1F
100
AcDbEntity
  8
0
  6
Continuous
 62
     7
100
AcDbLine
 10
126.0046566029009
 20
46.43235072856657
 30
0.0
 11
125.18707710646
 21
47.1682410373058
 31
0.0
  0
ARC
  5
1269
330
1F
100
AcDbEntity
  8
0
  6
Continuous
 62
     7
100
AcDbCircle
 10
131.8537545181167
 20
57.7492935847789
 30
0.0
 40
3.000013147010866
100
AcDbArc
 50
309.886688999315
 51
359.2025628317319
  0
LINE
  5
126A
330
1F
100
AcDbEntity
  8
0
  6
Continuous
 62
     7
100
AcDbLine
 10
133.05827710646
 20
54.93474103730581
 30
0.0
 11
132.00627710646
 21
55.88674103730582
 31
0.0
  0
LINE
  5
126B
330
1F
100
AcDbEntity
  8
0
  6
Continuous
 62
     7
100
AcDbLine
 10
130.24967710646
 20
55.87574103730581
 30
0.0
 11
127.19837710646
 21
53.04424103730579
 31
0.0
  0
ARC
  5
126C
330
1F
100
AcDbEntity
  8
0
  6
Continuous
 62
     7
100
AcDbCircle
 10
128.0826735631804
 20
52.09129741410045
 30
0.0
 40
1.299963431441224
100
AcDbArc
 50
132.8569486862967
 51
217.8557799717006
  0
LINE
  5
126D
330
1F
100
AcDbEntity
  8
0
  6
DASH_CENTER
 62
    30
100
AcDbLine
 10
133.2667771064601
 20
49.56444103730581
 30
0.0
 11
128.2505771064601
 21
54.97024103730582
 31
0.0
  0
LINE
  5
126E
330
1F
100
AcDbEntity
  8
0
  6
DASH_CENTER
 62
    30
100
AcDbLine
 10
133.2667771064601
 20
49.56444103730581
 30
0.0
 11
128.25067710646
 21
54.97024103730582
 31
0.0
  0
LINE
  5
126F
330
1F
100
AcDbEntity
  8
0
  6
Continuous
 62
     7
100
AcDbLine
 10
127.92717710646
 20
50.17334103730582
 30
0.0
 11
127.0565771064601
 21
51.29354103730581
 31
0.0
  0
LINE
  5
1270
330
1F
100
AcDbEntity
  8
0
  6
Continuous
 62
     7
100
AcDbLine
 10
133.05827710646
 20
54.93474103730581
 30
0.0
 11
127.92717710646
 21
50.17334103730582
 31
0.0
  0
LINE
  5
1271
330
1F
100
AcDbEntity
  8
0
  6
Continuous
 62
     7
100
AcDbLine
 10
134.3012771064601
 20
44.79304103730581
 30
0.0
 11
134.3012771064601
 21
46.19294103730581
 31
0.0
  0
LINE
  5
1272
330
1F
100
AcDbEntity
  8
0
  6
Continuous
 62
     7
100
AcDbLine
 10
135.3012771064601
 20
44.79304103730581
 30
0.0
 11
135.3012771064601
 21
46.19294103730581
 31
0.0
  0
LINE
  5
1273
330
1F
100
AcDbEntity
  8
0
  6
Continuous
 62
     7
100
AcDbLine
 10
135.3012771064601
 20
46.19294103730581
 30
0.0
 11
134.3012771064601
 21
46.19294103730581
 31
0.0
  0
ARC
  5
1274
330
1F
100
AcDbEntity
  8
0
  6
Continuous
 62
     7
100
AcDbCircle
 10
131.1337290400909
 20
54.92274136253778
 30
0.0
 40
1.299968950514906
100
AcDbArc
 50
47.85755635742049
 51
132.8600585992244
  0
ARC
  5
1275
330
1F
100
AcDbEntity
  8
0
  6
Continuous
 62
     7
100
AcDbCircle
 10
148.6662553655394
 20
61.08870404301626
 30
0.0
 40
1.99997825942153
100
AcDbArc
 50
119.1169873103162
 51
179.9989401801509
  0
LINE
  5
1276
330
1F
100
AcDbEntity
  8
0
  6
Continuous
 62
     7
100
AcDbLine
 10
229.00187710646
 20
40.8814410373058
 30
0.0
 11
229.00167710646
 21
61.08894103730581
 31
0.0
  0
LINE
  5
1277
330
1F
100
AcDbEntity
  8
0
  6
Continuous
 62
     7
100
AcDbLine
 10
184.83417710646
 20
2.76044103730581
 30
0.0
 11
190.83417710646
 21
2.76044103730581
 31
0.0
  0
ARC
  5
1278
330
1F
100
AcDbEntity
  8
0
  6
Continuous
 62
     7
100
AcDbCircle
 10
187.8343922149961
 20
-9.23987407103738
 30
0.0
 40
64.49999413840706
100
AcDbArc
 50
40.07508849574352
 51
49.92564310629512
  0
ARC
  5
1279
330
1F
100
AcDbEntity
  8
0
  6
Continuous
 62
     7
100
AcDbCircle
 10
230.0018794764286
 20
40.88123594606528
 30
0.0
 40
1.000002369981444
100
AcDbArc
 50
179.9997082940967
 51
229.9241736833484
  0
LINE
  5
127A
330
1F
100
AcDbEntity
  8
0
  6
Continuous
 62
    30
100
AcDbLine
 10
190.5795756962585
 20
87.06037119302491
 30
0.0
 11
185.0893347088848
 21
87.06034752895357
 31
0.0
  0
ARC
  5
127B
330
1F
100
AcDbEntity
  8
0
  6
Continuous
 62
    30
100
AcDbCircle
 10
185.0892714982972
 20
85.46047584930894
 30
0.0
 40
1.599958282239566
100
AcDbArc
 50
89.99952691834227
 51
175.0000200120062
  0
LINE
  5
127C
330
1F
100
AcDbEntity
  8
0
  6
Continuous
 62
    30
100
AcDbLine
 10
183.3343939865091
 20
83.76059402437965
 30
0.0
 11
183.4952514916572
 21
85.60018065268435
 31
0.0
  0
ARC
  5
127D
330
1F
100
AcDbEntity
  8
0
  6
Continuous
 62
    30
100
AcDbCircle
 10
190.5793835410673
 20
85.46068620691274
 30
0.0
 40
1.600031396292933
100
AcDbArc
 50
4.99898242311189
 51
90.00028091600839
  0
LINE
  5
127E
330
1F
100
AcDbEntity
  8
0
  6
Continuous
 62
    30
100
AcDbLine
 10
192.3343691886859
 20
83.76057970734965
 30
0.0
 11
192.1733788112588
 21
85.6000232205829
 31
0.0
  0
ARC
  5
127F
330
1F
100
AcDbEntity
  8
0
  6
Continuous
 62
     7
100
AcDbCircle
 10
227.001660139134
 20
61.08896990323767
 30
0.0
 40
2.000016974647674
100
AcDbArc
 50
0.0049025883137356
 51
60.8889192803368
  0
LINE
  5
1281
330
1F
100
AcDbEntity
  8
0
  6
Continuous
 62
     7
100
AcDbLine
 10
212.33417710646
 20
128.2605410373057
 30
0.0
 11
163.9407771064601
 21
128.2605410373057
 31
0.0
  0
ARC
  5
1282
330
1F
100
AcDbEntity
  8
0
  6
Continuous
 62
     7
100
AcDbCircle
 10
163.9406504002042
 20
99.76051469981733
 30
0.0
 40
28.50002633777016
100
AcDbArc
 50
89.99974527273707
 51
179.2036113279756
  0
LINE
  5
128D
330
1F
100
AcDbEntity
  8
0
  6
Continuous
 62
     7
100
AcDbLine
 10
240.22427710646
 20
100.1565410373058
 30
0.0
 11
240.6812204323847
 21
67.28620170130084
 31
0.0
  0
ARC
  5
1290
330
1F
100
AcDbEntity
  8
0
  6
Continuous
 62
     7
100
AcDbCircle
 10
241.86687710646
 20
44.79404103730582
 30
0.0
 40
0.5
100
AcDbArc
 50
180.0
 51
270.0
  0
ARC
  5
1291
330
1F
100
AcDbEntity
  8
0
  6
Continuous
 62
     7
100
AcDbCircle
 10
239.86687710646
 20
44.79404103730582
 30
0.0
 40
0.5
100
AcDbArc
 50
270.0
 51
0.0
  0
LINE
  5
1292
330
1F
100
AcDbEntity
  8
0
  6
Continuous
 62
     7
100
AcDbLine
 10
268.6414963147199
 20
10.57006305007567
 30
0.0
 11
269.418489323938
 21
10.76054103733331
 31
0.0
  0
LINE
  5
1293
330
1F
100
AcDbEntity
  8
0
  6
Continuous
 62
     7
100
AcDbLine
 10
258.16247710646
 20
31.92854103730582
 30
0.0
 11
237.95477710646
 21
31.92854103730582
 31
0.0
  0
ARC
  5
1294
330
1F
100
AcDbEntity
  8
0
  6
Continuous
 62
     7
100
AcDbCircle
 10
239.86687710646
 20
42.79404103730581
 30
0.0
 40
0.5
100
AcDbArc
 50
0.0
 51
90.0
  0
ARC
  5
1295
330
1F
100
AcDbEntity
  8
0
  6
Continuous
 62
     7
100
AcDbCircle
 10
241.86687710646
 20
42.79404103730581
 30
0.0
 40
0.5
100
AcDbArc
 50
90.0
 51
180.0
  0
LINE
  5
1296
330
1F
100
AcDbEntity
  8
0
  6
Continuous
 62
     7
100
AcDbLine
 10
240.36687710646
 20
41.39414103730581
 30
0.0
 11
240.36687710646
 21
42.79404103730581
 31
0.0
  0
LINE
  5
1297
330
1F
100
AcDbEntity
  8
0
  6
Continuous
 62
     7
100
AcDbLine
 10
241.36687710646
 20
41.39414103730581
 30
0.0
 11
241.36687710646
 21
42.79404103730581
 31
0.0
  0
LINE
  5
1298
330
1F
100
AcDbEntity
  8
0
  6
Continuous
 62
     7
100
AcDbLine
 10
243.26677710646
 20
43.29404103730581
 30
0.0
 11
241.86687710646
 21
43.29404103730581
 31
0.0
  0
LINE
  5
1299
330
1F
100
AcDbEntity
  8
0
  6
Continuous
 62
     7
100
AcDbLine
 10
243.26677710646
 20
44.29404103730582
 30
0.0
 11
241.86687710646
 21
44.29404103730582
 31
0.0
  0
LINE
  5
129A
330
1F
100
AcDbEntity
  8
0
  6
Continuous
 62
     7
100
AcDbLine
 10
239.86687710646
 20
43.29404103730581
 30
0.0
 11
238.46697710646
 21
43.29404103730581
 31
0.0
  0
LINE
  5
129B
330
1F
100
AcDbEntity
  8
0
  6
Continuous
 62
     7
100
AcDbLine
 10
239.86687710646
 20
44.29404103730582
 30
0.0
 11
238.46697710646
 21
44.29404103730582
 31
0.0
  0
LINE
  5
129C
330
1F
100
AcDbEntity
  8
0
  6
Continuous
 62
     7
100
AcDbLine
 10
238.46697710646
 20
43.29404103730581
 30
0.0
 11
238.46697710646
 21
44.29404103730582
 31
0.0
  0
LINE
  5
129D
330
1F
100
AcDbEntity
  8
0
  6
Continuous
 62
     7
100
AcDbLine
 10
243.26677710646
 20
43.29404103730581
 30
0.0
 11
243.26677710646
 21
44.29404103730582
 31
0.0
  0
LINE
  5
129E
330
1F
100
AcDbEntity
  8
0
  6
Continuous
 62
     7
100
AcDbLine
 10
241.36687710646
 20
41.39414103730581
 30
0.0
 11
240.36687710646
 21
41.39414103730581
 31
0.0
  0
ARC
  5
129F
330
1F
100
AcDbEntity
  8
0
  6
Continuous
 62
     7
100
AcDbCircle
 10
258.1625144421708
 20
29.92851909699348
 30
0.0
 40
2.000021940660846
100
AcDbArc
 50
29.11772270129489
 51
90.00106957759168
  0
LINE
  5
12A2
330
1F
100
AcDbEntity
  8
0
  6
Continuous
 62
     7
100
AcDbLine
 10
240.6812204323847
 20
67.28620170130084
 30
0.0
 11
240.81437710646
 21
57.70754103730581
 31
0.0
  0
ARC
  5
12A3
330
1F
100
AcDbEntity
  8
0
  6
Continuous
 62
     7
100
AcDbCircle
 10
243.8138666628924
 20
57.74936297462159
 30
0.0
 40
2.99998108484197
100
AcDbArc
 50
180.7987710767084
 51
230.1161103944175
  0
LINE
  5
12A4
330
1F
100
AcDbEntity
  8
0
  6
Continuous
 62
     7
100
AcDbLine
 10
245.41857710646
 20
55.87574103730581
 30
0.0
 11
248.46987710646
 21
53.04424103730579
 31
0.0
  0
LINE
  5
12A5
330
1F
100
AcDbEntity
  8
0
  6
Continuous
 62
     7
100
AcDbLine
 10
242.61007710646
 20
54.93474103730581
 30
0.0
 11
243.6620771064601
 21
55.88674103730582
 31
0.0
  0
LINE
  5
12A6
330
1F
100
AcDbEntity
  8
0
  6
DASH_CENTER
 62
    30
100
AcDbLine
 10
242.40157710646
 20
49.56444103730581
 30
0.0
 11
247.41767710646
 21
54.97024103730582
 31
0.0
  0
LINE
  5
12A7
330
1F
100
AcDbEntity
  8
0
  6
Continuous
 62
     7
100
AcDbLine
 10
242.61007710646
 20
54.93474103730581
 30
0.0
 11
247.74117710646
 21
50.17334103730582
 31
0.0
  0
LINE
  5
12A8
330
1F
100
AcDbEntity
  8
0
  6
Continuous
 62
     7
100
AcDbLine
 10
240.36687710646
 20
44.79404103730582
 30
0.0
 11
240.36687710646
 21
46.1939410373058
 31
0.0
  0
LINE
  5
12A9
330
1F
100
AcDbEntity
  8
0
  6
Continuous
 62
     7
100
AcDbLine
 10
241.36687710646
 20
44.79404103730582
 30
0.0
 11
241.36687710646
 21
46.1939410373058
 31
0.0
  0
LINE
  5
12AA
330
1F
100
AcDbEntity
  8
0
  6
Continuous
 62
     7
100
AcDbLine
 10
241.36687710646
 20
46.1939410373058
 30
0.0
 11
240.36687710646
 21
46.1939410373058
 31
0.0
  0
ARC
  5
12AB
330
1F
100
AcDbEntity
  8
0
  6
Continuous
 62
     7
100
AcDbCircle
 10
247.5855765744733
 20
52.09134759148681
 30
0.0
 40
1.299997442288534
100
AcDbArc
 50
322.1425841397457
 51
47.13818460174122
  0
LINE
  5
12AC
330
1F
100
AcDbEntity
  8
0
  6
Continuous
 62
     7
100
AcDbLine
 10
249.88667710646
 20
46.6331410373058
 30
0.0
 11
250.4810771064601
 21
47.1682410373058
 31
0.0
  0
LINE
  5
12AD
330
1F
100
AcDbEntity
  8
0
  6
Continuous
 62
     7
100
AcDbLine
 10
247.74117710646
 20
50.17334103730582
 30
0.0
 11
248.61177710646
 21
51.29354103730581
 31
0.0
  0
ARC
  5
12AE
330
1F
100
AcDbEntity
  8
0
  6
Continuous
 62
     7
100
AcDbCircle
 10
244.5346251689076
 20
54.92274073631695
 30
0.0
 40
1.299969412213189
100
AcDbArc
 50
47.13996004821472
 51
132.1424249951383
  0
MTEXT
  5
12B9
330
1F
100
AcDbEntity
  8
0
100
AcDbMText
 10
-67.31412368109215
 20
-168.4862304313989
 30
0.0
 40
8.0
 41
134.7499726430265
 71
     1
 72
     1
  1
AET-FBF 4P 0.75kW
 73
     1
 44
1.0
  0
VIEWPORT
  5
71
330
55
100
AcDbEntity
 67
     1
  8
0
100
AcDbViewport
 10
133.3499908447265
 20
101.5999970436096
 30
0.0
 40
381.3957395593834
 41
218.2856291881582
 68
     1
 69
     1
 12
133.3499908447265
 22
101.5999970436096
 13
0.0
 23
0.0
 14
10.0
 24
10.0
 15
10.0
 25
10.0
 16
0.0
 26
0.0
 36
1.0
 17
0.0
 27
0.0
 37
0.0
 42
50.0
 43
0.0
 44
0.0
 45
218.2856291881582
 50
0.0
 51
0.0
 72
   100
 90
    32800
  1

281
     0
 71
     1
 74
     0
110
0.0
120
0.0
130
0.0
111
1.0
121
0.0
131
0.0
112
0.0
122
1.0
132
0.0
 79
     0
146
0.0
  0
VIEWPORT
  5
73
330
55
100
AcDbEntity
 67
     1
  8
0
100
AcDbViewport
 10
133.349993944168
 20
101.599993944168
 30
0.0
 40
213.3599903106689
 41
162.5599903106689
 68
     2
 69
     2
 12
210.0
 22
148.5
 13
0.0
 23
0.0
 14
10.0
 24
10.0
 15
10.0
 25
10.0
 16
0.0
 26
0.0
 36
1.0
 17
0.0
 27
0.0
 37
0.0
 42
50.0
 43
0.0
 44
0.0
 45
324.0677920111345
 50
0.0
 51
0.0
 72
   100
 90
    32864
  1

281
     0
 71
     1
 74
     0
110
0.0
120
0.0
130
0.0
111
1.0
121
0.0
131
0.0
112
0.0
122
1.0
132
0.0
 79
     0
146
0.0
  0
ENDSEC
  0
SECTION
  2
OBJECTS
  0
DICTIONARY
  5
C
330
0
100
AcDbDictionary
281
     1
  3
ACAD_GROUP
350
D
  3
ACAD_LAYOUT
350
1A
  3
ACAD_MLINESTYLE
350
17
  3
ACAD_PLOTSETTINGS
350
19
  3
ACAD_PLOTSTYLENAME
350
E
  3
AcDbVariableDictionary
350
5E
  0
DICTIONARY
  5
D
102
{ACAD_REACTORS
330
C
102
}
330
C
100
AcDbDictionary
281
     1
  0
DICTIONARY
  5
1A
102
{ACAD_REACTORS
330
C
102
}
330
C
100
AcDbDictionary
281
     1
  3
Model
350
22
  3
ﾚｲｱｳﾄ1
350
51
  3
ﾚｲｱｳﾄ2
350
56
  0
DICTIONARY
  5
17
102
{ACAD_REACTORS
330
C
102
}
330
C
100
AcDbDictionary
281
     1
  3
Standard
350
18
  0
DICTIONARY
  5
19
102
{ACAD_REACTORS
330
C
102
}
330
C
100
AcDbDictionary
281
     1
  0
ACDBDICTIONARYWDFLT
  5
E
102
{ACAD_REACTORS
330
C
102
}
330
C
100
AcDbDictionary
281
     1
  3
Normal
350
F
100
AcDbDictionaryWithDefault
340
F
  0
DICTIONARY
  5
5E
102
{ACAD_REACTORS
330
C
102
}
330
C
100
AcDbDictionary
281
     1
  3
DIMASSOC
350
5F
  3
HIDETEXT
350
63
  0
LAYOUT
  5
22
102
{ACAD_REACTORS
330
1A
102
}
330
1A
100
AcDbPlotSettings
  1

  2
none_device
  4
ANSI_A_(8.50_x_11.00_Inches)
  6

 40
6.349999904632568
 41
19.04999923706054
 42
6.350006103515625
 43
19.04998779296875
 44
215.8999938964843
 45
279.3999938964843
 46
0.0
 47
0.0
 48
0.0
 49
0.0
140
0.0
141
0.0
142
1.0
143
78.436453180766
 70
 11952
 72
     0
 73
     1
 74
     0
  7

 75
     0
147
0.0127491741332998
148
0.0
149
0.0
100
AcDbLayout
  1
Model
 70
     1
 71
     0
 10
0.0
 20
0.0
 11
12.0
 21
9.0
 12
0.0
 22
0.0
 32
0.0
 14
0.0
 24
0.0
 34
0.0
 15
0.0
 25
0.0
 35
0.0
146
0.0
 13
0.0
 23
0.0
 33
0.0
 16
1.0
 26
0.0
 36
0.0
 17
0.0
 27
1.0
 37
0.0
 76
     0
330
1F
  0
LAYOUT
  5
51
102
{ACAD_REACTORS
330
1A
102
}
330
1A
100
AcDbPlotSettings
  1

  2
none_device
  4
Letter_(8.50_x_11.00_Inches)
  6

 40
6.349999904632568
 41
6.349999904632568
 42
6.350006103515625
 43
6.350006103515625
 44
215.8999938964843
 45
279.3999938964843
 46
0.0
 47
0.0
 48
0.0
 49
0.0
140
0.0
141
0.0
142
1.0
143
1.0
 70
   688
 72
     1
 73
     1
 74
     5
  7

 75
    16
147
1.0
148
0.0
149
0.0
100
AcDbLayout
  1
ﾚｲｱｳﾄ1
 70
     1
 71
     1
 10
-6.350006103515625
 20
-6.349999904632568
 11
273.0499877929687
 21
209.5499939918517
 12
0.0
 22
0.0
 32
0.0
 14
26.66076962115562
 24
20.31135699206657
 34
-0.0015258207003583
 15
240.039213369355
 25
182.8886381005154
 35
0.0000000349246037
146
0.0
 13
0.0
 23
0.0
 33
0.0
 16
1.0
 26
0.0
 36
0.0
 17
0.0
 27
1.0
 37
0.0
 76
     0
330
50
331
6B
  0
LAYOUT
  5
56
102
{ACAD_REACTORS
330
1A
102
}
330
1A
100
AcDbPlotSettings
  1

  2
none_device
  4
Letter_(8.50_x_11.00_Inches)
  6

 40
6.349999904632568
 41
6.349999904632568
 42
6.350006103515625
 43
6.350006103515625
 44
215.8999938964843
 45
279.3999938964843
 46
0.0
 47
0.0
 48
0.0
 49
0.0
140
0.0
141
0.0
142
1.0
143
1.0
 70
   688
 72
     1
 73
     1
 74
     5
  7

 75
    16
147
1.0
148
0.0
149
0.0
100
AcDbLayout
  1
ﾚｲｱｳﾄ2
 70
     1
 71
     2
 10
-6.350006103515625
 20
-6.349999904632568
 11
273.0499877929687
 21
209.5499939918517
 12
0.0
 22
0.0
 32
0.0
 14
26.66076962115562
 24
20.31135699206657
 34
-0.0015258207003583
 15
240.039213369355
 25
182.8886381005154
 35
0.0000000349246037
146
0.0
 13
0.0
 23
0.0
 33
0.0
 16
1.0
 26
0.0
 36
0.0
 17
0.0
 27
1.0
 37
0.0
 76
     0
330
55
331
71
  0
MLINESTYLE
  5
18
102
{ACAD_REACTORS
330
17
102
}
330
17
100
AcDbMlineStyle
  2
STANDARD
 70
     0
  3

 62
   256
 51
90.0
 52
90.0
 71
     2
 49
0.5
 62
   256
  6
BYLAYER
 49
-0.5
 62
   256
  6
BYLAYER
  0
ACDBPLACEHOLDER
  5
F
102
{ACAD_REACTORS
330
E
102
}
330
E
  0
DICTIONARYVAR
  5
5F
102
{ACAD_REACTORS
330
5E
102
}
330
5E
100
DictionaryVariables
280
     0
  1
2
  0
DICTIONARYVAR
  5
63
102
{ACAD_REACTORS
330
5E
102
}
330
5E
100
DictionaryVariables
280
     0
  1
1
  0
ENDSEC
  0
EOF
