  0
SECTION
  2
HEADER
  9
$ACADVER
  1
AC1015
  9
$ACADMAINTVER
 70
    20
  9
$DWGCODEPAGE
  3
ANSI_932
  9
$INSBASE
 10
0.0
 20
0.0
 30
0.0
  9
$EXTMIN
 10
-367.2228125212841
 20
-164.5274986700298
 30
-0.0000000349181948
  9
$EXTMAX
 10
295.1624004549099
 20
94.34088933709835
 30
0.0000000814935747
  9
$LIMMIN
 10
0.0
 20
0.0
  9
$LIMMAX
 10
420.0
 20
297.0
  9
$ORTHOMODE
 70
     0
  9
$REGENMODE
 70
     1
  9
$FILLMODE
 70
     1
  9
$QTEXTMODE
 70
     0
  9
$MIRRTEXT
 70
     0
  9
$LTSCALE
 40
1.0
  9
$ATTMODE
 70
     1
  9
$TEXTSIZE
 40
2.5
  9
$TRACEWID
 40
1.0
  9
$TEXTSTYLE
  7
Standard
  9
$CLAYER
  8
0
  9
$CELTYPE
  6
ByLayer
  9
$CECOLOR
 62
   256
  9
$CELTSCALE
 40
1.0
  9
$DISPSILH
 70
     0
  9
$DIMSCALE
 40
1.0
  9
$DIMASZ
 40
2.5
  9
$DIMEXO
 40
0.625
  9
$DIMDLI
 40
3.75
  9
$DIMRND
 40
0.0
  9
$DIMDLE
 40
0.0
  9
$DIMEXE
 40
1.25
  9
$DIMTP
 40
0.0
  9
$DIMTM
 40
0.0
  9
$DIMTXT
 40
2.5
  9
$DIMCEN
 40
2.5
  9
$DIMTSZ
 40
0.0
  9
$DIMTOL
 70
     0
  9
$DIMLIM
 70
     0
  9
$DIMTIH
 70
     0
  9
$DIMTOH
 70
     0
  9
$DIMSE1
 70
     0
  9
$DIMSE2
 70
     0
  9
$DIMTAD
 70
     1
  9
$DIMZIN
 70
     8
  9
$DIMBLK
  1

  9
$DIMASO
 70
     1
  9
$DIMSHO
 70
     1
  9
$DIMPOST
  1

  9
$DIMAPOST
  1

  9
$DIMALT
 70
     0
  9
$DIMALTD
 70
     3
  9
$DIMALTF
 40
0.03937007874016
  9
$DIMLFAC
 40
1.0
  9
$DIMTOFL
 70
     1
  9
$DIMTVP
 40
0.0
  9
$DIMTIX
 70
     0
  9
$DIMSOXD
 70
     0
  9
$DIMSAH
 70
     0
  9
$DIMBLK1
  1

  9
$DIMBLK2
  1

  9
$DIMSTYLE
  2
ISO-25
  9
$DIMCLRD
 70
     0
  9
$DIMCLRE
 70
     0
  9
$DIMCLRT
 70
     0
  9
$DIMTFAC
 40
1.0
  9
$DIMGAP
 40
0.625
  9
$DIMJUST
 70
     0
  9
$DIMSD1
 70
     0
  9
$DIMSD2
 70
     0
  9
$DIMTOLJ
 70
     0
  9
$DIMTZIN
 70
     8
  9
$DIMALTZ
 70
     0
  9
$DIMALTTZ
 70
     0
  9
$DIMUPT
 70
     0
  9
$DIMDEC
 70
     2
  9
$DIMTDEC
 70
     2
  9
$DIMALTU
 70
     2
  9
$DIMALTTD
 70
     3
  9
$DIMTXSTY
  7
Standard
  9
$DIMAUNIT
 70
     0
  9
$DIMADEC
 70
     0
  9
$DIMALTRND
 40
0.0
  9
$DIMAZIN
 70
     0
  9
$DIMDSEP
 70
    46
  9
$DIMATFIT
 70
     3
  9
$DIMFRAC
 70
     0
  9
$DIMLDRBLK
  1

  9
$DIMLUNIT
 70
     2
  9
$DIMLWD
 70
    -2
  9
$DIMLWE
 70
    -2
  9
$DIMTMOVE
 70
     0
  9
$LUNITS
 70
     2
  9
$LUPREC
 70
     4
  9
$SKETCHINC
 40
1.0
  9
$FILLETRAD
 40
0.0
  9
$AUNITS
 70
     0
  9
$AUPREC
 70
     0
  9
$MENU
  1
.
  9
$ELEVATION
 40
0.0
  9
$PELEVATION
 40
0.0
  9
$THICKNESS
 40
0.0
  9
$LIMCHECK
 70
     0
  9
$CHAMFERA
 40
0.0
  9
$CHAMFERB
 40
0.0
  9
$CHAMFERC
 40
0.0
  9
$CHAMFERD
 40
0.0
  9
$SKPOLY
 70
     0
  9
$TDCREATE
 40
2457113.691815880
  9
$TDUCREATE
 40
2457113.316815880
  9
$TDUPDATE
 40
2457113.717332755
  9
$TDUUPDATE
 40
2457113.342332755
  9
$TDINDWG
 40
0.0031427315
  9
$TDUSRTIMER
 40
0.0031425579
  9
$USRTIMER
 70
     1
  9
$ANGBASE
 50
0.0
  9
$ANGDIR
 70
     0
  9
$PDMODE
 70
     0
  9
$PDSIZE
 40
0.0
  9
$PLINEWID
 40
0.0
  9
$SPLFRAME
 70
     0
  9
$SPLINETYPE
 70
     6
  9
$SPLINESEGS
 70
     8
  9
$HANDSEED
  5
618
  9
$SURFTAB1
 70
     6
  9
$SURFTAB2
 70
     6
  9
$SURFTYPE
 70
     6
  9
$SURFU
 70
     6
  9
$SURFV
 70
     6
  9
$UCSBASE
  2

  9
$UCSNAME
  2

  9
$UCSORG
 10
0.0
 20
0.0
 30
0.0
  9
$UCSXDIR
 10
1.0
 20
0.0
 30
0.0
  9
$UCSYDIR
 10
0.0
 20
1.0
 30
0.0
  9
$UCSORTHOREF
  2

  9
$UCSORTHOVIEW
 70
     0
  9
$UCSORGTOP
 10
0.0
 20
0.0
 30
0.0
  9
$UCSORGBOTTOM
 10
0.0
 20
0.0
 30
0.0
  9
$UCSORGLEFT
 10
0.0
 20
0.0
 30
0.0
  9
$UCSORGRIGHT
 10
0.0
 20
0.0
 30
0.0
  9
$UCSORGFRONT
 10
0.0
 20
0.0
 30
0.0
  9
$UCSORGBACK
 10
0.0
 20
0.0
 30
0.0
  9
$PUCSBASE
  2

  9
$PUCSNAME
  2

  9
$PUCSORG
 10
0.0
 20
0.0
 30
0.0
  9
$PUCSXDIR
 10
1.0
 20
0.0
 30
0.0
  9
$PUCSYDIR
 10
0.0
 20
1.0
 30
0.0
  9
$PUCSORTHOREF
  2

  9
$PUCSORTHOVIEW
 70
     0
  9
$PUCSORGTOP
 10
0.0
 20
0.0
 30
0.0
  9
$PUCSORGBOTTOM
 10
0.0
 20
0.0
 30
0.0
  9
$PUCSORGLEFT
 10
0.0
 20
0.0
 30
0.0
  9
$PUCSORGRIGHT
 10
0.0
 20
0.0
 30
0.0
  9
$PUCSORGFRONT
 10
0.0
 20
0.0
 30
0.0
  9
$PUCSORGBACK
 10
0.0
 20
0.0
 30
0.0
  9
$USERI1
 70
     0
  9
$USERI2
 70
     0
  9
$USERI3
 70
     0
  9
$USERI4
 70
     0
  9
$USERI5
 70
     0
  9
$USERR1
 40
0.0
  9
$USERR2
 40
0.0
  9
$USERR3
 40
0.0
  9
$USERR4
 40
0.0
  9
$USERR5
 40
0.0
  9
$WORLDVIEW
 70
     1
  9
$SHADEDGE
 70
     3
  9
$SHADEDIF
 70
    70
  9
$TILEMODE
 70
     1
  9
$MAXACTVP
 70
    64
  9
$PINSBASE
 10
0.0
 20
0.0
 30
0.0
  9
$PLIMCHECK
 70
     0
  9
$PEXTMIN
 10
1.000000000000000E+20
 20
1.000000000000000E+20
 30
1.000000000000000E+20
  9
$PEXTMAX
 10
-1.000000000000000E+20
 20
-1.000000000000000E+20
 30
-1.000000000000000E+20
  9
$PLIMMIN
 10
0.0
 20
0.0
  9
$PLIMMAX
 10
420.0
 20
297.0
  9
$UNITMODE
 70
     0
  9
$VISRETAIN
 70
     1
  9
$PLINEGEN
 70
     0
  9
$PSLTSCALE
 70
     1
  9
$TREEDEPTH
 70
  3020
  9
$CMLSTYLE
  2
Standard
  9
$CMLJUST
 70
     0
  9
$CMLSCALE
 40
20.0
  9
$PROXYGRAPHICS
 70
     1
  9
$MEASUREMENT
 70
     1
  9
$CELWEIGHT
370
    -1
  9
$ENDCAPS
280
     0
  9
$JOINSTYLE
280
     0
  9
$LWDISPLAY
290
     0
  9
$INSUNITS
 70
     4
  9
$HYPERLINKBASE
  1

  9
$STYLESHEET
  1

  9
$XEDIT
290
     1
  9
$CEPSNTYPE
380
     0
  9
$PSTYLEMODE
290
     1
  9
$FINGERPRINTGUID
  2
{B0FD573D-4CE7-48C3-99B4-AE20D3953B2B}
  9
$VERSIONGUID
  2
{AD5B7256-A024-4706-B09D-61781F83019A}
  9
$EXTNAMES
290
     1
  9
$PSVPSCALE
 40
0.0
  9
$OLESTARTUP
290
     0
  0
ENDSEC
  0
SECTION
  2
CLASSES
  0
CLASS
  1
ACDBDICTIONARYWDFLT
  2
AcDbDictionaryWithDefault
  3
ObjectDBX Classes
 90
        0
280
     0
281
     0
  0
CLASS
  1
MATERIAL
  2
AcDbMaterial
  3
ObjectDBX Classes
 90
     1153
280
     0
281
     0
  0
CLASS
  1
VISUALSTYLE
  2
AcDbVisualStyle
  3
ObjectDBX Classes
 90
     4095
280
     0
281
     0
  0
CLASS
  1
SCALE
  2
AcDbScale
  3
ObjectDBX Classes
 90
     1153
280
     0
281
     0
  0
CLASS
  1
TABLESTYLE
  2
AcDbTableStyle
  3
ObjectDBX Classes
 90
     4095
280
     0
281
     0
  0
CLASS
  1
MLEADERSTYLE
  2
AcDbMLeaderStyle
  3
ACDB_MLEADERSTYLE_CLASS
 90
     4095
280
     0
281
     0
  0
CLASS
  1
DICTIONARYVAR
  2
AcDbDictionaryVar
  3
ObjectDBX Classes
 90
        0
280
     0
281
     0
  0
CLASS
  1
CELLSTYLEMAP
  2
AcDbCellStyleMap
  3
ObjectDBX Classes
 90
     1152
280
     0
281
     0
  0
CLASS
  1
ACDBPLACEHOLDER
  2
AcDbPlaceHolder
  3
ObjectDBX Classes
 90
        0
280
     0
281
     0
  0
CLASS
  1
LAYOUT
  2
AcDbLayout
  3
ObjectDBX Classes
 90
        0
280
     0
281
     0
  0
ENDSEC
  0
SECTION
  2
TABLES
  0
TABLE
  2
VPORT
  5
8
330
0
100
AcDbSymbolTable
 70
     1
  0
VPORT
  5
57
330
8
100
AcDbSymbolTableRecord
100
AcDbViewportTableRecord
  2
*Active
 70
     0
 10
0.0
 20
0.0
 11
1.0
 21
1.0
 12
-36.03020603318714
 22
-35.09330466646571
 13
0.0
 23
0.0
 14
10.0
 24
10.0
 15
10.0
 25
10.0
 16
0.0
 26
0.0
 36
1.0
 17
0.0
 27
0.0
 37
0.0
 40
368.7094922859175
 41
1.804644808743169
 42
50.0
 43
0.0
 44
0.0
 50
0.0
 51
0.0
 71
     0
 72
  1000
 73
     1
 74
     3
 75
     0
 76
     0
 77
     0
 78
     0
281
     0
 65
     1
110
0.0
120
0.0
130
0.0
111
1.0
121
0.0
131
0.0
112
0.0
122
1.0
132
0.0
 79
     0
146
0.0
1001
ACAD_NAV_VCDISPLAY
1070
     1
  0
ENDTAB
  0
TABLE
  2
LTYPE
  5
5
330
0
100
AcDbSymbolTable
 70
     4
  0
LTYPE
  5
5B
330
5
100
AcDbSymbolTableRecord
100
AcDbLinetypeTableRecord
  2
ByBlock
 70
     0
  3

 72
    65
 73
     0
 40
0.0
  0
LTYPE
  5
5C
330
5
100
AcDbSymbolTableRecord
100
AcDbLinetypeTableRecord
  2
ByLayer
 70
     0
  3

 72
    65
 73
     0
 40
0.0
  0
LTYPE
  5
5D
330
5
100
AcDbSymbolTableRecord
100
AcDbLinetypeTableRecord
  2
Continuous
 70
     0
  3
Solid line
 72
    65
 73
     0
 40
0.0
  0
LTYPE
  5
7E
330
5
100
AcDbSymbolTableRecord
100
AcDbLinetypeTableRecord
  2
DASHED
 70
     0
  3
Dashed
 72
    65
 73
     2
 40
15.0
 49
7.0
 74
     0
 49
-8.0
 74
     0
  0
LTYPE
  5
7F
330
5
100
AcDbSymbolTableRecord
100
AcDbLinetypeTableRecord
  2
DASH_CENTER
 70
     0
  3
Dash_Center
 72
    65
 73
     4
 40
14.0
 49
11.0
 74
     0
 49
-1.0
 74
     0
 49
1.0
 74
     0
 49
-1.0
 74
     0
  0
ENDTAB
  0
TABLE
  2
LAYER
  5
2
330
0
100
AcDbSymbolTable
 70
     8
  0
LAYER
  5
54
330
2
100
AcDbSymbolTableRecord
100
AcDbLayerTableRecord
  2
0
 70
     0
 62
     7
  6
Continuous
370
    -3
390
F
  0
LAYER
  5
80
330
2
100
AcDbSymbolTableRecord
100
AcDbLayerTableRecord
  2
1
 70
     0
 62
     7
  6
Continuous
370
    -3
390
F
  0
LAYER
  5
81
330
2
100
AcDbSymbolTableRecord
100
AcDbLayerTableRecord
  2
10
 70
     0
 62
     7
  6
Continuous
370
    -3
390
F
  0
LAYER
  5
82
330
2
100
AcDbSymbolTableRecord
100
AcDbLayerTableRecord
  2
100
 70
     0
 62
     7
  6
Continuous
370
    -3
390
F
  0
LAYER
  5
83
330
2
100
AcDbSymbolTableRecord
100
AcDbLayerTableRecord
  2
110
 70
     0
 62
     7
  6
Continuous
370
    -3
390
F
  0
LAYER
  5
84
330
2
100
AcDbSymbolTableRecord
100
AcDbLayerTableRecord
  2
115
 70
     0
 62
     7
  6
Continuous
370
    -3
390
F
  0
LAYER
  5
85
330
2
100
AcDbSymbolTableRecord
100
AcDbLayerTableRecord
  2
160
 70
     0
 62
     7
  6
Continuous
370
    -3
390
F
  0
LAYER
  5
86
330
2
100
AcDbSymbolTableRecord
100
AcDbLayerTableRecord
  2
60
 70
     0
 62
     7
  6
Continuous
370
    -3
390
F
  0
ENDTAB
  0
TABLE
  2
STYLE
  5
3
330
0
100
AcDbSymbolTable
 70
     1
  0
STYLE
  5
55
330
3
100
AcDbSymbolTableRecord
100
AcDbTextStyleTableRecord
  2
Standard
 70
     0
 40
0.0
 41
1.0
 50
0.0
 71
     0
 42
2.5
  3
txt
  4

  0
ENDTAB
  0
TABLE
  2
VIEW
  5
6
330
0
100
AcDbSymbolTable
 70
     0
  0
ENDTAB
  0
TABLE
  2
UCS
  5
7
330
0
100
AcDbSymbolTable
 70
     0
  0
ENDTAB
  0
TABLE
  2
APPID
  5
9
330
0
100
AcDbSymbolTable
 70
     6
  0
APPID
  5
56
330
9
100
AcDbSymbolTableRecord
100
AcDbRegAppTableRecord
  2
ACAD
 70
     0
  0
APPID
  5
5E
330
9
100
AcDbSymbolTableRecord
100
AcDbRegAppTableRecord
  2
AcadAnnotative
 70
     0
  0
APPID
  5
76
330
9
100
AcDbSymbolTableRecord
100
AcDbRegAppTableRecord
  2
ACAD_NAV_VCDISPLAY
 70
     0
  0
APPID
  5
576
330
9
100
AcDbSymbolTableRecord
100
AcDbRegAppTableRecord
  2
ACAD_EXEMPT_FROM_CAD_STANDARDS
 70
     0
  0
APPID
  5
5C3
330
9
100
AcDbSymbolTableRecord
100
AcDbRegAppTableRecord
  2
ACAD_DSTYLE_DIMJOGGED_JOGANGLE_SYMBOL
 70
     0
  0
APPID
  5
5C5
330
9
100
AcDbSymbolTableRecord
100
AcDbRegAppTableRecord
  2
ACAD_MLEADERVER
 70
     0
  0
ENDTAB
  0
TABLE
  2
DIMSTYLE
  5
A
330
0
100
AcDbSymbolTable
 70
     2
100
AcDbDimStyleTable
 71
     0
  0
DIMSTYLE
105
58
330
A
100
AcDbSymbolTableRecord
100
AcDbDimStyleTableRecord
  2
ISO-25
 70
     0
 41
2.5
 42
0.625
 43
3.75
 44
1.25
 73
     0
 74
     0
 77
     1
 78
     8
140
2.5
141
2.5
143
0.03937007874016
147
0.625
171
     3
172
     1
271
     2
272
     2
274
     3
283
     0
284
     8
340
55
1001
ACAD_DSTYLE_DIMJOGGED_JOGANGLE_SYMBOL
1070
   384
1040
1.570796326794896
  0
DIMSTYLE
105
89
330
A
100
AcDbSymbolTableRecord
100
AcDbDimStyleTableRecord
  2
Standard
 70
     0
340
55
  0
ENDTAB
  0
TABLE
  2
BLOCK_RECORD
  5
1
330
0
100
AcDbSymbolTable
 70
     2
  0
BLOCK_RECORD
  5
6C
330
1
100
AcDbSymbolTableRecord
100
AcDbBlockTableRecord
  2
*Model_Space
340
6F
  0
BLOCK_RECORD
  5
68
330
1
100
AcDbSymbolTableRecord
100
AcDbBlockTableRecord
  2
*Paper_Space
340
6B
  0
BLOCK_RECORD
  5
70
330
1
100
AcDbSymbolTableRecord
100
AcDbBlockTableRecord
  2
*Paper_Space0
340
73
  0
ENDTAB
  0
ENDSEC
  0
SECTION
  2
BLOCKS
  0
BLOCK
  5
6D
330
6C
100
AcDbEntity
  8
0
100
AcDbBlockBegin
  2
*Model_Space
 70
     0
 10
0.0
 20
0.0
 30
0.0
  3
*Model_Space
  1

  0
ENDBLK
  5
6E
330
6C
100
AcDbEntity
  8
0
100
AcDbBlockEnd
  0
BLOCK
  5
69
330
68
100
AcDbEntity
 67
     1
  8
0
100
AcDbBlockBegin
  2
*Paper_Space
 70
     0
 10
0.0
 20
0.0
 30
0.0
  3
*Paper_Space
  1

  0
ENDBLK
  5
6A
330
68
100
AcDbEntity
 67
     1
  8
0
100
AcDbBlockEnd
  0
BLOCK
  5
71
330
70
100
AcDbEntity
 67
     1
  8
0
100
AcDbBlockBegin
  2
*Paper_Space0
 70
     0
 10
0.0
 20
0.0
 30
0.0
  3
*Paper_Space0
  1

  0
ENDBLK
  5
72
330
70
100
AcDbEntity
 67
     1
  8
0
100
AcDbBlockEnd
  0
ENDSEC
  0
SECTION
  2
ENTITIES
  0
LINE
  5
303
330
6C
100
AcDbEntity
  8
60
  6
Continuous
 62
     7
100
AcDbLine
 10
0.0
 20
6.0
 30
0.0
 11
-3.0
 21
6.0
 31
0.0
  0
LINE
  5
304
330
6C
100
AcDbEntity
  8
160
  6
DASH_CENTER
 62
    30
100
AcDbLine
 10
0.0
 20
15.3920135036908
 30
0.0
 11
0.0
 21
-13.29999999999998
 31
0.0
  0
LINE
  5
305
330
6C
100
AcDbEntity
  8
60
  6
Continuous
 62
     7
100
AcDbLine
 10
285.5640000000001
 20
-150.2104
 30
0.0
 11
285.5640000000001
 21
-129.082
 31
0.0
  0
LINE
  5
306
330
6C
100
AcDbEntity
  8
160
  6
DASH_CENTER
 62
    30
100
AcDbLine
 10
284.4175
 20
-131.582
 30
0.0
 11
245.9214000000002
 21
-131.582
 31
0.0
  0
LINE
  5
307
330
6C
100
AcDbEntity
  8
60
  6
Continuous
 62
     7
100
AcDbLine
 10
285.5640000000001
 20
-142.582
 30
0.0
 11
255.0642
 21
-142.582
 31
0.0
  0
LINE
  5
308
330
6C
100
AcDbEntity
  8
60
  6
Continuous
 62
     7
100
AcDbLine
 10
275.5640000000001
 20
-119.082
 30
0.0
 11
238.1498000000001
 21
-119.082
 31
0.0
  0
LINE
  5
309
330
6C
100
AcDbEntity
  8
60
  6
Continuous
 62
     7
100
AcDbLine
 10
244.0642
 20
-131.582
 30
0.0
 11
244.0642
 21
-119.082
 31
0.0
  0
LINE
  5
30A
330
6C
100
AcDbEntity
  8
160
  6
Continuous
 62
    54
100
AcDbLine
 10
240.7339000000002
 20
-138.049
 30
0.0
 11
243.6601
 21
-144.0917
 31
0.0
  0
LINE
  5
30B
330
6C
100
AcDbEntity
  8
160
  6
DASH_CENTER
 62
    30
100
AcDbLine
 10
264.5642
 20
-114.4678
 30
0.0
 11
264.5642
 21
-145.27
 31
0.0
  0
LINE
  5
30C
330
6C
100
AcDbEntity
  8
160
  6
Continuous
 62
    54
100
AcDbLine
 10
238.1116999999999
 20
-130.7524
 30
0.0
 11
240.7339000000002
 21
-138.049
 31
0.0
  0
LINE
  5
30D
330
6C
100
AcDbEntity
  8
160
  6
Continuous
 62
    54
100
AcDbLine
 10
238.6057
 20
-127.56
 30
0.0
 11
238.1116999999999
 21
-130.7524
 31
0.0
  0
LINE
  5
30E
330
6C
100
AcDbEntity
  8
160
  6
Continuous
 62
    54
100
AcDbLine
 10
239.1758
 20
-122.3913
 30
0.0
 11
238.6057
 21
-127.56
 31
0.0
  0
LINE
  5
30F
330
6C
100
AcDbEntity
  8
160
  6
Continuous
 62
    54
100
AcDbLine
 10
238.1498000000001
 20
-119.082
 30
0.0
 11
239.1758
 21
-122.3913
 31
0.0
  0
LINE
  5
310
330
6C
100
AcDbEntity
  8
160
  6
Continuous
 62
    54
100
AcDbLine
 10
243.6601
 20
-144.0917
 30
0.0
 11
249.6269
 21
-147.4743
 31
0.0
  0
LINE
  5
311
330
6C
100
AcDbEntity
  8
160
  6
Continuous
 62
    54
100
AcDbLine
 10
249.6269
 20
-147.4743
 30
0.0
 11
256.8857
 21
-148.9943
 31
0.0
  0
LINE
  5
312
330
6C
100
AcDbEntity
  8
160
  6
Continuous
 62
    54
100
AcDbLine
 10
256.8857
 20
-148.9943
 30
0.0
 11
265.1328000000001
 21
-150.2104
 31
0.0
  0
LINE
  5
313
330
6C
100
AcDbEntity
  8
160
  6
Continuous
 62
    54
100
AcDbLine
 10
265.1328000000001
 20
-150.2104
 30
0.0
 11
271.9734000000001
 21
-149.4123
 31
0.0
  0
LINE
  5
314
330
6C
100
AcDbEntity
  8
160
  6
Continuous
 62
    54
100
AcDbLine
 10
271.9734000000001
 20
-149.4123
 30
0.0
 11
278.3200999999999
 21
-149.9824
 31
0.0
  0
LINE
  5
315
330
6C
100
AcDbEntity
  8
160
  6
Continuous
 62
    54
100
AcDbLine
 10
278.3200999999999
 20
-149.9824
 30
0.0
 11
285.5640000000001
 21
-150.2104
 31
0.0
  0
LINE
  5
316
330
6C
100
AcDbEntity
  8
160
  6
DASH_CENTER
 62
    30
100
AcDbLine
 10
-14.93529999999987
 20
0.0
 30
0.0
 11
14.96360000000004
 21
0.0
 31
0.0
  0
LINE
  5
317
330
6C
100
AcDbEntity
  8
60
  6
Continuous
 62
     7
100
AcDbLine
 10
3.0
 20
12.0
 30
0.0
 11
3.0
 21
6.0
 31
0.0
  0
LINE
  5
318
330
6C
100
AcDbEntity
  8
60
  6
Continuous
 62
     7
100
AcDbLine
 10
-3.0
 20
12.0
 30
0.0
 11
-3.0
 21
6.0
 31
0.0
  0
LINE
  5
319
330
6C
100
AcDbEntity
  8
60
  6
Continuous
 62
     7
100
AcDbLine
 10
3.0
 20
6.0
 30
0.0
 11
0.0
 21
6.0
 31
0.0
  0
LINE
  5
31A
330
6C
100
AcDbEntity
  8
60
  6
Continuous
 62
     7
100
AcDbLine
 10
3.0
 20
12.0
 30
0.0
 11
-3.0
 21
12.0
 31
0.0
  0
LINE
  5
31B
330
6C
100
AcDbEntity
  8
60
  6
Continuous
 62
     7
100
AcDbLine
 10
273.0640000000001
 20
-136.582
 30
0.0
 11
256.0642
 21
-136.582
 31
0.0
  0
LINE
  5
31C
330
6C
100
AcDbEntity
  8
60
  6
Continuous
 62
     7
100
AcDbLine
 10
273.0640000000001
 20
-126.582
 30
0.0
 11
256.0642
 21
-126.582
 31
0.0
  0
ARC
  5
31D
330
6C
100
AcDbEntity
  8
60
  6
Continuous
 62
     7
100
AcDbCircle
 10
275.5640000000001
 20
-129.082
 30
0.0
 40
10.0
100
AcDbArc
 50
0.0
 51
90.0
  0
ARC
  5
31E
330
6C
100
AcDbEntity
  8
60
  6
Continuous
 62
     7
100
AcDbCircle
 10
255.0642000002272
 20
-131.5820000002273
 30
0.0
 40
11.00000000022723
100
AcDbArc
 50
179.9999999988161
 51
269.9994791280918
  0
ARC
  5
31F
330
6C
100
AcDbEntity
  8
60
  6
Continuous
 62
     7
100
AcDbCircle
 10
273.0640000000001
 20
-131.582
 30
0.0
 40
5.0
100
AcDbArc
 50
0.0
 51
90.0
  0
ARC
  5
320
330
6C
100
AcDbEntity
  8
60
  6
Continuous
 62
     7
100
AcDbCircle
 10
273.0640000000001
 20
-131.582
 30
0.0
 40
5.0
100
AcDbArc
 50
270.0
 51
0.0
  0
ARC
  5
321
330
6C
100
AcDbEntity
  8
60
  6
Continuous
 62
     7
100
AcDbCircle
 10
256.0642
 20
-131.582
 30
0.0
 40
5.0
100
AcDbArc
 50
180.0
 51
270.0
  0
ARC
  5
322
330
6C
100
AcDbEntity
  8
60
  6
Continuous
 62
     7
100
AcDbCircle
 10
256.0642
 20
-131.582
 30
0.0
 40
5.0
100
AcDbArc
 50
90.0
 51
180.0
  0
ARC
  5
323
330
6C
100
AcDbEntity
  8
160
  6
Continuous
 62
    30
100
AcDbCircle
 10
-0.000063858410158
 20
-0.0000103471910506
 30
0.0
 40
9.500010347405675
100
AcDbArc
 50
89.99961486173893
 51
108.4080534920658
  0
ARC
  5
324
330
6C
100
AcDbEntity
  8
60
  6
Continuous
 62
     7
100
AcDbCircle
 10
0.0
 20
0.0
 30
0.0
 40
9.500020695240612
100
AcDbArc
 50
108.4084386294808
 51
71.59156137051915
  0
POINT
  5
325
330
6C
100
AcDbEntity
  8
10
 62
     7
100
AcDbPoint
 10
61.7251000000001
 20
-18.02439999999998
 30
0.0
  0
POINT
  5
326
330
6C
100
AcDbEntity
  8
115
 62
     2
100
AcDbPoint
 10
204.4091000000001
 20
79.99979999999998
 30
0.0
  0
POINT
  5
327
330
6C
100
AcDbEntity
  8
115
 62
     2
100
AcDbPoint
 10
122.0640000000001
 20
2.344800000000019
 30
0.0
  0
LINE
  5
328
330
6C
100
AcDbEntity
  8
110
  6
DASH_CENTER
 62
    30
100
AcDbLine
 10
202.0641
 20
94.33089999999998
 30
0.0
 11
202.0644
 21
-89.54019999999998
 31
0.0
  0
LINE
  5
329
330
6C
100
AcDbEntity
  8
110
  6
DASH_CENTER
 62
    30
100
AcDbLine
 10
264.5642
 20
-68.1098
 30
0.0
 11
264.5642
 21
-87.39689999999997
 31
0.0
  0
LINE
  5
32A
330
6C
100
AcDbEntity
  8
10
  6
Continuous
 62
     7
100
AcDbLine
 10
160.064
 20
-78.5
 30
0.0
 11
244.0640000000001
 21
-78.5
 31
0.0
  0
LINE
  5
32B
330
6C
100
AcDbEntity
  8
10
  6
Continuous
 62
     7
100
AcDbLine
 10
285.5640000000001
 20
-80.0
 30
0.0
 11
244.0640000000001
 21
-80.0
 31
0.0
  0
LINE
  5
32C
330
6C
100
AcDbEntity
  8
10
  6
Continuous
 62
     7
100
AcDbLine
 10
244.0640000000001
 20
-76.79999999999998
 30
0.0
 11
285.5640000000001
 21
-76.79999999999998
 31
0.0
  0
LINE
  5
32D
330
6C
100
AcDbEntity
  8
10
  6
Continuous
 62
     7
100
AcDbLine
 10
244.0640000000001
 20
-75.29999999999998
 30
0.0
 11
244.0640000000001
 21
-76.79999999999998
 31
0.0
  0
LINE
  5
32E
330
6C
100
AcDbEntity
  8
10
  6
Continuous
 62
     7
100
AcDbLine
 10
244.0640000000001
 20
-78.5
 30
0.0
 11
244.0640000000001
 21
-80.0
 31
0.0
  0
LINE
  5
32F
330
6C
100
AcDbEntity
  8
10
  6
Continuous
 62
     7
100
AcDbLine
 10
280.8655000000001
 20
-73.65959999999998
 30
0.0
 11
266.5769
 21
-54.10099999999999
 31
0.0
  0
LINE
  5
330
330
6C
100
AcDbEntity
  8
10
  6
Continuous
 62
     7
100
AcDbLine
 10
240.8975
 20
-73.36519999999999
 30
0.0
 11
238.2069000000001
 21
-68.90209999999999
 31
0.0
  0
LINE
  5
331
330
6C
100
AcDbEntity
  8
10
  6
Continuous
 62
     7
100
AcDbLine
 10
211.6292000000001
 20
-74.24289999999998
 30
0.0
 11
212.5967000000001
 21
-72.43259999999998
 31
0.0
  0
LINE
  5
332
330
6C
100
AcDbEntity
  8
10
  6
Continuous
 62
     7
100
AcDbLine
 10
118.5640000000001
 20
-75.29999999999998
 30
0.0
 11
285.5640000000001
 21
-75.29999999999998
 31
0.0
  0
LINE
  5
333
330
6C
100
AcDbEntity
  8
10
  6
Continuous
 62
     7
100
AcDbLine
 10
118.5640000000001
 20
-75.30019999999997
 30
0.0
 11
118.5640000000001
 21
-80.00020000000002
 31
0.0
  0
LINE
  5
334
330
6C
100
AcDbEntity
  8
10
  6
Continuous
 62
     7
100
AcDbLine
 10
194.2628
 20
-75.29999999999998
 30
0.0
 11
209.8652999999999
 21
-75.29999999999998
 31
0.0
  0
LINE
  5
335
330
6C
100
AcDbEntity
  8
10
  6
Continuous
 62
     7
100
AcDbLine
 10
192.4987
 20
-74.2431
 30
0.0
 11
191.5311
 21
-72.43279999999998
 31
0.0
  0
LINE
  5
336
330
6C
100
AcDbEntity
  8
10
  6
Continuous
 62
     7
100
AcDbLine
 10
163.2303000000002
 20
-73.36539999999998
 30
0.0
 11
165.921
 21
-68.90229999999999
 31
0.0
  0
LINE
  5
337
330
6C
100
AcDbEntity
  8
10
  6
Continuous
 62
     7
100
AcDbLine
 10
123.2625
 20
-73.6599
 30
0.0
 11
137.5507999999999
 21
-54.10129999999998
 31
0.0
  0
LINE
  5
338
330
6C
100
AcDbEntity
  8
10
  6
Continuous
 62
     7
100
AcDbLine
 10
160.0637999999999
 20
-78.5002
 30
0.0
 11
160.0637999999999
 21
-80.00020000000002
 31
0.0
  0
LINE
  5
339
330
6C
100
AcDbEntity
  8
10
  6
Continuous
 62
     7
100
AcDbLine
 10
160.0637000000001
 20
-75.30019999999997
 30
0.0
 11
160.0637000000001
 21
-76.80019999999998
 31
0.0
  0
LINE
  5
33A
330
6C
100
AcDbEntity
  8
10
  6
Continuous
 62
     7
100
AcDbLine
 10
160.0637000000001
 20
-76.80019999999998
 30
0.0
 11
118.5640000000001
 21
-76.80019999999998
 31
0.0
  0
LINE
  5
33B
330
6C
100
AcDbEntity
  8
10
  6
Continuous
 62
     7
100
AcDbLine
 10
237.0506
 20
63.2706
 30
0.0
 11
237.6390000000001
 21
63.85889999999999
 31
0.0
  0
LINE
  5
33C
330
6C
100
AcDbEntity
  8
10
  6
Continuous
 62
     7
100
AcDbLine
 10
118.5640000000001
 20
-80.00020000000002
 30
0.0
 11
160.0637999999999
 21
-80.00020000000002
 31
0.0
  0
LINE
  5
33D
330
6C
100
AcDbEntity
  8
110
  6
DASH_CENTER
 62
    30
100
AcDbLine
 10
163.2224000000001
 20
-38.84179999999998
 30
0.0
 11
147.9596000000001
 21
-54.1044
 31
0.0
  0
LINE
  5
33E
330
6C
100
AcDbEntity
  8
10
  6
Continuous
 62
     7
100
AcDbLine
 10
205.0639000000001
 20
6.249600000000014
 30
0.0
 11
205.0639000000001
 21
9.013500000000018
 31
0.0
  0
LINE
  5
33F
330
6C
100
AcDbEntity
  8
10
  6
Continuous
 62
     7
100
AcDbLine
 10
199.3139000000001
 20
5.999600000000014
 30
0.0
 11
204.8139000000001
 21
5.999600000000014
 31
0.0
  0
LINE
  5
340
330
6C
100
AcDbEntity
  8
10
  6
Continuous
 62
     7
100
AcDbLine
 10
199.0639
 20
6.249600000000014
 30
0.0
 11
199.0639
 21
9.013500000000018
 31
0.0
  0
LINE
  5
341
330
6C
100
AcDbEntity
  8
10
  6
Continuous
 62
     7
100
AcDbLine
 10
204.8139000000001
 20
5.999600000000014
 30
0.0
 11
205.0639000000001
 21
6.249600000000014
 31
0.0
  0
LINE
  5
342
330
6C
100
AcDbEntity
  8
10
  6
Continuous
 62
     7
100
AcDbLine
 10
199.0639
 20
6.249600000000014
 30
0.0
 11
199.3139000000001
 21
5.999600000000014
 31
0.0
  0
LINE
  5
343
330
6C
100
AcDbEntity
  8
10
  6
Continuous
 62
     7
100
AcDbLine
 10
199.3139000000001
 20
11.99960000000001
 30
0.0
 11
199.0639
 21
11.74960000000001
 31
0.0
  0
LINE
  5
344
330
6C
100
AcDbEntity
  8
10
  6
Continuous
 62
     7
100
AcDbLine
 10
205.0639000000001
 20
11.74960000000001
 30
0.0
 11
204.8139000000001
 21
11.99960000000001
 31
0.0
  0
LINE
  5
345
330
6C
100
AcDbEntity
  8
10
  6
Continuous
 62
     7
100
AcDbLine
 10
204.8139000000001
 20
5.999600000000014
 30
0.0
 11
199.3139000000001
 21
5.999600000000014
 31
0.0
  0
LINE
  5
346
330
6C
100
AcDbEntity
  8
10
  6
Continuous
 62
     7
100
AcDbLine
 10
205.0639000000001
 20
6.249600000000014
 30
0.0
 11
205.0639000000001
 21
11.74960000000001
 31
0.0
  0
LINE
  5
347
330
6C
100
AcDbEntity
  8
10
  6
Continuous
 62
     7
100
AcDbLine
 10
199.3139000000001
 20
11.99960000000001
 30
0.0
 11
204.8139000000001
 21
11.99960000000001
 31
0.0
  0
LINE
  5
348
330
6C
100
AcDbEntity
  8
10
  6
Continuous
 62
     7
100
AcDbLine
 10
199.0639
 20
6.249600000000014
 30
0.0
 11
199.0639
 21
11.74960000000001
 31
0.0
  0
LINE
  5
349
330
6C
100
AcDbEntity
  8
10
  6
Continuous
 62
     7
100
AcDbLine
 10
265.3347000000001
 20
34.9864
 30
0.0
 11
265.9231
 21
35.57480000000004
 31
0.0
  0
LINE
  5
34A
330
6C
100
AcDbEntity
  8
10
  6
Continuous
 62
     7
100
AcDbLine
 10
155.8948
 20
-44.26949999999999
 30
0.0
 11
154.8948
 21
-44.26949999999999
 31
0.0
  0
LINE
  5
34B
330
6C
100
AcDbEntity
  8
10
  6
Continuous
 62
     7
100
AcDbLine
 10
155.8948
 20
-49.0693
 30
0.0
 11
154.8948
 21
-49.0693
 31
0.0
  0
LINE
  5
34C
330
6C
100
AcDbEntity
  8
10
  6
Continuous
 62
     7
100
AcDbLine
 10
157.7946999999999
 20
-47.1694
 30
0.0
 11
157.7946999999999
 21
-46.16939999999998
 31
0.0
  0
LINE
  5
34D
330
6C
100
AcDbEntity
  8
10
  6
Continuous
 62
     7
100
AcDbLine
 10
152.9949000000001
 20
-47.1694
 30
0.0
 11
152.9949000000001
 21
-46.16939999999998
 31
0.0
  0
LINE
  5
34E
330
6C
100
AcDbEntity
  8
10
  6
Continuous
 62
     7
100
AcDbLine
 10
155.8948
 20
-45.66939999999998
 30
0.0
 11
155.8948
 21
-44.26949999999999
 31
0.0
  0
LINE
  5
34F
330
6C
100
AcDbEntity
  8
10
  6
Continuous
 62
     7
100
AcDbLine
 10
154.3948
 20
-46.16939999999998
 30
0.0
 11
152.9949000000001
 21
-46.16939999999998
 31
0.0
  0
LINE
  5
350
330
6C
100
AcDbEntity
  8
10
  6
Continuous
 62
     7
100
AcDbLine
 10
154.3948
 20
-47.1694
 30
0.0
 11
152.9949000000001
 21
-47.1694
 31
0.0
  0
LINE
  5
351
330
6C
100
AcDbEntity
  8
10
  6
Continuous
 62
     7
100
AcDbLine
 10
154.8948
 20
-45.66939999999998
 30
0.0
 11
154.8948
 21
-44.26949999999999
 31
0.0
  0
LINE
  5
352
330
6C
100
AcDbEntity
  8
10
  6
Continuous
 62
     7
100
AcDbLine
 10
157.7946999999999
 20
-46.16939999999998
 30
0.0
 11
156.3948
 21
-46.16939999999998
 31
0.0
  0
LINE
  5
353
330
6C
100
AcDbEntity
  8
10
  6
Continuous
 62
     7
100
AcDbLine
 10
157.7946999999999
 20
-47.1694
 30
0.0
 11
156.3948
 21
-47.1694
 31
0.0
  0
LINE
  5
354
330
6C
100
AcDbEntity
  8
10
  6
Continuous
 62
     7
100
AcDbLine
 10
155.8948
 20
-49.0693
 30
0.0
 11
155.8948
 21
-47.66939999999999
 31
0.0
  0
LINE
  5
355
330
6C
100
AcDbEntity
  8
10
  6
Continuous
 62
     7
100
AcDbLine
 10
154.8948
 20
-49.0693
 30
0.0
 11
154.8948
 21
-47.66939999999999
 31
0.0
  0
LINE
  5
356
330
6C
100
AcDbEntity
  8
110
  6
DASH_CENTER
 62
    30
100
AcDbLine
 10
240.9053
 20
-38.84199999999998
 30
0.0
 11
256.1680000000001
 21
-54.10469999999998
 31
0.0
  0
LINE
  5
357
330
6C
100
AcDbEntity
  8
10
  6
Continuous
 62
     7
100
AcDbLine
 10
246.3330000000001
 20
-46.16939999999998
 30
0.0
 11
246.3330000000001
 21
-47.1694
 31
0.0
  0
LINE
  5
358
330
6C
100
AcDbEntity
  8
10
  6
Continuous
 62
     7
100
AcDbLine
 10
251.1328000000001
 20
-46.16939999999998
 30
0.0
 11
251.1328000000001
 21
-47.1694
 31
0.0
  0
LINE
  5
359
330
6C
100
AcDbEntity
  8
10
  6
Continuous
 62
     7
100
AcDbLine
 10
249.2329
 20
-44.26949999999999
 30
0.0
 11
248.2329
 21
-44.26949999999999
 31
0.0
  0
LINE
  5
35A
330
6C
100
AcDbEntity
  8
10
  6
Continuous
 62
     7
100
AcDbLine
 10
249.2329
 20
-49.0693
 30
0.0
 11
248.2329
 21
-49.0693
 31
0.0
  0
LINE
  5
35B
330
6C
100
AcDbEntity
  8
10
  6
Continuous
 62
     7
100
AcDbLine
 10
247.7329
 20
-46.16939999999998
 30
0.0
 11
246.3330000000001
 21
-46.16939999999998
 31
0.0
  0
LINE
  5
35C
330
6C
100
AcDbEntity
  8
10
  6
Continuous
 62
     7
100
AcDbLine
 10
248.2329
 20
-47.66939999999999
 30
0.0
 11
248.2329
 21
-49.0693
 31
0.0
  0
LINE
  5
35D
330
6C
100
AcDbEntity
  8
10
  6
Continuous
 62
     7
100
AcDbLine
 10
249.2329
 20
-47.66939999999999
 30
0.0
 11
249.2329
 21
-49.0693
 31
0.0
  0
LINE
  5
35E
330
6C
100
AcDbEntity
  8
10
  6
Continuous
 62
     7
100
AcDbLine
 10
247.7329
 20
-47.1694
 30
0.0
 11
246.3330000000001
 21
-47.1694
 31
0.0
  0
LINE
  5
35F
330
6C
100
AcDbEntity
  8
10
  6
Continuous
 62
     7
100
AcDbLine
 10
248.2329
 20
-44.26949999999999
 30
0.0
 11
248.2329
 21
-45.66939999999998
 31
0.0
  0
LINE
  5
360
330
6C
100
AcDbEntity
  8
10
  6
Continuous
 62
     7
100
AcDbLine
 10
249.2329
 20
-44.26949999999999
 30
0.0
 11
249.2329
 21
-45.66939999999998
 31
0.0
  0
LINE
  5
361
330
6C
100
AcDbEntity
  8
10
  6
Continuous
 62
     7
100
AcDbLine
 10
251.1328000000001
 20
-46.16939999999998
 30
0.0
 11
249.7329
 21
-46.16939999999998
 31
0.0
  0
LINE
  5
362
330
6C
100
AcDbEntity
  8
10
  6
Continuous
 62
     7
100
AcDbLine
 10
251.1328000000001
 20
-47.1694
 30
0.0
 11
249.7329
 21
-47.1694
 31
0.0
  0
LINE
  5
363
330
6C
100
AcDbEntity
  8
110
  6
DASH_CENTER
 62
    30
100
AcDbLine
 10
240.9055000000001
 20
38.84140000000002
 30
0.0
 11
256.1682000000001
 21
54.10380000000003
 31
0.0
  0
LINE
  5
364
330
6C
100
AcDbEntity
  8
10
  6
Continuous
 62
     7
100
AcDbLine
 10
248.2329
 20
44.26879999999999
 30
0.0
 11
249.2329
 21
44.26879999999999
 31
0.0
  0
LINE
  5
365
330
6C
100
AcDbEntity
  8
10
  6
Continuous
 62
     7
100
AcDbLine
 10
248.2329
 20
49.06869999999997
 30
0.0
 11
249.2329
 21
49.06869999999997
 31
0.0
  0
LINE
  5
366
330
6C
100
AcDbEntity
  8
10
  6
Continuous
 62
     7
100
AcDbLine
 10
246.3330000000001
 20
47.1687
 30
0.0
 11
246.3330000000001
 21
46.1687
 31
0.0
  0
LINE
  5
367
330
6C
100
AcDbEntity
  8
10
  6
Continuous
 62
     7
100
AcDbLine
 10
251.1328000000001
 20
47.1687
 30
0.0
 11
251.1328000000001
 21
46.1687
 31
0.0
  0
LINE
  5
368
330
6C
100
AcDbEntity
  8
10
  6
Continuous
 62
     7
100
AcDbLine
 10
248.2329
 20
45.6687
 30
0.0
 11
248.2329
 21
44.26879999999999
 31
0.0
  0
LINE
  5
369
330
6C
100
AcDbEntity
  8
10
  6
Continuous
 62
     7
100
AcDbLine
 10
249.7329
 20
46.1687
 30
0.0
 11
251.1328000000001
 21
46.1687
 31
0.0
  0
LINE
  5
36A
330
6C
100
AcDbEntity
  8
10
  6
Continuous
 62
     7
100
AcDbLine
 10
249.7329
 20
47.1687
 30
0.0
 11
251.1328000000001
 21
47.1687
 31
0.0
  0
LINE
  5
36B
330
6C
100
AcDbEntity
  8
10
  6
Continuous
 62
     7
100
AcDbLine
 10
249.2329
 20
45.6687
 30
0.0
 11
249.2329
 21
44.26879999999999
 31
0.0
  0
LINE
  5
36C
330
6C
100
AcDbEntity
  8
10
  6
Continuous
 62
     7
100
AcDbLine
 10
246.3330000000001
 20
46.1687
 30
0.0
 11
247.7329
 21
46.1687
 31
0.0
  0
LINE
  5
36D
330
6C
100
AcDbEntity
  8
10
  6
Continuous
 62
     7
100
AcDbLine
 10
246.3330000000001
 20
47.1687
 30
0.0
 11
247.7329
 21
47.1687
 31
0.0
  0
LINE
  5
36E
330
6C
100
AcDbEntity
  8
10
  6
Continuous
 62
     7
100
AcDbLine
 10
248.2329
 20
49.06869999999997
 30
0.0
 11
248.2329
 21
47.66869999999999
 31
0.0
  0
LINE
  5
36F
330
6C
100
AcDbEntity
  8
10
  6
Continuous
 62
     7
100
AcDbLine
 10
249.2329
 20
49.06869999999997
 30
0.0
 11
249.2329
 21
47.66869999999999
 31
0.0
  0
LINE
  5
370
330
6C
100
AcDbEntity
  8
110
  6
DASH_CENTER
 62
    30
100
AcDbLine
 10
163.2224000000001
 20
38.84140000000002
 30
0.0
 11
147.9597000000001
 21
54.10409999999996
 31
0.0
  0
LINE
  5
371
330
6C
100
AcDbEntity
  8
10
  6
Continuous
 62
     7
100
AcDbLine
 10
157.7948000000001
 20
46.1687
 30
0.0
 11
157.7948000000001
 21
47.1687
 31
0.0
  0
LINE
  5
372
330
6C
100
AcDbEntity
  8
10
  6
Continuous
 62
     7
100
AcDbLine
 10
152.9949999999999
 20
46.1687
 30
0.0
 11
152.9949999999999
 21
47.1687
 31
0.0
  0
LINE
  5
373
330
6C
100
AcDbEntity
  8
10
  6
Continuous
 62
     7
100
AcDbLine
 10
154.8949
 20
44.26879999999999
 30
0.0
 11
155.8949
 21
44.26879999999999
 31
0.0
  0
LINE
  5
374
330
6C
100
AcDbEntity
  8
10
  6
Continuous
 62
     7
100
AcDbLine
 10
154.8949
 20
49.06869999999997
 30
0.0
 11
155.8949
 21
49.06869999999997
 31
0.0
  0
LINE
  5
375
330
6C
100
AcDbEntity
  8
10
  6
Continuous
 62
     7
100
AcDbLine
 10
156.3949
 20
46.1687
 30
0.0
 11
157.7948000000001
 21
46.1687
 31
0.0
  0
LINE
  5
376
330
6C
100
AcDbEntity
  8
10
  6
Continuous
 62
     7
100
AcDbLine
 10
155.8949
 20
47.66869999999999
 30
0.0
 11
155.8949
 21
49.06869999999997
 31
0.0
  0
LINE
  5
377
330
6C
100
AcDbEntity
  8
10
  6
Continuous
 62
     7
100
AcDbLine
 10
154.8949
 20
47.66869999999999
 30
0.0
 11
154.8949
 21
49.06869999999997
 31
0.0
  0
LINE
  5
378
330
6C
100
AcDbEntity
  8
10
  6
Continuous
 62
     7
100
AcDbLine
 10
156.3949
 20
47.1687
 30
0.0
 11
157.7948000000001
 21
47.1687
 31
0.0
  0
LINE
  5
379
330
6C
100
AcDbEntity
  8
10
  6
Continuous
 62
     7
100
AcDbLine
 10
155.8949
 20
44.26879999999999
 30
0.0
 11
155.8949
 21
45.6687
 31
0.0
  0
LINE
  5
37A
330
6C
100
AcDbEntity
  8
10
  6
Continuous
 62
     7
100
AcDbLine
 10
154.8949
 20
44.26879999999999
 30
0.0
 11
154.8949
 21
45.6687
 31
0.0
  0
LINE
  5
37B
330
6C
100
AcDbEntity
  8
10
  6
Continuous
 62
     7
100
AcDbLine
 10
152.9949999999999
 20
46.1687
 30
0.0
 11
154.3949
 21
46.1687
 31
0.0
  0
LINE
  5
37C
330
6C
100
AcDbEntity
  8
10
  6
Continuous
 62
     7
100
AcDbLine
 10
152.9949999999999
 20
47.1687
 30
0.0
 11
154.3949
 21
47.1687
 31
0.0
  0
LINE
  5
37D
330
6C
100
AcDbEntity
  8
10
  6
Continuous
 62
     7
100
AcDbLine
 10
163.3697000000002
 20
-12.00019999999998
 30
0.0
 11
169.3379
 21
-12.00019999999998
 31
0.0
  0
LINE
  5
37E
330
6C
100
AcDbEntity
  8
10
  6
Continuous
 62
     7
100
AcDbLine
 10
208.5640000000001
 20
37.41630000000004
 30
0.0
 11
208.5640000000001
 21
44.53910000000002
 31
0.0
  0
LINE
  5
37F
330
6C
100
AcDbEntity
  8
10
  6
Continuous
 62
     7
100
AcDbLine
 10
209.5640000000001
 20
36.41410000000003
 30
0.0
 11
209.5640000000001
 21
44.53910000000002
 31
0.0
  0
LINE
  5
380
330
6C
100
AcDbEntity
  8
10
  6
Continuous
 62
     7
100
AcDbLine
 10
238.2175000000002
 20
54.61820000000006
 30
0.0
 11
240.1641
 21
59.31790000000001
 31
0.0
  0
LINE
  5
381
330
6C
100
AcDbEntity
  8
10
  6
Continuous
 62
     7
100
AcDbLine
 10
194.5640000000001
 20
36.41410000000003
 30
0.0
 11
194.5640000000001
 21
44.53940000000005
 31
0.0
  0
LINE
  5
382
330
6C
100
AcDbEntity
  8
10
  6
Continuous
 62
     7
100
AcDbLine
 10
195.5640000000001
 20
37.41630000000004
 30
0.0
 11
195.5640000000001
 21
44.53940000000005
 31
0.0
  0
LINE
  5
383
330
6C
100
AcDbEntity
  8
10
  6
Continuous
 62
     7
100
AcDbLine
 10
215.1206000000002
 20
64.18530000000004
 30
0.0
 11
217.0672
 21
68.88510000000002
 31
0.0
  0
LINE
  5
384
330
6C
100
AcDbEntity
  8
10
  6
Continuous
 62
     7
100
AcDbLine
 10
190.064
 20
32.72610000000003
 30
0.0
 11
190.064
 21
38.69440000000003
 31
0.0
  0
LINE
  5
385
330
6C
100
AcDbEntity
  8
10
  6
Continuous
 62
     7
100
AcDbLine
 10
163.3697000000002
 20
11.99979999999999
 30
0.0
 11
169.3379
 21
11.99979999999999
 31
0.0
  0
LINE
  5
386
330
6C
100
AcDbEntity
  8
10
  6
Continuous
 62
     7
100
AcDbLine
 10
234.7901000000002
 20
11.99979999999999
 30
0.0
 11
240.758
 21
11.99979999999999
 31
0.0
  0
LINE
  5
387
330
6C
100
AcDbEntity
  8
10
  6
Continuous
 62
     7
100
AcDbLine
 10
214.0640000000001
 20
32.72590000000003
 30
0.0
 11
214.0640000000001
 21
38.69409999999999
 31
0.0
  0
LINE
  5
388
330
6C
100
AcDbEntity
  8
10
  6
Continuous
 62
     7
100
AcDbLine
 10
190.064
 20
-32.72629999999998
 30
0.0
 11
190.064
 21
-38.6945
 31
0.0
  0
LINE
  5
389
330
6C
100
AcDbEntity
  8
10
  6
Continuous
 62
     7
100
AcDbLine
 10
214.0640000000001
 20
-32.72629999999998
 30
0.0
 11
214.0640000000001
 21
-38.6943
 31
0.0
  0
LINE
  5
38A
330
6C
100
AcDbEntity
  8
10
  6
Continuous
 62
     7
100
AcDbLine
 10
234.7901000000002
 20
-12.00019999999998
 30
0.0
 11
240.758
 21
-12.00019999999998
 31
0.0
  0
LINE
  5
38B
330
6C
100
AcDbEntity
  8
10
  6
Continuous
 62
     7
100
AcDbLine
 10
165.9104
 20
54.61820000000006
 30
0.0
 11
163.9638
 21
59.31790000000001
 31
0.0
  0
LINE
  5
38C
330
6C
100
AcDbEntity
  8
10
  6
Continuous
 62
     7
100
AcDbLine
 10
189.0073999999999
 20
64.18530000000004
 30
0.0
 11
187.0608000000002
 21
68.88479999999998
 31
0.0
  0
LINE
  5
38D
330
6C
100
AcDbEntity
  8
10
  6
Continuous
 62
     7
100
AcDbLine
 10
147.4457
 20
-36.15379999999999
 30
0.0
 11
142.7461
 21
-38.10030000000001
 31
0.0
  0
LINE
  5
38E
330
6C
100
AcDbEntity
  8
10
  6
Continuous
 62
     7
100
AcDbLine
 10
137.8786
 20
-13.0566
 30
0.0
 11
133.1790000000001
 21
-15.0034
 31
0.0
  0
LINE
  5
38F
330
6C
100
AcDbEntity
  8
10
  6
Continuous
 62
     7
100
AcDbLine
 10
165.6496999999999
 20
7.499799999999991
 30
0.0
 11
157.5246999999999
 21
7.499799999999991
 31
0.0
  0
LINE
  5
390
330
6C
100
AcDbEntity
  8
10
  6
Continuous
 62
     7
100
AcDbLine
 10
164.6474
 20
6.499799999999991
 30
0.0
 11
157.5246000000002
 21
6.499799999999991
 31
0.0
  0
LINE
  5
391
330
6C
100
AcDbEntity
  8
10
  6
Continuous
 62
     7
100
AcDbLine
 10
165.6496999999999
 20
-7.500199999999977
 30
0.0
 11
157.5246000000002
 21
-7.500199999999977
 31
0.0
  0
LINE
  5
392
330
6C
100
AcDbEntity
  8
10
  6
Continuous
 62
     7
100
AcDbLine
 10
164.6474
 20
-6.500199999999977
 30
0.0
 11
157.5246000000002
 21
-6.500199999999977
 31
0.0
  0
LINE
  5
393
330
6C
100
AcDbEntity
  8
10
  6
Continuous
 62
     7
100
AcDbLine
 10
194.5640000000001
 20
-36.41450000000001
 30
0.0
 11
194.5640000000001
 21
-44.53949999999998
 31
0.0
  0
LINE
  5
394
330
6C
100
AcDbEntity
  8
10
  6
Continuous
 62
     7
100
AcDbLine
 10
195.5640000000001
 20
-37.41669999999999
 30
0.0
 11
195.5640000000001
 21
-44.53949999999998
 31
0.0
  0
LINE
  5
395
330
6C
100
AcDbEntity
  8
10
  6
Continuous
 62
     7
100
AcDbLine
 10
209.5639000000001
 20
-36.41450000000001
 30
0.0
 11
209.5640000000001
 21
-44.53949999999998
 31
0.0
  0
LINE
  5
396
330
6C
100
AcDbEntity
  8
10
  6
Continuous
 62
     7
100
AcDbLine
 10
208.5640000000001
 20
-37.41669999999999
 30
0.0
 11
208.5640000000001
 21
-44.53949999999998
 31
0.0
  0
LINE
  5
397
330
6C
100
AcDbEntity
  8
10
  6
Continuous
 62
     7
100
AcDbLine
 10
238.4783
 20
-7.500199999999977
 30
0.0
 11
246.6030000000001
 21
-7.500199999999977
 31
0.0
  0
LINE
  5
398
330
6C
100
AcDbEntity
  8
10
  6
Continuous
 62
     7
100
AcDbLine
 10
239.4805000000001
 20
-6.500199999999977
 30
0.0
 11
246.6033
 21
-6.500199999999977
 31
0.0
  0
LINE
  5
399
330
6C
100
AcDbEntity
  8
10
  6
Continuous
 62
     7
100
AcDbLine
 10
238.4780000000001
 20
7.499799999999991
 30
0.0
 11
246.6033
 21
7.499799999999991
 31
0.0
  0
LINE
  5
39A
330
6C
100
AcDbEntity
  8
10
  6
Continuous
 62
     7
100
AcDbLine
 10
239.4805000000001
 20
6.499799999999991
 30
0.0
 11
246.6033
 21
6.499799999999991
 31
0.0
  0
LINE
  5
39B
330
6C
100
AcDbEntity
  8
10
  6
Continuous
 62
     7
100
AcDbLine
 10
163.3697000000002
 20
-13.00019999999998
 30
0.0
 11
169.3379
 21
-13.00019999999998
 31
0.0
  0
LINE
  5
39C
330
6C
100
AcDbEntity
  8
10
  6
Continuous
 62
     7
100
AcDbLine
 10
189.0640000000001
 20
-32.72629999999998
 30
0.0
 11
189.0640000000001
 21
-38.6945
 31
0.0
  0
LINE
  5
39D
330
6C
100
AcDbEntity
  8
10
  6
Continuous
 62
     7
100
AcDbLine
 10
234.7901000000002
 20
-13.00019999999998
 30
0.0
 11
240.758
 21
-13.00019999999998
 31
0.0
  0
LINE
  5
39E
330
6C
100
AcDbEntity
  8
10
  6
Continuous
 62
     7
100
AcDbLine
 10
215.0640000000001
 20
-32.72629999999998
 30
0.0
 11
215.0640000000001
 21
-38.6943
 31
0.0
  0
LINE
  5
39F
330
6C
100
AcDbEntity
  8
10
  6
Continuous
 62
     7
100
AcDbLine
 10
234.7901000000002
 20
12.99979999999999
 30
0.0
 11
240.758
 21
12.99979999999999
 31
0.0
  0
LINE
  5
3A0
330
6C
100
AcDbEntity
  8
10
  6
Continuous
 62
     7
100
AcDbLine
 10
215.0640000000001
 20
32.72590000000003
 30
0.0
 11
215.0640000000001
 21
38.69409999999999
 31
0.0
  0
LINE
  5
3A1
330
6C
100
AcDbEntity
  8
10
  6
Continuous
 62
     7
100
AcDbLine
 10
189.0640000000001
 20
32.72610000000003
 30
0.0
 11
189.0640000000001
 21
38.69440000000003
 31
0.0
  0
LINE
  5
3A2
330
6C
100
AcDbEntity
  8
10
  6
Continuous
 62
     7
100
AcDbLine
 10
163.3697000000002
 20
12.99979999999999
 30
0.0
 11
169.3379
 21
12.99979999999999
 31
0.0
  0
LINE
  5
3A3
330
6C
100
AcDbEntity
  8
10
  6
Continuous
 62
     7
100
AcDbLine
 10
189.0072
 20
-64.18599999999996
 30
0.0
 11
187.0605
 21
-68.88549999999998
 31
0.0
  0
LINE
  5
3A4
330
6C
100
AcDbEntity
  8
10
  6
Continuous
 62
     7
100
AcDbLine
 10
165.9102
 20
-54.61879999999999
 30
0.0
 11
163.9637
 21
-59.31829999999999
 31
0.0
  0
LINE
  5
3A5
330
6C
100
AcDbEntity
  8
10
  6
Continuous
 62
     7
100
AcDbLine
 10
238.2175000000002
 20
-54.61929999999998
 30
0.0
 11
240.1638000000001
 21
-59.31879999999998
 31
0.0
  0
LINE
  5
3A6
330
6C
100
AcDbEntity
  8
10
  6
Continuous
 62
     7
100
AcDbLine
 10
215.1204
 20
-64.18619999999998
 30
0.0
 11
217.0671
 21
-68.88569999999998
 31
0.0
  0
LINE
  5
3A7
330
6C
100
AcDbEntity
  8
10
  6
Continuous
 62
     7
100
AcDbLine
 10
266.2497000000001
 20
-13.05779999999998
 30
0.0
 11
270.9490000000001
 21
-15.0043
 31
0.0
  0
LINE
  5
3A8
330
6C
100
AcDbEntity
  8
10
  6
Continuous
 62
     7
100
AcDbLine
 10
256.6824000000001
 20
-36.15449999999999
 30
0.0
 11
261.3818000000001
 21
-38.101
 31
0.0
  0
LINE
  5
3A9
330
6C
100
AcDbEntity
  8
10
  6
Continuous
 62
     7
100
AcDbLine
 10
256.6831
 20
36.15260000000001
 30
0.0
 11
261.3823
 21
38.0992
 31
0.0
  0
LINE
  5
3AA
330
6C
100
AcDbEntity
  8
10
  6
Continuous
 62
     7
100
AcDbLine
 10
266.2497000000001
 20
13.0557
 30
0.0
 11
270.9492
 21
15.00220000000001
 31
0.0
  0
LINE
  5
3AB
330
6C
100
AcDbEntity
  8
10
  6
Continuous
 62
     7
100
AcDbLine
 10
114.3158000000001
 20
-14.9897
 30
0.0
 11
124.7348999999999
 21
44.09840000000001
 31
0.0
  0
LINE
  5
3AC
330
6C
100
AcDbEntity
  8
10
  6
Continuous
 62
     7
100
AcDbLine
 10
65.88720000000012
 20
-23.57779999999999
 30
0.0
 11
63.9280000000001
 21
-22.1916
 31
0.0
  0
LINE
  5
3AD
330
6C
100
AcDbEntity
  8
10
  6
Continuous
 62
     7
100
AcDbLine
 10
63.64139999999999
 20
-20.51899999999998
 30
0.0
 11
118.5379
 21
57.07740000000001
 31
0.0
  0
LINE
  5
3AE
330
6C
100
AcDbEntity
  8
10
  6
Continuous
 62
     7
100
AcDbLine
 10
122.9513999999999
 20
57.07620000000003
 30
0.0
 11
65.88720000000012
 21
-23.57779999999999
 31
0.0
  0
LINE
  5
3AF
330
6C
100
AcDbEntity
  8
10
  6
Continuous
 62
     7
100
AcDbLine
 10
116.2951
 20
56.0806
 30
0.0
 11
89.12760000000004
 21
59.30790000000001
 31
0.0
  0
LINE
  5
3B0
330
6C
100
AcDbEntity
  8
10
  6
Continuous
 62
     7
100
AcDbLine
 10
119.0990999999999
 20
57.87139999999999
 30
0.0
 11
118.5374999999999
 21
57.0777
 31
0.0
  0
LINE
  5
3B1
330
6C
100
AcDbEntity
  8
10
  6
Continuous
 62
     7
100
AcDbLine
 10
122.9515000000001
 20
57.07620000000003
 30
0.0
 11
121.0895
 21
58.39359999999999
 31
0.0
  0
LINE
  5
3B2
330
6C
100
AcDbEntity
  8
110
  6
DASHED
 62
    30
100
AcDbLine
 10
101.5662
 20
-18.8356
 30
0.0
 11
101.7051000000001
 21
-18.04779999999999
 31
0.0
  0
LINE
  5
3B3
330
6C
100
AcDbEntity
  8
110
  6
DASHED
 62
    30
100
AcDbLine
 10
78.91560000000005
 20
-14.8417
 30
0.0
 11
79.05450000000019
 21
-14.0539
 31
0.0
  0
LINE
  5
3B4
330
6C
100
AcDbEntity
  8
10
  6
Continuous
 62
     7
100
AcDbLine
 10
121.6424999999999
 20
52.50200000000001
 30
0.0
 11
120.6292000000001
 21
53.68560000000002
 31
0.0
  0
LINE
  5
3B5
330
6C
100
AcDbEntity
  8
10
  6
Continuous
 62
     7
100
AcDbLine
 10
122.9488000000001
 20
47.72269999999998
 30
0.0
 11
112.1026999999999
 21
-13.7885
 31
0.0
  0
LINE
  5
3B6
330
6C
100
AcDbEntity
  8
110
  6
DASH_CENTER
 62
    30
100
AcDbLine
 10
91.45960000000014
 20
-9.927199999999999
 30
0.0
 11
88.59979999999996
 21
-26.14589999999998
 31
0.0
  0
LINE
  5
3B7
330
6C
100
AcDbEntity
  8
10
  6
Continuous
 62
     7
100
AcDbLine
 10
73.05200000000012
 20
-13.80879999999999
 30
0.0
 11
105.0129999999999
 21
-19.44329999999999
 31
0.0
  0
LINE
  5
3B8
330
6C
100
AcDbEntity
  8
10
  6
Continuous
 62
     7
100
AcDbLine
 10
105.0129999999999
 20
-19.44329999999999
 30
0.0
 11
104.8394
 21
-20.4282
 31
0.0
  0
LINE
  5
3B9
330
6C
100
AcDbEntity
  8
110
  6
DASHED
 62
    30
100
AcDbLine
 10
73.33860000000004
 20
-13.0463
 30
0.0
 11
104.3639
 21
-18.51729999999998
 31
0.0
  0
LINE
  5
3BA
330
6C
100
AcDbEntity
  8
10
  6
Continuous
 62
     7
100
AcDbLine
 10
75.4688000000001
 20
-14.2338
 30
0.0
 11
75.29520000000002
 21
-15.21869999999998
 31
0.0
  0
LINE
  5
3BB
330
6C
100
AcDbEntity
  8
110
  6
DASH_CENTER
 62
    30
100
AcDbLine
 10
72.67149999999992
 20
-21.2731
 30
0.0
 11
62.09609999999997
 21
-13.79149999999998
 31
0.0
  0
LINE
  5
3BC
330
6C
100
AcDbEntity
  8
10
  6
Continuous
 62
     7
100
AcDbLine
 10
63.70029999999997
 20
-20.43869999999998
 30
0.0
 11
62.29109999999991
 21
-19.24509999999998
 31
0.0
  0
LINE
  5
3BD
330
6C
100
AcDbEntity
  8
10
  6
Continuous
 62
     7
100
AcDbLine
 10
72.35050000000002
 20
-18.59609999999998
 30
0.0
 11
70.04160000000002
 21
-21.86230000000001
 31
0.0
  0
LINE
  5
3BE
330
6C
100
AcDbEntity
  8
110
  6
Continuous
 62
    30
100
AcDbLine
 10
70.04160000000002
 20
-21.86230000000001
 30
0.0
 11
68.08140000000003
 21
-20.4768
 31
0.0
  0
LINE
  5
3BF
330
6C
100
AcDbEntity
  8
110
  6
Continuous
 62
    30
100
AcDbLine
 10
72.35050000000002
 20
-18.59609999999998
 30
0.0
 11
70.39159999999992
 21
-17.2114
 31
0.0
  0
LINE
  5
3C0
330
6C
100
AcDbEntity
  8
10
  6
Continuous
 62
     7
100
AcDbLine
 10
69.34750000000008
 20
-21.98139999999998
 30
0.0
 11
70.04179999999997
 21
-21.86249999999998
 31
0.0
  0
LINE
  5
3C1
330
6C
100
AcDbEntity
  8
10
  6
Continuous
 62
     7
100
AcDbLine
 10
72.2337
 20
-17.89839999999998
 30
0.0
 11
72.35050000000002
 21
-18.59609999999998
 31
0.0
  0
LINE
  5
3C2
330
6C
100
AcDbEntity
  8
10
  6
Continuous
 62
     7
100
AcDbLine
 10
69.34750000000008
 20
-21.98139999999998
 30
0.0
 11
72.23390000000017
 21
-17.89859999999999
 31
0.0
  0
LINE
  5
3C3
330
6C
100
AcDbEntity
  8
10
  6
Continuous
 62
     7
100
AcDbLine
 10
70.68160000000013
 20
-16.80149999999997
 30
0.0
 11
72.23390000000017
 21
-17.89859999999999
 31
0.0
  0
LINE
  5
3C4
330
6C
100
AcDbEntity
  8
10
  6
Continuous
 62
     7
100
AcDbLine
 10
67.79379999999992
 20
-20.88329999999999
 30
0.0
 11
69.34750000000008
 21
-21.98139999999998
 31
0.0
  0
LINE
  5
3C5
330
6C
100
AcDbEntity
  8
10
  6
Continuous
 62
     7
100
AcDbLine
 10
62.01870000000007
 20
-17.10079999999999
 30
0.0
 11
64.22949999999993
 21
-13.97359999999997
 31
0.0
  0
LINE
  5
3C6
330
6C
100
AcDbEntity
  8
110
  6
DASH_CENTER
 62
    30
100
AcDbLine
 10
62.82600000000002
 20
24.55080000000001
 30
0.0
 11
144.2934
 21
10.18610000000001
 31
0.0
  0
LINE
  5
3C7
330
6C
100
AcDbEntity
  8
10
  6
Continuous
 62
     7
100
AcDbLine
 10
115.941
 20
-11.34829999999999
 30
0.0
 11
124.1653000000001
 21
-12.53
 31
0.0
  0
LINE
  5
3C8
330
6C
100
AcDbEntity
  8
10
  6
Continuous
 62
     7
100
AcDbLine
 10
113.134
 20
-14.78139999999999
 30
0.0
 11
114.3158000000001
 21
-14.9897
 31
0.0
  0
LINE
  5
3C9
330
6C
100
AcDbEntity
  8
10
  6
Continuous
 62
     7
100
AcDbLine
 10
123.7379000000001
 20
45.28840000000001
 30
0.0
 11
113.1457
 21
-14.7834
 31
0.0
  0
LINE
  5
3CA
330
6C
100
AcDbEntity
  8
10
  6
Continuous
 62
     7
100
AcDbLine
 10
123.5529000000001
 20
44.30689999999997
 30
0.0
 11
124.7346999999999
 21
44.0987
 31
0.0
  0
LINE
  5
3CB
330
6C
100
AcDbEntity
  8
10
  6
Continuous
 62
     7
100
AcDbLine
 10
125.0164
 20
40.12089999999999
 30
0.0
 11
133.1489000000001
 21
38.41849999999999
 31
0.0
  0
LINE
  5
3CC
330
6C
100
AcDbEntity
  8
10
  6
Continuous
 62
     7
100
AcDbLine
 10
111.7899999999999
 20
-15.56099999999998
 30
0.0
 11
112.9718
 21
-15.76919999999998
 31
0.0
  0
LINE
  5
3CD
330
6C
100
AcDbEntity
  8
10
  6
Continuous
 62
     7
100
AcDbLine
 10
122.5562
 20
45.49690000000004
 30
0.0
 11
123.738
 21
45.28840000000001
 31
0.0
  0
LINE
  5
3CE
330
6C
100
AcDbEntity
  8
10
  6
Continuous
 62
     7
100
AcDbLine
 10
112.9699
 20
-15.76899999999997
 30
0.0
 11
113.1438
 21
-14.7834
 31
0.0
  0
LINE
  5
3CF
330
6C
100
AcDbEntity
  8
10
  6
Continuous
 62
     7
100
AcDbLine
 10
196.0637
 20
74.75979999999998
 30
0.0
 11
196.0637
 21
78.77100000000002
 31
0.0
  0
LINE
  5
3D0
330
6C
100
AcDbEntity
  8
110
  6
DASH_CENTER
 62
    30
100
AcDbLine
 10
269.8516
 20
-5.931600000000002
 30
0.0
 11
288.0245999999999
 21
-7.52169999999998
 31
0.0
  0
LINE
  5
3D1
330
6C
100
AcDbEntity
  8
10
  6
Continuous
 62
     7
100
AcDbLine
 10
276.0161
 20
-12.49379999999999
 30
0.0
 11
280.0120000000002
 21
-12.8435
 31
0.0
  0
LINE
  5
3D2
330
6C
100
AcDbEntity
  8
10
  6
Continuous
 62
     7
100
AcDbLine
 10
281.0580999999999
 20
-0.8890999999999849
 30
0.0
 11
277.0613000000001
 21
-0.5394999999999756
 31
0.0
  0
LINE
  5
3D3
330
6C
100
AcDbEntity
  8
10
  6
Continuous
 62
     7
100
AcDbLine
 10
208.0637000000002
 20
78.7713
 30
0.0
 11
208.0637000000002
 21
74.75909999999998
 31
0.0
  0
LINE
  5
3D4
330
6C
100
AcDbEntity
  8
10
  6
Continuous
 62
     7
100
AcDbLine
 10
128.1111
 20
-12.49359999999998
 30
0.0
 11
124.1152999999999
 21
-12.84319999999999
 31
0.0
  0
LINE
  5
3D5
330
6C
100
AcDbEntity
  8
10
  6
Continuous
 62
     7
100
AcDbLine
 10
198.5637
 20
79.9993
 30
0.0
 11
198.6873
 21
81.4126
 31
0.0
  0
LINE
  5
3D6
330
6C
100
AcDbEntity
  8
10
  6
Continuous
 62
     7
100
AcDbLine
 10
199.9824
 20
82.5994
 30
0.0
 11
204.145
 21
82.5994
 31
0.0
  0
LINE
  5
3D7
330
6C
100
AcDbEntity
  8
10
  6
Continuous
 62
     7
100
AcDbLine
 10
205.5637000000002
 20
79.9993
 30
0.0
 11
205.4400000000001
 21
81.4126
 31
0.0
  0
LINE
  5
3D8
330
6C
100
AcDbEntity
  8
10
  6
Continuous
 62
     7
100
AcDbLine
 10
282.0644
 20
-3.485999999999988
 30
0.0
 11
283.4617000000001
 21
-3.732100000000001
 31
0.0
  0
LINE
  5
3D9
330
6C
100
AcDbEntity
  8
10
  6
Continuous
 62
     7
100
AcDbLine
 10
284.5309999999999
 20
-5.125900000000001
 30
0.0
 11
284.1682000000001
 21
-9.272699999999986
 31
0.0
  0
LINE
  5
3DA
330
6C
100
AcDbEntity
  8
10
  6
Continuous
 62
     7
100
AcDbLine
 10
281.4543000000001
 20
-10.45939999999998
 30
0.0
 11
282.8730000000001
 21
-10.45919999999998
 31
0.0
  0
LINE
  5
3DB
330
6C
100
AcDbEntity
  8
10
  6
Continuous
 62
     7
100
AcDbLine
 10
64.59180000000015
 20
-17.11539999999999
 30
0.0
 11
64.4398000000001
 21
-16.86099999999999
 31
0.0
  0
LINE
  5
3DC
330
6C
100
AcDbEntity
  8
10
  6
Continuous
 62
     7
100
AcDbLine
 10
137.8785
 20
13.05620000000002
 30
0.0
 11
133.1788000000001
 21
15.00300000000001
 31
0.0
  0
LINE
  5
3DD
330
6C
100
AcDbEntity
  8
10
  6
Continuous
 62
     7
100
AcDbLine
 10
147.4456
 20
36.1531
 30
0.0
 11
142.7461
 21
38.09970000000004
 31
0.0
  0
LINE
  5
3DE
330
6C
100
AcDbEntity
  8
10
  6
Continuous
 62
     7
100
AcDbLine
 10
89.12760000000004
 20
59.30770000000001
 30
0.0
 11
88.11310000000004
 21
59.30770000000001
 31
0.0
  0
LINE
  5
3DF
330
6C
100
AcDbEntity
  8
10
  6
Continuous
 62
     7
100
AcDbLine
 10
77.7285999999999
 20
-18.69399999999999
 30
0.0
 11
101.364
 21
-22.86179999999999
 31
0.0
  0
LINE
  5
3E0
330
6C
100
AcDbEntity
  8
10
  6
Continuous
 62
     7
100
AcDbLine
 10
285.5640000000001
 20
-75.29999999999998
 30
0.0
 11
285.5640000000001
 21
-80.0
 31
0.0
  0
LINE
  5
3E1
330
6C
100
AcDbEntity
  8
110
  6
DASH_CENTER
 62
    30
100
AcDbLine
 10
55.48970000000007
 20
-0.0001999999999782
 30
0.0
 11
295.1194
 21
-0.0001999999999782
 31
0.0
  0
LINE
  5
3E2
330
6C
100
AcDbEntity
  8
110
  6
DASH_CENTER
 62
    30
100
AcDbLine
 10
139.5646000000001
 20
-68.53829999999999
 30
0.0
 11
139.5646000000001
 21
-87.82559999999998
 31
0.0
  0
ARC
  5
3E3
330
6C
100
AcDbEntity
  8
10
  6
Continuous
 62
     7
100
AcDbCircle
 10
284.0955041631539
 20
-71.30000211438043
 30
0.0
 40
3.999997885621743
100
AcDbArc
 50
216.1498968374398
 51
269.9999403671755
  0
ARC
  5
3E4
330
6C
100
AcDbEntity
  8
10
  6
Continuous
 62
     7
100
AcDbCircle
 10
258.5022079203145
 20
-60.00000402249208
 30
0.0
 40
10.00000402249521
100
AcDbArc
 50
36.15063349348338
 51
90.00004538004429
  0
ARC
  5
3E5
330
6C
100
AcDbEntity
  8
10
  6
Continuous
 62
     7
100
AcDbCircle
 10
258.5021792984476
 20
-60.0000082162004
 30
0.0
 40
10.00000821622184
100
AcDbArc
 50
89.99988138893341
 51
133.2951988694409
  0
ARC
  5
3E6
330
6C
100
AcDbEntity
  8
10
  6
Continuous
 62
     7
100
AcDbCircle
 10
233.0684634655963
 20
-71.99998827355577
 30
0.0
 40
6.000036814347714
100
AcDbArc
 50
31.08516079080578
 51
113.3247047974961
  0
ARC
  5
3E7
330
6C
100
AcDbEntity
  8
10
  6
Continuous
 62
     7
100
AcDbCircle
 10
244.3231779285188
 20
-71.29998753453563
 30
0.0
 40
4.000012465525241
100
AcDbArc
 50
211.0861618643634
 51
270.0003161496871
  0
ARC
  5
3E8
330
6C
100
AcDbEntity
  8
10
  6
Continuous
 62
     7
100
AcDbCircle
 10
214.3605761281861
 20
-73.37521715458644
 30
0.0
 40
1.999993657273892
100
AcDbArc
 50
99.52561876000963
 51
151.8773819677591
  0
ARC
  5
3E9
330
6C
100
AcDbEntity
  8
10
  6
Continuous
 62
     7
100
AcDbCircle
 10
209.8652448472267
 20
-73.29997311912456
 30
0.0
 40
2.000026881635883
100
AcDbArc
 50
270.0015799893333
 51
331.8743264515541
  0
ARC
  5
3EA
330
6C
100
AcDbEntity
  8
10
  6
Continuous
 62
     7
100
AcDbCircle
 10
194.2626287219125
 20
-73.30021721556065
 30
0.0
 40
1.99998278464559
100
AcDbArc
 50
208.1249163883837
 51
269.999177170737
  0
ARC
  5
3EB
330
6C
100
AcDbEntity
  8
10
  6
Continuous
 62
     7
100
AcDbCircle
 10
189.7673238718139
 20
-73.37541715458645
 30
0.0
 40
1.999993657273907
100
AcDbArc
 50
28.12261803224084
 51
80.47438123999031
  0
ARC
  5
3EC
330
6C
100
AcDbEntity
  8
10
  6
Continuous
 62
     7
100
AcDbCircle
 10
159.8046220714814
 20
-71.30018753453561
 30
0.0
 40
4.000012465525266
100
AcDbArc
 50
269.9996838502999
 51
328.9138381356366
  0
ARC
  5
3ED
330
6C
100
AcDbEntity
  8
10
  6
Continuous
 62
     7
100
AcDbCircle
 10
171.0593700584607
 20
-72.00020960993469
 30
0.0
 40
5.999990900744027
100
AcDbArc
 50
66.67441485689604
 51
148.91433696519
  0
ARC
  5
3EE
330
6C
100
AcDbEntity
  8
10
  6
Continuous
 62
     7
100
AcDbCircle
 10
145.6256207007031
 20
-60.00020821574338
 30
0.0
 40
10.00000821647182
100
AcDbArc
 50
46.70480112522423
 51
90.000691563519
  0
ARC
  5
3EF
330
6C
100
AcDbEntity
  8
10
  6
Continuous
 62
     7
100
AcDbCircle
 10
145.625570660673
 20
-60.0002149009351
 30
0.0
 40
10.00001490118476
100
AcDbArc
 50
90.00040485522646
 51
143.8500444211943
  0
ARC
  5
3F0
330
6C
100
AcDbEntity
  8
10
  6
Continuous
 62
     7
100
AcDbCircle
 10
120.0325539143734
 20
-71.30017261966409
 30
0.0
 40
4.000027380699236
100
AcDbArc
 50
269.9992277387693
 51
323.8481146708959
  0
ARC
  5
3F1
330
6C
100
AcDbEntity
  8
110
  6
DASH_CENTER
 62
    30
100
AcDbCircle
 10
202.0639040929232
 20
-0.0002041628009692
 30
0.0
 40
65.99999136446886
100
AcDbArc
 50
214.602123629116
 51
234.4279752727703
  0
ARC
  5
3F2
330
6C
100
AcDbEntity
  8
10
  6
Continuous
 62
     7
100
AcDbCircle
 10
202.06395
 20
-0.0003999999999849
 30
0.0
 40
9.900004558206015
100
AcDbArc
 50
107.6399966558264
 51
72.36000334417356
  0
ARC
  5
3F3
330
6C
100
AcDbEntity
  8
10
  6
Continuous
 62
     7
100
AcDbCircle
 10
202.06395
 20
-0.0003999999999849
 30
0.0
 40
9.499941602057351
100
AcDbArc
 50
108.4089152148086
 51
71.59108478519133
  0
ARC
  5
3F4
330
6C
100
AcDbEntity
  8
10
  6
Continuous
 62
     7
100
AcDbCircle
 10
199.3139000000001
 20
6.249600000000014
 30
0.0
 40
0.25
100
AcDbArc
 50
180.0
 51
270.0
  0
ARC
  5
3F5
330
6C
100
AcDbEntity
  8
10
  6
Continuous
 62
     7
100
AcDbCircle
 10
204.8139000000001
 20
6.249600000000014
 30
0.0
 40
0.25
100
AcDbArc
 50
270.0
 51
0.0
  0
ARC
  5
3F6
330
6C
100
AcDbEntity
  8
10
  6
Continuous
 62
     7
100
AcDbCircle
 10
202.0638871116662
 20
-0.0000871112670211
 30
0.0
 40
73.09996116558143
100
AcDbArc
 50
29.12143201317046
 51
60.878365415502
  0
ARC
  5
3F7
330
6C
100
AcDbEntity
  8
10
  6
Continuous
 62
     7
100
AcDbCircle
 10
154.3948
 20
-45.66939999999998
 30
0.0
 40
0.5
100
AcDbArc
 50
270.0
 51
0.0
  0
ARC
  5
3F8
330
6C
100
AcDbEntity
  8
10
  6
Continuous
 62
     7
100
AcDbCircle
 10
156.3948
 20
-45.66939999999998
 30
0.0
 40
0.5
100
AcDbArc
 50
180.0
 51
270.0
  0
ARC
  5
3F9
330
6C
100
AcDbEntity
  8
10
  6
Continuous
 62
     7
100
AcDbCircle
 10
156.3948
 20
-47.66939999999999
 30
0.0
 40
0.4999999999999984
100
AcDbArc
 50
90.0
 51
180.0
  0
ARC
  5
3FA
330
6C
100
AcDbEntity
  8
10
  6
Continuous
 62
     7
100
AcDbCircle
 10
154.3948
 20
-47.66939999999999
 30
0.0
 40
0.5
100
AcDbArc
 50
0.0
 51
90.0
  0
ARC
  5
3FB
330
6C
100
AcDbEntity
  8
110
  6
DASH_CENTER
 62
    30
100
AcDbCircle
 10
202.0640922588091
 20
-0.0002109708560454
 30
0.0
 40
66.00006229873804
100
AcDbArc
 50
304.6017772988681
 51
324.427608474542
  0
ARC
  5
3FC
330
6C
100
AcDbEntity
  8
10
  6
Continuous
 62
     7
100
AcDbCircle
 10
247.7329
 20
-47.66939999999999
 30
0.0
 40
0.5
100
AcDbArc
 50
0.0
 51
90.0
  0
ARC
  5
3FD
330
6C
100
AcDbEntity
  8
10
  6
Continuous
 62
     7
100
AcDbCircle
 10
247.7329
 20
-45.66939999999998
 30
0.0
 40
0.5
100
AcDbArc
 50
270.0
 51
0.0
  0
ARC
  5
3FE
330
6C
100
AcDbEntity
  8
10
  6
Continuous
 62
     7
100
AcDbCircle
 10
249.7329
 20
-45.66939999999998
 30
0.0
 40
0.5
100
AcDbArc
 50
180.0
 51
270.0
  0
ARC
  5
3FF
330
6C
100
AcDbEntity
  8
10
  6
Continuous
 62
     7
100
AcDbCircle
 10
249.7329
 20
-47.66939999999999
 30
0.0
 40
0.4999999999999984
100
AcDbArc
 50
90.0
 51
180.0
  0
ARC
  5
400
330
6C
100
AcDbEntity
  8
110
  6
DASH_CENTER
 62
    30
100
AcDbCircle
 10
202.063927444108
 20
-0.0001262049067634
 30
0.0
 40
65.99995138781763
100
AcDbArc
 50
34.60196866536077
 51
54.4277706531297
  0
ARC
  5
401
330
6C
100
AcDbEntity
  8
10
  6
Continuous
 62
     7
100
AcDbCircle
 10
249.7329
 20
45.6687
 30
0.0
 40
0.5
100
AcDbArc
 50
90.0
 51
180.0
  0
ARC
  5
402
330
6C
100
AcDbEntity
  8
10
  6
Continuous
 62
     7
100
AcDbCircle
 10
247.7329
 20
45.6687
 30
0.0
 40
0.5
100
AcDbArc
 50
0.0
 51
90.0
  0
ARC
  5
403
330
6C
100
AcDbEntity
  8
10
  6
Continuous
 62
     7
100
AcDbCircle
 10
247.7329
 20
47.66869999999999
 30
0.0
 40
0.5
100
AcDbArc
 50
270.0
 51
0.0
  0
ARC
  5
404
330
6C
100
AcDbEntity
  8
10
  6
Continuous
 62
     7
100
AcDbCircle
 10
249.7329
 20
47.66869999999999
 30
0.0
 40
0.5
100
AcDbArc
 50
180.0
 51
270.0
  0
ARC
  5
405
330
6C
100
AcDbEntity
  8
110
  6
DASH_CENTER
 62
    30
100
AcDbCircle
 10
202.0638790675398
 20
-0.0002205809549594
 30
0.0
 40
65.99996415009738
100
AcDbArc
 50
124.6019113073501
 51
144.4278340494139
  0
ARC
  5
406
330
6C
100
AcDbEntity
  8
10
  6
Continuous
 62
     7
100
AcDbCircle
 10
156.3949
 20
47.66869999999999
 30
0.0
 40
0.5
100
AcDbArc
 50
180.0
 51
270.0
  0
ARC
  5
407
330
6C
100
AcDbEntity
  8
10
  6
Continuous
 62
     7
100
AcDbCircle
 10
156.3949
 20
45.6687
 30
0.0
 40
0.5
100
AcDbArc
 50
90.0
 51
180.0
  0
ARC
  5
408
330
6C
100
AcDbEntity
  8
10
  6
Continuous
 62
     7
100
AcDbCircle
 10
154.3949
 20
45.6687
 30
0.0
 40
0.5
100
AcDbArc
 50
0.0
 51
90.0
  0
ARC
  5
409
330
6C
100
AcDbEntity
  8
10
  6
Continuous
 62
     7
100
AcDbCircle
 10
154.3949
 20
47.66869999999999
 30
0.0
 40
0.5
100
AcDbArc
 50
270.0
 51
0.0
  0
ARC
  5
40A
330
6C
100
AcDbEntity
  8
10
  6
Continuous
 62
     7
100
AcDbCircle
 10
202.0641133497775
 20
-0.0001999981108725
 30
0.0
 40
10.25001664960364
100
AcDbArc
 50
107.0198661236392
 51
72.98204370383934
  0
ARC
  5
40B
330
6C
100
AcDbEntity
  8
10
  6
Continuous
 62
     7
100
AcDbCircle
 10
202.063957689858
 20
-0.0002423098817701
 30
0.0
 40
33.00001706062316
100
AcDbArc
 50
114.6240329739644
 51
155.3756144160089
  0
ARC
  5
40C
330
6C
100
AcDbEntity
  8
10
  6
Continuous
 62
     7
100
AcDbCircle
 10
204.5640311503635
 20
36.41412908510068
 30
0.0
 40
4.999968849721332
100
AcDbArc
 50
266.0729295893541
 51
359.9996667072205
  0
ARC
  5
40D
330
6C
100
AcDbEntity
  8
10
  6
Continuous
 62
     7
100
AcDbCircle
 10
163.3696856639606
 20
-15.00022093311875
 30
0.0
 40
3.000020933153022
100
AcDbArc
 50
89.99972620371812
 51
201.1897126226059
  0
ARC
  5
40E
330
6C
100
AcDbEntity
  8
10
  6
Continuous
 62
     7
100
AcDbCircle
 10
169.3378155630437
 20
-15.00020998655267
 30
0.0
 40
3.000009986593055
100
AcDbArc
 50
24.6244407402255
 51
90.00029723125853
  0
ARC
  5
40F
330
6C
100
AcDbEntity
  8
10
  6
Continuous
 62
     7
100
AcDbCircle
 10
202.0639683467416
 20
-0.0002316531337385
 30
0.0
 40
44.50000996823479
100
AcDbArc
 50
111.1889128296258
 51
158.8108616599131
  0
ARC
  5
410
330
6C
100
AcDbEntity
  8
10
  6
Continuous
 62
     7
100
AcDbCircle
 10
202.0640923107103
 20
-0.0002923101421572
 30
0.0
 40
32.99999244072577
100
AcDbArc
 50
24.624500673537
 51
65.37585193866172
  0
ARC
  5
411
330
6C
100
AcDbEntity
  8
10
  6
Continuous
 62
     7
100
AcDbCircle
 10
202.063957689858
 20
-0.0001576901182148
 30
0.0
 40
33.00001706062315
100
AcDbArc
 50
204.624385583991
 51
245.3759670260356
  0
ARC
  5
412
330
6C
100
AcDbEntity
  8
10
  6
Continuous
 62
     7
100
AcDbCircle
 10
202.0639683468662
 20
-0.0001683467416456
 30
0.0
 40
44.50000996823478
100
AcDbArc
 50
21.18891282963156
 51
68.81086165991122
  0
ARC
  5
413
330
6C
100
AcDbEntity
  8
10
  6
Continuous
 62
     7
100
AcDbCircle
 10
190.5640141280639
 20
44.53908905651474
 30
0.0
 40
4.999985871948108
100
AcDbArc
 50
0.0001254034579523
 51
104.4777211930191
  0
ARC
  5
414
330
6C
100
AcDbEntity
  8
10
  6
Continuous
 62
     7
100
AcDbCircle
 10
190.5639919379949
 20
44.53910624466795
 30
0.0
 40
4.000008063103877
100
AcDbArc
 50
0.0013429435019124
 51
104.4773630985453
  0
ARC
  5
415
330
6C
100
AcDbEntity
  8
10
  6
Continuous
 62
     7
100
AcDbCircle
 10
154.357104265878
 20
-34.71410194402881
 30
0.0
 40
3.999981670580261
100
AcDbArc
 50
216.040163015796
 51
274.9608099483435
  0
ARC
  5
416
330
6C
100
AcDbEntity
  8
10
  6
Continuous
 62
     7
100
AcDbCircle
 10
187.0639971399387
 20
38.69410195869001
 30
0.0
 40
3.000002861663316
100
AcDbArc
 50
0.0018724493080546
 51
111.1881682805461
  0
ARC
  5
417
330
6C
100
AcDbEntity
  8
10
  6
Continuous
 62
     7
100
AcDbCircle
 10
187.0640354672709
 20
32.72615527016831
 30
0.0
 40
2.999964533238241
100
AcDbArc
 50
294.6238836792815
 51
359.9989444050623
  0
ARC
  5
418
330
6C
100
AcDbEntity
  8
10
  6
Continuous
 62
     7
100
AcDbCircle
 10
202.0639683467416
 20
-0.0001683468662463
 30
0.0
 40
44.50000996823479
100
AcDbArc
 50
201.1891383400869
 51
248.8110871703741
  0
ARC
  5
419
330
6C
100
AcDbEntity
  8
10
  6
Continuous
 62
     7
100
AcDbCircle
 10
163.3696856639606
 20
14.99982093311877
 30
0.0
 40
3.000020933153003
100
AcDbArc
 50
158.8102873773941
 51
270.0002737962689
  0
ARC
  5
41A
330
6C
100
AcDbEntity
  8
10
  6
Continuous
 62
     7
100
AcDbCircle
 10
169.3378447298319
 20
14.9997645327291
 30
0.0
 40
2.999964533238232
100
AcDbArc
 50
270.0010555949313
 51
335.376116320712
  0
ARC
  5
41B
330
6C
100
AcDbEntity
  8
10
  6
Continuous
 62
     7
100
AcDbCircle
 10
217.0640209331188
 20
38.69411433603955
 30
0.0
 40
3.000020933152996
100
AcDbArc
 50
68.81028737739628
 51
180.0002737962753
  0
ARC
  5
41C
330
6C
100
AcDbEntity
  8
10
  6
Continuous
 62
     7
100
AcDbCircle
 10
217.0640099865527
 20
32.72588443695628
 30
0.0
 40
3.000009986593066
100
AcDbArc
 50
179.9997027687496
 51
245.3755592597751
  0
ARC
  5
41D
330
6C
100
AcDbEntity
  8
10
  6
Continuous
 62
     7
100
AcDbCircle
 10
234.7900844369565
 20
14.99980998655272
 30
0.0
 40
3.000009986593058
100
AcDbArc
 50
204.6244407402255
 51
270.0002972312455
  0
ARC
  5
41E
330
6C
100
AcDbEntity
  8
10
  6
Continuous
 62
     7
100
AcDbCircle
 10
240.7580019586901
 20
14.99980286006129
 30
0.0
 40
3.000002861663299
100
AcDbArc
 50
270.0018724493032
 51
21.18816828054435
  0
ARC
  5
41F
330
6C
100
AcDbEntity
  8
10
  6
Continuous
 62
     7
100
AcDbCircle
 10
187.0639971399387
 20
-38.69450195868996
 30
0.0
 40
3.00000286166329
100
AcDbArc
 50
248.8118317194539
 51
359.998127550692
  0
ARC
  5
420
330
6C
100
AcDbEntity
  8
10
  6
Continuous
 62
     7
100
AcDbCircle
 10
187.0639900134474
 20
-32.72628443695629
 30
0.0
 40
3.000009986593066
100
AcDbArc
 50
359.9997027687496
 51
65.37555925977507
  0
ARC
  5
421
330
6C
100
AcDbEntity
  8
10
  6
Continuous
 62
     7
100
AcDbCircle
 10
217.0640028608293
 20
-38.69430195928597
 30
0.0
 40
3.000002860829951
100
AcDbArc
 50
179.9999625804299
 51
291.1881682709893
  0
ARC
  5
422
330
6C
100
AcDbEntity
  8
10
  6
Continuous
 62
     7
100
AcDbCircle
 10
217.0640099865527
 20
-32.72628443695629
 30
0.0
 40
3.000009986593058
100
AcDbArc
 50
114.6244407402249
 51
180.0002972312504
  0
ARC
  5
423
330
6C
100
AcDbEntity
  8
10
  6
Continuous
 62
     7
100
AcDbCircle
 10
202.0639076898578
 20
-0.0002923107102504
 30
0.0
 40
32.99999244072577
100
AcDbArc
 50
294.6245006735292
 51
335.3758519386617
  0
ARC
  5
424
330
6C
100
AcDbEntity
  8
10
  6
Continuous
 62
     7
100
AcDbCircle
 10
202.0640000000001
 20
-0.0001999999999782
 30
0.0
 40
44.50002804055296
100
AcDbArc
 50
291.1890856097965
 51
338.8109143902071
  0
ARC
  5
425
330
6C
100
AcDbEntity
  8
10
  6
Continuous
 62
     7
100
AcDbCircle
 10
240.7580019586901
 20
-15.00020286006128
 30
0.0
 40
3.000002861663287
100
AcDbArc
 50
338.8118317194557
 51
89.99812755068381
  0
ARC
  5
426
330
6C
100
AcDbEntity
  8
10
  6
Continuous
 62
     7
100
AcDbCircle
 10
234.7900844369565
 20
-15.0002099865527
 30
0.0
 40
3.000009986593066
100
AcDbArc
 50
89.99970276874149
 51
155.3755592597745
  0
ARC
  5
427
330
6C
100
AcDbEntity
  8
10
  6
Continuous
 62
     7
100
AcDbCircle
 10
154.3571340356366
 20
-34.71406994062588
 30
0.0
 40
4.999967971371908
100
AcDbArc
 50
216.0414080485479
 51
274.96192665261
  0
ARC
  5
428
330
6C
100
AcDbEntity
  8
10
  6
Continuous
 62
     7
100
AcDbCircle
 10
202.0638515691776
 20
-0.0001385176139763
 30
0.0
 40
65.49999387239812
100
AcDbArc
 50
56.49813352350086
 51
78.50165147230041
  0
ARC
  5
429
330
6C
100
AcDbEntity
  8
10
  6
Continuous
 62
     7
100
AcDbCircle
 10
202.0639510674985
 20
-0.0001797314743612
 30
0.0
 40
70.50001197263866
100
AcDbArc
 50
57.28715445793746
 51
77.71280594772605
  0
ARC
  5
42A
330
6C
100
AcDbEntity
  8
10
  6
Continuous
 62
     7
100
AcDbCircle
 10
202.0640319421966
 20
-0.0001867691771054
 30
0.0
 40
65.49999800117406
100
AcDbArc
 50
101.4981545423254
 51
123.501636985071
  0
ARC
  5
42B
330
6C
100
AcDbEntity
  8
10
  6
Continuous
 62
     7
100
AcDbCircle
 10
202.0639705212491
 20
-0.0002122104356204
 30
0.0
 40
70.5000270208032
100
AcDbArc
 50
102.2871261693955
 51
122.7126653580028
  0
ARC
  5
42C
330
6C
100
AcDbEntity
  8
10
  6
Continuous
 62
     7
100
AcDbCircle
 10
202.0640221243875
 20
-0.000253413271281
 30
0.0
 40
65.50003556603353
100
AcDbArc
 50
191.4981609306366
 51
213.5016305967625
  0
ARC
  5
42D
330
6C
100
AcDbEntity
  8
10
  6
Continuous
 62
     7
100
AcDbCircle
 10
202.0639797314743
 20
-0.0001510674984502
 30
0.0
 40
70.50001197263866
100
AcDbArc
 50
192.2871940522829
 51
212.712845542068
  0
ARC
  5
42E
330
6C
100
AcDbEntity
  8
10
  6
Continuous
 62
     7
100
AcDbCircle
 10
167.3499880604327
 20
47.70657380027438
 30
0.0
 40
5.000017784385483
100
AcDbArc
 50
126.0403975084584
 51
184.9608170043519
  0
ARC
  5
42F
330
6C
100
AcDbEntity
  8
10
  6
Continuous
 62
     7
100
AcDbCircle
 10
155.3949039936387
 20
-46.66910399368489
 30
0.0
 40
7.999972276512463
100
AcDbArc
 50
355.0384440894658
 51
94.96089443775487
  0
ARC
  5
430
330
6C
100
AcDbEntity
  8
10
  6
Continuous
 62
     7
100
AcDbCircle
 10
155.3949539934954
 20
-46.66915399420772
 30
0.0
 40
6.999978444907485
100
AcDbArc
 50
355.0381420187421
 51
94.96110201548624
  0
ARC
  5
431
330
6C
100
AcDbEntity
  8
10
  6
Continuous
 62
     7
100
AcDbCircle
 10
167.3498887715716
 20
-47.70697536008626
 30
0.0
 40
3.99997065917574
100
AcDbArc
 50
175.0394692969195
 51
233.958115216506
  0
ARC
  5
432
330
6C
100
AcDbEntity
  8
10
  6
Continuous
 62
     7
100
AcDbCircle
 10
167.3500937001716
 20
-47.70698617596061
 30
0.0
 40
5.000033121867228
100
AcDbArc
 50
175.0379056859044
 51
233.9610675828002
  0
ARC
  5
433
330
6C
100
AcDbEntity
  8
10
  6
Continuous
 62
     7
100
AcDbCircle
 10
167.3500228594685
 20
47.70665016472844
 30
0.0
 40
4.000011088354757
100
AcDbArc
 50
126.0420672510948
 51
184.9615559637927
  0
ARC
  5
434
330
6C
100
AcDbEntity
  8
10
  6
Continuous
 62
     7
100
AcDbCircle
 10
249.7707501647285
 20
34.71387714053168
 30
0.0
 40
4.000011088354733
100
AcDbArc
 50
36.04206725109467
 51
94.9615559637897
  0
ARC
  5
435
330
6C
100
AcDbEntity
  8
10
  6
Continuous
 62
     7
100
AcDbCircle
 10
236.7779191404366
 20
47.70655799920013
 30
0.0
 40
4.000060901145068
100
AcDbArc
 50
355.0398310950813
 51
53.95919594077292
  0
ARC
  5
436
330
6C
100
AcDbEntity
  8
10
  6
Continuous
 62
     7
100
AcDbCircle
 10
202.0639999999753
 20
-0.0002187140908916
 30
0.0
 40
63.99999737726282
100
AcDbArc
 50
143.9583104144988
 51
216.0415374291174
  0
ARC
  5
437
330
6C
100
AcDbEntity
  8
10
  6
Continuous
 62
     7
100
AcDbCircle
 10
202.0640000000422
 20
-0.0001687140351976
 30
0.0
 40
63.00000253638108
100
AcDbArc
 50
143.9582871114865
 51
216.0415583170431
  0
ARC
  5
438
330
6C
100
AcDbEntity
  8
10
  6
Continuous
 62
     7
100
AcDbCircle
 10
155.3949
 20
46.66900000000004
 30
0.0
 40
7.000019609258246
100
AcDbArc
 50
265.0393708351816
 51
4.960629164814965
  0
ARC
  5
439
330
6C
100
AcDbEntity
  8
10
  6
Continuous
 62
     7
100
AcDbCircle
 10
155.3949460068925
 20
46.66904600636121
 30
0.0
 40
8.000017765028196
100
AcDbArc
 50
265.0388318122809
 51
4.960506714946696
  0
ARC
  5
43A
330
6C
100
AcDbEntity
  8
10
  6
Continuous
 62
     7
100
AcDbCircle
 10
154.3572246399136
 20
34.7139112284284
 30
0.0
 40
3.999970659175728
100
AcDbArc
 50
85.03946929692308
 51
143.9581152165037
  0
ARC
  5
43B
330
6C
100
AcDbEntity
  8
10
  6
Continuous
 62
     7
100
AcDbCircle
 10
154.3572465737215
 20
34.71392122370514
 30
0.0
 40
5.000006773233461
100
AcDbArc
 50
85.03940638970901
 51
143.9582250861386
  0
ARC
  5
43C
330
6C
100
AcDbEntity
  8
10
  6
Continuous
 62
     7
100
AcDbCircle
 10
249.770503732856
 20
-34.71409829883024
 30
0.0
 40
3.999977347433734
100
AcDbArc
 50
265.0405074588709
 51
323.9597273538683
  0
ARC
  5
43D
330
6C
100
AcDbEntity
  8
10
  6
Continuous
 62
     7
100
AcDbCircle
 10
236.7779019440288
 20
-47.7069957341221
 30
0.0
 40
3.999981670580263
100
AcDbArc
 50
306.0401630157965
 51
4.96080994834365
  0
ARC
  5
43E
330
6C
100
AcDbEntity
  8
10
  6
Continuous
 62
     7
100
AcDbCircle
 10
202.063981285909
 20
-0.0001999999751661
 30
0.0
 40
63.99999737726284
100
AcDbArc
 50
53.95831041449785
 51
126.0415374291206
  0
ARC
  5
43F
330
6C
100
AcDbEntity
  8
10
  6
Continuous
 62
     7
100
AcDbCircle
 10
202.0640000000001
 20
-0.0001999999999782
 30
0.0
 40
62.99998412856942
100
AcDbArc
 50
53.95846468995133
 51
126.0415353100486
  0
ARC
  5
440
330
6C
100
AcDbEntity
  8
10
  6
Continuous
 62
     7
100
AcDbCircle
 10
248.732903993548
 20
46.66899600650464
 30
0.0
 40
7.000023933171091
100
AcDbArc
 50
175.0393410970568
 51
274.9614148687149
  0
ARC
  5
441
330
6C
100
AcDbEntity
  8
10
  6
Continuous
 62
     7
100
AcDbCircle
 10
248.7329
 20
46.66900000000004
 30
0.0
 40
7.999967952435808
100
AcDbArc
 50
175.0391315840917
 51
274.9608684159039
  0
ARC
  5
442
330
6C
100
AcDbEntity
  8
10
  6
Continuous
 62
     7
100
AcDbCircle
 10
249.7704817993376
 20
34.71390829447211
 30
0.0
 40
5.000013460941865
100
AcDbArc
 50
36.04048521346416
 51
94.95976309126387
  0
ARC
  5
443
330
6C
100
AcDbEntity
  8
10
  6
Continuous
 62
     7
100
AcDbCircle
 10
236.7780040282166
 20
47.70659116040149
 30
0.0
 40
4.999927541965541
100
AcDbArc
 50
355.0388935513638
 51
53.95873792447432
  0
ARC
  5
444
330
6C
100
AcDbEntity
  8
10
  6
Continuous
 62
     7
100
AcDbCircle
 10
202.06401257069
 20
-0.0001999999666111
 30
0.0
 40
64.0000009919128
100
AcDbArc
 50
233.9587624381628
 51
306.041541876227
  0
ARC
  5
445
330
6C
100
AcDbEntity
  8
10
  6
Continuous
 62
     7
100
AcDbCircle
 10
202.0640125705981
 20
-0.0001999999660711
 30
0.0
 40
62.99997673241506
100
AcDbArc
 50
233.9587830791453
 51
306.0415260658771
  0
ARC
  5
446
330
6C
100
AcDbEntity
  8
10
  6
Continuous
 62
     7
100
AcDbCircle
 10
202.0640000000001
 20
-0.0002499999999941
 30
0.0
 40
62.99999152549543
100
AcDbArc
 50
323.9583008733268
 51
36.0416991266732
  0
ARC
  5
447
330
6C
100
AcDbEntity
  8
10
  6
Continuous
 62
     7
100
AcDbCircle
 10
202.0640000000001
 20
-0.0001999999999782
 30
0.0
 40
63.99998636640479
100
AcDbArc
 50
323.958323961392
 51
36.04167603860795
  0
ARC
  5
448
330
6C
100
AcDbEntity
  8
10
  6
Continuous
 62
     7
100
AcDbCircle
 10
248.7328539935481
 20
-46.66914600584493
 30
0.0
 40
6.999978444307306
100
AcDbArc
 50
85.03814201288827
 51
184.9611020213364
  0
ARC
  5
449
330
6C
100
AcDbEntity
  8
10
  6
Continuous
 62
     7
100
AcDbCircle
 10
248.7328960063612
 20
-46.66910399368489
 30
0.0
 40
7.999972276512477
100
AcDbArc
 50
85.03910556224512
 51
184.9615559105341
  0
ARC
  5
44A
330
6C
100
AcDbEntity
  8
10
  6
Continuous
 62
     7
100
AcDbCircle
 10
236.7779212237051
 20
-47.70695342627852
 30
0.0
 40
5.000006773233453
100
AcDbArc
 50
306.0417749138613
 51
4.960593610296262
  0
ARC
  5
44B
330
6C
100
AcDbEntity
  8
10
  6
Continuous
 62
     7
100
AcDbCircle
 10
249.7708283988373
 20
-34.71404149135285
 30
0.0
 40
4.999993065004226
100
AcDbArc
 50
265.0385304013673
 51
323.9569808192726
  0
ARC
  5
44C
330
6C
100
AcDbEntity
  8
10
  6
Continuous
 62
     7
100
AcDbCircle
 10
202.0640325965385
 20
-0.0001674035505914
 30
0.0
 40
51.00001194424247
100
AcDbArc
 50
104.4774305136538
 51
165.522413071061
  0
ARC
  5
44D
330
6C
100
AcDbEntity
  8
10
  6
Continuous
 62
     7
100
AcDbCircle
 10
202.063965192887
 20
-0.0002348069190816
 30
0.0
 40
50.00000791297516
100
AcDbArc
 50
104.4773503010233
 51
165.522330611762
  0
ARC
  5
44E
330
6C
100
AcDbEntity
  8
10
  6
Continuous
 62
     7
100
AcDbCircle
 10
202.0640348069191
 20
-0.0002348071128893
 30
0.0
 40
50.00000791297514
100
AcDbArc
 50
194.4773503010189
 51
255.5223306117625
  0
ARC
  5
44F
330
6C
100
AcDbEntity
  8
10
  6
Continuous
 62
     7
100
AcDbCircle
 10
202.0639674035506
 20
-0.0001674034615746
 30
0.0
 40
51.00001194424249
100
AcDbArc
 50
194.477430513657
 51
255.5224130710547
  0
ARC
  5
450
330
6C
100
AcDbEntity
  8
10
  6
Continuous
 62
     7
100
AcDbCircle
 10
202.0640348071129
 20
-0.0001651930809317
 30
0.0
 40
50.00000791297516
100
AcDbArc
 50
284.4773503010234
 51
345.5223306117622
  0
ARC
  5
451
330
6C
100
AcDbEntity
  8
10
  6
Continuous
 62
     7
100
AcDbCircle
 10
202.0640000000001
 20
-0.0001999999999782
 30
0.0
 40
50.99996353184971
100
AcDbArc
 50
284.477522764348
 51
345.5224772356493
  0
ARC
  5
452
330
6C
100
AcDbEntity
  8
10
  6
Continuous
 62
     7
100
AcDbCircle
 10
213.5640080624739
 20
44.53910624519238
 30
0.0
 40
4.000008062478872
100
AcDbArc
 50
75.52263690608291
 51
180.0000894556104
  0
ARC
  5
453
330
6C
100
AcDbEntity
  8
10
  6
Continuous
 62
     7
100
AcDbCircle
 10
213.5639858719362
 20
44.53908905651474
 30
0.0
 40
4.999985871948101
100
AcDbArc
 50
75.52227880698083
 51
179.999874596542
  0
ARC
  5
454
330
6C
100
AcDbEntity
  8
10
  6
Continuous
 62
     7
100
AcDbCircle
 10
202.0640325964496
 20
-0.0002325965383818
 30
0.0
 40
51.00001194424246
100
AcDbArc
 50
14.47743051365702
 51
75.52241307105467
  0
ARC
  5
455
330
6C
100
AcDbEntity
  8
10
  6
Continuous
 62
     7
100
AcDbCircle
 10
202.063965193081
 20
-0.0001651928870672
 30
0.0
 40
50.00000791297511
100
AcDbArc
 50
14.47735030102057
 51
75.52233061176249
  0
ARC
  5
456
330
6C
100
AcDbEntity
  8
10
  6
Continuous
 62
     7
100
AcDbCircle
 10
157.5246937548077
 20
11.49980806247401
 30
0.0
 40
4.00000806247888
100
AcDbArc
 50
165.5226369060821
 51
270.0000894556007
  0
ARC
  5
457
330
6C
100
AcDbEntity
  8
10
  6
Continuous
 62
     7
100
AcDbCircle
 10
157.5246312550093
 20
-11.50015965013014
 30
0.0
 40
3.999959650720882
100
AcDbArc
 50
89.9990152905976
 51
194.4782583476998
  0
ARC
  5
458
330
6C
100
AcDbEntity
  8
10
  6
Continuous
 62
     7
100
AcDbCircle
 10
157.5246734432435
 20
11.49983428412389
 30
0.0
 40
5.000034284194388
100
AcDbArc
 50
165.5229949994928
 51
270.0003043159279
  0
ARC
  5
459
330
6C
100
AcDbEntity
  8
10
  6
Continuous
 62
     7
100
AcDbCircle
 10
157.524610943929
 20
-11.50018587165502
 30
0.0
 40
4.999985872448118
100
AcDbArc
 50
89.99897948971229
 51
194.4777211948628
  0
ARC
  5
45A
330
6C
100
AcDbEntity
  8
10
  6
Continuous
 62
     7
100
AcDbCircle
 10
190.563891937526
 20
-44.53950624519235
 30
0.0
 40
4.000008062478876
100
AcDbArc
 50
255.5226369060829
 51
0.0000894556104591
  0
ARC
  5
45B
330
6C
100
AcDbEntity
  8
10
  6
Continuous
 62
     7
100
AcDbCircle
 10
213.5639080620051
 20
-44.53950624466791
 30
0.0
 40
4.000008063103877
100
AcDbArc
 50
180.0013429435019
 51
284.4773630985453
  0
ARC
  5
45C
330
6C
100
AcDbEntity
  8
10
  6
Continuous
 62
     7
100
AcDbCircle
 10
190.5639141280639
 20
-44.53948905651475
 30
0.0
 40
4.999985871948101
100
AcDbArc
 50
255.5222788069809
 51
359.999874596542
  0
ARC
  5
45D
330
6C
100
AcDbEntity
  8
10
  6
Continuous
 62
     7
100
AcDbCircle
 10
213.5638858716552
 20
-44.53928905607093
 30
0.0
 40
4.999985872448113
100
AcDbArc
 50
179.9989794897155
 51
284.4777211948625
  0
ARC
  5
45E
330
6C
100
AcDbEntity
  8
10
  6
Continuous
 62
     7
100
AcDbCircle
 10
246.6032687456768
 20
11.49975964997378
 30
0.0
 40
3.999959650095872
100
AcDbArc
 50
270.0004476897131
 51
14.47825835232573
  0
ARC
  5
45F
330
6C
100
AcDbEntity
  8
10
  6
Continuous
 62
     7
100
AcDbCircle
 10
246.6030062431755
 20
-11.50020806028618
 30
0.0
 40
4.000008064978871
100
AcDbArc
 50
345.5226368829607
 51
89.9972246435203
  0
ARC
  5
460
330
6C
100
AcDbEntity
  8
10
  6
Continuous
 62
     7
100
AcDbCircle
 10
246.602989056184
 20
-11.50018587121724
 30
0.0
 40
4.999985872448083
100
AcDbArc
 50
345.5222787999551
 51
89.99872867391481
  0
ARC
  5
461
330
6C
100
AcDbEntity
  8
10
  6
Continuous
 62
     7
100
AcDbCircle
 10
246.6030265562322
 20
11.49983428415501
 30
0.0
 40
5.000034284694402
100
AcDbArc
 50
270.0008415978095
 51
14.47700499866031
  0
ARC
  5
462
330
6C
100
AcDbEntity
  8
10
  6
Continuous
 62
     7
100
AcDbCircle
 10
199.5639722742121
 20
36.41412588708931
 30
0.0
 40
4.999972274279254
100
AcDbArc
 50
180.0002966458361
 51
273.9281770009909
  0
ARC
  5
463
330
6C
100
AcDbEntity
  8
10
  6
Continuous
 62
     7
100
AcDbCircle
 10
204.5639994937501
 20
37.41629952645047
 30
0.0
 40
4.000000506249905
100
AcDbArc
 50
266.1769754934076
 51
0.0000067830961981
  0
ARC
  5
464
330
6C
100
AcDbEntity
  8
10
  6
Continuous
 62
     7
100
AcDbCircle
 10
199.5640005062501
 20
37.41629952645047
 30
0.0
 40
4.000000506249903
100
AcDbArc
 50
179.9999932169038
 51
273.8230245065795
  0
ARC
  5
465
330
6C
100
AcDbEntity
  8
10
  6
Continuous
 62
     7
100
AcDbCircle
 10
202.0640000000001
 20
-0.0001999999999782
 30
0.0
 40
33.50002506178167
100
AcDbArc
 50
86.17750627247117
 51
93.82249372752886
  0
ARC
  5
466
330
6C
100
AcDbEntity
  8
10
  6
Continuous
 62
     7
100
AcDbCircle
 10
202.0640499999999
 20
-0.0001999999999782
 30
0.0
 40
31.49997615876082
100
AcDbArc
 50
86.07252493962553
 51
93.92747506037443
  0
ARC
  5
467
330
6C
100
AcDbEntity
  8
10
  6
Continuous
 62
     7
100
AcDbCircle
 10
165.6497206878516
 20
2.499777843183806
 30
0.0
 40
5.000022156858996
100
AcDbArc
 50
356.0724352056874
 51
90.0002370642653
  0
ARC
  5
468
330
6C
100
AcDbEntity
  8
10
  6
Continuous
 62
     7
100
AcDbCircle
 10
164.6473973556565
 20
2.499802826878749
 30
0.0
 40
3.999997173122146
100
AcDbArc
 50
356.1783600418821
 51
89.99996212253593
  0
ARC
  5
469
330
6C
100
AcDbEntity
  8
10
  6
Continuous
 62
     7
100
AcDbCircle
 10
202.0639999842813
 20
-0.0008782809199488
 30
0.0
 40
31.50002603411518
100
AcDbArc
 50
176.0712033696162
 51
183.926141035867
  0
ARC
  5
46A
330
6C
100
AcDbEntity
  8
10
  6
Continuous
 62
     7
100
AcDbCircle
 10
202.0640000000001
 20
-0.0001499999999908
 30
0.0
 40
33.5000283950999
100
AcDbArc
 50
176.1774209466963
 51
183.8225790533036
  0
ARC
  5
46B
330
6C
100
AcDbEntity
  8
10
  6
Continuous
 62
     7
100
AcDbCircle
 10
165.6497206878516
 20
-2.500177843183791
 30
0.0
 40
5.000022156859005
100
AcDbArc
 50
269.9997629357347
 51
3.927564794312608
  0
ARC
  5
46C
330
6C
100
AcDbEntity
  8
10
  6
Continuous
 62
     7
100
AcDbCircle
 10
164.6474004735496
 20
-2.500199493750101
 30
0.0
 40
4.000000506249917
100
AcDbArc
 50
269.9999932168924
 51
3.823024506580674
  0
ARC
  5
46D
330
6C
100
AcDbEntity
  8
10
  6
Continuous
 62
     7
100
AcDbCircle
 10
199.5639221568161
 20
-36.41447931214857
 30
0.0
 40
5.000022156859023
100
AcDbArc
 50
86.07243520568426
 51
180.0002370642637
  0
ARC
  5
46E
330
6C
100
AcDbEntity
  8
10
  6
Continuous
 62
     7
100
AcDbCircle
 10
199.5639971731214
 20
-37.41670264434346
 30
0.0
 40
3.999997173122127
100
AcDbArc
 50
86.17836004188189
 51
179.999962122544
  0
ARC
  5
46F
330
6C
100
AcDbEntity
  8
10
  6
Continuous
 62
     7
100
AcDbCircle
 10
202.06395
 20
-0.0001999999999782
 30
0.0
 40
31.49997615876082
100
AcDbArc
 50
266.0725249396255
 51
273.9274750603745
  0
ARC
  5
470
330
6C
100
AcDbEntity
  8
10
  6
Continuous
 62
     7
100
AcDbCircle
 10
202.06395
 20
-0.0001999999999782
 30
0.0
 40
33.5000283950999
100
AcDbArc
 50
266.1774209466978
 51
273.8225790533022
  0
ARC
  5
471
330
6C
100
AcDbEntity
  8
10
  6
Continuous
 62
     7
100
AcDbCircle
 10
204.5639778431839
 20
-36.41447931214854
 30
0.0
 40
5.000022156859011
100
AcDbArc
 50
359.9997629357347
 51
93.92756479431572
  0
ARC
  5
472
330
6C
100
AcDbEntity
  8
10
  6
Continuous
 62
     7
100
AcDbCircle
 10
204.5639994937501
 20
-37.41669952645043
 30
0.0
 40
4.000000506249903
100
AcDbArc
 50
359.9999932169038
 51
93.82302450659244
  0
ARC
  5
473
330
6C
100
AcDbEntity
  8
10
  6
Continuous
 62
     7
100
AcDbCircle
 10
238.4780258870894
 20
-2.500227725787766
 30
0.0
 40
4.999972274279246
100
AcDbArc
 50
176.071822999004
 51
269.9997033541606
  0
ARC
  5
474
330
6C
100
AcDbEntity
  8
10
  6
Continuous
 62
     7
100
AcDbCircle
 10
239.4804995264503
 20
-2.500199493750101
 30
0.0
 40
4.00000050624989
100
AcDbArc
 50
176.1769754934193
 51
270.0000067830946
  0
ARC
  5
475
330
6C
100
AcDbEntity
  8
10
  6
Continuous
 62
     7
100
AcDbCircle
 10
202.0640000000001
 20
-0.0002499999999941
 30
0.0
 40
31.49997615876081
100
AcDbArc
 50
356.0725249396303
 51
3.927475060369604
  0
ARC
  5
476
330
6C
100
AcDbEntity
  8
10
  6
Continuous
 62
     7
100
AcDbCircle
 10
202.0640000000001
 20
-0.0002499999999941
 30
0.0
 40
33.5000283950999
100
AcDbArc
 50
356.1774209466964
 51
3.822579053303622
  0
ARC
  5
477
330
6C
100
AcDbEntity
  8
10
  6
Continuous
 62
     7
100
AcDbCircle
 10
238.4780258870894
 20
2.49982772578778
 30
0.0
 40
4.999972274279226
100
AcDbArc
 50
90.00029664582633
 51
183.928177000996
  0
ARC
  5
478
330
6C
100
AcDbEntity
  8
10
  6
Continuous
 62
     7
100
AcDbCircle
 10
239.4804995264503
 20
2.499799493750116
 30
0.0
 40
4.00000050624991
100
AcDbArc
 50
89.99999321689243
 51
183.8230245065807
  0
ARC
  5
479
330
6C
100
AcDbEntity
  8
10
  6
Continuous
 62
     7
100
AcDbCircle
 10
202.0640000000001
 20
-0.0001999999999782
 30
0.0
 40
43.50000203701145
100
AcDbArc
 50
201.1890239648141
 51
248.8109760351818
  0
ARC
  5
47A
330
6C
100
AcDbEntity
  8
10
  6
Continuous
 62
     7
100
AcDbCircle
 10
202.0639576895164
 20
-0.0001576897690541
 30
0.0
 40
33.99997700324839
100
AcDbArc
 50
204.6244763393391
 51
245.3758659017606
  0
ARC
  5
47B
330
6C
100
AcDbEntity
  8
10
  6
Continuous
 62
     7
100
AcDbCircle
 10
169.3378467752959
 20
-15.00023001470558
 30
0.0
 40
2.000030015252558
100
AcDbArc
 50
24.6238196557254
 51
90.00133999341272
  0
ARC
  5
47C
330
6C
100
AcDbEntity
  8
10
  6
Continuous
 62
     7
100
AcDbCircle
 10
163.3696945682513
 20
-15.00020793120379
 30
0.0
 40
2.000007931211173
100
AcDbArc
 50
89.99984439247056
 51
201.1889404518494
  0
ARC
  5
47D
330
6C
100
AcDbEntity
  8
10
  6
Continuous
 62
     7
100
AcDbCircle
 10
187.0639920697745
 20
-38.69450543078747
 30
0.0
 40
2.000007932461163
100
AcDbArc
 50
248.8110595319772
 51
359.99729080237
  0
ARC
  5
47E
330
6C
100
AcDbEntity
  8
10
  6
Continuous
 62
     7
100
AcDbCircle
 10
187.0639946038
 20
-32.72629159023541
 30
0.0
 40
2.000005396217745
100
AcDbArc
 50
359.9997590786413
 51
65.37348151791786
  0
ARC
  5
47F
330
6C
100
AcDbEntity
  8
10
  6
Continuous
 62
     7
100
AcDbCircle
 10
202.0640423104837
 20
-0.0001576897690825
 30
0.0
 40
33.99997700324838
100
AcDbArc
 50
294.6241340982393
 51
335.3755236606609
  0
ARC
  5
480
330
6C
100
AcDbEntity
  8
10
  6
Continuous
 62
     7
100
AcDbCircle
 10
202.0640000000001
 20
-0.0001999999999782
 30
0.0
 40
43.50000203701146
100
AcDbArc
 50
291.1890239648183
 51
338.810976035186
  0
ARC
  5
481
330
6C
100
AcDbEntity
  8
10
  6
Continuous
 62
     7
100
AcDbCircle
 10
240.7580054307875
 20
-15.00020793022534
 30
0.0
 40
2.000007932461175
100
AcDbArc
 50
338.8110595319735
 51
89.99729080237978
  0
ARC
  5
482
330
6C
100
AcDbEntity
  8
10
  6
Continuous
 62
     7
100
AcDbCircle
 10
234.7901240573083
 20
-15.00018456209145
 30
0.0
 40
1.999984562236152
100
AcDbArc
 50
90.00068919642583
 51
155.377015907617
  0
ARC
  5
483
330
6C
100
AcDbEntity
  8
10
  6
Continuous
 62
     7
100
AcDbCircle
 10
217.0639845620915
 20
-32.72632405730823
 30
0.0
 40
1.999984562236154
100
AcDbArc
 50
114.6229840923889
 51
179.999310803566
  0
ARC
  5
484
330
6C
100
AcDbEntity
  8
10
  6
Continuous
 62
     7
100
AcDbCircle
 10
217.0640079312038
 20
-38.6943054317488
 30
0.0
 40
2.000007931211186
100
AcDbArc
 50
179.9998443924754
 51
291.1889404518425
  0
ARC
  5
485
330
6C
100
AcDbEntity
  8
10
  6
Continuous
 62
     7
100
AcDbCircle
 10
202.0639683467077
 20
-0.0001683465801534
 30
0.0
 40
43.5000201093401
100
AcDbArc
 50
21.1889700220041
 51
68.81079928289657
  0
ARC
  5
486
330
6C
100
AcDbEntity
  8
10
  6
Continuous
 62
     7
100
AcDbCircle
 10
240.7580054307875
 20
14.99980793022536
 30
0.0
 40
2.000007932461183
100
AcDbArc
 50
270.0027091976202
 51
21.18894046802648
  0
ARC
  5
487
330
6C
100
AcDbEntity
  8
10
  6
Continuous
 62
     7
100
AcDbCircle
 10
234.7901240573083
 20
14.99978456209146
 30
0.0
 40
1.999984562236153
100
AcDbArc
 50
204.622984092383
 51
269.9993108035742
  0
ARC
  5
488
330
6C
100
AcDbEntity
  8
10
  6
Continuous
 62
     7
100
AcDbCircle
 10
202.0639576897693
 20
-0.0001576895163282
 30
0.0
 40
33.99997700324841
100
AcDbArc
 50
24.62413409824177
 51
65.37552366066748
  0
ARC
  5
489
330
6C
100
AcDbEntity
  8
10
  6
Continuous
 62
     7
100
AcDbCircle
 10
217.0639845620915
 20
32.72592405730825
 30
0.0
 40
1.999984562236159
100
AcDbArc
 50
180.000689196434
 51
245.377015907611
  0
ARC
  5
48A
330
6C
100
AcDbEntity
  8
10
  6
Continuous
 62
     7
100
AcDbCircle
 10
217.0640079312038
 20
38.69410543174883
 30
0.0
 40
2.000007931211166
100
AcDbArc
 50
68.81105954815748
 51
180.0001556075244
  0
ARC
  5
48B
330
6C
100
AcDbEntity
  8
10
  6
Continuous
 62
     7
100
AcDbCircle
 10
202.0639366933617
 20
-0.0002633061285167
 30
0.0
 40
43.50000203703426
100
AcDbArc
 50
111.1887932699965
 51
158.8107453407479
  0
ARC
  5
48C
330
6C
100
AcDbEntity
  8
10
  6
Continuous
 62
     7
100
AcDbCircle
 10
202.0640499999999
 20
-0.0001499999999908
 30
0.0
 40
34.00002245624258
100
AcDbArc
 50
114.6242701112225
 51
155.3757298887715
  0
ARC
  5
48D
330
6C
100
AcDbEntity
  8
10
  6
Continuous
 62
     7
100
AcDbCircle
 10
163.3696945682513
 20
14.9998079312038
 30
0.0
 40
2.000007931211182
100
AcDbArc
 50
158.8110595481506
 51
270.0001556075164
  0
ARC
  5
48E
330
6C
100
AcDbEntity
  8
10
  6
Continuous
 62
     7
100
AcDbCircle
 10
169.3378759426918
 20
14.99978456209146
 30
0.0
 40
1.999984562236138
100
AcDbArc
 50
270.0006891964258
 51
335.377015907617
  0
ARC
  5
48F
330
6C
100
AcDbEntity
  8
10
  6
Continuous
 62
     7
100
AcDbCircle
 10
187.0639946038
 20
32.72609159023543
 30
0.0
 40
2.000005396217749
100
AcDbArc
 50
294.6265184820821
 51
0.0002409213586858
  0
ARC
  5
490
330
6C
100
AcDbEntity
  8
10
  6
Continuous
 62
     7
100
AcDbCircle
 10
187.0639920697745
 20
38.6941054307875
 30
0.0
 40
2.00000793246119
100
AcDbArc
 50
0.0027091976299903
 51
111.1889404680227
  0
ARC
  5
491
330
6C
100
AcDbEntity
  8
10
  6
Continuous
 62
     7
100
AcDbCircle
 10
202.0638630756161
 20
-0.0004261269143058
 30
0.0
 40
65.50003143759045
100
AcDbArc
 50
236.4981399118716
 51
258.5016450839329
  0
ARC
  5
492
330
6C
100
AcDbEntity
  8
10
  6
Continuous
 62
     7
100
AcDbCircle
 10
202.0638489325015
 20
-0.0004202685256018
 30
0.0
 40
70.50001197263866
100
AcDbArc
 50
237.2871544579373
 51
257.7128059477133
  0
ARC
  5
493
330
6C
100
AcDbEntity
  8
10
  6
Continuous
 62
     7
100
AcDbCircle
 10
202.0637851756255
 20
-0.0009061404629165
 30
0.0
 40
65.50002147071973
100
AcDbArc
 50
281.4982243517083
 51
303.5018152426372
  0
ARC
  5
494
330
6C
100
AcDbEntity
  8
10
  6
Continuous
 62
     7
100
AcDbCircle
 10
202.0638364228132
 20
-0.0008849131620821
 30
0.0
 40
70.50004963468784
100
AcDbArc
 50
282.2871995666294
 51
302.712840027718
  0
ARC
  5
495
330
6C
100
AcDbEntity
  8
10
  6
Continuous
 62
     7
100
AcDbCircle
 10
202.0642261269145
 20
-0.0011369243838999
 30
0.0
 40
65.50003143759045
100
AcDbArc
 50
326.4981399118748
 51
348.5016450839332
  0
ARC
  5
496
330
6C
100
AcDbEntity
  8
10
  6
Continuous
 62
     7
100
AcDbCircle
 10
202.0642202685256
 20
-0.0011510674984834
 30
0.0
 40
70.50001197263866
100
AcDbArc
 50
327.2871544579321
 51
347.712805947717
  0
ARC
  5
497
330
6C
100
AcDbEntity
  8
10
  6
Continuous
 62
     7
100
AcDbCircle
 10
202.0646632310802
 20
-0.0011112315183368
 30
0.0
 40
65.49994487597503
100
AcDbArc
 50
11.49814550781346
 51
33.50164601958379
  0
ARC
  5
498
330
6C
100
AcDbEntity
  8
10
  6
Continuous
 62
     7
100
AcDbCircle
 10
202.0646148244662
 20
-0.0009943661225691
 30
0.0
 40
70.49996311765319
100
AcDbArc
 50
12.28699096209966
 51
32.71262515675084
  0
ARC
  5
499
330
6C
100
AcDbEntity
  8
10
  6
Continuous
 62
     7
100
AcDbCircle
 10
64.62109025134146
 20
-21.21184310334522
 30
0.0
 40
1.200042387446262
100
AcDbArc
 50
144.7240133934132
 51
234.7212559635253
  0
ARC
  5
49A
330
6C
100
AcDbEntity
  8
10
  6
Continuous
 62
     7
100
AcDbCircle
 10
120.4052846711583
 20
56.94732222612589
 30
0.0
 40
1.600011914748384
100
AcDbArc
 50
64.69454751024217
 51
144.7219929529825
  0
ARC
  5
49B
330
6C
100
AcDbEntity
  8
10
  6
Continuous
 62
     7
100
AcDbCircle
 10
116.5782801490673
 20
58.46389117313368
 30
0.0
 40
2.399956492215649
100
AcDbArc
 50
263.2236629068501
 51
324.7217016247834
  0
ARC
  5
49C
330
6C
100
AcDbEntity
  8
110
  6
DASHED
 62
    30
100
AcDbCircle
 10
105.405963071588
 20
-12.60762585865487
 30
0.0
 40
5.999987964401892
100
AcDbArc
 50
260.0021711112419
 51
350.0001244532744
  0
ARC
  5
49D
330
6C
100
AcDbEntity
  8
10
  6
Continuous
 62
     7
100
AcDbCircle
 10
88.1131018016463
 20
50.76790111385783
 30
0.0
 40
8.599946487042563
100
AcDbArc
 50
83.22529156827021
 51
160.2271114128282
  0
ARC
  5
49E
330
6C
100
AcDbEntity
  8
10
  6
Continuous
 62
     7
100
AcDbCircle
 10
362.895684621446
 20
-48.01486652772229
 30
0.0
 40
300.5997806371876
100
AcDbArc
 50
160.2268758133442
 51
173.741369924033
  0
ARC
  5
49F
330
6C
100
AcDbEntity
  8
10
  6
Continuous
 62
     7
100
AcDbCircle
 10
105.4059630714209
 20
-12.6076258588657
 30
0.0
 40
6.800037725113556
100
AcDbArc
 50
260.0021482444633
 51
350.0003423843442
  0
ARC
  5
4A0
330
6C
100
AcDbEntity
  8
10
  6
Continuous
 62
     7
100
AcDbCircle
 10
72.32236108665756
 20
-17.94390529443677
 30
0.0
 40
4.199922691290947
100
AcDbArc
 50
79.99127288880266
 51
83.14570963247218
  0
ARC
  5
4A1
330
6C
100
AcDbEntity
  8
10
  6
Continuous
 62
     7
100
AcDbCircle
 10
117.2367896839837
 20
48.73003774641574
 30
0.0
 40
5.800021198105127
100
AcDbArc
 50
350.0002544353198
 51
40.57083665711188
  0
ARC
  5
4A2
330
6C
100
AcDbEntity
  8
10
  6
Continuous
 62
     7
100
AcDbCircle
 10
101.8849570428265
 20
-19.90716005820388
 30
0.0
 40
3.000018601634126
100
AcDbArc
 50
259.9998200380738
 51
350.0001516800773
  0
ARC
  5
4A3
330
6C
100
AcDbEntity
  8
10
  6
Continuous
 62
     7
100
AcDbCircle
 10
78.2496000000001
 20
-15.7397
 30
0.0
 40
2.999986726637296
100
AcDbArc
 50
169.998879610066
 51
259.9988796100701
  0
ARC
  5
4A4
330
6C
100
AcDbEntity
  8
10
  6
Continuous
 62
     7
100
AcDbCircle
 10
63.32509448806286
 20
-18.02435663646091
 30
0.0
 40
1.599963970872232
100
AcDbArc
 50
144.7436357894265
 51
229.744397555102
  0
ARC
  5
4A5
330
6C
100
AcDbEntity
  8
110
  6
DASHED
 62
    30
100
AcDbCircle
 10
202.0639852333861
 20
-0.0002837401216311
 30
0.0
 40
80.00000316329851
100
AcDbArc
 50
151.1065513195917
 51
188.8921599188532
  0
ARC
  5
4A6
330
6C
100
AcDbEntity
  8
10
  6
Continuous
 62
     7
100
AcDbCircle
 10
202.064016865663
 20
-0.0002115448798179
 30
0.0
 40
79.99999597455979
100
AcDbArc
 50
320.1085690982234
 51
151.106607535721
  0
ARC
  5
4A7
330
6C
100
AcDbEntity
  8
10
  6
Continuous
 62
     7
100
AcDbCircle
 10
115.7987200181155
 20
-12.33815791253292
 30
0.0
 40
1.000031139639681
100
AcDbArc
 50
81.82045592663722
 51
169.9939303924897
  0
ARC
  5
4A8
330
6C
100
AcDbEntity
  8
10
  6
Continuous
 62
     7
100
AcDbCircle
 10
124.9049024110427
 20
-7.382797700300784
 30
0.0
 40
5.199968635481257
100
AcDbArc
 50
261.8229716248381
 51
5.469037272938845
  0
ARC
  5
4A9
330
6C
100
AcDbEntity
  8
10
  6
Continuous
 62
     7
100
AcDbCircle
 10
132.0834083362981
 20
33.32868317281529
 30
0.0
 40
5.199928734573915
100
AcDbArc
 50
334.5310507711937
 51
78.17718484547822
  0
ARC
  5
4AA
330
6C
100
AcDbEntity
  8
10
  6
Continuous
 62
     7
100
AcDbCircle
 10
125.221313181132
 20
41.09968052322535
 30
0.0
 40
1.000000362223392
100
AcDbArc
 50
170.0016734626845
 51
258.1755875416389
  0
ARC
  5
4AB
330
6C
100
AcDbEntity
  8
10
  6
Continuous
 62
     7
100
AcDbCircle
 10
202.0640040855308
 20
-0.0002089283184432
 30
0.0
 40
79.00001612439647
100
AcDbArc
 50
189.1151320630726
 51
220.0618133399035
  0
ARC
  5
4AC
330
6C
100
AcDbEntity
  8
10
  6
Continuous
 62
     7
100
AcDbCircle
 10
275.7544143673649
 20
-15.48238934354526
 30
0.0
 40
3.000024272348466
100
AcDbArc
 50
84.99585342733567
 51
168.1337290868473
  0
ARC
  5
4AD
330
6C
100
AcDbEntity
  8
10
  6
Continuous
 62
     7
100
AcDbCircle
 10
277.3230006519376
 20
2.448999311454541
 30
0.0
 40
2.999991937489004
100
AcDbArc
 50
181.8662544013135
 51
265.0050972022139
  0
ARC
  5
4AE
330
6C
100
AcDbEntity
  8
10
  6
Continuous
 62
     7
100
AcDbCircle
 10
211.0637046761228
 20
74.75929472657139
 30
0.0
 40
3.00000469165471
100
AcDbArc
 50
179.9941697160881
 51
263.134750141049
  0
ARC
  5
4AF
330
6C
100
AcDbEntity
  8
10
  6
Continuous
 62
     7
100
AcDbCircle
 10
193.0636893425539
 20
74.75958798117041
 30
0.0
 40
3.000010664938031
100
AcDbArc
 50
276.867274832587
 51
0.00404924697879
  0
ARC
  5
4B0
330
6C
100
AcDbEntity
  8
10
  6
Continuous
 62
     7
100
AcDbCircle
 10
128.3728334808124
 20
-15.48212483313827
 30
0.0
 40
2.999964181996571
100
AcDbArc
 50
11.86525308154531
 51
95.00516440427331
  0
ARC
  5
4B1
330
6C
100
AcDbEntity
  8
10
  6
Continuous
 62
     7
100
AcDbCircle
 10
202.0627496301249
 20
0.0074848575479507
 30
0.0
 40
78.99999673550337
100
AcDbArc
 50
189.1207857483853
 51
189.3619474002264
  0
ARC
  5
4B2
330
6C
100
AcDbEntity
  8
10
  6
Continuous
 62
     7
100
AcDbCircle
 10
202.0640077242951
 20
-0.0002170344292267
 30
0.0
 40
79.9999987283103
100
AcDbArc
 50
188.892498735553
 51
219.8915174737559
  0
ARC
  5
4B3
330
6C
100
AcDbEntity
  8
10
  6
Continuous
 62
     7
100
AcDbCircle
 10
204.1450253727944
 20
81.29937675091099
 30
0.0
 40
1.300023249336613
100
AcDbArc
 50
5.000829842475648
 51
90.00111825233636
  0
ARC
  5
4B4
330
6C
100
AcDbEntity
  8
10
  6
Continuous
 62
     7
100
AcDbCircle
 10
199.9824289847826
 20
81.2994265608043
 30
0.0
 40
1.299973439518811
100
AcDbArc
 50
90.00127749203853
 51
175.0011817931029
  0
ARC
  5
4B5
330
6C
100
AcDbEntity
  8
10
  6
Continuous
 62
     7
100
AcDbCircle
 10
202.063965634636
 20
-0.0001763027617585
 30
0.0
 40
78.99999593600155
100
AcDbArc
 50
319.9382381926326
 51
150.8839929689232
  0
ARC
  5
4B6
330
6C
100
AcDbEntity
  8
10
  6
Continuous
 62
     7
100
AcDbCircle
 10
282.8730253727945
 20
-9.159376750910981
 30
0.0
 40
1.300023249336615
100
AcDbArc
 50
269.9988817476636
 51
354.9991701575244
  0
ARC
  5
4B7
330
6C
100
AcDbEntity
  8
10
  6
Continuous
 62
     7
100
AcDbCircle
 10
283.2358426070618
 20
-5.012655529038994
 30
0.0
 40
1.30000793078394
100
AcDbArc
 50
354.9981721855656
 51
79.99940098510865
  0
ARC
  5
4B8
330
6C
100
AcDbEntity
  8
10
  6
Continuous
 62
     7
100
AcDbCircle
 10
62.87429867277229
 20
-18.14033411663962
 30
0.0
 40
1.999972704522314
100
AcDbArc
 50
324.7222374793349
 51
30.82209387544001
  0
ARC
  5
4B9
330
6C
100
AcDbEntity
  8
10
  6
Continuous
 62
     7
100
AcDbCircle
 10
66.67203833399026
 20
-15.52817604675451
 30
0.0
 40
2.600003981254251
100
AcDbArc
 50
173.7273490259571
 51
210.8413257465125
  0
ARC
  5
4BA
330
6C
100
AcDbEntity
  8
10
  6
Continuous
 62
     7
100
AcDbCircle
 10
202.063953886186
 20
-0.0005113275227302
 30
0.0
 40
65.50004140449441
100
AcDbArc
 50
146.4980950656916
 51
168.5015145189705
  0
ARC
  5
4BB
330
6C
100
AcDbEntity
  8
10
  6
Continuous
 62
     7
100
AcDbCircle
 10
202.0639013192374
 20
-0.0006382326808989
 30
0.0
 40
70.50001820544803
100
AcDbArc
 50
147.2868782733952
 51
167.7124832469103
  0
CIRCLE
  5
4BC
330
6C
100
AcDbEntity
  8
10
  6
Continuous
 62
     7
100
AcDbCircle
 10
202.0640000000001
 20
-0.0001999999999782
 30
0.0
 40
72.29999999999998
  0
CIRCLE
  5
4BD
330
6C
100
AcDbEntity
  8
10
  6
Continuous
 62
     7
100
AcDbCircle
 10
155.3948
 20
-46.66939999999999
 30
0.0
 40
4.5
  0
CIRCLE
  5
4BE
330
6C
100
AcDbEntity
  8
10
  6
Continuous
 62
     7
100
AcDbCircle
 10
248.7329
 20
-46.66939999999999
 30
0.0
 40
4.5
  0
CIRCLE
  5
4BF
330
6C
100
AcDbEntity
  8
10
  6
Continuous
 62
     7
100
AcDbCircle
 10
248.7329
 20
46.6687
 30
0.0
 40
4.500000001111111
  0
CIRCLE
  5
4C0
330
6C
100
AcDbEntity
  8
10
  6
Continuous
 62
     7
100
AcDbCircle
 10
155.3949
 20
46.6687
 30
0.0
 40
4.5
  0
CIRCLE
  5
4C1
330
6C
100
AcDbEntity
  8
10
  6
Continuous
 62
     7
100
AcDbCircle
 10
202.0640000000001
 20
-0.0001999999999782
 30
0.0
 40
23.19999999999999
  0
CIRCLE
  5
4C2
330
6C
100
AcDbEntity
  8
10
  6
Continuous
 62
     7
100
AcDbCircle
 10
202.0640000000001
 20
-0.0001999999999782
 30
0.0
 40
26.29999999999998
  0
LINE
  5
4C3
330
6C
100
AcDbEntity
  8
100
  6
DASH_CENTER
 62
    30
100
AcDbLine
 10
-310.5866703315235
 20
-6.973483103936358
 30
0.0
 11
-300.1835703315235
 21
-6.973483103936358
 31
0.0
  0
LINE
  5
4C4
330
6C
100
AcDbEntity
  8
100
  6
DASH_CENTER
 62
    30
100
AcDbLine
 10
-124.3824999999999
 20
-46.66889999999997
 30
0.0
 11
-107.2759999999999
 21
-46.66889999999997
 31
0.0
  0
LINE
  5
4C5
330
6C
100
AcDbEntity
  8
0
  6
Continuous
 62
     7
100
AcDbLine
 10
-115.8927999999999
 20
-39.51849999999999
 30
0.0
 11
-113.5591999999999
 21
-38.86149999999998
 31
0.0
  0
LINE
  5
4C6
330
6C
100
AcDbEntity
  8
0
  6
Continuous
 62
     7
100
AcDbLine
 10
-51.77614373041945
 20
11.99979999999999
 30
0.0
 11
-51.77614566924649
 21
8.500001938827097
 31
0.0
  0
LINE
  5
4C7
330
6C
100
AcDbEntity
  8
0
  6
Continuous
 62
     7
100
AcDbLine
 10
-51.77614373041945
 20
11.99979999999999
 30
0.0
 11
-83.78549999999995
 21
11.99979999999999
 31
0.0
  0
LINE
  5
4C8
330
6C
100
AcDbEntity
  8
0
  6
Continuous
 62
     7
100
AcDbLine
 10
-83.78549999999995
 20
11.99979999999999
 30
0.0
 11
-83.78549999999995
 21
9.5
 31
0.0
  0
LINE
  5
4C9
330
6C
100
AcDbEntity
  8
0
  6
Continuous
 62
     7
100
AcDbLine
 10
-304.7748703315235
 20
-7.785583103936346
 30
0.0
 11
-304.7753703315235
 21
37.74711689606363
 31
0.0
  0
LINE
  5
4CA
330
6C
100
AcDbEntity
  8
0
  6
Continuous
 62
     7
100
AcDbLine
 10
-300.7748703315235
 20
-6.440083103936358
 30
0.0
 11
-300.7758703315235
 21
42.56721689606364
 31
0.0
  0
LINE
  5
4CB
330
6C
100
AcDbEntity
  8
0
  6
Continuous
 62
     7
100
AcDbLine
 10
-251.3531703315235
 20
-16.32198310393636
 30
0.0
 11
-238.7751703315236
 21
-16.32198310393636
 31
0.0
  0
LINE
  5
4CC
330
6C
100
AcDbEntity
  8
0
  6
Continuous
 62
     7
100
AcDbLine
 10
-226.7751703315235
 20
-6.440583103936347
 30
0.0
 11
-226.7753703315235
 21
42.56771689606364
 31
0.0
  0
LINE
  5
4CD
330
6C
100
AcDbEntity
  8
0
  6
Continuous
 62
     7
100
AcDbLine
 10
-238.7752703315235
 20
-21.70698310393635
 30
0.0
 11
-288.7751703315236
 21
-21.70648310393636
 31
0.0
  0
LINE
  5
4CE
330
6C
100
AcDbEntity
  8
0
  6
Continuous
 62
     7
100
AcDbLine
 10
-238.7752703315235
 20
-23.78608310393635
 30
0.0
 11
-288.7751703315236
 21
-23.78558310393636
 31
0.0
  0
LINE
  5
4CF
330
6C
100
AcDbEntity
  8
0
  6
Continuous
 62
     7
100
AcDbLine
 10
-222.7751703315235
 20
-7.786083103936362
 30
0.0
 11
-222.7753703315235
 21
37.74741689606361
 31
0.0
  0
LINE
  5
4D0
330
6C
100
AcDbEntity
  8
0
  6
Continuous
 62
     7
100
AcDbLine
 10
-274.4529703315235
 20
-18.44038310393637
 30
0.0
 11
-288.7750703315234
 21
-18.44038310393637
 31
0.0
  0
LINE
  5
4D1
330
6C
100
AcDbEntity
  8
0
  6
Continuous
 62
     7
100
AcDbLine
 10
-253.0970703315236
 20
-18.44088310393636
 30
0.0
 11
-238.7751703315236
 21
-18.44088310393636
 31
0.0
  0
LINE
  5
4D2
330
6C
100
AcDbEntity
  8
0
  6
Continuous
 62
     7
100
AcDbLine
 10
-276.1970703315235
 20
-16.32148310393637
 30
0.0
 11
-288.7750703315234
 21
-16.32148310393637
 31
0.0
  0
LINE
  5
4D3
330
6C
100
AcDbEntity
  8
100
  6
DASH_CENTER
 62
    30
100
AcDbLine
 10
-263.7750703315234
 20
-23.56248310393636
 30
0.0
 11
-263.7750703315234
 21
-10.27708310393635
 31
0.0
  0
LINE
  5
4D4
330
6C
100
AcDbEntity
  8
100
  6
DASH_CENTER
 62
    30
100
AcDbLine
 10
-255.5592703315235
 20
-16.97188310393636
 30
0.0
 11
-271.7565703315236
 21
-16.97188310393636
 31
0.0
  0
LINE
  5
4D5
330
6C
100
AcDbEntity
  8
0
  6
Continuous
 62
     7
100
AcDbLine
 10
-266.1424703315236
 20
-18.01778310393635
 30
0.0
 11
-266.0082703315236
 21
-18.06728310393635
 31
0.0
  0
LINE
  5
4D6
330
6C
100
AcDbEntity
  8
0
  6
Continuous
 62
     7
100
AcDbLine
 10
-262.2096703315235
 20
-15.73188310393635
 30
0.0
 11
-262.0968703315235
 21
-15.83168310393637
 31
0.0
  0
LINE
  5
4D7
330
6C
100
AcDbEntity
  8
0
  6
Continuous
 62
     7
100
AcDbLine
 10
-261.4073703315236
 20
-18.01778310393635
 30
0.0
 11
-261.5416703315235
 21
-18.06728310393635
 31
0.0
  0
LINE
  5
4D8
330
6C
100
AcDbEntity
  8
0
  6
Continuous
 62
     7
100
AcDbLine
 10
-265.3402703315235
 20
-15.73188310393635
 30
0.0
 11
-265.4530703315236
 21
-15.83168310393637
 31
0.0
  0
LINE
  5
4D9
330
6C
100
AcDbEntity
  8
0
  6
Continuous
 62
     7
100
AcDbLine
 10
-116.4760999999999
 20
-42.16889999999998
 30
0.0
 11
-114.6364999999999
 21
-42.32999999999997
 31
0.0
  0
LINE
  5
4DA
330
6C
100
AcDbEntity
  8
0
  6
Continuous
 62
     7
100
AcDbLine
 10
-116.4760999999999
 20
-51.16889999999997
 30
0.0
 11
-114.6364999999999
 21
-51.00799999999998
 31
0.0
  0
LINE
  5
4DB
330
6C
100
AcDbEntity
  8
0
  6
Continuous
 62
     7
100
AcDbLine
 10
-113.1761999999999
 20
-43.9238
 30
0.0
 11
-113.1761999999999
 21
-49.41399999999998
 31
0.0
  0
LINE
  5
4DC
330
6C
100
AcDbEntity
  8
0
  6
Continuous
 62
     7
100
AcDbLine
 10
-292.7751703315236
 20
72.30044929754512
 30
0.0
 11
-119.2763
 21
72.2996
 31
0.0
  0
LINE
  5
4DD
330
6C
100
AcDbEntity
  8
0
  6
Continuous
 62
     7
100
AcDbLine
 10
-119.2763
 20
72.29990000000005
 30
0.0
 11
-119.2763
 21
-72.29980000000002
 31
0.0
  0
LINE
  5
4DE
330
6C
100
AcDbEntity
  8
100
  6
DASH_CENTER
 62
    30
100
AcDbLine
 10
-141.7762
 20
-67.0437
 30
0.0
 11
-141.7763
 21
-88.69719999999999
 31
0.0
  0
LINE
  5
4DF
330
6C
100
AcDbEntity
  8
0
  6
Continuous
 62
     7
100
AcDbLine
 10
-250.6469999999999
 20
-72.2988
 30
0.0
 11
-292.7751703315236
 21
-72.2988
 31
0.0
  0
LINE
  5
4E0
330
6C
100
AcDbEntity
  8
0
  6
Continuous
 62
     7
100
AcDbLine
 10
-132.8805
 20
-72.29929999999997
 30
0.0
 11
-119.2763
 21
-72.29949999999998
 31
0.0
  0
LINE
  5
4E1
330
6C
100
AcDbEntity
  8
100
  6
DASH_CENTER
 62
    30
100
AcDbLine
 10
-191.7760999999999
 20
90.93810000000003
 30
0.0
 11
-191.7762
 21
-89.57299999999998
 31
0.0
  0
LINE
  5
4E2
330
6C
100
AcDbEntity
  8
0
  6
Continuous
 62
     7
100
AcDbLine
 10
-129.2762
 20
-75.2988
 30
0.0
 11
-129.2762
 21
-79.999
 31
0.0
  0
LINE
  5
4E3
330
6C
100
AcDbEntity
  8
0
  6
Continuous
 62
     7
100
AcDbLine
 10
-230.7760999999999
 20
-78.49899999999998
 30
0.0
 11
-152.7762
 21
-78.49899999999998
 31
0.0
  0
LINE
  5
4E4
330
6C
100
AcDbEntity
  8
0
  6
Continuous
 62
     7
100
AcDbLine
 10
-129.2762
 20
-79.999
 30
0.0
 11
-152.7762
 21
-79.999
 31
0.0
  0
LINE
  5
4E5
330
6C
100
AcDbEntity
  8
0
  6
Continuous
 62
     7
100
AcDbLine
 10
-152.7762
 20
-76.7988
 30
0.0
 11
-129.2762
 21
-76.7988
 31
0.0
  0
LINE
  5
4E6
330
6C
100
AcDbEntity
  8
0
  6
Continuous
 62
     7
100
AcDbLine
 10
-211.336
 20
-49.999
 30
0.0
 11
-172.2164
 21
-49.999
 31
0.0
  0
LINE
  5
4E7
330
6C
100
AcDbEntity
  8
0
  6
Continuous
 62
     7
100
AcDbLine
 10
-129.2762
 20
-75.2988
 30
0.0
 11
-254.2760999999999
 21
-75.2988
 31
0.0
  0
LINE
  5
4E8
330
6C
100
AcDbEntity
  8
0
  6
Continuous
 62
     7
100
AcDbLine
 10
-152.7762
 20
-75.2988
 30
0.0
 11
-152.7762
 21
-76.7988
 31
0.0
  0
LINE
  5
4E9
330
6C
100
AcDbEntity
  8
0
  6
Continuous
 62
     7
100
AcDbLine
 10
-152.7762
 20
-78.49899999999998
 30
0.0
 11
-152.7762
 21
-79.999
 31
0.0
  0
LINE
  5
4EA
330
6C
100
AcDbEntity
  8
0
  6
Continuous
 62
     7
100
AcDbLine
 10
-254.2760999999999
 20
-75.2988
 30
0.0
 11
-254.2760999999999
 21
-79.999
 31
0.0
  0
LINE
  5
4EB
330
6C
100
AcDbEntity
  8
0
  6
Continuous
 62
     7
100
AcDbLine
 10
-218.7759
 20
-55.0583
 30
0.0
 11
-225.7760999999999
 21
-72.76919999999998
 31
0.0
  0
LINE
  5
4EC
330
6C
100
AcDbEntity
  8
0
  6
Continuous
 62
     7
100
AcDbLine
 10
-133.8135
 20
-69.88549999999998
 30
0.0
 11
-132.7512999999999
 21
-72.70769999999997
 31
0.0
  0
LINE
  5
4ED
330
6C
100
AcDbEntity
  8
0
  6
Continuous
 62
     7
100
AcDbLine
 10
-226.5002999999999
 20
-65.99899999999999
 30
0.0
 11
-244.1233
 21
-65.99899999999999
 31
0.0
  0
LINE
  5
4EE
330
6C
100
AcDbEntity
  8
0
  6
Continuous
 62
     7
100
AcDbLine
 10
-157.0521
 20
-65.99899999999999
 30
0.0
 11
-139.429
 21
-65.99899999999999
 31
0.0
  0
LINE
  5
4EF
330
6C
100
AcDbEntity
  8
0
  6
Continuous
 62
     7
100
AcDbLine
 10
-249.7388
 20
-69.88549999999998
 30
0.0
 11
-250.8009999999999
 21
-72.70769999999997
 31
0.0
  0
LINE
  5
4F0
330
6C
100
AcDbEntity
  8
0
  6
Continuous
 62
     7
100
AcDbLine
 10
-164.7764999999999
 20
-55.0583
 30
0.0
 11
-157.7762
 21
-72.76919999999998
 31
0.0
  0
LINE
  5
4F1
330
6C
100
AcDbEntity
  8
100
  6
DASH_CENTER
 62
    30
100
AcDbLine
 10
-241.7759
 20
-67.0437
 30
0.0
 11
-241.7759
 21
-88.69719999999999
 31
0.0
  0
LINE
  5
4F2
330
6C
100
AcDbEntity
  8
0
  6
Continuous
 62
     7
100
AcDbLine
 10
-230.7760999999999
 20
-78.49899999999998
 30
0.0
 11
-230.7760999999999
 21
-79.999
 31
0.0
  0
LINE
  5
4F3
330
6C
100
AcDbEntity
  8
0
  6
Continuous
 62
     7
100
AcDbLine
 10
-230.7760999999999
 20
-75.2988
 30
0.0
 11
-230.7760999999999
 21
-76.7988
 31
0.0
  0
LINE
  5
4F4
330
6C
100
AcDbEntity
  8
0
  6
Continuous
 62
     7
100
AcDbLine
 10
-230.7760999999999
 20
-76.7988
 30
0.0
 11
-254.2760999999999
 21
-76.7988
 31
0.0
  0
LINE
  5
4F5
330
6C
100
AcDbEntity
  8
0
  6
Continuous
 62
     7
100
AcDbLine
 10
-254.2760999999999
 20
-79.999
 30
0.0
 11
-230.7760999999999
 21
-79.999
 31
0.0
  0
LINE
  5
4F6
330
6C
100
AcDbEntity
  8
0
  6
Continuous
 62
     7
100
AcDbLine
 10
-91.77599999999996
 20
9.900200000000012
 30
0.0
 11
-97.97609999999998
 21
9.900200000000012
 31
0.0
  0
LINE
  5
4F7
330
6C
100
AcDbEntity
  8
0
  6
Continuous
 62
     7
100
AcDbLine
 10
-91.77599999999996
 20
9.900200000000012
 30
0.0
 11
-91.77599999999996
 21
-9.90009999999998
 31
0.0
  0
LINE
  5
4F8
330
6C
100
AcDbEntity
  8
100
  6
DASH_CENTER
 62
    30
100
AcDbLine
 10
-124.3824999999999
 20
46.66900000000004
 30
0.0
 11
-107.2759999999999
 21
46.66900000000004
 31
0.0
  0
LINE
  5
4F9
330
6C
100
AcDbEntity
  8
100
  6
DASH_CENTER
 62
    30
100
AcDbLine
 10
-367.1672942558807
 20
0.0
 30
0.0
 11
-39.30959999999993
 21
0.0
 31
0.0
  0
LINE
  5
4FA
330
6C
100
AcDbEntity
  8
0
  6
Continuous
 62
     7
100
AcDbLine
 10
-91.42599999999992
 20
9.5
 30
0.0
 11
-52.77614373041945
 21
9.500000000000026
 31
0.0
  0
LINE
  5
4FB
330
6C
100
AcDbEntity
  8
0
  6
Continuous
 62
     7
100
AcDbLine
 10
-97.97619999999994
 20
19.19980000000001
 30
0.0
 11
-97.97599999999988
 21
-19.19989999999998
 31
0.0
  0
LINE
  5
4FC
330
6C
100
AcDbEntity
  8
0
  6
Continuous
 62
     7
100
AcDbLine
 10
-103.4530999999999
 20
-26.2995
 30
0.0
 11
-112.9759999999999
 21
-26.29980000000001
 31
0.0
  0
LINE
  5
4FD
330
6C
100
AcDbEntity
  8
0
  6
Continuous
 62
     7
100
AcDbLine
 10
-112.9759999999999
 20
-59.98239999999999
 30
0.0
 11
-112.9761999999999
 21
59.98250000000002
 31
0.0
  0
LINE
  5
4FE
330
6C
100
AcDbEntity
  8
0
  6
Continuous
 62
     7
100
AcDbLine
 10
-116.4761999999999
 20
71.99960000000004
 30
0.0
 11
-116.4759999999999
 21
-71.99949999999998
 31
0.0
  0
LINE
  5
4FF
330
6C
100
AcDbEntity
  8
0
  6
Continuous
 62
     7
100
AcDbLine
 10
-116.4759999999999
 20
-71.99949999999998
 30
0.0
 11
-119.2759999999999
 21
-71.99949999999998
 31
0.0
  0
LINE
  5
500
330
6C
100
AcDbEntity
  8
0
  6
Continuous
 62
     7
100
AcDbLine
 10
-91.77599999999996
 20
-9.90009999999998
 30
0.0
 11
-97.97599999999988
 21
-9.90009999999998
 31
0.0
  0
LINE
  5
501
330
6C
100
AcDbEntity
  8
0
  6
Continuous
 62
     7
100
AcDbLine
 10
-91.42599999999992
 20
-9.5
 30
0.0
 11
-52.77614373041945
 21
-9.499999999999973
 31
0.0
  0
LINE
  5
502
330
6C
100
AcDbEntity
  8
0
  6
Continuous
 62
     7
100
AcDbLine
 10
-99.97669999999994
 20
23.20510000000002
 30
0.0
 11
-99.97599999999987
 21
-23.19989999999998
 31
0.0
  0
LINE
  5
503
330
6C
100
AcDbEntity
  8
0
  6
Continuous
 62
     7
100
AcDbLine
 10
-103.4530999999999
 20
26.2996
 30
0.0
 11
-112.9759999999999
 21
26.29990000000001
 31
0.0
  0
LINE
  5
504
330
6C
100
AcDbEntity
  8
0
  6
Continuous
 62
     7
100
AcDbLine
 10
-309.2751703315236
 20
80.00031689606363
 30
0.0
 11
-309.2751703315236
 21
78.82231689606363
 31
0.0
  0
LINE
  5
505
330
6C
100
AcDbEntity
  8
0
  6
Continuous
 62
     7
100
AcDbLine
 10
-292.7751703315236
 20
-76.49968310393638
 30
0.0
 11
-292.7751703315236
 21
-23.27798310393635
 31
0.0
  0
LINE
  5
506
330
6C
100
AcDbEntity
  8
0
  6
Continuous
 62
     7
100
AcDbLine
 10
-292.7751703315236
 20
-76.49968310393638
 30
0.0
 11
-340.3400703315235
 21
-76.49968310393638
 31
0.0
  0
LINE
  5
507
330
6C
100
AcDbEntity
  8
0
  6
Continuous
 62
     7
100
AcDbLine
 10
-115.8927999999999
 20
39.51859999999999
 30
0.0
 11
-113.5591999999999
 21
38.86160000000001
 31
0.0
  0
LINE
  5
508
330
6C
100
AcDbEntity
  8
0
  6
Continuous
 62
     7
100
AcDbLine
 10
-309.2751703315236
 20
-9.384983103936347
 30
0.0
 11
-309.2751703315236
 21
-4.384983103936348
 31
0.0
  0
LINE
  5
509
330
6C
100
AcDbEntity
  8
0
  6
Continuous
 62
     7
100
AcDbLine
 10
-309.2751703315236
 20
78.82231689606363
 30
0.0
 11
-313.0981703315236
 21
79.99961689606363
 31
0.0
  0
LINE
  5
50A
330
6C
100
AcDbEntity
  8
0
  6
Continuous
 62
     7
100
AcDbLine
 10
-313.0988703315237
 20
79.99981689606364
 30
0.0
 11
-340.0886703315235
 21
80.00031689606363
 31
0.0
  0
LINE
  5
50B
330
6C
100
AcDbEntity
  8
0
  6
Continuous
 62
     7
100
AcDbLine
 10
-292.7751703315236
 20
80.00031689606363
 30
0.0
 11
-309.2751703315236
 21
80.00031689606363
 31
0.0
  0
LINE
  5
50C
330
6C
100
AcDbEntity
  8
100
  6
DASH_CENTER
 62
    30
100
AcDbLine
 10
-304.2751703315236
 20
75.30771689606365
 30
0.0
 11
-304.2751703315236
 21
87.2950168960636
 31
0.0
  0
LINE
  5
50D
330
6C
100
AcDbEntity
  8
0
  6
Continuous
 62
     7
100
AcDbLine
 10
-116.4760999999999
 20
42.16900000000004
 30
0.0
 11
-114.6364999999999
 21
42.33010000000001
 31
0.0
  0
LINE
  5
50E
330
6C
100
AcDbEntity
  8
0
  6
Continuous
 62
     7
100
AcDbLine
 10
-307.7751703315235
 20
80.00031689606363
 30
0.0
 11
-307.6516703315235
 21
81.41361689606361
 31
0.0
  0
LINE
  5
50F
330
6C
100
AcDbEntity
  8
0
  6
Continuous
 62
     7
100
AcDbLine
 10
-306.3564703315235
 20
82.60041689606362
 30
0.0
 11
-302.1938703315236
 21
82.60041689606362
 31
0.0
  0
LINE
  5
510
330
6C
100
AcDbEntity
  8
0
  6
Continuous
 62
     7
100
AcDbLine
 10
-300.7751703315236
 20
80.00031689606363
 30
0.0
 11
-300.8989703315235
 21
81.41361689606361
 31
0.0
  0
LINE
  5
511
330
6C
100
AcDbEntity
  8
0
  6
Continuous
 62
     7
100
AcDbLine
 10
-113.1761999999999
 20
43.9239
 30
0.0
 11
-113.1761999999999
 21
49.41410000000002
 31
0.0
  0
LINE
  5
512
330
6C
100
AcDbEntity
  8
0
  6
Continuous
 62
     7
100
AcDbLine
 10
-116.4760999999999
 20
51.16900000000004
 30
0.0
 11
-114.6364999999999
 21
51.0081
 31
0.0
  0
LINE
  5
513
330
6C
100
AcDbEntity
  8
0
  6
Continuous
 62
     7
100
AcDbLine
 10
-116.4759999999999
 20
71.99960000000004
 30
0.0
 11
-119.2759999999999
 21
71.99960000000004
 31
0.0
  0
LINE
  5
514
330
6C
100
AcDbEntity
  8
0
  6
Continuous
 62
     7
100
AcDbLine
 10
-306.1691703315235
 20
-5.767983103936358
 30
0.0
 11
-306.0617703315236
 21
-5.728183103936371
 31
0.0
  0
LINE
  5
515
330
6C
100
AcDbEntity
  8
0
  6
Continuous
 62
     7
100
AcDbLine
 10
-305.7734703315235
 20
-7.657383103936354
 30
0.0
 11
-305.8662703315235
 21
-7.575583103936367
 31
0.0
  0
LINE
  5
516
330
6C
100
AcDbEntity
  8
0
  6
Continuous
 62
     7
100
AcDbLine
 10
-292.7751703315236
 20
80.00031689606363
 30
0.0
 11
-292.7751703315236
 21
56.87851689606361
 31
0.0
  0
LINE
  5
517
330
6C
100
AcDbEntity
  8
0
  6
Continuous
 62
     7
100
AcDbLine
 10
-243.5753703315236
 20
59.36751689606365
 30
0.0
 11
-283.9759703315235
 21
59.36751689606365
 31
0.0
  0
LINE
  5
518
330
6C
100
AcDbEntity
  8
1
  6
Continuous
 62
     7
100
AcDbLine
 10
-51.77614373041945
 20
0.0000000000000284
 30
0.0
 11
-51.77614373041945
 21
-8.499999999999971
 31
0.0
  0
LINE
  5
519
330
6C
100
AcDbEntity
  8
1
  6
Continuous
 62
     7
100
AcDbLine
 10
-51.77614373041945
 20
-8.499999999999971
 30
0.0
 11
-52.77614373041945
 21
-9.499999999999973
 31
0.0
  0
LINE
  5
51A
330
6C
100
AcDbEntity
  8
1
  6
Continuous
 62
     7
100
AcDbLine
 10
-51.77614373041945
 20
8.500000000000026
 30
0.0
 11
-51.77614373041945
 21
0.0000000000000284
 31
0.0
  0
LINE
  5
51B
330
6C
100
AcDbEntity
  8
1
  6
Continuous
 62
     7
100
AcDbLine
 10
-52.77614373041945
 20
-9.499999999999973
 30
0.0
 11
-52.77614373041945
 21
0.0
 31
0.0
  0
LINE
  5
51C
330
6C
100
AcDbEntity
  8
1
  6
Continuous
 62
     7
100
AcDbLine
 10
-52.77614373041945
 20
0.0
 30
0.0
 11
-52.77614373041945
 21
9.500000000000026
 31
0.0
  0
LINE
  5
51D
330
6C
100
AcDbEntity
  8
1
  6
Continuous
 62
     7
100
AcDbLine
 10
-52.77614373041945
 20
9.500000000000026
 30
0.0
 11
-51.77614373041945
 21
8.500000000000026
 31
0.0
  0
ARC
  5
51E
330
6C
100
AcDbEntity
  8
0
  6
Continuous
 62
     7
100
AcDbCircle
 10
-115.6760305532009
 20
40.28864033944574
 30
0.0
 40
0.7999694478161227
100
AcDbArc
 50
180.0028892103241
 51
254.2778759622248
  0
ARC
  5
51F
330
6C
100
AcDbEntity
  8
0
  6
Continuous
 62
     7
100
AcDbCircle
 10
-115.6760305532009
 20
-40.28854033944567
 30
0.0
 40
0.7999694478161196
100
AcDbArc
 50
105.7221240377751
 51
179.9971107896759
  0
ARC
  5
520
330
6C
100
AcDbEntity
  8
0
  6
Continuous
 62
     7
100
AcDbCircle
 10
-113.7759040311943
 20
-38.09150532217163
 30
0.0
 40
0.8000040312119848
100
AcDbArc
 50
285.7165597566976
 51
0.0003811705442507
  0
ARC
  5
521
330
6C
100
AcDbEntity
  8
0
  6
Continuous
 62
     7
100
AcDbCircle
 10
-288.7751703329298
 20
-5.706483102530086
 30
0.0
 40
16.00000000140625
100
AcDbArc
 50
179.9989257091703
 51
270.0000000050287
  0
ARC
  5
522
330
6C
100
AcDbEntity
  8
0
  6
Continuous
 62
     7
100
AcDbCircle
 10
-238.7751703296487
 20
-6.440883102061349
 30
0.0
 40
12.000000001875
100
AcDbArc
 50
269.999999991037
 51
0.0014323855360599
  0
ARC
  5
523
330
6C
100
AcDbEntity
  8
0
  6
Continuous
 62
     7
100
AcDbCircle
 10
-238.7751703296487
 20
-4.321983102061351
 30
0.0
 40
12.000000001875
100
AcDbArc
 50
269.999999991037
 51
0.0014323855360599
  0
ARC
  5
524
330
6C
100
AcDbEntity
  8
0
  6
Continuous
 62
     7
100
AcDbCircle
 10
-288.7750703333985
 20
-4.321483102061364
 30
0.0
 40
12.000000001875
100
AcDbArc
 50
179.9985676144639
 51
270.0000000089499
  0
ARC
  5
525
330
6C
100
AcDbEntity
  8
0
  6
Continuous
 62
     7
100
AcDbCircle
 10
-288.7750703333985
 20
-6.440383102061359
 30
0.0
 40
12.000000001875
100
AcDbArc
 50
179.9985676144639
 51
270.0000000089499
  0
ARC
  5
526
330
6C
100
AcDbEntity
  8
0
  6
Continuous
 62
     7
100
AcDbCircle
 10
-238.7750703310548
 20
-5.706983103467592
 30
0.0
 40
16.00000000078126
100
AcDbArc
 50
269.9996418996935
 51
0.0007161955648267
  0
ARC
  5
527
330
6C
100
AcDbEntity
  8
0
  6
Continuous
 62
     7
100
AcDbCircle
 10
-238.7751703308985
 20
-7.786083103311369
 30
0.0
 40
16.000000000625
100
AcDbArc
 50
269.9999999977592
 51
0.0007161950062704
  0
ARC
  5
528
330
6C
100
AcDbEntity
  8
0
  6
Continuous
 62
     7
100
AcDbCircle
 10
-288.7751703329298
 20
-7.785583102530098
 30
0.0
 40
16.00000000140625
100
AcDbArc
 50
179.9989257091703
 51
270.0000000050287
  0
ARC
  5
529
330
6C
100
AcDbEntity
  8
0
  6
Continuous
 62
     7
100
AcDbCircle
 10
-276.1970648555851
 20
-12.32147884769841
 30
0.0
 40
4.000004256241709
100
AcDbArc
 50
269.9999215630376
 51
345.7131976052522
  0
ARC
  5
52A
330
6C
100
AcDbEntity
  8
0
  6
Continuous
 62
     7
100
AcDbCircle
 10
-251.3531281940802
 20
-12.32201585902348
 30
0.0
 40
3.99996724513481
100
AcDbArc
 50
194.2819560163059
 51
269.9993964206458
  0
ARC
  5
52B
330
6C
100
AcDbEntity
  8
0
  6
Continuous
 62
     7
100
AcDbCircle
 10
-274.4529266510293
 20
-12.44035747894713
 30
0.0
 40
6.000025625148217
100
AcDbArc
 50
269.9995828837757
 51
330.7961145892047
  0
ARC
  5
52C
330
6C
100
AcDbEntity
  8
0
  6
Continuous
 62
     7
100
AcDbCircle
 10
-253.0971052411909
 20
-12.44086262337606
 30
0.0
 40
6.000020480661872
100
AcDbArc
 50
209.2016686479802
 51
270.0003333616237
  0
ARC
  5
52D
330
6C
100
AcDbEntity
  8
0
  6
Continuous
 62
     7
100
AcDbCircle
 10
-262.3338743169157
 20
-15.87228215734785
 30
0.0
 40
0.1875189989926819
100
AcDbArc
 50
48.47954260970515
 51
104.7984456946047
  0
ARC
  5
52E
330
6C
100
AcDbEntity
  8
0
  6
Continuous
 62
     7
100
AcDbCircle
 10
-266.0775659108408
 20
-17.84170763756805
 30
0.0
 40
0.1875040116332432
100
AcDbArc
 50
130.7134448965241
 51
249.7154443692932
  0
ARC
  5
52F
330
6C
100
AcDbEntity
  8
0
  6
Continuous
 62
     7
100
AcDbCircle
 10
-265.9432500166825
 20
-17.89157952538215
 30
0.0
 40
0.1874420965911891
100
AcDbArc
 50
249.7032692403529
 51
310.2775805042586
  0
ARC
  5
530
330
6C
100
AcDbEntity
  8
0
  6
Continuous
 62
     7
100
AcDbCircle
 10
-262.2211700220647
 20
-15.97208182806284
 30
0.0
 40
0.1875073731837718
100
AcDbArc
 50
284.2954448567843
 51
48.43732467378615
  0
ARC
  5
531
330
6C
100
AcDbEntity
  8
0
  6
Continuous
 62
     7
100
AcDbCircle
 10
-265.2159926613017
 20
-15.87228841066457
 30
0.0
 40
0.1875062384914735
100
AcDbArc
 50
75.223811202372
 51
131.5131702466444
  0
ARC
  5
532
330
6C
100
AcDbEntity
  8
0
  6
Continuous
 62
     7
100
AcDbCircle
 10
-261.4723747522062
 20
-17.84170763756805
 30
0.0
 40
0.1875040116332419
100
AcDbArc
 50
290.2845556307068
 51
49.28655510347589
  0
ARC
  5
533
330
6C
100
AcDbEntity
  8
0
  6
Continuous
 62
     7
100
AcDbCircle
 10
-261.6066567690968
 20
-17.89158549173879
 30
0.0
 40
0.1874594484424917
100
AcDbArc
 50
229.7133409980328
 51
290.3163184524644
  0
ARC
  5
534
330
6C
100
AcDbEntity
  8
0
  6
Continuous
 62
     7
100
AcDbCircle
 10
-265.3287618044483
 20
-15.97211830545228
 30
0.0
 40
0.1874742080611066
100
AcDbArc
 50
131.5344324740213
 51
255.6991854132605
  0
ARC
  5
535
330
6C
100
AcDbEntity
  8
0
  6
Continuous
 62
     7
100
AcDbCircle
 10
-264.6879656946496
 20
-16.48993500037764
 30
0.0
 40
0.1249965290928462
100
AcDbArc
 50
299.2601946390174
 51
70.95128404438812
  0
ARC
  5
536
330
6C
100
AcDbEntity
  8
0
  6
Continuous
 62
     7
100
AcDbCircle
 10
-259.9265791798205
 20
-24.99011931918352
 30
0.0
 40
9.617933358192022
100
AcDbArc
 50
119.2545379140888
 51
130.7114116010382
  0
ARC
  5
537
330
6C
100
AcDbEntity
  8
0
  6
Continuous
 62
     7
100
AcDbCircle
 10
-267.6229326709217
 20
-24.99028415632635
 30
0.0
 40
9.117929367228823
100
AcDbArc
 50
70.9504477870241
 51
75.72760541291923
  0
ARC
  5
538
330
6C
100
AcDbEntity
  8
0
  6
Continuous
 62
     7
100
AcDbCircle
 10
-262.8622749683974
 20
-16.48993500037764
 30
0.0
 40
0.1249965290928511
100
AcDbArc
 50
109.0487159556252
 51
240.7398053609834
  0
ARC
  5
539
330
6C
100
AcDbEntity
  8
0
  6
Continuous
 62
     7
100
AcDbCircle
 10
-259.9266328198785
 20
-24.99017187620632
 30
0.0
 40
9.117913053076724
100
AcDbArc
 50
104.2748532961568
 51
109.051416948395
  0
ARC
  5
53A
330
6C
100
AcDbEntity
  8
0
  6
Continuous
 62
     7
100
AcDbCircle
 10
-267.6233614832266
 20
-24.99011931918346
 30
0.0
 40
9.617933358192026
100
AcDbArc
 50
49.28858839896069
 51
60.74546208591118
  0
ARC
  5
53B
330
6C
100
AcDbEntity
  8
0
  6
Continuous
 62
     7
100
AcDbCircle
 10
-263.7750703315234
 20
-15.63278310393636
 30
0.0
 40
0.4999897998959601
100
AcDbArc
 50
247.6410574418347
 51
292.3589425581653
  0
ARC
  5
53C
330
6C
100
AcDbEntity
  8
0
  6
Continuous
 62
     7
100
AcDbCircle
 10
-267.6229959452649
 20
-24.99027528823174
 30
0.0
 40
9.617944883976736
100
AcDbArc
 50
67.64630879455419
 51
75.21255454685031
  0
ARC
  5
53D
330
6C
100
AcDbEntity
  8
0
  6
Continuous
 62
     7
100
AcDbCircle
 10
-259.9266714967387
 20
-24.99018349544087
 30
0.0
 40
9.617925870997256
100
AcDbArc
 50
104.789158742487
 51
112.354853542136
  0
ARC
  5
53E
330
6C
100
AcDbEntity
  8
0
  6
Continuous
 62
     7
100
AcDbCircle
 10
-263.7750703315234
 20
-17.27918310393636
 30
0.0
 40
0.4999401764211373
100
AcDbArc
 50
63.47082595004657
 51
116.5291740499417
  0
ARC
  5
53F
330
6C
100
AcDbEntity
  8
0
  6
Continuous
 62
     7
100
AcDbCircle
 10
-267.6232537987121
 20
-24.9901940064544
 30
0.0
 40
9.117974576878786
100
AcDbArc
 50
49.71671786658875
 51
63.47778762581743
  0
ARC
  5
540
330
6C
100
AcDbEntity
  8
0
  6
Continuous
 62
     7
100
AcDbCircle
 10
-259.9264615814032
 20
-24.99004543668306
 30
0.0
 40
9.117942245236646
100
AcDbArc
 50
116.5238959275108
 51
130.2844863283271
  0
ARC
  5
541
330
6C
100
AcDbEntity
  8
0
  6
Continuous
 62
     7
100
AcDbCircle
 10
-266.5448755170842
 20
-17.81413734062599
 30
0.0
 40
1.499976129103005
100
AcDbArc
 50
151.5552953323677
 51
221.3742254897969
  0
ARC
  5
542
330
6C
100
AcDbEntity
  8
0
  6
Continuous
 62
     7
100
AcDbCircle
 10
-261.0047691098347
 20
-17.81417231614634
 30
0.0
 40
1.499955985981635
100
AcDbArc
 50
318.626877140438
 51
28.4509853824728
  0
ARC
  5
543
330
6C
100
AcDbEntity
  8
0
  6
Continuous
 62
     7
100
AcDbCircle
 10
-263.7748584155157
 20
-15.37418310363048
 30
0.0
 40
5.191358718087006
100
AcDbArc
 50
221.3763579805616
 51
318.6265835832305
  0
ARC
  5
544
330
6C
100
AcDbEntity
  8
0
  6
Continuous
 62
     7
100
AcDbCircle
 10
-263.774843244165
 20
-19.31488310360512
 30
0.0
 40
4.650375547659153
100
AcDbArc
 50
28.44719526485658
 51
151.5542059868136
  0
ARC
  5
545
330
6C
100
AcDbEntity
  8
0
  6
Continuous
 62
     7
100
AcDbCircle
 10
-114.776096478108
 20
-49.41399615642335
 30
0.0
 40
1.599996478112638
100
AcDbArc
 50
275.0017109466416
 51
359.9998623617476
  0
ARC
  5
546
330
6C
100
AcDbEntity
  8
0
  6
Continuous
 62
     7
100
AcDbCircle
 10
-114.776096478108
 20
-43.92380384357661
 30
0.0
 40
1.599996478112628
100
AcDbArc
 50
0.0001376382524494
 51
84.99828905335832
  0
ARC
  5
547
330
6C
100
AcDbEntity
  8
0
  6
Continuous
 62
     7
100
AcDbCircle
 10
-91.42599999999992
 20
9.849700000000012
 30
0.0
 40
0.3499999999999943
100
AcDbArc
 50
180.0
 51
270.0
  0
ARC
  5
548
330
6C
100
AcDbEntity
  8
0
  6
Continuous
 62
     7
100
AcDbCircle
 10
-154.0559483567754
 20
-71.29883511972507
 30
0.0
 40
3.999964880608263
100
AcDbArc
 50
201.565796681805
 51
269.999260258809
  0
ARC
  5
549
330
6C
100
AcDbEntity
  8
0
  6
Continuous
 62
     7
100
AcDbCircle
 10
-157.0520863244783
 20
-60.99870929955471
 30
0.0
 40
4.999990700464006
100
AcDbArc
 50
201.5676065398681
 51
269.9998432897664
  0
ARC
  5
54A
330
6C
100
AcDbEntity
  8
0
  6
Continuous
 62
     7
100
AcDbCircle
 10
-172.2163665291979
 20
-57.9987227610452
 30
0.0
 40
8.000022761115232
100
AcDbArc
 50
21.56624963225279
 51
90.00023971628404
  0
ARC
  5
54B
330
6C
100
AcDbEntity
  8
0
  6
Continuous
 62
     7
100
AcDbCircle
 10
-129.0076156977555
 20
-71.29878833678396
 30
0.0
 40
4.000025528620723
100
AcDbArc
 50
200.6235074689897
 51
266.152812331454
  0
ARC
  5
54C
330
6C
100
AcDbEntity
  8
0
  6
Continuous
 62
     7
100
AcDbCircle
 10
-244.123292603814
 20
-71.99869488081984
 30
0.0
 40
5.999994880824407
100
AcDbArc
 50
90.00007062844314
 51
159.3770774079215
  0
ARC
  5
54D
330
6C
100
AcDbEntity
  8
0
  6
Continuous
 62
     7
100
AcDbCircle
 10
-139.4290073961859
 20
-71.99869488081984
 30
0.0
 40
5.999994880824393
100
AcDbArc
 50
20.62292259207842
 51
89.99992937155687
  0
ARC
  5
54E
330
6C
100
AcDbEntity
  8
0
  6
Continuous
 62
     7
100
AcDbCircle
 10
-254.5447537096853
 20
-71.29883990670428
 30
0.0
 40
3.999978732508801
100
AcDbArc
 50
273.8482291846133
 51
339.3770295325804
  0
ARC
  5
54F
330
6C
100
AcDbEntity
  8
0
  6
Continuous
 62
     7
100
AcDbCircle
 10
-211.3359650920546
 20
-57.99867626133971
 30
0.0
 40
7.999976261415889
100
AcDbArc
 50
90.0002500104863
 51
158.4339768383635
  0
ARC
  5
550
330
6C
100
AcDbEntity
  8
0
  6
Continuous
 62
     7
100
AcDbCircle
 10
-226.5003136755215
 20
-60.99870929955469
 30
0.0
 40
4.999990700464002
100
AcDbArc
 50
270.0001567102205
 51
338.4323934601274
  0
ARC
  5
551
330
6C
100
AcDbEntity
  8
0
  6
Continuous
 62
     7
100
AcDbCircle
 10
-229.4963246170679
 20
-71.29881673960614
 30
0.0
 40
3.999983261104186
100
AcDbArc
 50
269.9989202145202
 51
338.4324840503608
  0
ARC
  5
552
330
6C
100
AcDbEntity
  8
0
  6
Continuous
 62
     7
100
AcDbCircle
 10
-102.9759999999999
 20
-19.19969999999998
 30
0.0
 40
5.0
100
AcDbArc
 50
306.8698976458405
 51
0.0
  0
ARC
  5
553
330
6C
100
AcDbEntity
  8
0
  6
Continuous
 62
     7
100
AcDbCircle
 10
-103.4530820210151
 20
-22.79948397088003
 30
0.0
 40
3.500016029166126
100
AcDbArc
 50
269.9997056813633
 51
353.4373381879846
  0
ARC
  5
554
330
6C
100
AcDbEntity
  8
0
  6
Continuous
 62
     7
100
AcDbCircle
 10
-116.9759994581247
 20
-59.98239923916475
 30
0.0
 40
3.99999945812485
100
AcDbArc
 50
289.0822358663561
 51
359.9999891018372
  0
ARC
  5
555
330
6C
100
AcDbEntity
  8
0
  6
Continuous
 62
     7
100
AcDbCircle
 10
-115.2760301501673
 20
-64.89644233043191
 30
0.0
 40
1.19996985057922
100
AcDbArc
 50
109.0807108504464
 51
179.9979788199739
  0
ARC
  5
556
330
6C
100
AcDbEntity
  8
0
  6
Continuous
 62
     7
100
AcDbCircle
 10
-114.776096478108
 20
49.41409615642339
 30
0.0
 40
1.599996478112628
100
AcDbArc
 50
0.0001376382524494
 51
84.99828905335832
  0
ARC
  5
557
330
6C
100
AcDbEntity
  8
0
  6
Continuous
 62
     7
100
AcDbCircle
 10
-113.7759040311943
 20
38.09160532217163
 30
0.0
 40
0.8000040312119802
100
AcDbArc
 50
359.9996188294558
 51
74.2834402433024
  0
ARC
  5
558
330
6C
100
AcDbEntity
  8
0
  6
Continuous
 62
     7
100
AcDbCircle
 10
-340.3400970886746
 20
-69.49945815769897
 30
0.0
 40
7.000024946288552
100
AcDbArc
 50
184.0117160191626
 51
270.0002190094722
  0
ARC
  5
559
330
6C
100
AcDbEntity
  8
0
  6
Continuous
 62
     7
100
AcDbCircle
 10
-340.0886504555895
 20
73.00033536009731
 30
0.0
 40
6.999981535994503
100
AcDbArc
 50
90.00016268717017
 51
175.7818167264458
  0
ARC
  5
55A
330
6C
100
AcDbEntity
  8
0
  6
Continuous
 62
     7
100
AcDbCircle
 10
-103.4530820210151
 20
22.79958397088007
 30
0.0
 40
3.500016029166121
100
AcDbArc
 50
6.562661812015403
 51
90.00029431863659
  0
ARC
  5
55B
330
6C
100
AcDbEntity
  8
0
  6
Continuous
 62
     7
100
AcDbCircle
 10
-309.7336703315235
 20
-6.884983103936349
 30
0.0
 40
2.541660655949178
100
AcDbArc
 50
79.61188128798136
 51
280.3881187120187
  0
ARC
  5
55C
330
6C
100
AcDbEntity
  8
0
  6
Continuous
 62
     7
100
AcDbCircle
 10
-114.776096478108
 20
43.92390384357661
 30
0.0
 40
1.599996478112634
100
AcDbArc
 50
275.0017109466416
 51
359.9998623617476
  0
ARC
  5
55D
330
6C
100
AcDbEntity
  8
0
  6
Continuous
 62
     7
100
AcDbCircle
 10
650.223829873108
 20
0.0004326909209453
 30
0.0
 40
999.9999802513304
100
AcDbArc
 50
175.7841040644341
 51
184.0133908634776
  0
ARC
  5
55E
330
6C
100
AcDbEntity
  8
0
  6
Continuous
 62
     7
100
AcDbCircle
 10
-102.9759999999999
 20
19.19980000000001
 30
0.0
 40
5.0
100
AcDbArc
 50
0.0
 51
53.13010235415957
  0
ARC
  5
55F
330
6C
100
AcDbEntity
  8
0
  6
Continuous
 62
     7
100
AcDbCircle
 10
-302.1938401987502
 20
81.30028928773304
 30
0.0
 40
1.300027608679855
100
AcDbArc
 50
5.005430019381458
 51
90.00132803389854
  0
ARC
  5
560
330
6C
100
AcDbEntity
  8
0
  6
Continuous
 62
     7
100
AcDbCircle
 10
-306.3564461025704
 20
81.30033909689434
 30
0.0
 40
1.299977799395057
100
AcDbArc
 50
90.00106787728114
 51
174.9965814170018
  0
ARC
  5
561
330
6C
100
AcDbEntity
  8
0
  6
Continuous
 62
     7
100
AcDbCircle
 10
-115.2760301501673
 20
64.89654233043194
 30
0.0
 40
1.199969850579214
100
AcDbArc
 50
180.002021180026
 51
250.9192891495535
  0
ARC
  5
562
330
6C
100
AcDbEntity
  8
0
  6
Continuous
 62
     7
100
AcDbCircle
 10
-116.9759994581247
 20
59.98249923916478
 30
0.0
 40
3.999999458124848
100
AcDbArc
 50
0.0000108981627791
 51
70.91776413364384
  0
ARC
  5
563
330
6C
100
AcDbEntity
  8
0
  6
Continuous
 62
     7
100
AcDbCircle
 10
-306.1171839897625
 20
-5.908658774745759
 30
0.0
 40
0.1499740780514242
100
AcDbArc
 50
110.2816656867615
 51
229.2553959140001
  0
ARC
  5
564
330
6C
100
AcDbEntity
  8
0
  6
Continuous
 62
     7
100
AcDbCircle
 10
-306.00978377184
 20
-5.869080731585198
 30
0.0
 40
0.1499947492871895
100
AcDbArc
 50
49.70081663831877
 51
110.2788364714347
  0
ARC
  5
565
330
6C
100
AcDbEntity
  8
0
  6
Continuous
 62
     7
100
AcDbCircle
 10
-305.0053655638724
 20
-6.990129928538749
 30
0.0
 40
0.1000137598015746
100
AcDbArc
 50
289.0205634048154
 51
60.73267428625071
  0
ARC
  5
566
330
6C
100
AcDbEntity
  8
0
  6
Continuous
 62
     7
100
AcDbCircle
 10
-301.1963606378385
 20
-0.1900199146308523
 30
0.0
 40
7.694428692427532
100
AcDbArc
 50
229.2903243785338
 51
240.7470265611472
  0
ARC
  5
567
330
6C
100
AcDbEntity
  8
0
  6
Continuous
 62
     7
100
AcDbCircle
 10
-301.196353817774
 20
-0.1900250093099771
 30
0.0
 40
7.294389481968671
100
AcDbArc
 50
229.7177126020319
 51
240.6173691141167
  0
ARC
  5
568
330
6C
100
AcDbEntity
  8
0
  6
Continuous
 62
     7
100
AcDbCircle
 10
-305.7668615761317
 20
-7.463049346168418
 30
0.0
 40
0.1500207445113999
100
AcDbArc
 50
102.3194586233935
 51
228.6008874415193
  0
ARC
  5
569
330
6C
100
AcDbEntity
  8
0
  6
Continuous
 62
     7
100
AcDbCircle
 10
-305.6740381902683
 20
-7.545090754394776
 30
0.0
 40
0.1500540532888297
100
AcDbArc
 50
228.4473051347402
 51
284.7751943907076
  0
ARC
  5
56A
330
6C
100
AcDbEntity
  8
0
  6
Continuous
 62
     7
100
AcDbCircle
 10
-307.3541972945366
 20
-0.1902029885745833
 30
0.0
 40
7.294368257315388
100
AcDbArc
 50
282.3129024488261
 51
289.0549454833245
  0
ARC
  5
56B
330
6C
100
AcDbEntity
  8
0
  6
Continuous
 62
     7
100
AcDbCircle
 10
-307.35352507171
 20
-0.1900117623264066
 30
0.0
 40
7.694420108413499
100
AcDbArc
 50
282.861612533142
 51
289.5758889073073
  0
ARC
  5
56C
330
6C
100
AcDbEntity
  8
0
  6
Continuous
 62
     7
100
AcDbCircle
 10
-306.4843767363029
 20
-6.21434710035399
 30
0.0
 40
1.200013208620404
100
AcDbArc
 50
146.2860327030701
 51
202.2836729603429
  0
ARC
  5
56D
330
6C
100
AcDbEntity
  8
0
  6
Continuous
 62
     7
100
AcDbCircle
 10
-304.2749034584083
 20
-7.688903700392472
 30
0.0
 40
3.856260077261183
100
AcDbArc
 50
97.4598980579322
 51
146.2822073546766
  0
ARC
  5
56E
330
6C
100
AcDbEntity
  8
0
  6
Continuous
 62
     7
100
AcDbCircle
 10
-304.2749259517932
 20
-5.309240308327047
 30
0.0
 40
3.587667087408615
100
AcDbArc
 50
202.2789502202328
 51
262.5699054945536
  0
ARC
  5
56F
330
6C
100
AcDbEntity
  8
0
  6
Continuous
 62
     7
100
AcDbCircle
 10
-283.9758703319702
 20
42.56741689561721
 30
0.0
 40
16.80000000074406
100
AcDbArc
 50
90.00034104479174
 51
180.0006820910899
  0
ARC
  5
570
330
6C
100
AcDbEntity
  8
0
  6
Continuous
 62
     7
100
AcDbCircle
 10
-243.5753703301842
 20
42.56741689472437
 30
0.0
 40
16.80000000133929
100
AcDbArc
 50
0.0010231434881573
 51
90.00000000455965
  0
ARC
  5
571
330
6C
100
AcDbEntity
  8
0
  6
Continuous
 62
     7
100
AcDbCircle
 10
-283.9754610329824
 20
37.74713300761857
 30
0.0
 40
20.8000092985473
100
AcDbArc
 50
120.0184648110519
 51
180.0000443809466
  0
ARC
  5
572
330
6C
100
AcDbEntity
  8
0
  6
Continuous
 62
     7
100
AcDbCircle
 10
-243.5753758113421
 20
37.74712638991429
 30
0.0
 40
20.80000548184735
100
AcDbArc
 50
0.0008002294175653
 51
59.98599503165062
  0
ARC
  5
573
330
6C
100
AcDbEntity
  8
0
  6
Continuous
 62
     7
100
AcDbCircle
 10
-91.42599999999992
 20
-9.849799999999987
 30
0.0
 40
0.3500000000000014
100
AcDbArc
 50
90.0
 51
180.0
  0
SPLINE
  5
574
330
6C
100
AcDbEntity
  8
0
  6
Continuous
 62
     7
100
AcDbSpline
210
0.0
220
0.0
230
1.0
 70
  1064
 71
     3
 72
    85
 73
    81
 74
    79
 42
0.0000000001
 43
0.0000000001
 44
0.00000001
 40
0.0
 40
0.0
 40
0.0
 40
0.0
 40
0.1517970748917897
 40
0.3036542436026182
 40
0.4567630169225148
 40
0.6098284227912707
 40
0.7644955039419914
 40
0.9191858350246015
 40
1.075517575430605
 40
1.231840378585902
 40
1.389857543165527
 40
1.547878239542869
 40
1.707605717444907
 40
1.867332341393402
 40
2.028761091521451
 40
2.190190422387035
 40
2.353292571016735
 40
2.516394824321479
 40
2.68111983564666
 40
2.845845078294249
 40
3.012122591520662
 40
3.178400275449982
 40
3.34614101205087
 40
3.513881914503283
 40
3.682979365763265
 40
3.852076960894664
 40
4.022408974651112
 40
4.192741115084563
 40
4.364171619252156
 40
4.535602231445496
 40
4.707982998170682
 40
4.880363854746359
 40
5.053536313631924
 40
5.22670884417899
 40
5.400505926341869
 40
5.57430306212793
 40
5.748551068010523
 40
5.922799109574834
 40
6.097319592866774
 40
6.271840093980938
 40
6.446451756178386
 40
6.621063418380474
 40
6.795584009308028
 40
6.970104582422184
 40
7.144352802679335
 40
7.31860098726365
 40
7.492398388747256
 40
7.666195736616657
 40
7.839368617058824
 40
8.012541425848903
 40
8.184922712785844
 40
8.357303909879437
 40
8.528735028246661
 40
8.700166038601963
 40
8.870498755485655
 40
9.040831345682844
 40
9.209929581051691
 40
9.379027672621864
 40
9.546769271990088
 40
9.714510705297586
 40
9.880789134068873
 40
10.04706739288155
 40
10.21179342151584
 40
10.37651921638662
 40
10.53962228016816
 40
10.70272524728834
 40
10.8641554256323
 40
11.02558499766409
 40
11.18531242303665
 40
11.34504078162459
 40
11.50306244295028
 40
11.66108033760198
 40
11.81740361559074
 40
11.97373647954121
 40
12.12842850321784
 40
12.28309570557487
 40
12.43616018612999
 40
12.58927074241415
 40
12.74114821246988
 40
12.89296218332986
 40
12.89296218332986
 40
12.89296218332986
 40
12.89296218332986
 10
-258.3343703315236
 20
-15.36808310393636
 30
0.0
 10
-258.3597091305642
 20
-15.3242771970628
 30
0.0
 10
-258.4103967724502
 20
-15.23664804878874
 30
0.0
 10
-258.4930362345211
 20
-15.10872316837532
 30
0.0
 10
-258.5779925949782
 20
-14.98186348011387
 30
0.0
 10
-258.6670512280422
 20
-14.85666428391336
 30
0.0
 10
-258.7606431058337
 20
-14.73415345557486
 30
0.0
 10
-258.8588005891302
 20
-14.61386702868181
 30
0.0
 10
-258.9608465218989
 20
-14.49613152891694
 30
0.0
 10
-259.0671197204414
 20
-14.38068429515336
 30
0.0
 10
-259.1772154422112
 20
-14.26808756925433
 30
0.0
 10
-259.2914171490392
 20
-14.15801736368
 30
0.0
 10
-259.4092054247093
 20
-14.0509451611436
 30
0.0
 10
-259.5309023733514
 20
-13.9465844604885
 30
0.0
 10
-259.6559804073377
 20
-13.84539655490844
 30
0.0
 10
-259.7847693592076
 20
-13.74711122485315
 30
0.0
 10
-259.9167159386043
 20
-13.65214941027034
 30
0.0
 10
-260.0521555648841
 20
-13.56026936922496
 30
0.0
 10
-260.1905245957444
 20
-13.47185431291749
 30
0.0
 10
-260.3321546366855
 20
-13.38669168711989
 30
0.0
 10
-260.4764789012895
 20
-13.30512225988322
 30
0.0
 10
-260.6238173454695
 20
-13.22696497817907
 30
0.0
 10
-260.7736093416083
 20
-13.15251715478171
 30
0.0
 10
-260.9261551857918
 20
-13.08162949065826
 30
0.0
 10
-261.0809089270218
 20
-13.01455541858064
 30
0.0
 10
-261.2381436267401
 20
-12.95117671656495
 30
0.0
 10
-261.3973362520596
 20
-12.89170383908782
 30
0.0
 10
-261.5587255625163
 20
-12.83604784461774
 30
0.0
 10
-261.7218190864352
 20
-12.78437810726349
 30
0.0
 10
-261.8868148708426
 20
-12.73663224163317
 30
0.0
 10
-262.0532579692098
 20
-12.6929413812494
 30
0.0
 10
-262.2213000703725
 20
-12.65326614291392
 30
0.0
 10
-262.3905299238298
 20
-12.6177030642433
 30
0.0
 10
-262.5610480689985
 20
-12.58623151037001
 30
0.0
 10
-262.7324922488544
 20
-12.55891775282858
 30
0.0
 10
-262.9049079875892
 20
-12.53575507580327
 30
0.0
 10
-263.0779863793508
 20
-12.51678437300952
 30
0.0
 10
-263.2517150468289
 20
-12.50200757012075
 30
0.0
 10
-263.4258418034992
 20
-12.49144550402371
 30
0.0
 10
-263.6002945031113
 20
-12.48510314256678
 30
0.0
 10
-263.7748800212029
 20
-12.48298689355239
 30
0.0
 10
-263.9494656197239
 20
-12.48509897216438
 30
0.0
 10
-264.1239185307081
 20
-12.49143716602314
 30
0.0
 10
-264.2980456592318
 20
-12.50199507301979
 30
0.0
 10
-264.4717748292735
 20
-12.5167677252243
 30
0.0
 10
-264.6448538829496
 20
-12.53573429427452
 30
0.0
 10
-264.8172704138438
 20
-12.55889285159466
 30
0.0
 10
-264.988715543334
 20
-12.58620251470473
 30
0.0
 10
-265.1592347676802
 20
-12.61766999382548
 30
0.0
 10
-265.3284658551803
 20
-12.65322903118537
 30
0.0
 10
-265.4965093189882
 20
-12.69290025355277
 30
0.0
 10
-265.6629539315372
 20
-12.73658713936095
 30
0.0
 10
-265.8279513575411
 20
-12.78432906146228
 30
0.0
 10
-265.9910466705775
 20
-12.83599490434995
 30
0.0
 10
-266.1524378961299
 20
-12.89164704111896
 30
0.0
 10
-266.3116325793563
 20
-12.95111611732798
 30
0.0
 10
-266.4688694612326
 20
-13.01449106071006
 30
0.0
 10
-266.6236255221979
 20
-13.08156143747442
 30
0.0
 10
-266.7761738084835
 20
-13.15244545446998
 30
0.0
 10
-266.9259683780703
 20
-13.22688970090799
 30
0.0
 10
-267.0733095153252
 20
-13.30504346085214
 30
0.0
 10
-267.2176365991187
 20
-13.38660944141278
 30
0.0
 10
-267.3592695782697
 20
-13.47176867766369
 30
0.0
 10
-267.4976416619107
 20
-13.56018042931871
 30
0.0
 10
-267.6330844485006
 20
-13.65205724366859
 30
0.0
 10
-267.7650343128414
 20
-13.74701590564078
 30
0.0
 10
-267.8938266895965
 20
-13.8452981138693
 30
0.0
 10
-268.0189081995747
 20
-13.94648303435577
 30
0.0
 10
-268.1406086131942
 20
-14.05084097712595
 30
0.0
 10
-268.2584006455106
 20
-14.15791034843055
 30
0.0
 10
-268.3726066913737
 20
-14.26797728466645
 30
0.0
 10
-268.4827060966201
 20
-14.38057145513029
 30
0.0
 10
-268.5889811659964
 20
-14.49601803493776
 30
0.0
 10
-268.691031833007
 20
-14.61375075947636
 30
0.0
 10
-268.7892017587554
 20
-14.73402824419944
 30
0.0
 10
-268.8827954097602
 20
-14.85653857387543
 30
0.0
 10
-268.971827140518
 20
-14.98175747117183
 30
0.0
 10
-269.0567967623429
 20
-15.10861545947931
 30
0.0
 10
-269.1395779967378
 20
-15.23646452463028
 30
0.0
 10
-269.1903097599998
 20
-15.32408301508421
 30
0.0
 10
-269.2156703315236
 20
-15.36788310393635
 30
0.0
 11
-258.3343703315236
 21
-15.36808310393636
 31
0.0
 11
-258.4114490004797
 21
-15.23731142604441
 31
0.0
 11
-258.4931544024527
 21
-15.10930819107821
 31
0.0
 11
-258.5785956069521
 21
-14.98225663775582
 31
0.0
 11
-258.6674377419235
 21
-14.85761277069599
 31
0.0
 11
-258.7612867449256
 21
-14.73467266013631
 31
0.0
 11
-258.8590373004124
 21
-14.61478134440747
 31
0.0
 11
-258.9614298862915
 21
-14.49664848896214
 31
0.0
 11
-259.0673034917293
 21
-14.38163719146325
 31
0.0
 11
-259.177764698887
 21
-14.26864273984842
 31
0.0
 11
-259.2915302242594
 21
-14.15897074803735
 31
0.0
 11
-259.4097151543071
 21
-14.05152220424151
 31
0.0
 11
-259.5309572948482
 21
-13.94753692738578
 31
0.0
 11
-259.6564513033926
 21
-13.84599631862158
 31
0.0
 11
-259.7847729661424
 21
-13.7480525604397
 31
0.0
 11
-259.9171480272289
 21
-13.65276796505122
 31
0.0
 11
-260.0521167186496
 21
-13.56119396551031
 31
0.0
 11
-260.1909181317576
 21
-13.47248941606116
 31
0.0
 11
-260.3320821681858
 21
-13.38759465534494
 31
0.0
 11
-260.4768343123602
 21
-13.30577150355285
 31
0.0
 11
-260.6237201388183
 21
-13.22784318930826
 31
0.0
 11
-260.7739271137871
 21
-13.15317847620156
 31
0.0
 11
-260.9260418808881
 21
-13.08248117797043
 31
0.0
 11
-261.08118960279
 21
-13.01522694094865
 31
0.0
 11
-261.2380224232002
 21
-12.95200144686726
 31
0.0
 11
-261.3975803813726
 21
-12.89238389183217
 31
0.0
 11
-261.5586040480156
 21
-12.83684636565772
 31
0.0
 11
-261.7220272042729
 21
-12.78506519418195
 31
0.0
 11
-261.8866998770674
 21
-12.73740634834391
 31
0.0
 11
-262.0534305708671
 21
-12.6936341604875
 31
0.0
 11
-262.2211975564379
 21
-12.65401852963765
 31
0.0
 11
-262.3906674472099
 21
-12.61840032400343
 31
0.0
 11
-262.5609630278096
 21
-12.58696562196195
 31
0.0
 11
-262.7325950599834
 21
-12.55961838769639
 31
0.0
 11
-262.9048443732987
 21
-12.53647495696174
 31
0.0
 11
-263.0780547616366
 21
-12.51748736003688
 31
0.0
 11
-263.2516757208403
 21
-12.50271771477412
 31
0.0
 11
-263.4258759499993
 21
-12.49214987899989
 31
0.0
 11
-263.6002811968818
 21
-12.48580834367078
 31
0.0
 11
-263.7748800296704
 21
-12.48369172742463
 31
0.0
 11
-263.9494789129852
 21
-12.48580417204033
 31
0.0
 11
-264.1238844011669
 21
-12.49214154144681
 31
0.0
 11
-264.2980849728222
 21
-12.50270521402598
 31
0.0
 11
-264.4717064640174
 21
-12.5174707131585
 31
0.0
 11
-264.6449174859756
 21
-12.53645416947762
 31
0.0
 11
-264.8171676198609
 21
-12.55959348785234
 31
0.0
 11
-264.9888005749409
 21
-12.58693661821832
 31
0.0
 11
-265.159097261605
 21
-12.61836725549389
 31
0.0
 11
-265.3285683617424
 21
-12.65398140796682
 31
0.0
 11
-265.4963367348336
 21
-12.69359303526548
 31
0.0
 11
-265.6630689206461
 21
-12.73736123460068
 31
0.0
 11
-265.8277432574339
 21
-12.78501615147851
 31
0.0
 11
-265.9911681835719
 21
-12.83679341279273
 31
0.0
 11
-266.1521937848079
 21
-12.89232709766381
 31
0.0
 11
-266.3117537849601
 21
-12.95194083440827
 31
0.0
 11
-266.4685888037052
 21
-13.01516258762919
 31
0.0
 11
-266.6237388330619
 21
-13.08241311141384
 31
0.0
 11
-266.7758560548749
 21
-13.15310678141554
 31
0.0
 11
-266.9260655948624
 21
-13.22776789942233
 31
0.0
 11
-267.0729541229194
 21
-13.30569271063433
 31
0.0
 11
-267.2177090821477
 21
-13.38751239738738
 31
0.0
 11
-267.3588760615684
 21
-13.47240378943414
 31
0.0
 11
-267.4976805265558
 21
-13.56110501836298
 31
0.0
 11
-267.6326523785169
 21
-13.65267580309435
 31
0.0
 11
-267.7650307318294
 21
-13.74795722566296
 31
0.0
 11
-267.8933558128438
 21
-13.84589790208241
 31
0.0
 11
-268.0188532919071
 21
-13.94743552819622
 31
0.0
 11
-268.1400989101186
 21
-14.05141798118402
 31
0.0
 11
-268.2582876639416
 21
-14.15886362821195
 31
0.0
 11
-268.3720574010686
 21
-14.26853264129556
 31
0.0
 11
-268.4825220858254
 21
-14.38152471417382
 31
0.0
 11
-268.5883981028608
 21
-14.49653443703596
 31
0.0
 11
-268.690796328334
 21
-14.61466389098939
 31
0.0
 11
-268.7885567438668
 21
-14.73454935090072
 31
0.0
 11
-268.8824042725566
 21
-14.8574907393554
 31
0.0
 11
-268.9712296748601
 21
-14.98214539494131
 31
0.0
 11
-269.0566963038732
 21
-15.10918199554192
 31
0.0
 11
-269.1385133310177
 21
-15.23713800831029
 31
0.0
 11
-269.2156703315236
 21
-15.36788310393635
 31
0.0
  0
SPLINE
  5
575
330
6C
100
AcDbEntity
  8
0
  6
Continuous
 62
     7
100
AcDbSpline
210
0.0
220
0.0
230
1.0
 70
  1064
 71
     3
 72
    93
 73
    89
 74
    87
 42
0.0000000001
 43
0.0000000001
 44
0.00000001
 40
0.0
 40
0.0
 40
0.0
 40
0.0
 40
0.3317762652544958
 40
0.6635696289787823
 40
0.9925134625522748
 40
1.321453804967739
 40
1.647207616471566
 40
1.972961440531778
 40
2.295201368270284
 40
2.617440960517354
 40
2.93587826374481
 40
3.254315091099742
 40
3.568703193643073
 40
3.883090841483398
 40
4.193229563447355
 40
4.503367750618595
 40
4.809107286792352
 40
5.114846251125503
 40
5.416091170134238
 40
5.717335467113396
 40
6.014048259264306
 40
6.310760388200246
 40
6.602964608973693
 40
6.895168129797841
 40
7.18295092035205
 40
7.470732983492633
 40
7.754246811349006
 40
8.037759896005891
 40
8.317223307866145
 40
8.596685975939283
 40
8.872383152775775
 40
9.148079603689028
 40
9.420358509739424
 40
9.692636729130946
 40
9.961905673928384
 40
10.23117399480447
 40
10.49789648070388
 40
10.76461842960892
 40
11.02930623985025
 40
11.29399362311304
 40
11.55719821379611
 40
11.82040250742557
 40
12.08270489192666
 40
12.34500712398044
 40
12.60700656537127
 40
12.86900600672454
 40
13.13130794414109
 40
13.39361003393221
 40
13.65681374424191
 40
13.92001775153783
 40
14.18470427452888
 40
14.44939122443948
 40
14.71611205310552
 40
14.98283341871771
 40
15.25210038095846
 40
15.52136796708391
 40
15.79364461480902
 40
16.06592194916818
 40
16.34161664369143
 40
16.61731206412434
 40
16.89677282147956
 40
17.17623432261729
 40
17.45974537389813
 40
17.74325716838534
 40
18.03103710771453
 40
18.31881777445953
 40
18.61101911313486
 40
18.90322115180498
 40
19.19993107184041
 40
19.49664165500855
 40
19.79788374648151
 40
20.09912646034945
 40
20.40486325262001
 40
20.71060061561467
 40
21.02073668827893
 40
21.33087329946132
 40
21.64525892650563
 40
21.95964499661095
 40
22.27807988751814
 40
22.5965152895681
 40
22.91875314899929
 40
23.24099124425593
 40
23.56674329061377
 40
23.8924955747413
 40
24.22143474299399
 40
24.55037693120388
 40
24.88216287495629
 40
25.21393217991338
 40
25.21393217991338
 40
25.21393217991338
 40
25.21393217991338
 10
-255.2293703315235
 20
-13.30878310393635
 30
0.0
 10
-255.2573640752985
 20
-13.20178754306585
 30
0.0
 10
-255.3133530181416
 20
-12.9877909105549
 30
0.0
 10
-255.4065265257427
 20
-12.67029561441819
 30
0.0
 10
-255.5065035565923
 20
-12.35589100920108
 30
0.0
 10
-255.6135017190025
 20
-12.04592529539887
 30
0.0
 10
-255.7275258569506
 20
-11.73961280105893
 30
0.0
 10
-255.8481676380188
 20
-11.43824772991016
 30
0.0
 10
-255.9757509625492
 20
-11.1410297606315
 30
0.0
 10
-256.109698635399
 20
-10.84930546661863
 30
0.0
 10
-256.2504076099234
 20
-10.56219265144847
 30
0.0
 10
-256.3971972077247
 20
-10.28108836419081
 30
0.0
 10
-256.5505559743701
 20
-10.0050564722199
 30
0.0
 10
-256.7096942151978
 20
-9.735521400842994
 30
0.0
 10
-256.8751850381168
 20
-9.47150977158984
 30
0.0
 10
-257.0461336371029
 20
-9.214451982238186
 30
0.0
 10
-257.2231968836511
 20
-8.963359484404129
 30
0.0
 10
-257.4053794163449
 20
-8.719645442745729
 30
0.0
 10
-257.5934156850116
 20
-8.482327519095635
 30
0.0
 10
-257.7862183421008
 20
-8.252778631093846
 30
0.0
 10
-257.9845903021151
 20
-8.030044292661223
 30
0.0
 10
-258.1873642848439
 20
-7.81543452251244
 30
0.0
 10
-258.395398769952
 20
-7.608043511007092
 30
0.0
 10
-258.607462365376
 20
-7.409096927906354
 30
0.0
 10
-258.8244525616158
 20
-7.217757007239893
 30
0.0
 10
-259.0450933689632
 20
-7.035145584126675
 30
0.0
 10
-259.2703011419899
 20
-6.860509973983799
 30
0.0
 10
-259.4987783094428
 20
-6.694851539147212
 30
0.0
 10
-259.731436663529
 20
-6.537516496584677
 30
0.0
 10
-259.9669831516218
 20
-6.389372847806263
 30
0.0
 10
-260.2062988306474
 20
-6.249875407646825
 30
0.0
 10
-260.4481236883489
 20
-6.119750561016109
 30
0.0
 10
-260.6932799259071
 20
-5.998566451353733
 30
0.0
 10
-260.9405705853326
 20
-5.88690500262667
 30
0.0
 10
-261.1907300111687
 20
-5.784446759048277
 30
0.0
 10
-261.4426546174879
 20
-5.691632334906353
 30
0.0
 10
-261.6969623222199
 20
-5.608247645161005
 30
0.0
 10
-261.9526721284845
 20
-5.534601430472561
 30
0.0
 10
-262.2102588790981
 20
-5.470571748223253
 30
0.0
 10
-262.4688907447135
 20
-5.41635108994233
 30
0.0
 10
-262.7288763291718
 20
-5.371890559246581
 30
0.0
 10
-262.9895553627768
 20
-5.337287667216282
 30
0.0
 10
-263.2510520252469
 20
-5.3125423956774
 30
0.0
 10
-263.5128944050917
 20
-5.297683181201927
 30
0.0
 10
-263.7750103172741
 20
-5.292730887557977
 30
0.0
 10
-264.0371263046895
 20
-5.29767399695604
 30
0.0
 10
-264.2989690082449
 20
-5.312524038752405
 30
0.0
 10
-264.5604661454278
 20
-5.337260146128663
 30
0.0
 10
-264.8211458996743
 20
-5.371853908429935
 30
0.0
 10
-265.081132357325
 20
-5.416305326801557
 30
0.0
 10
-265.3397653371049
 20
-5.470516929284373
 30
0.0
 10
-265.5973533568224
 20
-5.534537582732059
 30
0.0
 10
-265.8530646660654
 20
-5.608174846026686
 30
0.0
 10
-266.1073740316794
 20
-5.691550621925905
 30
0.0
 10
-266.3593005238697
 20
-5.784356228968802
 30
0.0
 10
-266.6094619966973
 20
-5.886805704667631
 30
0.0
 10
-266.85675491783
 20
-5.998458499847442
 30
0.0
 10
-267.1019135813391
 20
-6.119634018029989
 30
0.0
 10
-267.3437410684509
 20
-6.249750403252882
 30
0.0
 10
-267.5830595438211
 20
-6.389239458052647
 30
0.0
 10
-267.8186090198565
 20
-6.537374865448176
 30
0.0
 10
-268.0512705307737
 20
-6.694701757662381
 30
0.0
 10
-268.279751034509
 20
-6.860352198294123
 30
0.0
 10
-268.5049623136807
 20
-7.034979921064325
 30
0.0
 10
-268.725606794462
 20
-7.217583623507764
 30
0.0
 10
-268.9426008337802
 20
-7.408915946726128
 30
0.0
 10
-269.154668427542
 20
-7.607855108267802
 30
0.0
 10
-269.3627070791911
 20
-7.815238838118004
 30
0.0
 10
-269.5654853721365
 20
-8.029841510277982
 30
0.0
 10
-269.7638618074794
 20
-8.252568907527141
 30
0.0
 10
-269.9566690717234
 20
-8.482111045370073
 30
0.0
 10
-270.1447101093062
 20
-8.719422391855751
 30
0.0
 10
-270.3268975339605
 20
-8.963130051510209
 30
0.0
 10
-270.5039658251382
 20
-9.214216358196042
 30
0.0
 10
-270.674919572486
 20
-9.471268163282925
 30
0.0
 10
-270.8404157031619
 20
-9.735274008645053
 30
0.0
 10
-270.9995593809106
 20
-10.00480348450859
 30
0.0
 10
-271.1529236827934
 20
-10.28083001905232
 30
0.0
 10
-271.2997187928577
 20
-10.56192922158579
 30
0.0
 10
-271.4404335742779
 20
-10.84903711930068
 30
0.0
 10
-271.5743875840985
 20
-11.14075649721427
 30
0.0
 10
-271.7019767406116
 20
-11.43797004199135
 30
0.0
 10
-271.8226226497445
 20
-11.73933162134483
 30
0.0
 10
-271.9366535041033
 20
-12.04563996827394
 30
0.0
 10
-272.0436650757413
 20
-12.35559948657922
 30
0.0
 10
-272.1436465193376
 20
-12.66999935142203
 30
0.0
 10
-272.236794766312
 20
-12.98749650093523
 30
0.0
 10
-272.292778948593
 20
-13.20148935711928
 30
0.0
 10
-272.3207703315236
 20
-13.30848310393637
 30
0.0
 11
-255.2293703315235
 21
-13.30878310393635
 31
0.0
 11
-255.3149276193833
 21
-12.9882282039668
 31
0.0
 11
-255.4079842145998
 21
-12.66975166320364
 31
0.0
 11
-255.50777991389
 21
-12.35631129507021
 31
0.0
 11
-255.6150911750933
 21
-12.04536750225867
 31
0.0
 11
-255.7287631136251
 21
-11.74009019186547
 31
0.0
 11
-255.8498480955241
 21
-11.43767659898023
 31
0.0
 11
-255.9769769004504
 21
-11.14157384978179
 31
0.0
 11
-256.1114595113702
 21
-10.84873808991159
 31
0.0
 11
-256.2516182233579
 21
-10.56280479066109
 31
0.0
 11
-256.3990389627165
 21
-10.28054756985156
 31
0.0
 11
-256.5517485816079
 21
-10.00573917952954
 31
0.0
 11
-256.7116119979889
 21
-9.735030329860336
 31
0.0
 11
-256.8763554978661
 21
-9.472265023590324
 31
0.0
 11
-257.0481194758444
 21
-9.214034833487176
 31
0.0
 11
-257.2243405757291
 21
-8.964189305202976
 31
0.0
 11
-257.4074211540298
 21
-8.719326453324811
 31
0.0
 11
-257.5945272415147
 21
-8.483233646735811
 31
0.0
 11
-257.7882995530474
 21
-8.252581489114476
 31
0.0
 11
-257.9856636248064
 21
-8.031028099897326
 31
0.0
 11
-258.189464081536
 21
-7.815381487670606
 31
0.0
 11
-258.3964270109009
 21
-7.609105816356047
 31
0.0
 11
-258.6095554093889
 21
-7.40920788387217
 31
0.0
 11
-258.8254281517798
 21
-7.218897890170865
 31
0.0
 11
-259.0471500737897
 21
-7.035436980879238
 31
0.0
 11
-259.2712158630434
 21
-6.861728567888405
 31
0.0
 11
-259.5007653025592
 21
-6.695335286584337
 31
0.0
 11
-259.7322817758675
 21
-6.538810779785876
 31
0.0
 11
-259.9688640384716
 21
-6.390055222100584
 31
0.0
 11
-260.2070652649994
 21
-6.251242005617568
 31
0.0
 11
-260.4498601475106
 21
-6.1206312168284
 31
0.0
 11
-260.693958541648
 21
-6.000000471432996
 31
0.0
 11
-260.942123793422
 21
-5.887976203332612
 31
0.0
 11
-261.1913119171886
 21
-5.785941681321388
 31
0.0
 11
-261.4439869603501
 21
-5.692878523906473
 31
0.0
 11
-261.6974392466991
 21
-5.609795293915823
 31
0.0
 11
-261.9537491048421
 21
-5.535999259305127
 31
0.0
 11
-262.2106235641636
 21
-5.472162364673692
 31
0.0
 11
-262.4696829180729
 21
-5.417869988699635
 31
0.0
 11
-262.729122917108
 21
-5.373512987725291
 31
0.0
 11
-262.9900401787623
 21
-5.338890988442101
 31
0.0
 11
-263.2511763972745
 21
-5.314184382551956
 31
0.0
 11
-263.5130576769542
 21
-5.299329875745002
 31
0.0
 11
-263.7750103461833
 21
-5.294379476616056
 31
0.0
 11
-264.0369631885826
 21
-5.299320701870896
 31
0.0
 11
-264.2988446935234
 21
-5.314166031817108
 31
0.0
 11
-264.5599814805835
 21
-5.338863497905151
 31
0.0
 11
-264.820899367541
 21
-5.373476349058903
 31
0.0
 11
-265.0803403262011
 21
-5.417824274650428
 31
0.0
 11
-265.3394007054434
 21
-5.472107563406979
 31
0.0
 11
-265.5962765101085
 21
-5.535935476643883
 31
0.0
 11
-265.8525877918406
 21
-5.609722517369191
 31
0.0
 11
-266.106041802993
 21
-5.692796888758208
 31
0.0
 11
-266.3587186643814
 21
-5.785851178022453
 31
0.0
 11
-266.607908885361
 21
-5.887876992314828
 31
0.0
 11
-266.8560763445156
 21
-5.999892550116554
 31
0.0
 11
-267.1001772004928
 21
-6.120514766113672
 31
0.0
 11
-267.3429746722232
 21
-6.251117034030982
 31
0.0
 11
-267.5811787167107
 21
-6.389921926277537
 31
0.0
 11
-267.8177639413103
 21
-6.538669183318744
 31
0.0
 11
-268.0492835794388
 21
-6.695185597320603
 31
0.0
 11
-268.2788363430244
 21
-6.861570828041577
 31
0.0
 11
-268.5029056339006
 21
-7.035271405390941
 31
0.0
 11
-268.7246312298615
 21
-7.218724542863411
 31
0.0
 11
-268.9405077997409
 21
-7.409026983205307
 31
0.0
 11
-269.1536402084396
 21
-7.608917450104713
 31
0.0
 11
-269.3606072793627
 21
-7.815185874799906
 31
0.0
 11
-269.5644120679166
 21
-8.030825353746308
 31
0.0
 11
-269.7617805823279
 21
-8.252371826866378
 31
0.0
 11
-269.9555575306997
 21
-8.483017208403309
 31
0.0
 11
-270.1426683487973
 21
-8.719103452131577
 31
0.0
 11
-270.3257538545094
 21
-8.963959907662852
 31
0.0
 11
-270.5019799556687
 21
-9.21379924897951
 31
0.0
 11
-270.6737491241792
 21
-9.472023446890091
 31
0.0
 11
-270.8384978898016
 21
-9.734782960306972
 31
0.0
 11
-270.9983667776487
 21
-10.00548623192037
 31
0.0
 11
-271.1510818735119
 21
-10.28028925345444
 31
0.0
 11
-271.2985082068142
 21
-10.56254136783516
 31
0.0
 11
-271.4386727283581
 21
-10.8484697019656
 31
0.0
 11
-271.5731615640416
 21
-11.14130069625116
 31
0.0
 11
-271.7002959641263
 21
-11.43739904890728
 31
0.0
 11
-271.8213857746198
 21
-11.73980879348303
 31
0.0
 11
-271.9350650808495
 21
-12.04508173052619
 31
0.0
 11
-272.0423873573791
 21
-12.35602047943516
 31
0.0
 11
-272.1421845726795
 21
-12.6694586381378
 31
0.0
 11
-272.2352232418885
 21
-12.98793268609285
 31
0.0
 11
-272.3207703315236
 21
-13.30848310393637
 31
0.0
  0
MTEXT
  5
5D6
330
6C
100
AcDbEntity
  8
0
100
AcDbMText
 10
-63.4846389293066
 20
-136.8932019466262
 30
0.0
 40
8.0
 41
138.4636726466827
 71
     1
 72
     1
  1
AFM-FBKH 2P 0.75kW
 73
     1
 44
1.0
1001
ACAD
1000
MTEXTBEGIN
1070
    73
1070
     1
1070
    44
1040
1.0
1070
    74
1070
     0
1000
MTEXTEND
  0
MTEXT
  5
5D7
330
6C
100
AcDbEntity
  8
0
100
AcDbMText
 10
-63.48463741969363
 20
-156.5253350790283
 30
0.0
 40
8.0
 41
140.8
 71
     1
 72
     1
  1
AFM-FBKH 4P 0.75kW
 73
     1
 44
1.0
1001
ACAD
1000
MTEXTBEGIN
1070
    73
1070
     1
1070
    44
1040
1.0
1070
    74
1070
     0
1000
MTEXTEND
  0
ENDSEC
  0
SECTION
  2
OBJECTS
  0
DICTIONARY
  5
C
330
0
100
AcDbDictionary
281
     1
  3
ACAD_2007HEADERVARS_RT
350
5DF
  3
ACAD_CIP_PREVIOUS_PRODUCT_INFO
350
77
  3
ACAD_COLOR
350
63
  3
ACAD_GROUP
350
D
  3
ACAD_LAYOUT
350
62
  3
ACAD_MATERIAL
350
10
  3
ACAD_MLEADERSTYLE
350
66
  3
ACAD_MLINESTYLE
350
5F
  3
ACAD_PLOTSETTINGS
350
61
  3
ACAD_PLOTSTYLENAME
350
E
  3
ACAD_SCALELIST
350
42
  3
ACAD_TABLESTYLE
350
64
  3
ACAD_VISUALSTYLE
350
29
  3
ACDB_RECOMPOSE_DATA
350
5DD
  3
AcDbVariableDictionary
350
57B
  3
DWGPROPS
350
5DE
  0
DICTIONARY
  5
5DF
102
{ACAD_REACTORS
330
C
102
}
330
C
100
AcDbDictionary
281
     1
  3
DIMJOGANG
350
5E0
  0
XRECORD
  5
77
102
{ACAD_REACTORS
330
C
102
}
330
C
100
AcDbXrecord
280
     1
300
ACDLT
300
2012
300
ACDLT_F_S
  0
DICTIONARY
  5
63
102
{ACAD_REACTORS
330
C
102
}
330
C
100
AcDbDictionary
281
     1
  0
DICTIONARY
  5
D
102
{ACAD_REACTORS
330
C
102
}
330
C
100
AcDbDictionary
281
     1
  0
DICTIONARY
  5
62
102
{ACAD_REACTORS
330
C
102
}
330
C
100
AcDbDictionary
281
     1
  3
Model
350
6F
  3
レイアウト1
350
6B
  3
レイアウト2
350
73
  0
DICTIONARY
  5
10
102
{ACAD_REACTORS
330
C
102
}
330
C
100
AcDbDictionary
281
     1
  3
ByBlock
350
19
  3
ByLayer
350
11
  3
Global
350
21
  0
DICTIONARY
  5
66
102
{ACAD_REACTORS
330
C
102
}
330
C
100
AcDbDictionary
281
     1
  3
Standard
350
67
  0
DICTIONARY
  5
5F
102
{ACAD_REACTORS
330
C
102
}
330
C
100
AcDbDictionary
281
     1
  3
Standard
350
60
  0
DICTIONARY
  5
61
102
{ACAD_REACTORS
330
C
102
}
330
C
100
AcDbDictionary
281
     1
  0
ACDBDICTIONARYWDFLT
  5
E
102
{ACAD_REACTORS
330
C
102
}
330
C
100
AcDbDictionary
281
     1
  3
Normal
350
F
100
AcDbDictionaryWithDefault
340
F
  0
DICTIONARY
  5
42
102
{ACAD_REACTORS
330
C
102
}
330
C
100
AcDbDictionary
281
     1
  3
A0
350
43
  3
A1
350
44
  3
A2
350
45
  3
A3
350
46
  3
A4
350
47
  3
A5
350
48
  3
A6
350
49
  3
A7
350
4A
  3
A8
350
4B
  3
A9
350
4C
  3
B0
350
4D
  3
B1
350
4E
  3
B2
350
4F
  3
B3
350
50
  3
B4
350
51
  3
B5
350
52
  3
B6
350
53
  0
DICTIONARY
  5
64
102
{ACAD_REACTORS
330
C
102
}
330
C
100
AcDbDictionary
281
     1
  3
Standard
350
65
  0
DICTIONARY
  5
29
102
{ACAD_REACTORS
330
C
102
}
330
C
100
AcDbDictionary
281
     1
  3
2dWireframe
350
2F
  3
Basic
350
2E
  3
Brighten
350
35
  3
ColorChange
350
39
  3
Conceptual
350
32
  3
Dim
350
34
  3
EdgeColorOff
350
41
  3
Facepattern
350
38
  3
Flat
350
2A
  3
FlatWithEdges
350
2B
  3
Gouraud
350
2C
  3
GouraudWithEdges
350
2D
  3
Hidden
350
31
  3
JitterOff
350
3F
  3
Linepattern
350
37
  3
OverhangOff
350
40
  3
Realistic
350
33
  3
Shaded
350
3E
  3
Shaded with edges
350
3D
  3
Shades of Gray
350
3A
  3
Sketchy
350
3B
  3
Thicken
350
36
  3
Wireframe
350
30
  3
X-Ray
350
3C
  0
XRECORD
  5
5DD
102
{ACAD_REACTORS
330
C
102
}
330
C
100
AcDbXrecord
280
     1
 90
        1
330
65
  0
DICTIONARY
  5
57B
102
{ACAD_REACTORS
330
C
102
}
330
C
100
AcDbDictionary
281
     1
  3
CANNOSCALE
350
57F
  3
CMLEADERSTYLE
350
57D
  3
CTABLESTYLE
350
57C
  3
DIMASSOC
350
586
  3
HIDETEXT
350
585
  3
INDEXCTL
350
584
  3
LAYEREVAL
350
581
  3
LAYERNOTIFY
350
582
  3
LIGHTINGUNITS
350
580
  3
MSLTSCALE
350
57E
  3
SORTENTS
350
583
  3
XCLIPFRAME
350
5D9
  0
XRECORD
  5
5DE
102
{ACAD_REACTORS
330
C
102
}
330
C
100
AcDbXrecord
280
     1
  1
DWGPROPS COOKIE
  2

  3

  4

  6

  7

  8
Ishizawa
  9

300
=
301
=
302
=
303
=
304
=
305
=
306
=
307
=
308
=
309
=
 40
0.0031427314814815
 41
2457113.69181588
 42
2457113.717332755
  1

 90
        0
  0
XRECORD
  5
5E0
102
{ACAD_REACTORS
330
5DF
102
}
330
5DF
100
AcDbXrecord
280
     1
 40
1.570796326794896
  0
LAYOUT
  5
6F
102
{ACAD_XDICTIONARY
360
614
102
}
102
{ACAD_REACTORS
330
62
102
}
330
62
100
AcDbPlotSettings
  1

  2
RICOH IPSiO SP 6330 RPCS
  4

  6

 40
0.0
 41
0.0
 42
0.0
 43
0.0
 44
0.0
 45
0.0
 46
0.0
 47
0.0
 48
0.0
 49
0.0
140
0.0
141
0.0
142
1.0
143
1.0
 70
  1712
 72
     0
 73
     0
 74
     0
  7

 75
     0
147
1.0
148
0.0
149
0.0
100
AcDbLayout
  1
Model
 70
     1
 71
     0
 10
0.0
 20
0.0
 11
12.0
 21
9.0
 12
0.0
 22
0.0
 32
0.0
 14
0.0
 24
0.0
 34
0.0
 15
0.0
 25
0.0
 35
0.0
146
0.0
 13
0.0
 23
0.0
 33
0.0
 16
1.0
 26
0.0
 36
0.0
 17
0.0
 27
1.0
 37
0.0
 76
     0
330
6C
331
57
  0
LAYOUT
  5
6B
102
{ACAD_XDICTIONARY
360
612
102
}
102
{ACAD_REACTORS
330
62
102
}
330
62
100
AcDbPlotSettings
  1

  2
RICOH IPSiO SP 6330 RPCS
  4

  6

 40
0.0
 41
0.0
 42
0.0
 43
0.0
 44
0.0
 45
0.0
 46
0.0
 47
0.0
 48
0.0
 49
0.0
140
0.0
141
0.0
142
1.0
143
1.0
 70
   688
 72
     0
 73
     0
 74
     5
  7

 75
    16
147
1.0
148
0.0
149
0.0
100
AcDbLayout
  1
レイアウト1
 70
     1
 71
     1
 10
0.0
 20
0.0
 11
420.0
 21
297.0
 12
0.0
 22
0.0
 32
0.0
 14
1.000000000000000E+20
 24
1.000000000000000E+20
 34
1.000000000000000E+20
 15
-1.000000000000000E+20
 25
-1.000000000000000E+20
 35
-1.000000000000000E+20
146
0.0
 13
0.0
 23
0.0
 33
0.0
 16
1.0
 26
0.0
 36
0.0
 17
0.0
 27
1.0
 37
0.0
 76
     0
330
68
  0
LAYOUT
  5
73
102
{ACAD_XDICTIONARY
360
616
102
}
102
{ACAD_REACTORS
330
62
102
}
330
62
100
AcDbPlotSettings
  1

  2
RICOH IPSiO SP 6330 RPCS
  4

  6

 40
0.0
 41
0.0
 42
0.0
 43
0.0
 44
0.0
 45
0.0
 46
0.0
 47
0.0
 48
0.0
 49
0.0
140
0.0
141
0.0
142
1.0
143
1.0
 70
   688
 72
     0
 73
     0
 74
     5
  7

 75
    16
147
1.0
148
0.0
149
0.0
100
AcDbLayout
  1
レイアウト2
 70
     1
 71
     2
 10
0.0
 20
0.0
 11
12.0
 21
9.0
 12
0.0
 22
0.0
 32
0.0
 14
0.0
 24
0.0
 34
0.0
 15
0.0
 25
0.0
 35
0.0
146
0.0
 13
0.0
 23
0.0
 33
0.0
 16
1.0
 26
0.0
 36
0.0
 17
0.0
 27
1.0
 37
0.0
 76
     0
330
70
  0
MATERIAL
  5
19
102
{ACAD_XDICTIONARY
360
1A
102
}
102
{ACAD_REACTORS
330
10
102
}
330
10
100
AcDbMaterial
  1
ByBlock
 72
     0
 43
0.0208333333333333
 43
0.0
 43
0.0
 43
0.0
 43
0.0
 43
0.0208333333333333
 43
0.0
 43
0.0
 43
0.0
 43
0.0
 43
1.0
 43
0.0
 43
0.0
 43
0.0
 43
0.0
 43
1.0
 77
     0
 47
0.0208333333333333
 47
0.0
 47
0.0
 47
0.0
 47
0.0
 47
0.0208333333333333
 47
0.0
 47
0.0
 47
0.0
 47
0.0
 47
1.0
 47
0.0
 47
0.0
 47
0.0
 47
0.0
 47
1.0
171
     0
 49
0.0208333333333333
 49
0.0
 49
0.0
 49
0.0
 49
0.0
 49
0.0208333333333333
 49
0.0
 49
0.0
 49
0.0
 49
0.0
 49
1.0
 49
0.0
 49
0.0
 49
0.0
 49
0.0
 49
1.0
175
     0
142
0.0208333333333333
142
0.0
142
0.0
142
0.0
142
0.0
142
0.0208333333333333
142
0.0
142
0.0
142
0.0
142
0.0
142
1.0
142
0.0
142
0.0
142
0.0
142
0.0
142
1.0
179
     0
144
0.0208333333333333
144
0.0
144
0.0
144
0.0
144
0.0
144
0.0208333333333333
144
0.0
144
0.0
144
0.0
144
0.0
144
1.0
144
0.0
144
0.0
144
0.0
144
0.0
144
1.0
147
0.0208333333333333
147
0.0
147
0.0
147
0.0
147
0.0
147
0.0208333333333333
147
0.0
147
0.0
147
0.0
147
0.0
147
1.0
147
0.0
147
0.0
147
0.0
147
0.0
147
1.0
  0
MATERIAL
  5
11
102
{ACAD_XDICTIONARY
360
12
102
}
102
{ACAD_REACTORS
330
10
102
}
330
10
100
AcDbMaterial
  1
ByLayer
 72
     0
 43
0.0208333333333333
 43
0.0
 43
0.0
 43
0.0
 43
0.0
 43
0.0208333333333333
 43
0.0
 43
0.0
 43
0.0
 43
0.0
 43
1.0
 43
0.0
 43
0.0
 43
0.0
 43
0.0
 43
1.0
 77
     0
 47
0.0208333333333333
 47
0.0
 47
0.0
 47
0.0
 47
0.0
 47
0.0208333333333333
 47
0.0
 47
0.0
 47
0.0
 47
0.0
 47
1.0
 47
0.0
 47
0.0
 47
0.0
 47
0.0
 47
1.0
171
     0
 49
0.0208333333333333
 49
0.0
 49
0.0
 49
0.0
 49
0.0
 49
0.0208333333333333
 49
0.0
 49
0.0
 49
0.0
 49
0.0
 49
1.0
 49
0.0
 49
0.0
 49
0.0
 49
0.0
 49
1.0
175
     0
142
0.0208333333333333
142
0.0
142
0.0
142
0.0
142
0.0
142
0.0208333333333333
142
0.0
142
0.0
142
0.0
142
0.0
142
1.0
142
0.0
142
0.0
142
0.0
142
0.0
142
1.0
179
     0
144
0.0208333333333333
144
0.0
144
0.0
144
0.0
144
0.0
144
0.0208333333333333
144
0.0
144
0.0
144
0.0
144
0.0
144
1.0
144
0.0
144
0.0
144
0.0
144
0.0
144
1.0
147
0.0208333333333333
147
0.0
147
0.0
147
0.0
147
0.0
147
0.0208333333333333
147
0.0
147
0.0
147
0.0
147
0.0
147
1.0
147
0.0
147
0.0
147
0.0
147
0.0
147
1.0
  0
MATERIAL
  5
21
102
{ACAD_XDICTIONARY
360
22
102
}
102
{ACAD_REACTORS
330
10
102
}
330
10
100
AcDbMaterial
  1
Global
 72
     0
 43
0.0208333333333333
 43
0.0
 43
0.0
 43
0.0
 43
0.0
 43
0.0208333333333333
 43
0.0
 43
0.0
 43
0.0
 43
0.0
 43
1.0
 43
0.0
 43
0.0
 43
0.0
 43
0.0
 43
1.0
 77
     0
 47
0.0208333333333333
 47
0.0
 47
0.0
 47
0.0
 47
0.0
 47
0.0208333333333333
 47
0.0
 47
0.0
 47
0.0
 47
0.0
 47
1.0
 47
0.0
 47
0.0
 47
0.0
 47
0.0
 47
1.0
171
     0
 49
0.0208333333333333
 49
0.0
 49
0.0
 49
0.0
 49
0.0
 49
0.0208333333333333
 49
0.0
 49
0.0
 49
0.0
 49
0.0
 49
1.0
 49
0.0
 49
0.0
 49
0.0
 49
0.0
 49
1.0
175
     0
142
0.0208333333333333
142
0.0
142
0.0
142
0.0
142
0.0
142
0.0208333333333333
142
0.0
142
0.0
142
0.0
142
0.0
142
1.0
142
0.0
142
0.0
142
0.0
142
0.0
142
1.0
179
     0
144
0.0208333333333333
144
0.0
144
0.0
144
0.0
144
0.0
144
0.0208333333333333
144
0.0
144
0.0
144
0.0
144
0.0
144
1.0
144
0.0
144
0.0
144
0.0
144
0.0
144
1.0
147
0.0208333333333333
147
0.0
147
0.0
147
0.0
147
0.0
147
0.0208333333333333
147
0.0
147
0.0
147
0.0
147
0.0
147
1.0
147
0.0
147
0.0
147
0.0
147
0.0
147
1.0
  0
MLEADERSTYLE
  5
67
102
{ACAD_XDICTIONARY
360
5DB
102
}
102
{ACAD_REACTORS
330
66
102
}
330
66
100
AcDbMLeaderStyle
170
     2
171
     1
172
     0
 90
        2
 40
0.0
 41
0.0
173
     1
 91
-1056964608
340
5B
 92
       -2
290
     1
 42
0.09
291
     1
 43
0.36
  3
Standard
 44
0.18
300

342
55
174
     1
178
     6
175
     1
176
     0
 93
-1056964608
 45
0.18
292
     0
297
     0
 46
0.18
 94
-1056964608
 47
1.0
 49
1.0
140
1.0
293
     1
141
0.0
294
     1
177
     0
142
1.0
295
     0
296
     0
143
0.125
1001
ACAD_MLEADERVER
1070
     2
  0
MLINESTYLE
  5
60
102
{ACAD_REACTORS
330
5F
102
}
330
5F
100
AcDbMlineStyle
  2
STANDARD
 70
     0
  3

 62
   256
 51
90.0
 52
90.0
 71
     2
 49
0.5
 62
   256
  6
BYLAYER
 49
-0.5
 62
   256
  6
BYLAYER
  0
ACDBPLACEHOLDER
  5
F
102
{ACAD_REACTORS
330
E
102
}
330
E
  0
SCALE
  5
43
102
{ACAD_REACTORS
330
42
102
}
330
42
100
AcDbScale
 70
     0
300
1:1
140
1.0
141
1.0
290
     1
  0
SCALE
  5
44
102
{ACAD_REACTORS
330
42
102
}
330
42
100
AcDbScale
 70
     0
300
1:2
140
1.0
141
2.0
290
     0
  0
SCALE
  5
45
102
{ACAD_REACTORS
330
42
102
}
330
42
100
AcDbScale
 70
     0
300
1:4
140
1.0
141
4.0
290
     0
  0
SCALE
  5
46
102
{ACAD_REACTORS
330
42
102
}
330
42
100
AcDbScale
 70
     0
300
1:5
140
1.0
141
5.0
290
     0
  0
SCALE
  5
47
102
{ACAD_REACTORS
330
42
102
}
330
42
100
AcDbScale
 70
     0
300
1:8
140
1.0
141
8.0
290
     0
  0
SCALE
  5
48
102
{ACAD_REACTORS
330
42
102
}
330
42
100
AcDbScale
 70
     0
300
1:10
140
1.0
141
10.0
290
     0
  0
SCALE
  5
49
102
{ACAD_REACTORS
330
42
102
}
330
42
100
AcDbScale
 70
     0
300
1:16
140
1.0
141
16.0
290
     0
  0
SCALE
  5
4A
102
{ACAD_REACTORS
330
42
102
}
330
42
100
AcDbScale
 70
     0
300
1:20
140
1.0
141
20.0
290
     0
  0
SCALE
  5
4B
102
{ACAD_REACTORS
330
42
102
}
330
42
100
AcDbScale
 70
     0
300
1:30
140
1.0
141
30.0
290
     0
  0
SCALE
  5
4C
102
{ACAD_REACTORS
330
42
102
}
330
42
100
AcDbScale
 70
     0
300
1:40
140
1.0
141
40.0
290
     0
  0
SCALE
  5
4D
102
{ACAD_REACTORS
330
42
102
}
330
42
100
AcDbScale
 70
     0
300
1:50
140
1.0
141
50.0
290
     0
  0
SCALE
  5
4E
102
{ACAD_REACTORS
330
42
102
}
330
42
100
AcDbScale
 70
     0
300
1:100
140
1.0
141
100.0
290
     0
  0
SCALE
  5
4F
102
{ACAD_REACTORS
330
42
102
}
330
42
100
AcDbScale
 70
     0
300
2:1
140
2.0
141
1.0
290
     0
  0
SCALE
  5
50
102
{ACAD_REACTORS
330
42
102
}
330
42
100
AcDbScale
 70
     0
300
4:1
140
4.0
141
1.0
290
     0
  0
SCALE
  5
51
102
{ACAD_REACTORS
330
42
102
}
330
42
100
AcDbScale
 70
     0
300
8:1
140
8.0
141
1.0
290
     0
  0
SCALE
  5
52
102
{ACAD_REACTORS
330
42
102
}
330
42
100
AcDbScale
 70
     0
300
10:1
140
10.0
141
1.0
290
     0
  0
SCALE
  5
53
102
{ACAD_REACTORS
330
42
102
}
330
42
100
AcDbScale
 70
     0
300
100:1
140
100.0
141
1.0
290
     0
  0
TABLESTYLE
  5
65
102
{ACAD_XDICTIONARY
360
588
102
}
102
{ACAD_REACTORS
330
64
102
}
330
64
100
AcDbTableStyle
  3
Standard
 70
     0
 71
     0
 40
1.5
 41
1.5
280
     0
281
     0
  7
Standard
140
4.5
170
     2
 62
     0
 63
     7
283
     0
274
    -2
284
     1
 64
     0
275
    -2
285
     1
 65
     0
276
    -2
286
     1
 66
     0
277
    -2
287
     1
 67
     0
278
    -2
288
     1
 68
     0
279
    -2
289
     1
 69
     0
  7
Standard
140
6.0
170
     5
 62
     0
 63
     7
283
     0
274
    -2
284
     1
 64
     0
275
    -2
285
     1
 65
     0
276
    -2
286
     1
 66
     0
277
    -2
287
     1
 67
     0
278
    -2
288
     1
 68
     0
279
    -2
289
     1
 69
     0
  7
Standard
140
4.5
170
     5
 62
     0
 63
     7
283
     0
274
    -2
284
     1
 64
     0
275
    -2
285
     1
 65
     0
276
    -2
286
     1
 66
     0
277
    -2
287
     1
 67
     0
278
    -2
288
     1
 68
     0
279
    -2
289
     1
 69
     0
  0
VISUALSTYLE
  5
2F
102
{ACAD_XDICTIONARY
360
5EB
102
}
102
{ACAD_REACTORS
330
29
102
}
330
29
100
AcDbVisualStyle
  2

 70
     4
 71
     0
 72
     2
 73
     0
 90
        0
 40
-0.6
 41
-30.0
 62
     5
 63
     7
 74
     1
 91
        4
 64
     7
 65
   257
 75
     1
175
     1
 42
1.0
 92
        0
 66
   257
 43
1.0
 76
     1
 77
     6
 78
     2
 67
     7
 79
     5
170
     0
171
     0
290
     0
174
     0
 93
        1
 44
0.0
173
     0
291
     0
 45
0.0
1001
ACAD
1000
AcDbSavedByObjectVersion
1070
     0
  0
VISUALSTYLE
  5
2E
102
{ACAD_XDICTIONARY
360
5E9
102
}
102
{ACAD_REACTORS
330
29
102
}
330
29
100
AcDbVisualStyle
  2

 70
     7
 71
     1
 72
     0
 73
     1
 90
        0
 40
-0.6
 41
-30.0
 62
     5
 63
     7
 74
     0
 91
        4
 64
     7
 65
   257
 75
     1
175
     1
 42
1.0
 92
        8
 66
     7
 43
1.0
 76
     1
 77
     6
 78
     2
 67
     7
 79
     5
170
     0
171
     0
290
     0
174
     0
 93
        1
 44
0.0
173
     0
291
     1
 45
0.0
1001
ACAD
1000
AcDbSavedByObjectVersion
1070
     0
  0
VISUALSTYLE
  5
35
102
{ACAD_XDICTIONARY
360
5F7
102
}
102
{ACAD_REACTORS
330
29
102
}
330
29
100
AcDbVisualStyle
  2

 70
    12
 71
     2
 72
     2
 73
     0
 90
        0
 40
-0.6
 41
-30.0
 62
     5
 63
     7
 74
     1
 91
        4
 64
     7
 65
   257
 75
     1
175
     1
 42
1.0
 92
        8
 66
     7
 43
1.0
 76
     1
 77
     6
 78
     2
 67
     7
 79
     5
170
     0
171
     0
290
     0
174
     0
 93
        1
 44
50.0
173
     0
291
     1
 45
0.0
1001
ACAD
1000
AcDbSavedByObjectVersion
1070
     0
  0
VISUALSTYLE
  5
39
102
{ACAD_XDICTIONARY
360
5FF
102
}
102
{ACAD_REACTORS
330
29
102
}
330
29
100
AcDbVisualStyle
  2

 70
    16
 71
     2
 72
     2
 73
     3
 90
        0
 40
-0.6
 41
-30.0
 62
     5
 63
     8
 74
     1
 91
        4
 64
     7
 65
   257
 75
     1
175
     1
 42
1.0
 92
        8
 66
     8
 43
1.0
 76
     1
 77
     6
 78
     2
 67
     7
 79
     5
170
     0
171
     0
290
     0
174
     0
 93
        1
 44
0.0
173
     0
291
     1
 45
0.0
1001
ACAD
1000
AcDbSavedByObjectVersion
1070
     0
  0
VISUALSTYLE
  5
32
102
{ACAD_XDICTIONARY
360
5F1
102
}
102
{ACAD_REACTORS
330
29
102
}
330
29
100
AcDbVisualStyle
  2

 70
     9
 71
     3
 72
     2
 73
     0
 90
        0
 40
-0.6
 41
-30.0
 62
     5
 63
     7
 74
     2
 91
        2
 64
     7
 65
   257
 75
     1
175
     1
 42
179.0
 92
        8
 66
     7
 43
1.0
 76
     1
 77
     6
 78
     2
 67
     7
 79
     3
170
     0
171
     0
290
     0
174
     0
 93
        1
 44
0.0
173
     0
291
     0
 45
0.0
1001
ACAD
1000
AcDbSavedByObjectVersion
1070
     0
  0
VISUALSTYLE
  5
34
102
{ACAD_XDICTIONARY
360
5F5
102
}
102
{ACAD_REACTORS
330
29
102
}
330
29
100
AcDbVisualStyle
  2

 70
    11
 71
     2
 72
     2
 73
     0
 90
        0
 40
-0.6
 41
-30.0
 62
     5
 63
     7
 74
     1
 91
        4
 64
     7
 65
   257
 75
     1
175
     1
 42
1.0
 92
        8
 66
     7
 43
1.0
 76
     1
 77
     6
 78
     2
 67
     7
 79
     5
170
     0
171
     0
290
     0
174
     0
 93
        1
 44
-50.0
173
     0
291
     1
 45
0.0
1001
ACAD
1000
AcDbSavedByObjectVersion
1070
     0
  0
VISUALSTYLE
  5
41
102
{ACAD_XDICTIONARY
360
60F
102
}
102
{ACAD_REACTORS
330
29
102
}
330
29
100
AcDbVisualStyle
  2

 70
    22
 71
     2
 72
     2
 73
     0
 90
        0
 40
-0.6
 41
-30.0
 62
     5
 63
     7
 74
     1
 91
        4
 64
     7
 65
   257
 75
     1
175
     1
 42
1.0
 92
        8
 66
     7
 43
1.0
 76
     1
 77
     6
 78
     2
 67
     7
 79
     5
170
     0
171
     0
290
     0
174
     0
 93
        1
 44
0.0
173
     0
291
     1
 45
0.0
1001
ACAD
1000
AcDbSavedByObjectVersion
1070
     0
  0
VISUALSTYLE
  5
38
102
{ACAD_XDICTIONARY
360
5FD
102
}
102
{ACAD_REACTORS
330
29
102
}
330
29
100
AcDbVisualStyle
  2

 70
    15
 71
     2
 72
     2
 73
     0
 90
        0
 40
-0.6
 41
-30.0
 62
     5
 63
     7
 74
     1
 91
        4
 64
     7
 65
   257
 75
     1
175
     1
 42
1.0
 92
        8
 66
     7
 43
1.0
 76
     1
 77
     6
 78
     2
 67
     7
 79
     5
170
     0
171
     0
290
     0
174
     0
 93
        1
 44
0.0
173
     0
291
     1
 45
0.0
1001
ACAD
1000
AcDbSavedByObjectVersion
1070
     0
  0
VISUALSTYLE
  5
2A
102
{ACAD_XDICTIONARY
360
5E1
102
}
102
{ACAD_REACTORS
330
29
102
}
330
29
100
AcDbVisualStyle
  2

 70
     0
 71
     2
 72
     1
 73
     1
 90
        2
 40
-0.6
 41
30.0
 62
     5
 63
     7
 74
     0
 91
        0
 64
     7
 65
   257
 75
     1
175
     1
 42
1.0
 92
        8
 66
     7
 43
1.0
 76
     1
 77
     6
 78
     2
 67
     7
 79
     5
170
     0
171
     0
290
     0
174
     0
 93
       13
 44
0.0
173
     0
291
     1
 45
0.0
1001
ACAD
1000
AcDbSavedByObjectVersion
1070
     0
  0
VISUALSTYLE
  5
2B
102
{ACAD_XDICTIONARY
360
5E3
102
}
102
{ACAD_REACTORS
330
29
102
}
330
29
100
AcDbVisualStyle
  2

 70
     1
 71
     2
 72
     1
 73
     1
 90
        2
 40
-0.6
 41
30.0
 62
     5
 63
     7
 74
     1
 91
        0
 64
     7
 65
   257
 75
     1
175
     1
 42
1.0
 92
        0
 66
   257
 43
1.0
 76
     1
 77
     6
 78
     2
 67
     7
 79
     5
170
     0
171
     0
290
     0
174
     0
 93
       13
 44
0.0
173
     0
291
     1
 45
0.0
1001
ACAD
1000
AcDbSavedByObjectVersion
1070
     0
  0
VISUALSTYLE
  5
2C
102
{ACAD_XDICTIONARY
360
5E5
102
}
102
{ACAD_REACTORS
330
29
102
}
330
29
100
AcDbVisualStyle
  2

 70
     2
 71
     2
 72
     2
 73
     1
 90
        2
 40
-0.6
 41
30.0
 62
     5
 63
     7
 74
     0
 91
        0
 64
     7
 65
   257
 75
     1
175
     1
 42
1.0
 92
        0
 66
     7
 43
1.0
 76
     1
 77
     6
 78
     2
 67
     7
 79
     5
170
     0
171
     0
290
     0
174
     0
 93
       13
 44
0.0
173
     0
291
     1
 45
0.0
1001
ACAD
1000
AcDbSavedByObjectVersion
1070
     0
  0
VISUALSTYLE
  5
2D
102
{ACAD_XDICTIONARY
360
5E7
102
}
102
{ACAD_REACTORS
330
29
102
}
330
29
100
AcDbVisualStyle
  2

 70
     3
 71
     2
 72
     2
 73
     1
 90
        2
 40
-0.6
 41
30.0
 62
     5
 63
     7
 74
     1
 91
        0
 64
     7
 65
   257
 75
     1
175
     1
 42
1.0
 92
        0
 66
   257
 43
1.0
 76
     1
 77
     6
 78
     2
 67
     7
 79
     5
170
     0
171
     0
290
     0
174
     0
 93
       13
 44
0.0
173
     0
291
     1
 45
0.0
1001
ACAD
1000
AcDbSavedByObjectVersion
1070
     0
  0
VISUALSTYLE
  5
31
102
{ACAD_XDICTIONARY
360
5EF
102
}
102
{ACAD_REACTORS
330
29
102
}
330
29
100
AcDbVisualStyle
  2

 70
     6
 71
     1
 72
     2
 73
     2
 90
        0
 40
-0.6
 41
-30.0
 62
     5
 63
     7
 74
     2
 91
        2
 64
     7
 65
   257
 75
     2
175
     1
 42
40.0
 92
        0
 66
   257
 43
1.0
 76
     1
 77
     6
 78
     2
 67
     7
 79
     3
170
     0
171
     0
290
     0
174
     0
 93
        1
 44
0.0
173
     0
291
     0
 45
0.0
1001
ACAD
1000
AcDbSavedByObjectVersion
1070
     0
  0
VISUALSTYLE
  5
3F
102
{ACAD_XDICTIONARY
360
60B
102
}
102
{ACAD_REACTORS
330
29
102
}
330
29
100
AcDbVisualStyle
  2

 70
    20
 71
     2
 72
     2
 73
     0
 90
        0
 40
-0.6
 41
-30.0
 62
     5
 63
     7
 74
     1
 91
        4
 64
     7
 65
   257
 75
     1
175
     1
 42
1.0
 92
       10
 66
     7
 43
1.0
 76
     1
 77
     6
 78
     2
 67
     7
 79
     5
170
     0
171
     0
290
     0
174
     0
 93
        1
 44
0.0
173
     0
291
     1
 45
0.0
1001
ACAD
1000
AcDbSavedByObjectVersion
1070
     0
  0
VISUALSTYLE
  5
37
102
{ACAD_XDICTIONARY
360
5FB
102
}
102
{ACAD_REACTORS
330
29
102
}
330
29
100
AcDbVisualStyle
  2

 70
    14
 71
     2
 72
     2
 73
     0
 90
        0
 40
-0.6
 41
-30.0
 62
     5
 63
     7
 74
     1
 91
        4
 64
     7
 65
   257
 75
     7
175
     7
 42
1.0
 92
        8
 66
     7
 43
1.0
 76
     1
 77
     6
 78
     2
 67
     7
 79
     5
170
     0
171
     0
290
     0
174
     0
 93
        1
 44
0.0
173
     0
291
     1
 45
0.0
1001
ACAD
1000
AcDbSavedByObjectVersion
1070
     0
  0
VISUALSTYLE
  5
40
102
{ACAD_XDICTIONARY
360
60D
102
}
102
{ACAD_REACTORS
330
29
102
}
330
29
100
AcDbVisualStyle
  2

 70
    21
 71
     2
 72
     2
 73
     0
 90
        0
 40
-0.6
 41
-30.0
 62
     5
 63
     7
 74
     1
 91
        4
 64
     7
 65
   257
 75
     1
175
     1
 42
1.0
 92
        9
 66
     7
 43
1.0
 76
     1
 77
     6
 78
     2
 67
     7
 79
     5
170
     0
171
     0
290
     0
174
     0
 93
        1
 44
0.0
173
     0
291
     1
 45
0.0
1001
ACAD
1000
AcDbSavedByObjectVersion
1070
     0
  0
VISUALSTYLE
  5
33
102
{ACAD_XDICTIONARY
360
5F3
102
}
102
{ACAD_REACTORS
330
29
102
}
330
29
100
AcDbVisualStyle
  2

 70
     8
 71
     2
 72
     3
 73
     0
 90
        2
 40
-0.6
 41
30.0
 62
     5
 63
     7
 74
     0
 91
        0
 64
     7
 65
   257
 75
     1
175
     1
 42
1.0
 92
        8
 66
   257
 43
1.0
 76
     1
 77
     6
 78
     2
 67
     7
 79
     3
170
     0
171
     0
290
     0
174
     0
 93
       13
 44
0.0
173
     0
291
     0
 45
0.0
1001
ACAD
1000
AcDbSavedByObjectVersion
1070
     0
  0
VISUALSTYLE
  5
3E
102
{ACAD_XDICTIONARY
360
609
102
}
102
{ACAD_REACTORS
330
29
102
}
330
29
100
AcDbVisualStyle
  2

 70
    27
 71
     2
 72
     2
 73
     1
 90
        2
 40
-0.6
 41
30.0
 62
     5
 63
     7
 74
     0
 91
        4
 64
     7
 65
   257
 75
     1
175
     1
 42
1.0
 92
        8
 66
   257
 43
1.0
 76
     1
 77
     6
 78
     2
 67
     8
 79
     3
170
     0
171
     0
290
     0
174
     0
 93
        5
 44
0.0
173
     0
291
     0
 45
0.0
1001
ACAD
1000
AcDbSavedByObjectVersion
1070
     0
  0
VISUALSTYLE
  5
3D
102
{ACAD_XDICTIONARY
360
607
102
}
102
{ACAD_REACTORS
330
29
102
}
330
29
100
AcDbVisualStyle
  2

 70
    26
 71
     2
 72
     2
 73
     1
 90
        2
 40
-0.6
 41
30.0
 62
     5
 63
     7
 74
     1
 91
       10
 64
     7
 65
   257
 75
     2
175
     1
 42
1.0
 92
        8
 66
   257
 43
1.0
 76
     1
 77
     6
 78
     2
 67
     7
 79
     3
170
     0
171
     0
290
     0
174
     0
 93
        5
 44
0.0
173
     0
291
     0
 45
0.0
1001
ACAD
1000
AcDbSavedByObjectVersion
1070
     0
  0
VISUALSTYLE
  5
3A
102
{ACAD_XDICTIONARY
360
601
102
}
102
{ACAD_REACTORS
330
29
102
}
330
29
100
AcDbVisualStyle
  2

 70
    23
 71
     2
 72
     2
 73
     3
 90
        0
 40
-0.6
 41
-30.0
 62
     5
 63
     7
 74
     2
 91
        2
 64
     7
 65
     7
 75
     1
175
     1
 42
40.0
 92
        8
 66
     7
 43
1.0
 76
     1
 77
     6
 78
     2
 67
     7
 79
     3
170
     0
171
     0
290
     0
174
     0
 93
        1
 44
0.0
173
     0
291
     0
 45
0.0
1001
ACAD
1000
AcDbSavedByObjectVersion
1070
     0
  0
VISUALSTYLE
  5
3B
102
{ACAD_XDICTIONARY
360
603
102
}
102
{ACAD_REACTORS
330
29
102
}
330
29
100
AcDbVisualStyle
  2

 70
    24
 71
     1
 72
     2
 73
     2
 90
        0
 40
-0.6
 41
-30.0
 62
     5
 63
     7
 74
     2
 91
        2
 64
     7
 65
     7
 75
     1
175
     1
 42
40.0
 92
       11
 66
     7
 43
1.0
 76
     1
 77
     6
 78
     2
 67
     7
 79
     6
170
     0
171
     0
290
     0
174
     0
 93
        1
 44
0.0
173
     0
291
     0
 45
0.0
1001
ACAD
1000
AcDbSavedByObjectVersion
1070
     0
  0
VISUALSTYLE
  5
36
102
{ACAD_XDICTIONARY
360
5F9
102
}
102
{ACAD_REACTORS
330
29
102
}
330
29
100
AcDbVisualStyle
  2

 70
    13
 71
     2
 72
     2
 73
     0
 90
        0
 40
-0.6
 41
-30.0
 62
     5
 63
     7
 74
     1
 91
        4
 64
     7
 65
   257
 75
     1
175
     1
 42
1.0
 92
       12
 66
     7
 43
1.0
 76
     1
 77
     6
 78
     2
 67
     7
 79
     5
170
     0
171
     0
290
     0
174
     0
 93
        1
 44
0.0
173
     0
291
     1
 45
0.0
1001
ACAD
1000
AcDbSavedByObjectVersion
1070
     0
  0
VISUALSTYLE
  5
30
102
{ACAD_XDICTIONARY
360
5ED
102
}
102
{ACAD_REACTORS
330
29
102
}
330
29
100
AcDbVisualStyle
  2

 70
     5
 71
     0
 72
     2
 73
     0
 90
        0
 40
-0.6
 41
-30.0
 62
     5
 63
     7
 74
     1
 91
        4
 64
     7
 65
   257
 75
     1
175
     1
 42
1.0
 92
        0
 66
   257
 43
1.0
 76
     1
 77
     6
 78
     2
 67
     7
 79
     3
170
     0
171
     0
290
     0
174
     0
 93
        1
 44
0.0
173
     0
291
     0
 45
0.0
1001
ACAD
1000
AcDbSavedByObjectVersion
1070
     0
  0
VISUALSTYLE
  5
3C
102
{ACAD_XDICTIONARY
360
605
102
}
102
{ACAD_REACTORS
330
29
102
}
330
29
100
AcDbVisualStyle
  2

 70
    25
 71
     2
 72
     2
 73
     1
 90
        1
 40
0.5
 41
-30.0
 62
     5
 63
     7
 74
     1
 91
        0
 64
     7
 65
   257
 75
     1
175
     1
 42
1.0
 92
        8
 66
     7
 43
1.0
 76
     1
 77
     6
 78
     2
 67
     7
 79
     3
170
     0
171
     0
290
     0
174
     0
 93
       13
 44
0.0
173
     0
291
     0
 45
0.0
1001
ACAD
1000
AcDbSavedByObjectVersion
1070
     0
  0
DICTIONARYVAR
  5
57F
102
{ACAD_REACTORS
330
57B
102
}
330
57B
100
DictionaryVariables
280
     0
  1
1:1
  0
DICTIONARYVAR
  5
57D
102
{ACAD_REACTORS
330
57B
102
}
330
57B
100
DictionaryVariables
280
     0
  1
STANDARD
  0
DICTIONARYVAR
  5
57C
102
{ACAD_REACTORS
330
57B
102
}
330
57B
100
DictionaryVariables
280
     0
  1
STANDARD
  0
DICTIONARYVAR
  5
586
102
{ACAD_REACTORS
330
57B
102
}
330
57B
100
DictionaryVariables
280
     0
  1
2
  0
DICTIONARYVAR
  5
585
102
{ACAD_REACTORS
330
57B
102
}
330
57B
100
DictionaryVariables
280
     0
  1
1
  0
DICTIONARYVAR
  5
584
102
{ACAD_REACTORS
330
57B
102
}
330
57B
100
DictionaryVariables
280
     0
  1
0
  0
DICTIONARYVAR
  5
581
102
{ACAD_REACTORS
330
57B
102
}
330
57B
100
DictionaryVariables
280
     0
  1
0
  0
DICTIONARYVAR
  5
582
102
{ACAD_REACTORS
330
57B
102
}
330
57B
100
DictionaryVariables
280
     0
  1
0
  0
DICTIONARYVAR
  5
580
102
{ACAD_REACTORS
330
57B
102
}
330
57B
100
DictionaryVariables
280
     0
  1
2
  0
DICTIONARYVAR
  5
57E
102
{ACAD_REACTORS
330
57B
102
}
330
57B
100
DictionaryVariables
280
     0
  1
1
  0
DICTIONARYVAR
  5
583
102
{ACAD_REACTORS
330
57B
102
}
330
57B
100
DictionaryVariables
280
     0
  1
127
  0
DICTIONARYVAR
  5
5D9
102
{ACAD_REACTORS
330
57B
102
}
330
57B
100
DictionaryVariables
280
     0
  1
2
  0
DICTIONARY
  5
614
330
6F
100
AcDbDictionary
280
     1
281
     1
  3
ACAD_XREC_ROUNDTRIP
360
615
  0
DICTIONARY
  5
612
330
6B
100
AcDbDictionary
280
     1
281
     1
  3
ACAD_XREC_ROUNDTRIP
360
613
  0
DICTIONARY
  5
616
330
73
100
AcDbDictionary
280
     1
281
     1
  3
ACAD_XREC_ROUNDTRIP
360
617
  0
DICTIONARY
  5
1A
330
19
100
AcDbDictionary
280
     1
281
     1
  3
ACAD_XREC_ROUNDTRIP
360
591
  3
BUMPTILE
360
1C
  3
DIFFUSETILE
360
1B
  3
OPACITYTILE
360
1F
  3
REFLECTIONTILE
360
1E
  3
REFRACTIONTILE
360
20
  3
SPECULARTILE
360
1D
  0
DICTIONARY
  5
12
330
11
100
AcDbDictionary
280
     1
281
     1
  3
ACAD_XREC_ROUNDTRIP
360
590
  3
BUMPTILE
360
14
  3
DIFFUSETILE
360
13
  3
OPACITYTILE
360
17
  3
REFLECTIONTILE
360
16
  3
REFRACTIONTILE
360
18
  3
SPECULARTILE
360
15
  0
DICTIONARY
  5
22
330
21
100
AcDbDictionary
280
     1
281
     1
  3
ACAD_XREC_ROUNDTRIP
360
592
  3
BUMPTILE
360
24
  3
DIFFUSETILE
360
23
  3
OPACITYTILE
360
27
  3
REFLECTIONTILE
360
26
  3
REFRACTIONTILE
360
28
  3
SPECULARTILE
360
25
  0
DICTIONARY
  5
5DB
330
67
100
AcDbDictionary
280
     1
281
     1
  3
ACAD_XREC_ROUNDTRIP
360
5DC
  0
DICTIONARY
  5
588
330
65
100
AcDbDictionary
280
     1
281
     1
  3
ACAD_ROUNDTRIP_2008_TABLESTYLE_CELLSTYLEMAP
360
5DA
  3
ACAD_XREC_ROUNDTRIP
360
611
  0
DICTIONARY
  5
5EB
330
2F
100
AcDbDictionary
280
     1
281
     1
  3
ACAD_XREC_ROUNDTRIP
360
5EC
  0
DICTIONARY
  5
5E9
330
2E
100
AcDbDictionary
280
     1
281
     1
  3
ACAD_XREC_ROUNDTRIP
360
5EA
  0
DICTIONARY
  5
5F7
330
35
100
AcDbDictionary
280
     1
281
     1
  3
ACAD_XREC_ROUNDTRIP
360
5F8
  0
DICTIONARY
  5
5FF
330
39
100
AcDbDictionary
280
     1
281
     1
  3
ACAD_XREC_ROUNDTRIP
360
600
  0
DICTIONARY
  5
5F1
330
32
100
AcDbDictionary
280
     1
281
     1
  3
ACAD_XREC_ROUNDTRIP
360
5F2
  0
DICTIONARY
  5
5F5
330
34
100
AcDbDictionary
280
     1
281
     1
  3
ACAD_XREC_ROUNDTRIP
360
5F6
  0
DICTIONARY
  5
60F
330
41
100
AcDbDictionary
280
     1
281
     1
  3
ACAD_XREC_ROUNDTRIP
360
610
  0
DICTIONARY
  5
5FD
330
38
100
AcDbDictionary
280
     1
281
     1
  3
ACAD_XREC_ROUNDTRIP
360
5FE
  0
DICTIONARY
  5
5E1
330
2A
100
AcDbDictionary
280
     1
281
     1
  3
ACAD_XREC_ROUNDTRIP
360
5E2
  0
DICTIONARY
  5
5E3
330
2B
100
AcDbDictionary
280
     1
281
     1
  3
ACAD_XREC_ROUNDTRIP
360
5E4
  0
DICTIONARY
  5
5E5
330
2C
100
AcDbDictionary
280
     1
281
     1
  3
ACAD_XREC_ROUNDTRIP
360
5E6
  0
DICTIONARY
  5
5E7
330
2D
100
AcDbDictionary
280
     1
281
     1
  3
ACAD_XREC_ROUNDTRIP
360
5E8
  0
DICTIONARY
  5
5EF
330
31
100
AcDbDictionary
280
     1
281
     1
  3
ACAD_XREC_ROUNDTRIP
360
5F0
  0
DICTIONARY
  5
60B
330
3F
100
AcDbDictionary
280
     1
281
     1
  3
ACAD_XREC_ROUNDTRIP
360
60C
  0
DICTIONARY
  5
5FB
330
37
100
AcDbDictionary
280
     1
281
     1
  3
ACAD_XREC_ROUNDTRIP
360
5FC
  0
DICTIONARY
  5
60D
330
40
100
AcDbDictionary
280
     1
281
     1
  3
ACAD_XREC_ROUNDTRIP
360
60E
  0
DICTIONARY
  5
5F3
330
33
100
AcDbDictionary
280
     1
281
     1
  3
ACAD_XREC_ROUNDTRIP
360
5F4
  0
DICTIONARY
  5
609
330
3E
100
AcDbDictionary
280
     1
281
     1
  3
ACAD_XREC_ROUNDTRIP
360
60A
  0
DICTIONARY
  5
607
330
3D
100
AcDbDictionary
280
     1
281
     1
  3
ACAD_XREC_ROUNDTRIP
360
608
  0
DICTIONARY
  5
601
330
3A
100
AcDbDictionary
280
     1
281
     1
  3
ACAD_XREC_ROUNDTRIP
360
602
  0
DICTIONARY
  5
603
330
3B
100
AcDbDictionary
280
     1
281
     1
  3
ACAD_XREC_ROUNDTRIP
360
604
  0
DICTIONARY
  5
5F9
330
36
100
AcDbDictionary
280
     1
281
     1
  3
ACAD_XREC_ROUNDTRIP
360
5FA
  0
DICTIONARY
  5
5ED
330
30
100
AcDbDictionary
280
     1
281
     1
  3
ACAD_XREC_ROUNDTRIP
360
5EE
  0
DICTIONARY
  5
605
330
3C
100
AcDbDictionary
280
     1
281
     1
  3
ACAD_XREC_ROUNDTRIP
360
606
  0
XRECORD
  5
615
102
{ACAD_REACTORS
330
614
102
}
330
614
100
AcDbXrecord
280
     1
102
SHADEPLOT
 70
     0
102
SHADEPLOTRESLEVEL
 70
     2
102
SHADEPLOTCUSTOMDPI
 70
   300
  0
XRECORD
  5
613
102
{ACAD_REACTORS
330
612
102
}
330
612
100
AcDbXrecord
280
     1
102
SHADEPLOT
 70
     0
102
SHADEPLOTRESLEVEL
 70
     2
102
SHADEPLOTCUSTOMDPI
 70
   300
  0
XRECORD
  5
617
102
{ACAD_REACTORS
330
616
102
}
330
616
100
AcDbXrecord
280
     1
102
SHADEPLOT
 70
     0
102
SHADEPLOTRESLEVEL
 70
     2
102
SHADEPLOTCUSTOMDPI
 70
   300
  0
XRECORD
  5
591
102
{ACAD_REACTORS
330
1A
102
}
330
1A
100
AcDbXrecord
280
     1
102
MATERIAL
148
0.0
149
0.0
149
0.0
 93
        0
 94
      127
282
     0
 72
     0
 77
     0
171
     0
175
     0
179
     0
273
     0
  0
XRECORD
  5
1C
102
{ACAD_REACTORS
330
1A
102
}
330
1A
100
AcDbXrecord
280
     1
270
     1
271
     1
  0
XRECORD
  5
1B
102
{ACAD_REACTORS
330
1A
102
}
330
1A
100
AcDbXrecord
280
     1
270
     1
271
     1
  0
XRECORD
  5
1F
102
{ACAD_REACTORS
330
1A
102
}
330
1A
100
AcDbXrecord
280
     1
270
     1
271
     1
  0
XRECORD
  5
1E
102
{ACAD_REACTORS
330
1A
102
}
330
1A
100
AcDbXrecord
280
     1
270
     1
271
     1
  0
XRECORD
  5
20
102
{ACAD_REACTORS
330
1A
102
}
330
1A
100
AcDbXrecord
280
     1
270
     1
271
     1
  0
XRECORD
  5
1D
102
{ACAD_REACTORS
330
1A
102
}
330
1A
100
AcDbXrecord
280
     1
270
     1
271
     1
  0
XRECORD
  5
590
102
{ACAD_REACTORS
330
12
102
}
330
12
100
AcDbXrecord
280
     1
102
MATERIAL
148
0.0
149
0.0
149
0.0
 93
        0
 94
      127
282
     0
 72
     0
 77
     0
171
     0
175
     0
179
     0
273
     0
  0
XRECORD
  5
14
102
{ACAD_REACTORS
330
12
102
}
330
12
100
AcDbXrecord
280
     1
270
     1
271
     1
  0
XRECORD
  5
13
102
{ACAD_REACTORS
330
12
102
}
330
12
100
AcDbXrecord
280
     1
270
     1
271
     1
  0
XRECORD
  5
17
102
{ACAD_REACTORS
330
12
102
}
330
12
100
AcDbXrecord
280
     1
270
     1
271
     1
  0
XRECORD
  5
16
102
{ACAD_REACTORS
330
12
102
}
330
12
100
AcDbXrecord
280
     1
270
     1
271
     1
  0
XRECORD
  5
18
102
{ACAD_REACTORS
330
12
102
}
330
12
100
AcDbXrecord
280
     1
270
     1
271
     1
  0
XRECORD
  5
15
102
{ACAD_REACTORS
330
12
102
}
330
12
100
AcDbXrecord
280
     1
270
     1
271
     1
  0
XRECORD
  5
592
102
{ACAD_REACTORS
330
22
102
}
330
22
100
AcDbXrecord
280
     1
102
MATERIAL
148
0.0
149
0.0
149
0.0
 93
        0
 94
      127
282
     0
 72
     0
 77
     0
171
     0
175
     0
179
     0
273
     0
  0
XRECORD
  5
24
102
{ACAD_REACTORS
330
22
102
}
330
22
100
AcDbXrecord
280
     1
270
     1
271
     1
  0
XRECORD
  5
23
102
{ACAD_REACTORS
330
22
102
}
330
22
100
AcDbXrecord
280
     1
270
     1
271
     1
  0
XRECORD
  5
27
102
{ACAD_REACTORS
330
22
102
}
330
22
100
AcDbXrecord
280
     1
270
     1
271
     1
  0
XRECORD
  5
26
102
{ACAD_REACTORS
330
22
102
}
330
22
100
AcDbXrecord
280
     1
270
     1
271
     1
  0
XRECORD
  5
28
102
{ACAD_REACTORS
330
22
102
}
330
22
100
AcDbXrecord
280
     1
270
     1
271
     1
  0
XRECORD
  5
25
102
{ACAD_REACTORS
330
22
102
}
330
22
100
AcDbXrecord
280
     1
270
     1
271
     1
  0
XRECORD
  5
5DC
102
{ACAD_REACTORS
330
5DB
102
}
330
5DB
100
AcDbXrecord
280
     1
102
ACAD_ROUNDTRIP_2012_MLEADER_STYLE
298
     1
  0
CELLSTYLEMAP
  5
5DA
102
{ACAD_REACTORS
330
588
102
}
330
588
100
AcDbCellStyleMap
 90
        3
300
CELLSTYLE
  1
TABLEFORMAT_BEGIN
 90
        5
170
     1
 91
        0
 92
    32768
 62
   257
 93
        1
300
CONTENTFORMAT
  1
CONTENTFORMAT_BEGIN
 90
        0
 91
        0
 92
      512
 93
        0
300

 40
0.0
140
1.0
 94
        5
 62
     0
340
55
144
6.0
309
CONTENTFORMAT_END
171
     1
301
MARGIN
  1
CELLMARGIN_BEGIN
 40
1.5
 40
1.5
 40
1.5
 40
1.5
 40
0.18
 40
0.18
309
CELLMARGIN_END
 94
        6
 95
        1
302
GRIDFORMAT
  1
GRIDFORMAT_BEGIN
 90
        0
 91
        1
 62
     0
 92
       -2
340
0
 93
        0
 40
1.125
309
GRIDFORMAT_END
 95
        2
302
GRIDFORMAT
  1
GRIDFORMAT_BEGIN
 90
        0
 91
        1
 62
     0
 92
       -2
340
0
 93
        0
 40
1.125
309
GRIDFORMAT_END
 95
        4
302
GRIDFORMAT
  1
GRIDFORMAT_BEGIN
 90
        0
 91
        1
 62
     0
 92
       -2
340
0
 93
        0
 40
1.125
309
GRIDFORMAT_END
 95
        8
302
GRIDFORMAT
  1
GRIDFORMAT_BEGIN
 90
        0
 91
        1
 62
     0
 92
       -2
340
0
 93
        0
 40
1.125
309
GRIDFORMAT_END
 95
       16
302
GRIDFORMAT
  1
GRIDFORMAT_BEGIN
 90
        0
 91
        1
 62
     0
 92
       -2
340
0
 93
        0
 40
1.125
309
GRIDFORMAT_END
 95
       32
302
GRIDFORMAT
  1
GRIDFORMAT_BEGIN
 90
        0
 91
        1
 62
     0
 92
       -2
340
0
 93
        0
 40
1.125
309
GRIDFORMAT_END
309
TABLEFORMAT_END
  1
CELLSTYLE_BEGIN
 90
        1
 91
        1
300
_TITLE
309
CELLSTYLE_END
300
CELLSTYLE
  1
TABLEFORMAT_BEGIN
 90
        5
170
     1
 91
        0
 92
        0
 62
   257
 93
        1
300
CONTENTFORMAT
  1
CONTENTFORMAT_BEGIN
 90
        0
 91
        0
 92
      512
 93
        0
300

 40
0.0
140
1.0
 94
        5
 62
     0
340
55
144
4.5
309
CONTENTFORMAT_END
171
     1
301
MARGIN
  1
CELLMARGIN_BEGIN
 40
1.5
 40
1.5
 40
1.5
 40
1.5
 40
0.18
 40
0.18
309
CELLMARGIN_END
 94
        6
 95
        1
302
GRIDFORMAT
  1
GRIDFORMAT_BEGIN
 90
        0
 91
        1
 62
     0
 92
       -2
340
0
 93
        0
 40
1.125
309
GRIDFORMAT_END
 95
        2
302
GRIDFORMAT
  1
GRIDFORMAT_BEGIN
 90
        0
 91
        1
 62
     0
 92
       -2
340
0
 93
        0
 40
1.125
309
GRIDFORMAT_END
 95
        4
302
GRIDFORMAT
  1
GRIDFORMAT_BEGIN
 90
        0
 91
        1
 62
     0
 92
       -2
340
0
 93
        0
 40
1.125
309
GRIDFORMAT_END
 95
        8
302
GRIDFORMAT
  1
GRIDFORMAT_BEGIN
 90
        0
 91
        1
 62
     0
 92
       -2
340
0
 93
        0
 40
1.125
309
GRIDFORMAT_END
 95
       16
302
GRIDFORMAT
  1
GRIDFORMAT_BEGIN
 90
        0
 91
        1
 62
     0
 92
       -2
340
0
 93
        0
 40
1.125
309
GRIDFORMAT_END
 95
       32
302
GRIDFORMAT
  1
GRIDFORMAT_BEGIN
 90
        0
 91
        1
 62
     0
 92
       -2
340
0
 93
        0
 40
1.125
309
GRIDFORMAT_END
309
TABLEFORMAT_END
  1
CELLSTYLE_BEGIN
 90
        2
 91
        1
300
_HEADER
309
CELLSTYLE_END
300
CELLSTYLE
  1
TABLEFORMAT_BEGIN
 90
        5
170
     1
 91
        0
 92
        0
 62
   257
 93
        1
300
CONTENTFORMAT
  1
CONTENTFORMAT_BEGIN
 90
        0
 91
        0
 92
      512
 93
        0
300

 40
0.0
140
1.0
 94
        2
 62
     0
340
55
144
4.5
309
CONTENTFORMAT_END
171
     1
301
MARGIN
  1
CELLMARGIN_BEGIN
 40
1.5
 40
1.5
 40
1.5
 40
1.5
 40
0.18
 40
0.18
309
CELLMARGIN_END
 94
        6
 95
        1
302
GRIDFORMAT
  1
GRIDFORMAT_BEGIN
 90
        0
 91
        1
 62
     0
 92
       -2
340
0
 93
        0
 40
1.125
309
GRIDFORMAT_END
 95
        2
302
GRIDFORMAT
  1
GRIDFORMAT_BEGIN
 90
        0
 91
        1
 62
     0
 92
       -2
340
0
 93
        0
 40
1.125
309
GRIDFORMAT_END
 95
        4
302
GRIDFORMAT
  1
GRIDFORMAT_BEGIN
 90
        0
 91
        1
 62
     0
 92
       -2
340
0
 93
        0
 40
1.125
309
GRIDFORMAT_END
 95
        8
302
GRIDFORMAT
  1
GRIDFORMAT_BEGIN
 90
        0
 91
        1
 62
     0
 92
       -2
340
0
 93
        0
 40
1.125
309
GRIDFORMAT_END
 95
       16
302
GRIDFORMAT
  1
GRIDFORMAT_BEGIN
 90
        0
 91
        1
 62
     0
 92
       -2
340
0
 93
        0
 40
1.125
309
GRIDFORMAT_END
 95
       32
302
GRIDFORMAT
  1
GRIDFORMAT_BEGIN
 90
        0
 91
        1
 62
     0
 92
       -2
340
0
 93
        0
 40
1.125
309
GRIDFORMAT_END
309
TABLEFORMAT_END
  1
CELLSTYLE_BEGIN
 90
        3
 91
        2
300
_DATA
309
CELLSTYLE_END
  0
XRECORD
  5
611
102
{ACAD_REACTORS
330
588
102
}
330
588
100
AcDbXrecord
280
     1
102
ACAD_ROUNDTRIP_PRE2007_TABLESTYLE
 90
      512
 91
        0
  1

 92
      512
 93
        0
  2

 94
      512
 95
        0
  3

  0
XRECORD
  5
5EC
102
{ACAD_REACTORS
330
5EB
102
}
330
5EB
100
AcDbXrecord
280
     1
102
RTVSPropertyOp0
 70
     1
102
RTVSPropertyOp1
 70
     1
102
RTVSPropertyOp2
 70
     1
102
RTVSPropertyOp3
 70
     1
102
RTVSPropertyOp4
 70
     1
102
RTVSPropertyOp5
 70
     1
102
RTVSPropertyOp6
 70
     1
102
RTVSPropertyOp7
 70
     1
102
RTVSPropertyOp8
 70
     1
102
RTVSPropertyOp9
 70
     1
102
RTVSPropertyOp10
 70
     1
102
RTVSPropertyOp11
 70
     1
102
RTVSPropertyOp12
 70
     1
102
RTVSPropertyOp13
 70
     1
102
RTVSPropertyOp14
 70
     1
102
RTVSPropertyOp15
 70
     1
102
RTVSPropertyOp16
 70
     1
102
RTVSPropertyOp17
 70
     1
102
RTVSPropertyOp18
 70
     1
102
RTVSPropertyOp19
 70
     1
102
RTVSPropertyOp20
 70
     1
102
RTVSPropertyOp21
 70
     1
102
RTVSPropertyOp22
 70
     1
102
RTVSPropertyOp23
 70
     1
102
RTVSPropertyOp24
 70
     1
102
RTVSPropertyOp25
 70
     1
102
RTVSPropertyOp26
 70
     1
102
RTVSPropertyOp27
 70
     1
102
RTVSPropertyOp28
 70
     1
102
RTVSPropertyOp29
 70
     1
102
RTVSPropertyOp30
 70
     1
102
RTVSPropertyOp31
 70
     1
102
RTVSPropertyOp32
 70
     1
  0
XRECORD
  5
5EA
102
{ACAD_REACTORS
330
5E9
102
}
330
5E9
100
AcDbXrecord
280
     1
102
RTVSPropertyOp0
 70
     1
102
RTVSPropertyOp1
 70
     1
102
RTVSPropertyOp2
 70
     1
102
RTVSPropertyOp3
 70
     1
102
RTVSPropertyOp4
 70
     1
102
RTVSPropertyOp5
 70
     1
102
RTVSPropertyOp6
 70
     1
102
RTVSPropertyOp7
 70
     1
102
RTVSPropertyOp8
 70
     1
102
RTVSPropertyOp9
 70
     1
102
RTVSPropertyOp10
 70
     1
102
RTVSPropertyOp11
 70
     1
102
RTVSPropertyOp12
 70
     1
102
RTVSPropertyOp13
 70
     1
102
RTVSPropertyOp14
 70
     1
102
RTVSPropertyOp15
 70
     1
102
RTVSPropertyOp16
 70
     1
102
RTVSPropertyOp17
 70
     1
102
RTVSPropertyOp18
 70
     1
102
RTVSPropertyOp19
 70
     1
102
RTVSPropertyOp20
 70
     1
102
RTVSPropertyOp21
 70
     1
102
RTVSPropertyOp22
 70
     1
102
RTVSPropertyOp23
 70
     1
102
RTVSPropertyOp24
 70
     1
102
RTVSPropertyOp25
 70
     1
102
RTVSPropertyOp26
 70
     1
102
RTVSPropertyOp27
 70
     1
102
RTVSPropertyOp28
 70
     1
102
RTVSPropertyOp29
 70
     1
102
RTVSPropertyOp30
 70
     1
102
RTVSPropertyOp31
 70
     1
102
RTVSPropertyOp32
 70
     1
  0
XRECORD
  5
5F8
102
{ACAD_REACTORS
330
5F7
102
}
330
5F7
100
AcDbXrecord
280
     1
102
RTVSPropertyOp0
 70
     1
102
RTVSPropertyOp1
 70
     1
102
RTVSPropertyOp2
 70
     1
102
RTVSPropertyOp3
 70
     1
102
RTVSPropertyOp4
 70
     1
102
RTVSPropertyOp5
 70
     1
102
RTVSPropertyOp6
 70
     1
102
RTVSPropertyOp7
 70
     1
102
RTVSPropertyOp8
 70
     1
102
RTVSPropertyOp9
 70
     1
102
RTVSPropertyOp10
 70
     1
102
RTVSPropertyOp11
 70
     1
102
RTVSPropertyOp12
 70
     1
102
RTVSPropertyOp13
 70
     1
102
RTVSPropertyOp14
 70
     1
102
RTVSPropertyOp15
 70
     1
102
RTVSPropertyOp16
 70
     1
102
RTVSPropertyOp17
 70
     1
102
RTVSPropertyOp18
 70
     1
102
RTVSPropertyOp19
 70
     1
102
RTVSPropertyOp20
 70
     1
102
RTVSPropertyOp21
 70
     1
102
RTVSPropertyOp22
 70
     1
102
RTVSPropertyOp23
 70
     1
102
RTVSPropertyOp24
 70
     1
102
RTVSPropertyOp25
 70
     1
102
RTVSPropertyOp26
 70
     1
102
RTVSPropertyOp27
 70
     1
102
RTVSPropertyOp28
 70
     1
102
RTVSPropertyOp29
 70
     1
102
RTVSPropertyOp30
 70
     1
102
RTVSPropertyOp31
 70
     1
102
RTVSPropertyOp32
 70
     1
  0
XRECORD
  5
600
102
{ACAD_REACTORS
330
5FF
102
}
330
5FF
100
AcDbXrecord
280
     1
102
RTVSPropertyOp0
 70
     1
102
RTVSPropertyOp1
 70
     1
102
RTVSPropertyOp2
 70
     1
102
RTVSPropertyOp3
 70
     1
102
RTVSPropertyOp4
 70
     1
102
RTVSPropertyOp5
 70
     1
102
RTVSPropertyOp6
 70
     1
102
RTVSPropertyOp7
 70
     1
102
RTVSPropertyOp8
 70
     1
102
RTVSPropertyOp9
 70
     1
102
RTVSPropertyOp10
 70
     1
102
RTVSPropertyOp11
 70
     1
102
RTVSPropertyOp12
 70
     1
102
RTVSPropertyOp13
 70
     1
102
RTVSPropertyOp14
 70
     1
102
RTVSPropertyOp15
 70
     1
102
RTVSPropertyOp16
 70
     1
102
RTVSPropertyOp17
 70
     1
102
RTVSPropertyOp18
 70
     1
102
RTVSPropertyOp19
 70
     1
102
RTVSPropertyOp20
 70
     1
102
RTVSPropertyOp21
 70
     1
102
RTVSPropertyOp22
 70
     1
102
RTVSPropertyOp23
 70
     1
102
RTVSPropertyOp24
 70
     1
102
RTVSPropertyOp25
 70
     1
102
RTVSPropertyOp26
 70
     1
102
RTVSPropertyOp27
 70
     1
102
RTVSPropertyOp28
 70
     1
102
RTVSPropertyOp29
 70
     1
102
RTVSPropertyOp30
 70
     1
102
RTVSPropertyOp31
 70
     1
102
RTVSPropertyOp32
 70
     1
  0
XRECORD
  5
5F2
102
{ACAD_REACTORS
330
5F1
102
}
330
5F1
100
AcDbXrecord
280
     1
102
RTVSPropertyOp0
 70
     1
102
RTVSPropertyOp1
 70
     1
102
RTVSPropertyOp2
 70
     1
102
RTVSPropertyOp3
 70
     1
102
RTVSPropertyOp4
 70
     1
102
RTVSPropertyOp5
 70
     1
102
RTVSPropertyOp6
 70
     1
102
RTVSPropertyOp7
 70
     1
102
RTVSPropertyOp8
 70
     1
102
RTVSPropertyOp9
 70
     1
102
RTVSPropertyOp10
 70
     1
102
RTVSPropertyOp11
 70
     1
102
RTVSPropertyOp12
 70
     1
102
RTVSPropertyOp13
 70
     1
102
RTVSPropertyOp14
 70
     1
102
RTVSPropertyOp15
 70
     1
102
RTVSPropertyOp16
 70
     1
102
RTVSPropertyOp17
 70
     1
102
RTVSPropertyOp18
 70
     1
102
RTVSPropertyOp19
 70
     1
102
RTVSPropertyOp20
 70
     1
102
RTVSPropertyOp21
 70
     1
102
RTVSPropertyOp22
 70
     1
102
RTVSPropertyOp23
 70
     1
102
RTVSPropertyOp24
 70
     1
102
RTVSPropertyOp25
 70
     1
102
RTVSPropertyOp26
 70
     1
102
RTVSPropertyOp27
 70
     1
102
RTVSPropertyOp28
 70
     1
102
RTVSPropertyOp29
 70
     1
102
RTVSPropertyOp30
 70
     1
102
RTVSPropertyOp31
 70
     1
102
RTVSPropertyOp32
 70
     1
  0
XRECORD
  5
5F6
102
{ACAD_REACTORS
330
5F5
102
}
330
5F5
100
AcDbXrecord
280
     1
102
RTVSPropertyOp0
 70
     1
102
RTVSPropertyOp1
 70
     1
102
RTVSPropertyOp2
 70
     1
102
RTVSPropertyOp3
 70
     1
102
RTVSPropertyOp4
 70
     1
102
RTVSPropertyOp5
 70
     1
102
RTVSPropertyOp6
 70
     1
102
RTVSPropertyOp7
 70
     1
102
RTVSPropertyOp8
 70
     1
102
RTVSPropertyOp9
 70
     1
102
RTVSPropertyOp10
 70
     1
102
RTVSPropertyOp11
 70
     1
102
RTVSPropertyOp12
 70
     1
102
RTVSPropertyOp13
 70
     1
102
RTVSPropertyOp14
 70
     1
102
RTVSPropertyOp15
 70
     1
102
RTVSPropertyOp16
 70
     1
102
RTVSPropertyOp17
 70
     1
102
RTVSPropertyOp18
 70
     1
102
RTVSPropertyOp19
 70
     1
102
RTVSPropertyOp20
 70
     1
102
RTVSPropertyOp21
 70
     1
102
RTVSPropertyOp22
 70
     1
102
RTVSPropertyOp23
 70
     1
102
RTVSPropertyOp24
 70
     1
102
RTVSPropertyOp25
 70
     1
102
RTVSPropertyOp26
 70
     1
102
RTVSPropertyOp27
 70
     1
102
RTVSPropertyOp28
 70
     1
102
RTVSPropertyOp29
 70
     1
102
RTVSPropertyOp30
 70
     1
102
RTVSPropertyOp31
 70
     1
102
RTVSPropertyOp32
 70
     1
  0
XRECORD
  5
610
102
{ACAD_REACTORS
330
60F
102
}
330
60F
100
AcDbXrecord
280
     1
102
RTVSPropertyOp0
 70
     0
102
RTVSPropertyOp1
 70
     0
102
RTVSPropertyOp2
 70
     0
102
RTVSPropertyOp3
 70
     0
102
RTVSPropertyOp4
 70
     0
102
RTVSPropertyOp5
 70
     0
102
RTVSPropertyOp6
 70
     0
102
RTVSPropertyOp7
 70
     0
102
RTVSPropertyOp8
 70
     0
102
RTVSPropertyOp9
 70
     0
102
RTVSPropertyOp10
 70
     0
102
RTVSPropertyOp11
 70
     0
102
RTVSPropertyOp12
 70
     0
102
RTVSPropertyOp13
 70
     0
102
RTVSPropertyOp14
 70
     2
102
RTVSPropertyOp15
 70
     0
102
RTVSPropertyOp16
 70
     0
102
RTVSPropertyOp17
 70
     0
102
RTVSPropertyOp18
 70
     0
102
RTVSPropertyOp19
 70
     0
102
RTVSPropertyOp20
 70
     0
102
RTVSPropertyOp21
 70
     0
102
RTVSPropertyOp22
 70
     0
102
RTVSPropertyOp23
 70
     0
102
RTVSPropertyOp24
 70
     0
102
RTVSPropertyOp25
 70
     0
102
RTVSPropertyOp26
 70
     0
102
RTVSPropertyOp27
 70
     0
102
RTVSPropertyOp28
 70
     0
102
RTVSPropertyOp29
 70
     0
102
RTVSPropertyOp30
 70
     0
102
RTVSPropertyOp31
 70
     0
102
RTVSPropertyOp32
 70
     0
  0
XRECORD
  5
5FE
102
{ACAD_REACTORS
330
5FD
102
}
330
5FD
100
AcDbXrecord
280
     1
102
RTVSPropertyOp0
 70
     1
102
RTVSPropertyOp1
 70
     1
102
RTVSPropertyOp2
 70
     1
102
RTVSPropertyOp3
 70
     1
102
RTVSPropertyOp4
 70
     1
102
RTVSPropertyOp5
 70
     1
102
RTVSPropertyOp6
 70
     1
102
RTVSPropertyOp7
 70
     1
102
RTVSPropertyOp8
 70
     1
102
RTVSPropertyOp9
 70
     1
102
RTVSPropertyOp10
 70
     1
102
RTVSPropertyOp11
 70
     1
102
RTVSPropertyOp12
 70
     1
102
RTVSPropertyOp13
 70
     1
102
RTVSPropertyOp14
 70
     1
102
RTVSPropertyOp15
 70
     1
102
RTVSPropertyOp16
 70
     1
102
RTVSPropertyOp17
 70
     1
102
RTVSPropertyOp18
 70
     1
102
RTVSPropertyOp19
 70
     1
102
RTVSPropertyOp20
 70
     1
102
RTVSPropertyOp21
 70
     1
102
RTVSPropertyOp22
 70
     1
102
RTVSPropertyOp23
 70
     1
102
RTVSPropertyOp24
 70
     1
102
RTVSPropertyOp25
 70
     1
102
RTVSPropertyOp26
 70
     1
102
RTVSPropertyOp27
 70
     1
102
RTVSPropertyOp28
 70
     1
102
RTVSPropertyOp29
 70
     1
102
RTVSPropertyOp30
 70
     1
102
RTVSPropertyOp31
 70
     1
102
RTVSPropertyOp32
 70
     1
  0
XRECORD
  5
5E2
102
{ACAD_REACTORS
330
5E1
102
}
330
5E1
100
AcDbXrecord
280
     1
102
RTVSPropertyOp0
 70
     1
102
RTVSPropertyOp1
 70
     1
102
RTVSPropertyOp2
 70
     1
102
RTVSPropertyOp3
 70
     1
102
RTVSPropertyOp4
 70
     1
102
RTVSPropertyOp5
 70
     1
102
RTVSPropertyOp6
 70
     1
102
RTVSPropertyOp7
 70
     1
102
RTVSPropertyOp8
 70
     1
102
RTVSPropertyOp9
 70
     1
102
RTVSPropertyOp10
 70
     1
102
RTVSPropertyOp11
 70
     1
102
RTVSPropertyOp12
 70
     1
102
RTVSPropertyOp13
 70
     1
102
RTVSPropertyOp14
 70
     1
102
RTVSPropertyOp15
 70
     1
102
RTVSPropertyOp16
 70
     1
102
RTVSPropertyOp17
 70
     1
102
RTVSPropertyOp18
 70
     1
102
RTVSPropertyOp19
 70
     1
102
RTVSPropertyOp20
 70
     1
102
RTVSPropertyOp21
 70
     1
102
RTVSPropertyOp22
 70
     1
102
RTVSPropertyOp23
 70
     1
102
RTVSPropertyOp24
 70
     1
102
RTVSPropertyOp25
 70
     1
102
RTVSPropertyOp26
 70
     1
102
RTVSPropertyOp27
 70
     1
102
RTVSPropertyOp28
 70
     1
102
RTVSPropertyOp29
 70
     1
102
RTVSPropertyOp30
 70
     1
102
RTVSPropertyOp31
 70
     1
102
RTVSPropertyOp32
 70
     1
  0
XRECORD
  5
5E4
102
{ACAD_REACTORS
330
5E3
102
}
330
5E3
100
AcDbXrecord
280
     1
102
RTVSPropertyOp0
 70
     1
102
RTVSPropertyOp1
 70
     1
102
RTVSPropertyOp2
 70
     1
102
RTVSPropertyOp3
 70
     1
102
RTVSPropertyOp4
 70
     1
102
RTVSPropertyOp5
 70
     1
102
RTVSPropertyOp6
 70
     1
102
RTVSPropertyOp7
 70
     1
102
RTVSPropertyOp8
 70
     1
102
RTVSPropertyOp9
 70
     1
102
RTVSPropertyOp10
 70
     1
102
RTVSPropertyOp11
 70
     1
102
RTVSPropertyOp12
 70
     1
102
RTVSPropertyOp13
 70
     1
102
RTVSPropertyOp14
 70
     1
102
RTVSPropertyOp15
 70
     1
102
RTVSPropertyOp16
 70
     1
102
RTVSPropertyOp17
 70
     1
102
RTVSPropertyOp18
 70
     1
102
RTVSPropertyOp19
 70
     1
102
RTVSPropertyOp20
 70
     1
102
RTVSPropertyOp21
 70
     1
102
RTVSPropertyOp22
 70
     1
102
RTVSPropertyOp23
 70
     1
102
RTVSPropertyOp24
 70
     1
102
RTVSPropertyOp25
 70
     1
102
RTVSPropertyOp26
 70
     1
102
RTVSPropertyOp27
 70
     1
102
RTVSPropertyOp28
 70
     1
102
RTVSPropertyOp29
 70
     1
102
RTVSPropertyOp30
 70
     1
102
RTVSPropertyOp31
 70
     1
102
RTVSPropertyOp32
 70
     1
  0
XRECORD
  5
5E6
102
{ACAD_REACTORS
330
5E5
102
}
330
5E5
100
AcDbXrecord
280
     1
102
RTVSPropertyOp0
 70
     1
102
RTVSPropertyOp1
 70
     1
102
RTVSPropertyOp2
 70
     1
102
RTVSPropertyOp3
 70
     1
102
RTVSPropertyOp4
 70
     1
102
RTVSPropertyOp5
 70
     1
102
RTVSPropertyOp6
 70
     1
102
RTVSPropertyOp7
 70
     1
102
RTVSPropertyOp8
 70
     1
102
RTVSPropertyOp9
 70
     1
102
RTVSPropertyOp10
 70
     1
102
RTVSPropertyOp11
 70
     1
102
RTVSPropertyOp12
 70
     1
102
RTVSPropertyOp13
 70
     1
102
RTVSPropertyOp14
 70
     1
102
RTVSPropertyOp15
 70
     1
102
RTVSPropertyOp16
 70
     1
102
RTVSPropertyOp17
 70
     1
102
RTVSPropertyOp18
 70
     1
102
RTVSPropertyOp19
 70
     1
102
RTVSPropertyOp20
 70
     1
102
RTVSPropertyOp21
 70
     1
102
RTVSPropertyOp22
 70
     1
102
RTVSPropertyOp23
 70
     1
102
RTVSPropertyOp24
 70
     1
102
RTVSPropertyOp25
 70
     1
102
RTVSPropertyOp26
 70
     1
102
RTVSPropertyOp27
 70
     1
102
RTVSPropertyOp28
 70
     1
102
RTVSPropertyOp29
 70
     1
102
RTVSPropertyOp30
 70
     1
102
RTVSPropertyOp31
 70
     1
102
RTVSPropertyOp32
 70
     1
  0
XRECORD
  5
5E8
102
{ACAD_REACTORS
330
5E7
102
}
330
5E7
100
AcDbXrecord
280
     1
102
RTVSPropertyOp0
 70
     1
102
RTVSPropertyOp1
 70
     1
102
RTVSPropertyOp2
 70
     1
102
RTVSPropertyOp3
 70
     1
102
RTVSPropertyOp4
 70
     1
102
RTVSPropertyOp5
 70
     1
102
RTVSPropertyOp6
 70
     1
102
RTVSPropertyOp7
 70
     1
102
RTVSPropertyOp8
 70
     1
102
RTVSPropertyOp9
 70
     1
102
RTVSPropertyOp10
 70
     1
102
RTVSPropertyOp11
 70
     1
102
RTVSPropertyOp12
 70
     1
102
RTVSPropertyOp13
 70
     1
102
RTVSPropertyOp14
 70
     1
102
RTVSPropertyOp15
 70
     1
102
RTVSPropertyOp16
 70
     1
102
RTVSPropertyOp17
 70
     1
102
RTVSPropertyOp18
 70
     1
102
RTVSPropertyOp19
 70
     1
102
RTVSPropertyOp20
 70
     1
102
RTVSPropertyOp21
 70
     1
102
RTVSPropertyOp22
 70
     1
102
RTVSPropertyOp23
 70
     1
102
RTVSPropertyOp24
 70
     1
102
RTVSPropertyOp25
 70
     1
102
RTVSPropertyOp26
 70
     1
102
RTVSPropertyOp27
 70
     1
102
RTVSPropertyOp28
 70
     1
102
RTVSPropertyOp29
 70
     1
102
RTVSPropertyOp30
 70
     1
102
RTVSPropertyOp31
 70
     1
102
RTVSPropertyOp32
 70
     1
  0
XRECORD
  5
5F0
102
{ACAD_REACTORS
330
5EF
102
}
330
5EF
100
AcDbXrecord
280
     1
102
RTVSPropertyOp0
 70
     1
102
RTVSPropertyOp1
 70
     1
102
RTVSPropertyOp2
 70
     1
102
RTVSPropertyOp3
 70
     1
102
RTVSPropertyOp4
 70
     1
102
RTVSPropertyOp5
 70
     1
102
RTVSPropertyOp6
 70
     1
102
RTVSPropertyOp7
 70
     1
102
RTVSPropertyOp8
 70
     1
102
RTVSPropertyOp9
 70
     1
102
RTVSPropertyOp10
 70
     1
102
RTVSPropertyOp11
 70
     1
102
RTVSPropertyOp12
 70
     1
102
RTVSPropertyOp13
 70
     1
102
RTVSPropertyOp14
 70
     1
102
RTVSPropertyOp15
 70
     1
102
RTVSPropertyOp16
 70
     1
102
RTVSPropertyOp17
 70
     1
102
RTVSPropertyOp18
 70
     1
102
RTVSPropertyOp19
 70
     1
102
RTVSPropertyOp20
 70
     1
102
RTVSPropertyOp21
 70
     1
102
RTVSPropertyOp22
 70
     1
102
RTVSPropertyOp23
 70
     1
102
RTVSPropertyOp24
 70
     1
102
RTVSPropertyOp25
 70
     1
102
RTVSPropertyOp26
 70
     1
102
RTVSPropertyOp27
 70
     1
102
RTVSPropertyOp28
 70
     1
102
RTVSPropertyOp29
 70
     1
102
RTVSPropertyOp30
 70
     1
102
RTVSPropertyOp31
 70
     1
102
RTVSPropertyOp32
 70
     1
  0
XRECORD
  5
60C
102
{ACAD_REACTORS
330
60B
102
}
330
60B
100
AcDbXrecord
280
     1
102
RTVSPropertyOp0
 70
     0
102
RTVSPropertyOp1
 70
     0
102
RTVSPropertyOp2
 70
     0
102
RTVSPropertyOp3
 70
     0
102
RTVSPropertyOp4
 70
     0
102
RTVSPropertyOp5
 70
     0
102
RTVSPropertyOp6
 70
     0
102
RTVSPropertyOp7
 70
     0
102
RTVSPropertyOp8
 70
     0
102
RTVSPropertyOp9
 70
     0
102
RTVSPropertyOp10
 70
     0
102
RTVSPropertyOp11
 70
     0
102
RTVSPropertyOp12
 70
     0
102
RTVSPropertyOp13
 70
     0
102
RTVSPropertyOp14
 70
     2
102
RTVSPropertyOp15
 70
     0
102
RTVSPropertyOp16
 70
     0
102
RTVSPropertyOp17
 70
     0
102
RTVSPropertyOp18
 70
     0
102
RTVSPropertyOp19
 70
     0
102
RTVSPropertyOp20
 70
     0
102
RTVSPropertyOp21
 70
     0
102
RTVSPropertyOp22
 70
     0
102
RTVSPropertyOp23
 70
     0
102
RTVSPropertyOp24
 70
     0
102
RTVSPropertyOp25
 70
     0
102
RTVSPropertyOp26
 70
     0
102
RTVSPropertyOp27
 70
     0
102
RTVSPropertyOp28
 70
     0
102
RTVSPropertyOp29
 70
     0
102
RTVSPropertyOp30
 70
     0
102
RTVSPropertyOp31
 70
     0
102
RTVSPropertyOp32
 70
     0
  0
XRECORD
  5
5FC
102
{ACAD_REACTORS
330
5FB
102
}
330
5FB
100
AcDbXrecord
280
     1
102
RTVSPropertyOp0
 70
     1
102
RTVSPropertyOp1
 70
     1
102
RTVSPropertyOp2
 70
     1
102
RTVSPropertyOp3
 70
     1
102
RTVSPropertyOp4
 70
     1
102
RTVSPropertyOp5
 70
     1
102
RTVSPropertyOp6
 70
     1
102
RTVSPropertyOp7
 70
     1
102
RTVSPropertyOp8
 70
     1
102
RTVSPropertyOp9
 70
     1
102
RTVSPropertyOp10
 70
     1
102
RTVSPropertyOp11
 70
     1
102
RTVSPropertyOp12
 70
     1
102
RTVSPropertyOp13
 70
     1
102
RTVSPropertyOp14
 70
     1
102
RTVSPropertyOp15
 70
     1
102
RTVSPropertyOp16
 70
     1
102
RTVSPropertyOp17
 70
     1
102
RTVSPropertyOp18
 70
     1
102
RTVSPropertyOp19
 70
     1
102
RTVSPropertyOp20
 70
     1
102
RTVSPropertyOp21
 70
     1
102
RTVSPropertyOp22
 70
     1
102
RTVSPropertyOp23
 70
     1
102
RTVSPropertyOp24
 70
     1
102
RTVSPropertyOp25
 70
     1
102
RTVSPropertyOp26
 70
     1
102
RTVSPropertyOp27
 70
     1
102
RTVSPropertyOp28
 70
     1
102
RTVSPropertyOp29
 70
     1
102
RTVSPropertyOp30
 70
     1
102
RTVSPropertyOp31
 70
     1
102
RTVSPropertyOp32
 70
     1
  0
XRECORD
  5
60E
102
{ACAD_REACTORS
330
60D
102
}
330
60D
100
AcDbXrecord
280
     1
102
RTVSPropertyOp0
 70
     0
102
RTVSPropertyOp1
 70
     0
102
RTVSPropertyOp2
 70
     0
102
RTVSPropertyOp3
 70
     0
102
RTVSPropertyOp4
 70
     0
102
RTVSPropertyOp5
 70
     0
102
RTVSPropertyOp6
 70
     0
102
RTVSPropertyOp7
 70
     0
102
RTVSPropertyOp8
 70
     0
102
RTVSPropertyOp9
 70
     0
102
RTVSPropertyOp10
 70
     0
102
RTVSPropertyOp11
 70
     0
102
RTVSPropertyOp12
 70
     0
102
RTVSPropertyOp13
 70
     0
102
RTVSPropertyOp14
 70
     2
102
RTVSPropertyOp15
 70
     0
102
RTVSPropertyOp16
 70
     0
102
RTVSPropertyOp17
 70
     0
102
RTVSPropertyOp18
 70
     0
102
RTVSPropertyOp19
 70
     0
102
RTVSPropertyOp20
 70
     0
102
RTVSPropertyOp21
 70
     0
102
RTVSPropertyOp22
 70
     0
102
RTVSPropertyOp23
 70
     0
102
RTVSPropertyOp24
 70
     0
102
RTVSPropertyOp25
 70
     0
102
RTVSPropertyOp26
 70
     0
102
RTVSPropertyOp27
 70
     0
102
RTVSPropertyOp28
 70
     0
102
RTVSPropertyOp29
 70
     0
102
RTVSPropertyOp30
 70
     0
102
RTVSPropertyOp31
 70
     0
102
RTVSPropertyOp32
 70
     0
  0
XRECORD
  5
5F4
102
{ACAD_REACTORS
330
5F3
102
}
330
5F3
100
AcDbXrecord
280
     1
102
RTVSPropertyOp0
 70
     1
102
RTVSPropertyOp1
 70
     1
102
RTVSPropertyOp2
 70
     1
102
RTVSPropertyOp3
 70
     1
102
RTVSPropertyOp4
 70
     1
102
RTVSPropertyOp5
 70
     1
102
RTVSPropertyOp6
 70
     1
102
RTVSPropertyOp7
 70
     1
102
RTVSPropertyOp8
 70
     1
102
RTVSPropertyOp9
 70
     1
102
RTVSPropertyOp10
 70
     1
102
RTVSPropertyOp11
 70
     1
102
RTVSPropertyOp12
 70
     1
102
RTVSPropertyOp13
 70
     1
102
RTVSPropertyOp14
 70
     1
102
RTVSPropertyOp15
 70
     1
102
RTVSPropertyOp16
 70
     1
102
RTVSPropertyOp17
 70
     1
102
RTVSPropertyOp18
 70
     1
102
RTVSPropertyOp19
 70
     1
102
RTVSPropertyOp20
 70
     1
102
RTVSPropertyOp21
 70
     1
102
RTVSPropertyOp22
 70
     1
102
RTVSPropertyOp23
 70
     1
102
RTVSPropertyOp24
 70
     1
102
RTVSPropertyOp25
 70
     1
102
RTVSPropertyOp26
 70
     1
102
RTVSPropertyOp27
 70
     1
102
RTVSPropertyOp28
 70
     1
102
RTVSPropertyOp29
 70
     1
102
RTVSPropertyOp30
 70
     1
102
RTVSPropertyOp31
 70
     1
102
RTVSPropertyOp32
 70
     1
  0
XRECORD
  5
60A
102
{ACAD_REACTORS
330
609
102
}
330
609
100
AcDbXrecord
280
     1
102
RTVSPropertyOp0
 70
     1
102
RTVSPropertyOp1
 70
     1
102
RTVSPropertyOp2
 70
     1
102
RTVSPropertyOp3
 70
     1
102
RTVSPropertyOp4
 70
     1
102
RTVSPropertyOp5
 70
     1
102
RTVSPropertyOp6
 70
     1
102
RTVSPropertyOp7
 70
     1
102
RTVSPropertyOp8
 70
     1
102
RTVSPropertyOp9
 70
     1
102
RTVSPropertyOp10
 70
     1
102
RTVSPropertyOp11
 70
     1
102
RTVSPropertyOp12
 70
     1
102
RTVSPropertyOp13
 70
     1
102
RTVSPropertyOp14
 70
     1
102
RTVSPropertyOp15
 70
     1
102
RTVSPropertyOp16
 70
     1
102
RTVSPropertyOp17
 70
     1
102
RTVSPropertyOp18
 70
     1
102
RTVSPropertyOp19
 70
     1
102
RTVSPropertyOp20
 70
     1
102
RTVSPropertyOp21
 70
     1
102
RTVSPropertyOp22
 70
     1
102
RTVSPropertyOp23
 70
     1
102
RTVSPropertyOp24
 70
     1
102
RTVSPropertyOp25
 70
     1
102
RTVSPropertyOp26
 70
     1
102
RTVSPropertyOp27
 70
     1
102
RTVSPropertyOp28
 70
     1
102
RTVSPropertyOp29
 70
     1
102
RTVSPropertyOp30
 70
     1
102
RTVSPropertyOp31
 70
     1
102
RTVSPropertyOp32
 70
     1
  0
XRECORD
  5
608
102
{ACAD_REACTORS
330
607
102
}
330
607
100
AcDbXrecord
280
     1
102
RTVSPropertyOp0
 70
     1
102
RTVSPropertyOp1
 70
     1
102
RTVSPropertyOp2
 70
     1
102
RTVSPropertyOp3
 70
     1
102
RTVSPropertyOp4
 70
     1
102
RTVSPropertyOp5
 70
     1
102
RTVSPropertyOp6
 70
     1
102
RTVSPropertyOp7
 70
     1
102
RTVSPropertyOp8
 70
     1
102
RTVSPropertyOp9
 70
     1
102
RTVSPropertyOp10
 70
     1
102
RTVSPropertyOp11
 70
     1
102
RTVSPropertyOp12
 70
     1
102
RTVSPropertyOp13
 70
     1
102
RTVSPropertyOp14
 70
     1
102
RTVSPropertyOp15
 70
     1
102
RTVSPropertyOp16
 70
     1
102
RTVSPropertyOp17
 70
     1
102
RTVSPropertyOp18
 70
     1
102
RTVSPropertyOp19
 70
     1
102
RTVSPropertyOp20
 70
     1
102
RTVSPropertyOp21
 70
     1
102
RTVSPropertyOp22
 70
     1
102
RTVSPropertyOp23
 70
     1
102
RTVSPropertyOp24
 70
     1
102
RTVSPropertyOp25
 70
     1
102
RTVSPropertyOp26
 70
     1
102
RTVSPropertyOp27
 70
     1
102
RTVSPropertyOp28
 70
     1
102
RTVSPropertyOp29
 70
     1
102
RTVSPropertyOp30
 70
     1
102
RTVSPropertyOp31
 70
     1
102
RTVSPropertyOp32
 70
     1
  0
XRECORD
  5
602
102
{ACAD_REACTORS
330
601
102
}
330
601
100
AcDbXrecord
280
     1
102
RTVSPropertyOp0
 70
     1
102
RTVSPropertyOp1
 70
     1
102
RTVSPropertyOp2
 70
     1
102
RTVSPropertyOp3
 70
     1
102
RTVSPropertyOp4
 70
     1
102
RTVSPropertyOp5
 70
     1
102
RTVSPropertyOp6
 70
     1
102
RTVSPropertyOp7
 70
     1
102
RTVSPropertyOp8
 70
     1
102
RTVSPropertyOp9
 70
     1
102
RTVSPropertyOp10
 70
     1
102
RTVSPropertyOp11
 70
     1
102
RTVSPropertyOp12
 70
     1
102
RTVSPropertyOp13
 70
     1
102
RTVSPropertyOp14
 70
     1
102
RTVSPropertyOp15
 70
     1
102
RTVSPropertyOp16
 70
     1
102
RTVSPropertyOp17
 70
     1
102
RTVSPropertyOp18
 70
     1
102
RTVSPropertyOp19
 70
     1
102
RTVSPropertyOp20
 70
     1
102
RTVSPropertyOp21
 70
     1
102
RTVSPropertyOp22
 70
     1
102
RTVSPropertyOp23
 70
     1
102
RTVSPropertyOp24
 70
     1
102
RTVSPropertyOp25
 70
     1
102
RTVSPropertyOp26
 70
     1
102
RTVSPropertyOp27
 70
     1
102
RTVSPropertyOp28
 70
     1
102
RTVSPropertyOp29
 70
     1
102
RTVSPropertyOp30
 70
     1
102
RTVSPropertyOp31
 70
     1
102
RTVSPropertyOp32
 70
     1
  0
XRECORD
  5
604
102
{ACAD_REACTORS
330
603
102
}
330
603
100
AcDbXrecord
280
     1
102
RTVSPropertyOp0
 70
     1
102
RTVSPropertyOp1
 70
     1
102
RTVSPropertyOp2
 70
     1
102
RTVSPropertyOp3
 70
     1
102
RTVSPropertyOp4
 70
     1
102
RTVSPropertyOp5
 70
     1
102
RTVSPropertyOp6
 70
     1
102
RTVSPropertyOp7
 70
     1
102
RTVSPropertyOp8
 70
     1
102
RTVSPropertyOp9
 70
     1
102
RTVSPropertyOp10
 70
     1
102
RTVSPropertyOp11
 70
     1
102
RTVSPropertyOp12
 70
     1
102
RTVSPropertyOp13
 70
     1
102
RTVSPropertyOp14
 70
     1
102
RTVSPropertyOp15
 70
     1
102
RTVSPropertyOp16
 70
     1
102
RTVSPropertyOp17
 70
     1
102
RTVSPropertyOp18
 70
     1
102
RTVSPropertyOp19
 70
     1
102
RTVSPropertyOp20
 70
     1
102
RTVSPropertyOp21
 70
     1
102
RTVSPropertyOp22
 70
     1
102
RTVSPropertyOp23
 70
     1
102
RTVSPropertyOp24
 70
     1
102
RTVSPropertyOp25
 70
     1
102
RTVSPropertyOp26
 70
     1
102
RTVSPropertyOp27
 70
     1
102
RTVSPropertyOp28
 70
     1
102
RTVSPropertyOp29
 70
     1
102
RTVSPropertyOp30
 70
     1
102
RTVSPropertyOp31
 70
     1
102
RTVSPropertyOp32
 70
     1
  0
XRECORD
  5
5FA
102
{ACAD_REACTORS
330
5F9
102
}
330
5F9
100
AcDbXrecord
280
     1
102
RTVSPropertyOp0
 70
     1
102
RTVSPropertyOp1
 70
     1
102
RTVSPropertyOp2
 70
     1
102
RTVSPropertyOp3
 70
     1
102
RTVSPropertyOp4
 70
     1
102
RTVSPropertyOp5
 70
     1
102
RTVSPropertyOp6
 70
     1
102
RTVSPropertyOp7
 70
     1
102
RTVSPropertyOp8
 70
     1
102
RTVSPropertyOp9
 70
     1
102
RTVSPropertyOp10
 70
     1
102
RTVSPropertyOp11
 70
     1
102
RTVSPropertyOp12
 70
     1
102
RTVSPropertyOp13
 70
     1
102
RTVSPropertyOp14
 70
     1
102
RTVSPropertyOp15
 70
     1
102
RTVSPropertyOp16
 70
     1
102
RTVSPropertyOp17
 70
     1
102
RTVSPropertyOp18
 70
     1
102
RTVSPropertyOp19
 70
     1
102
RTVSPropertyOp20
 70
     1
102
RTVSPropertyOp21
 70
     1
102
RTVSPropertyOp22
 70
     1
102
RTVSPropertyOp23
 70
     1
102
RTVSPropertyOp24
 70
     1
102
RTVSPropertyOp25
 70
     1
102
RTVSPropertyOp26
 70
     1
102
RTVSPropertyOp27
 70
     1
102
RTVSPropertyOp28
 70
     1
102
RTVSPropertyOp29
 70
     1
102
RTVSPropertyOp30
 70
     1
102
RTVSPropertyOp31
 70
     1
102
RTVSPropertyOp32
 70
     1
  0
XRECORD
  5
5EE
102
{ACAD_REACTORS
330
5ED
102
}
330
5ED
100
AcDbXrecord
280
     1
102
RTVSPropertyOp0
 70
     1
102
RTVSPropertyOp1
 70
     1
102
RTVSPropertyOp2
 70
     1
102
RTVSPropertyOp3
 70
     1
102
RTVSPropertyOp4
 70
     1
102
RTVSPropertyOp5
 70
     1
102
RTVSPropertyOp6
 70
     1
102
RTVSPropertyOp7
 70
     1
102
RTVSPropertyOp8
 70
     1
102
RTVSPropertyOp9
 70
     1
102
RTVSPropertyOp10
 70
     1
102
RTVSPropertyOp11
 70
     1
102
RTVSPropertyOp12
 70
     1
102
RTVSPropertyOp13
 70
     1
102
RTVSPropertyOp14
 70
     1
102
RTVSPropertyOp15
 70
     1
102
RTVSPropertyOp16
 70
     1
102
RTVSPropertyOp17
 70
     1
102
RTVSPropertyOp18
 70
     1
102
RTVSPropertyOp19
 70
     1
102
RTVSPropertyOp20
 70
     1
102
RTVSPropertyOp21
 70
     1
102
RTVSPropertyOp22
 70
     1
102
RTVSPropertyOp23
 70
     1
102
RTVSPropertyOp24
 70
     1
102
RTVSPropertyOp25
 70
     1
102
RTVSPropertyOp26
 70
     1
102
RTVSPropertyOp27
 70
     1
102
RTVSPropertyOp28
 70
     1
102
RTVSPropertyOp29
 70
     1
102
RTVSPropertyOp30
 70
     1
102
RTVSPropertyOp31
 70
     1
102
RTVSPropertyOp32
 70
     1
  0
XRECORD
  5
606
102
{ACAD_REACTORS
330
605
102
}
330
605
100
AcDbXrecord
280
     1
102
RTVSPropertyOp0
 70
     1
102
RTVSPropertyOp1
 70
     1
102
RTVSPropertyOp2
 70
     1
102
RTVSPropertyOp3
 70
     1
102
RTVSPropertyOp4
 70
     1
102
RTVSPropertyOp5
 70
     1
102
RTVSPropertyOp6
 70
     1
102
RTVSPropertyOp7
 70
     1
102
RTVSPropertyOp8
 70
     1
102
RTVSPropertyOp9
 70
     1
102
RTVSPropertyOp10
 70
     1
102
RTVSPropertyOp11
 70
     1
102
RTVSPropertyOp12
 70
     1
102
RTVSPropertyOp13
 70
     1
102
RTVSPropertyOp14
 70
     1
102
RTVSPropertyOp15
 70
     1
102
RTVSPropertyOp16
 70
     1
102
RTVSPropertyOp17
 70
     1
102
RTVSPropertyOp18
 70
     1
102
RTVSPropertyOp19
 70
     1
102
RTVSPropertyOp20
 70
     1
102
RTVSPropertyOp21
 70
     1
102
RTVSPropertyOp22
 70
     1
102
RTVSPropertyOp23
 70
     1
102
RTVSPropertyOp24
 70
     1
102
RTVSPropertyOp25
 70
     1
102
RTVSPropertyOp26
 70
     1
102
RTVSPropertyOp27
 70
     1
102
RTVSPropertyOp28
 70
     1
102
RTVSPropertyOp29
 70
     1
102
RTVSPropertyOp30
 70
     1
102
RTVSPropertyOp31
 70
     1
102
RTVSPropertyOp32
 70
     1
  0
ENDSEC
  0
EOF
