  0
SECTION
  2
HEADER
  9
$ACADVER
  1
AC1018
  9
$ACADMAINTVER
 70
   104
  9
$DWGCODEPAGE
  3
ANSI_932
  9
$LASTSAVEDBY
  1
sekkei_user1
  9
$INSBASE
 10
0.0
 20
0.0
 30
0.0
  9
$EXTMIN
 10
-394.2302349705981
 20
-184.9254772078763
 30
-0.0000000349181948
  9
$EXTMAX
 10
342.3761725774161
 20
112.2107230996203
 30
0.0000000814935747
  9
$LIMMIN
 10
0.0
 20
0.0
  9
$LIMMAX
 10
420.0
 20
297.0
  9
$ORTHOMODE
 70
     0
  9
$REGENMODE
 70
     1
  9
$FILLMODE
 70
     1
  9
$QTEXTMODE
 70
     0
  9
$MIRRTEXT
 70
     0
  9
$LTSCALE
 40
1.0
  9
$ATTMODE
 70
     1
  9
$TEXTSIZE
 40
2.5
  9
$TRACEWID
 40
1.0
  9
$TEXTSTYLE
  7
Standard
  9
$CLAYER
  8
0
  9
$CELTYPE
  6
ByLayer
  9
$CECOLOR
 62
   256
  9
$CELTSCALE
 40
1.0
  9
$DISPSILH
 70
     0
  9
$DIMSCALE
 40
1.0
  9
$DIMASZ
 40
2.5
  9
$DIMEXO
 40
0.625
  9
$DIMDLI
 40
3.75
  9
$DIMRND
 40
0.0
  9
$DIMDLE
 40
0.0
  9
$DIMEXE
 40
1.25
  9
$DIMTP
 40
0.0
  9
$DIMTM
 40
0.0
  9
$DIMTXT
 40
2.5
  9
$DIMCEN
 40
2.5
  9
$DIMTSZ
 40
0.0
  9
$DIMTOL
 70
     0
  9
$DIMLIM
 70
     0
  9
$DIMTIH
 70
     0
  9
$DIMTOH
 70
     0
  9
$DIMSE1
 70
     0
  9
$DIMSE2
 70
     0
  9
$DIMTAD
 70
     1
  9
$DIMZIN
 70
     8
  9
$DIMBLK
  1

  9
$DIMASO
 70
     1
  9
$DIMSHO
 70
     1
  9
$DIMPOST
  1

  9
$DIMAPOST
  1

  9
$DIMALT
 70
     0
  9
$DIMALTD
 70
     3
  9
$DIMALTF
 40
0.03937007874016
  9
$DIMLFAC
 40
1.0
  9
$DIMTOFL
 70
     1
  9
$DIMTVP
 40
0.0
  9
$DIMTIX
 70
     0
  9
$DIMSOXD
 70
     0
  9
$DIMSAH
 70
     0
  9
$DIMBLK1
  1

  9
$DIMBLK2
  1

  9
$DIMSTYLE
  2
ISO-25
  9
$DIMCLRD
 70
     0
  9
$DIMCLRE
 70
     0
  9
$DIMCLRT
 70
     0
  9
$DIMTFAC
 40
1.0
  9
$DIMGAP
 40
0.625
  9
$DIMJUST
 70
     0
  9
$DIMSD1
 70
     0
  9
$DIMSD2
 70
     0
  9
$DIMTOLJ
 70
     0
  9
$DIMTZIN
 70
     8
  9
$DIMALTZ
 70
     0
  9
$DIMALTTZ
 70
     0
  9
$DIMUPT
 70
     0
  9
$DIMDEC
 70
     2
  9
$DIMTDEC
 70
     2
  9
$DIMALTU
 70
     2
  9
$DIMALTTD
 70
     3
  9
$DIMTXSTY
  7
Standard
  9
$DIMAUNIT
 70
     0
  9
$DIMADEC
 70
     0
  9
$DIMALTRND
 40
0.0
  9
$DIMAZIN
 70
     0
  9
$DIMDSEP
 70
    46
  9
$DIMATFIT
 70
     3
  9
$DIMFRAC
 70
     0
  9
$DIMLDRBLK
  1

  9
$DIMLUNIT
 70
     2
  9
$DIMLWD
 70
    -2
  9
$DIMLWE
 70
    -2
  9
$DIMTMOVE
 70
     0
  9
$LUNITS
 70
     2
  9
$LUPREC
 70
     4
  9
$SKETCHINC
 40
1.0
  9
$FILLETRAD
 40
0.0
  9
$AUNITS
 70
     0
  9
$AUPREC
 70
     0
  9
$MENU
  1
.
  9
$ELEVATION
 40
0.0
  9
$PELEVATION
 40
0.0
  9
$THICKNESS
 40
0.0
  9
$LIMCHECK
 70
     0
  9
$CHAMFERA
 40
0.0
  9
$CHAMFERB
 40
0.0
  9
$CHAMFERC
 40
0.0
  9
$CHAMFERD
 40
0.0
  9
$SKPOLY
 70
     0
  9
$TDCREATE
 40
2457113.686811482
  9
$TDUCREATE
 40
2457113.311811482
  9
$TDUPDATE
 40
2457686.414986759
  9
$TDUUPDATE
 40
2457686.039986759
  9
$TDINDWG
 40
0.0086587153
  9
$TDUSRTIMER
 40
0.0086583449
  9
$USRTIMER
 70
     1
  9
$ANGBASE
 50
0.0
  9
$ANGDIR
 70
     0
  9
$PDMODE
 70
     0
  9
$PDSIZE
 40
0.0
  9
$PLINEWID
 40
0.0
  9
$SPLFRAME
 70
     0
  9
$SPLINETYPE
 70
     6
  9
$SPLINESEGS
 70
     8
  9
$HANDSEED
  5
6E5
  9
$SURFTAB1
 70
     6
  9
$SURFTAB2
 70
     6
  9
$SURFTYPE
 70
     6
  9
$SURFU
 70
     6
  9
$SURFV
 70
     6
  9
$UCSBASE
  2

  9
$UCSNAME
  2

  9
$UCSORG
 10
0.0
 20
0.0
 30
0.0
  9
$UCSXDIR
 10
1.0
 20
0.0
 30
0.0
  9
$UCSYDIR
 10
0.0
 20
1.0
 30
0.0
  9
$UCSORTHOREF
  2

  9
$UCSORTHOVIEW
 70
     0
  9
$UCSORGTOP
 10
0.0
 20
0.0
 30
0.0
  9
$UCSORGBOTTOM
 10
0.0
 20
0.0
 30
0.0
  9
$UCSORGLEFT
 10
0.0
 20
0.0
 30
0.0
  9
$UCSORGRIGHT
 10
0.0
 20
0.0
 30
0.0
  9
$UCSORGFRONT
 10
0.0
 20
0.0
 30
0.0
  9
$UCSORGBACK
 10
0.0
 20
0.0
 30
0.0
  9
$PUCSBASE
  2

  9
$PUCSNAME
  2

  9
$PUCSORG
 10
0.0
 20
0.0
 30
0.0
  9
$PUCSXDIR
 10
1.0
 20
0.0
 30
0.0
  9
$PUCSYDIR
 10
0.0
 20
1.0
 30
0.0
  9
$PUCSORTHOREF
  2

  9
$PUCSORTHOVIEW
 70
     0
  9
$PUCSORGTOP
 10
0.0
 20
0.0
 30
0.0
  9
$PUCSORGBOTTOM
 10
0.0
 20
0.0
 30
0.0
  9
$PUCSORGLEFT
 10
0.0
 20
0.0
 30
0.0
  9
$PUCSORGRIGHT
 10
0.0
 20
0.0
 30
0.0
  9
$PUCSORGFRONT
 10
0.0
 20
0.0
 30
0.0
  9
$PUCSORGBACK
 10
0.0
 20
0.0
 30
0.0
  9
$USERI1
 70
     0
  9
$USERI2
 70
     0
  9
$USERI3
 70
     0
  9
$USERI4
 70
     0
  9
$USERI5
 70
     0
  9
$USERR1
 40
0.0
  9
$USERR2
 40
0.0
  9
$USERR3
 40
0.0
  9
$USERR4
 40
0.0
  9
$USERR5
 40
0.0
  9
$WORLDVIEW
 70
     1
  9
$SHADEDGE
 70
     3
  9
$SHADEDIF
 70
    70
  9
$TILEMODE
 70
     1
  9
$MAXACTVP
 70
    64
  9
$PINSBASE
 10
0.0
 20
0.0
 30
0.0
  9
$PLIMCHECK
 70
     0
  9
$PEXTMIN
 10
1.000000000000000E+20
 20
1.000000000000000E+20
 30
1.000000000000000E+20
  9
$PEXTMAX
 10
-1.000000000000000E+20
 20
-1.000000000000000E+20
 30
-1.000000000000000E+20
  9
$PLIMMIN
 10
0.0
 20
0.0
  9
$PLIMMAX
 10
420.0
 20
297.0
  9
$UNITMODE
 70
     0
  9
$VISRETAIN
 70
     1
  9
$PLINEGEN
 70
     0
  9
$PSLTSCALE
 70
     1
  9
$TREEDEPTH
 70
  3020
  9
$CMLSTYLE
  2
Standard
  9
$CMLJUST
 70
     0
  9
$CMLSCALE
 40
20.0
  9
$PROXYGRAPHICS
 70
     1
  9
$MEASUREMENT
 70
     1
  9
$CELWEIGHT
370
    -1
  9
$ENDCAPS
280
     0
  9
$JOINSTYLE
280
     0
  9
$LWDISPLAY
290
     0
  9
$INSUNITS
 70
     4
  9
$HYPERLINKBASE
  1

  9
$STYLESHEET
  1

  9
$XEDIT
290
     1
  9
$CEPSNTYPE
380
     0
  9
$PSTYLEMODE
290
     1
  9
$FINGERPRINTGUID
  2
{70772A6B-FE47-4254-A5C4-7D55DA3ADB69}
  9
$VERSIONGUID
  2
{88477BC8-93A9-4642-95D4-81CBD0B06B25}
  9
$EXTNAMES
290
     1
  9
$PSVPSCALE
 40
0.0
  9
$OLESTARTUP
290
     0
  9
$SORTENTS
280
   127
  9
$INDEXCTL
280
     0
  9
$HIDETEXT
280
     1
  9
$XCLIPFRAME
290
     0
  9
$HALOGAP
280
     0
  9
$OBSCOLOR
 70
   257
  9
$OBSLTYPE
280
     0
  9
$INTERSECTIONDISPLAY
280
     0
  9
$INTERSECTIONCOLOR
 70
   257
  9
$DIMASSOC
280
     2
  9
$PROJECTNAME
  1

  0
ENDSEC
  0
SECTION
  2
CLASSES
  0
CLASS
  1
ACDBDICTIONARYWDFLT
  2
AcDbDictionaryWithDefault
  3
ObjectDBX Classes
 90
        0
 91
        1
280
     0
281
     0
  0
CLASS
  1
MATERIAL
  2
AcDbMaterial
  3
ObjectDBX Classes
 90
     1153
 91
        3
280
     0
281
     0
  0
CLASS
  1
VISUALSTYLE
  2
AcDbVisualStyle
  3
ObjectDBX Classes
 90
     4095
 91
       24
280
     0
281
     0
  0
CLASS
  1
SCALE
  2
AcDbScale
  3
ObjectDBX Classes
 90
     1153
 91
       17
280
     0
281
     0
  0
CLASS
  1
TABLESTYLE
  2
AcDbTableStyle
  3
ObjectDBX Classes
 90
     4095
 91
        1
280
     0
281
     0
  0
CLASS
  1
MLEADERSTYLE
  2
AcDbMLeaderStyle
  3
ACDB_MLEADERSTYLE_CLASS
 90
     4095
 91
        1
280
     0
281
     0
  0
CLASS
  1
DICTIONARYVAR
  2
AcDbDictionaryVar
  3
ObjectDBX Classes
 90
        0
 91
       13
280
     0
281
     0
  0
CLASS
  1
CELLSTYLEMAP
  2
AcDbCellStyleMap
  3
ObjectDBX Classes
 90
     1152
 91
        4
280
     0
281
     0
  0
ENDSEC
  0
SECTION
  2
TABLES
  0
TABLE
  2
VPORT
  5
8
330
0
100
AcDbSymbolTable
 70
     1
  0
VPORT
  5
57
330
8
100
AcDbSymbolTableRecord
100
AcDbViewportTableRecord
  2
*Active
 70
     0
 10
0.0
 20
0.0
 11
1.0
 21
1.0
 12
-53.20873250732507
 22
-57.81055214407036
 13
0.0
 23
0.0
 14
10.0
 24
10.0
 15
10.0
 25
10.0
 16
0.0
 26
0.0
 36
1.0
 17
0.0
 27
0.0
 37
0.0
 40
815.7878120231778
 41
1.624429223744292
 42
50.0
 43
0.0
 44
0.0
 50
0.0
 51
0.0
 71
     0
 72
  1000
 73
     1
 74
     3
 75
     0
 76
     0
 77
     0
 78
     0
281
     0
 65
     1
110
0.0
120
0.0
130
0.0
111
1.0
121
0.0
131
0.0
112
0.0
122
1.0
132
0.0
 79
     0
146
0.0
1001
ACAD_NAV_VCDISPLAY
1070
     1
  0
ENDTAB
  0
TABLE
  2
LTYPE
  5
5
330
0
100
AcDbSymbolTable
 70
     6
  0
LTYPE
  5
5B
330
5
100
AcDbSymbolTableRecord
100
AcDbLinetypeTableRecord
  2
ByBlock
 70
     0
  3

 72
    65
 73
     0
 40
0.0
  0
LTYPE
  5
5C
330
5
100
AcDbSymbolTableRecord
100
AcDbLinetypeTableRecord
  2
ByLayer
 70
     0
  3

 72
    65
 73
     0
 40
0.0
  0
LTYPE
  5
5D
330
5
100
AcDbSymbolTableRecord
100
AcDbLinetypeTableRecord
  2
Continuous
 70
     0
  3
Solid line
 72
    65
 73
     0
 40
0.0
  0
LTYPE
  5
78
330
5
100
AcDbSymbolTableRecord
100
AcDbLinetypeTableRecord
  2
DASHED
 70
     0
  3
Dashed
 72
    65
 73
     2
 40
15.0
 49
7.0
 74
     0
 49
-8.0
 74
     0
  0
LTYPE
  5
79
330
5
100
AcDbSymbolTableRecord
100
AcDbLinetypeTableRecord
  2
DASH_CENTER
 70
     0
  3
Dash_Center
 72
    65
 73
     4
 40
14.0
 49
11.0
 74
     0
 49
-1.0
 74
     0
 49
1.0
 74
     0
 49
-1.0
 74
     0
  0
LTYPE
  5
7A
330
5
100
AcDbSymbolTableRecord
100
AcDbLinetypeTableRecord
  2
CENTER_DASH_DASH
 70
     0
  3
Center_Dash_Dash
 72
    65
 73
     6
 40
14.0
 49
9.0
 74
     0
 49
-1.0
 74
     0
 49
1.0
 74
     0
 49
-1.0
 74
     0
 49
1.0
 74
     0
 49
-1.0
 74
     0
  0
ENDTAB
  0
TABLE
  2
LAYER
  5
2
102
{ACAD_XDICTIONARY
360
89
102
}
330
0
100
AcDbSymbolTable
 70
     8
  0
LAYER
  5
54
330
2
100
AcDbSymbolTableRecord
100
AcDbLayerTableRecord
  2
0
 70
     0
 62
     7
  6
Continuous
370
    -3
390
F
  0
LAYER
  5
7B
102
{ACAD_XDICTIONARY
360
7C
102
}
330
2
100
AcDbSymbolTableRecord
100
AcDbLayerTableRecord
  2
10
 70
     0
 62
     7
  6
Continuous
370
    -3
390
F
  0
LAYER
  5
7D
102
{ACAD_XDICTIONARY
360
7E
102
}
330
2
100
AcDbSymbolTableRecord
100
AcDbLayerTableRecord
  2
100
 70
     0
 62
     7
  6
Continuous
370
    -3
390
F
  0
LAYER
  5
7F
102
{ACAD_XDICTIONARY
360
80
102
}
330
2
100
AcDbSymbolTableRecord
100
AcDbLayerTableRecord
  2
110
 70
     0
 62
     7
  6
Continuous
370
    -3
390
F
  0
LAYER
  5
81
102
{ACAD_XDICTIONARY
360
82
102
}
330
2
100
AcDbSymbolTableRecord
100
AcDbLayerTableRecord
  2
115
 70
     0
 62
     7
  6
Continuous
370
    -3
390
F
  0
LAYER
  5
83
102
{ACAD_XDICTIONARY
360
84
102
}
330
2
100
AcDbSymbolTableRecord
100
AcDbLayerTableRecord
  2
160
 70
     0
 62
     7
  6
Continuous
370
    -3
390
F
  0
LAYER
  5
85
102
{ACAD_XDICTIONARY
360
86
102
}
330
2
100
AcDbSymbolTableRecord
100
AcDbLayerTableRecord
  2
165
 70
     0
 62
     7
  6
Continuous
370
    -3
390
F
  0
LAYER
  5
87
102
{ACAD_XDICTIONARY
360
88
102
}
330
2
100
AcDbSymbolTableRecord
100
AcDbLayerTableRecord
  2
60
 70
     0
 62
     7
  6
Continuous
370
    -3
390
F
  0
ENDTAB
  0
TABLE
  2
STYLE
  5
3
330
0
100
AcDbSymbolTable
 70
     1
  0
STYLE
  5
55
330
3
100
AcDbSymbolTableRecord
100
AcDbTextStyleTableRecord
  2
Standard
 70
     0
 40
0.0
 41
1.0
 50
0.0
 71
     0
 42
2.5
  3
txt
  4

  0
ENDTAB
  0
TABLE
  2
VIEW
  5
6
330
0
100
AcDbSymbolTable
 70
     2
  0
ENDTAB
  0
TABLE
  2
UCS
  5
7
330
0
100
AcDbSymbolTable
 70
     0
  0
ENDTAB
  0
TABLE
  2
APPID
  5
9
330
0
100
AcDbSymbolTable
 70
     6
  0
APPID
  5
56
330
9
100
AcDbSymbolTableRecord
100
AcDbRegAppTableRecord
  2
ACAD
 70
     0
  0
APPID
  5
5E
330
9
100
AcDbSymbolTableRecord
100
AcDbRegAppTableRecord
  2
AcadAnnotative
 70
     0
  0
APPID
  5
76
330
9
100
AcDbSymbolTableRecord
100
AcDbRegAppTableRecord
  2
ACAD_NAV_VCDISPLAY
 70
     0
  0
APPID
  5
503
330
9
100
AcDbSymbolTableRecord
100
AcDbRegAppTableRecord
  2
ACAD_DSTYLE_DIMJOGGED_JOGANGLE_SYMBOL
 70
     0
  0
APPID
  5
505
330
9
100
AcDbSymbolTableRecord
100
AcDbRegAppTableRecord
  2
ACAD_MLEADERVER
 70
     0
  0
APPID
  5
550
330
9
100
AcDbSymbolTableRecord
100
AcDbRegAppTableRecord
  2
ACAD_EXEMPT_FROM_CAD_STANDARDS
 70
     0
  0
ENDTAB
  0
TABLE
  2
DIMSTYLE
  5
A
330
0
100
AcDbSymbolTable
 70
     2
100
AcDbDimStyleTable
 71
     1
340
58
  0
DIMSTYLE
105
58
330
A
100
AcDbSymbolTableRecord
100
AcDbDimStyleTableRecord
  2
ISO-25
 70
     0
 41
2.5
 42
0.625
 43
3.75
 44
1.25
 73
     0
 74
     0
 77
     1
 78
     8
140
2.5
141
2.5
143
0.03937007874016
147
0.625
171
     3
172
     1
271
     2
272
     2
274
     3
283
     0
284
     8
340
55
1001
ACAD_DSTYLE_DIMJOGGED_JOGANGLE_SYMBOL
1070
   384
1040
1.570796326794896
  0
ENDTAB
  0
TABLE
  2
BLOCK_RECORD
  5
1
330
0
100
AcDbSymbolTable
 70
     2
  0
BLOCK_RECORD
  5
6C
330
1
100
AcDbSymbolTableRecord
100
AcDbBlockTableRecord
  2
*Model_Space
340
6F
  0
BLOCK_RECORD
  5
68
330
1
100
AcDbSymbolTableRecord
100
AcDbBlockTableRecord
  2
*Paper_Space
340
6B
  0
BLOCK_RECORD
  5
70
330
1
100
AcDbSymbolTableRecord
100
AcDbBlockTableRecord
  2
*Paper_Space0
340
73
  0
ENDTAB
  0
ENDSEC
  0
SECTION
  2
BLOCKS
  0
BLOCK
  5
6D
330
6C
100
AcDbEntity
  8
0
100
AcDbBlockBegin
  2
*Model_Space
 70
     0
 10
0.0
 20
0.0
 30
0.0
  3
*Model_Space
  1

  0
ENDBLK
  5
6E
330
6C
100
AcDbEntity
  8
0
100
AcDbBlockEnd
  0
BLOCK
  5
69
330
68
100
AcDbEntity
 67
     1
  8
0
100
AcDbBlockBegin
  2
*Paper_Space
 70
     0
 10
0.0
 20
0.0
 30
0.0
  3
*Paper_Space
  1

  0
ENDBLK
  5
6A
330
68
100
AcDbEntity
 67
     1
  8
0
100
AcDbBlockEnd
  0
BLOCK
  5
71
330
70
100
AcDbEntity
 67
     1
  8
0
100
AcDbBlockBegin
  2
*Paper_Space0
 70
     0
 10
0.0
 20
0.0
 30
0.0
  3
*Paper_Space0
  1

  0
ENDBLK
  5
72
330
70
100
AcDbEntity
 67
     1
  8
0
100
AcDbBlockEnd
  0
ENDSEC
  0
SECTION
  2
ENTITIES
  0
POINT
  5
2A5
330
6C
100
AcDbEntity
  8
165
 62
    30
100
AcDbPoint
 10
0.0
 20
12.0
 30
0.0
  0
LINE
  5
2A6
330
6C
100
AcDbEntity
  8
60
  6
Continuous
 62
     7
100
AcDbLine
 10
156.6226556330278
 20
-124.4951
 30
0.0
 11
171.6226556330275
 21
-124.4951
 31
0.0
  0
LINE
  5
2A7
330
6C
100
AcDbEntity
  8
60
  6
Continuous
 62
     7
100
AcDbLine
 10
156.6226556330278
 20
-134.4951
 30
0.0
 11
171.6226556330275
 21
-134.4951
 31
0.0
  0
LINE
  5
2A8
330
6C
100
AcDbEntity
  8
60
  6
Continuous
 62
     7
100
AcDbLine
 10
-4.0
 20
15.0
 30
0.0
 11
-4.0
 21
8.0
 31
0.0
  0
LINE
  5
2A9
330
6C
100
AcDbEntity
  8
60
  6
Continuous
 62
     7
100
AcDbLine
 10
4.0
 20
15.0
 30
0.0
 11
4.0
 21
8.0
 31
0.0
  0
LINE
  5
2AA
330
6C
100
AcDbEntity
  8
60
  6
Continuous
 62
     7
100
AcDbLine
 10
-4.0
 20
15.0
 30
0.0
 11
4.0
 21
15.0
 31
0.0
  0
LINE
  5
2AB
330
6C
100
AcDbEntity
  8
60
  6
Continuous
 62
     7
100
AcDbLine
 10
-4.0
 20
8.0
 30
0.0
 11
0.0
 21
8.0
 31
0.0
  0
LINE
  5
2AC
330
6C
100
AcDbEntity
  8
160
  6
DASH_CENTER
 62
    30
100
AcDbLine
 10
-19.42719999999986
 20
0.0
 30
0.0
 11
19.2849000000001
 21
0.0
 31
0.0
  0
LINE
  5
2AD
330
6C
100
AcDbEntity
  8
160
  6
DASH_CENTER
 62
    30
100
AcDbLine
 10
164.1226556330276
 20
-117.8397
 30
0.0
 11
164.1226556330276
 21
-139.4951
 31
0.0
  0
LINE
  5
2AE
330
6C
100
AcDbEntity
  8
160
  6
DASH_CENTER
 62
    30
100
AcDbLine
 10
146.3746556330277
 20
-129.4951
 30
0.0
 11
181.1416556330278
 21
-129.4951
 31
0.0
  0
LINE
  5
2AF
330
6C
100
AcDbEntity
  8
60
  6
Continuous
 62
     7
100
AcDbLine
 10
184.1226556330276
 20
-114.4953
 30
0.0
 11
184.1226556330276
 21
-139.4951
 31
0.0
  0
LINE
  5
2B0
330
6C
100
AcDbEntity
  8
160
  6
Continuous
 62
    54
100
AcDbLine
 10
144.1226556330278
 20
-154.4951
 30
0.0
 11
152.3132556330274
 21
-154.6543
 31
0.0
  0
LINE
  5
2B1
330
6C
100
AcDbEntity
  8
60
  6
Continuous
 62
     7
100
AcDbLine
 10
189.1226556330276
 20
-114.4953
 30
0.0
 11
154.1226556330275
 21
-114.4953
 31
0.0
  0
LINE
  5
2B2
330
6C
100
AcDbEntity
  8
60
  6
Continuous
 62
     7
100
AcDbLine
 10
144.1226556330278
 20
-124.4951
 30
0.0
 11
144.1226556330278
 21
-154.4951
 31
0.0
  0
LINE
  5
2B3
330
6C
100
AcDbEntity
  8
160
  6
Continuous
 62
    54
100
AcDbLine
 10
152.3132556330274
 20
-154.6543
 30
0.0
 11
161.4373556330275
 21
-154.5862
 31
0.0
  0
LINE
  5
2B4
330
6C
100
AcDbEntity
  8
160
  6
Continuous
 62
    54
100
AcDbLine
 10
161.4373556330275
 20
-154.5862
 30
0.0
 11
172.1540556330278
 21
-154.4041
 31
0.0
  0
LINE
  5
2B5
330
6C
100
AcDbEntity
  8
60
  6
Continuous
 62
     7
100
AcDbLine
 10
144.1226556330278
 20
-149.4951
 30
0.0
 11
174.1226556330276
 21
-149.4951
 31
0.0
  0
LINE
  5
2B6
330
6C
100
AcDbEntity
  8
160
  6
Continuous
 62
    54
100
AcDbLine
 10
172.1540556330278
 20
-154.4041
 30
0.0
 11
179.4351556330276
 21
-152.2197
 31
0.0
  0
LINE
  5
2B7
330
6C
100
AcDbEntity
  8
160
  6
Continuous
 62
    54
100
AcDbLine
 10
179.4351556330276
 20
-152.2197
 30
0.0
 11
182.4840556330276
 21
-150.354
 31
0.0
  0
LINE
  5
2B8
330
6C
100
AcDbEntity
  8
160
  6
Continuous
 62
    54
100
AcDbLine
 10
182.4840556330276
 20
-150.354
 30
0.0
 11
184.5773556330276
 21
-147.6692
 31
0.0
  0
LINE
  5
2B9
330
6C
100
AcDbEntity
  8
160
  6
Continuous
 62
    54
100
AcDbLine
 10
184.5773556330276
 20
-147.6692
 30
0.0
 11
186.8526556330276
 21
-142.5725
 31
0.0
  0
LINE
  5
2BA
330
6C
100
AcDbEntity
  8
160
  6
Continuous
 62
    54
100
AcDbLine
 10
186.8526556330276
 20
-142.5725
 30
0.0
 11
187.4670556330277
 21
-136.156
 31
0.0
  0
LINE
  5
2BB
330
6C
100
AcDbEntity
  8
160
  6
Continuous
 62
    54
100
AcDbLine
 10
187.4670556330277
 20
-136.156
 30
0.0
 11
187.7400556330276
 21
-128.5791
 31
0.0
  0
LINE
  5
2BC
330
6C
100
AcDbEntity
  8
160
  6
Continuous
 62
    54
100
AcDbLine
 10
187.7400556330276
 20
-128.5791
 30
0.0
 11
188.2633556330277
 21
-121.4348
 31
0.0
  0
LINE
  5
2BD
330
6C
100
AcDbEntity
  8
160
  6
Continuous
 62
    54
100
AcDbLine
 10
188.2633556330277
 20
-121.4348
 30
0.0
 11
189.1226556330276
 21
-114.4953
 31
0.0
  0
LINE
  5
2BE
330
6C
100
AcDbEntity
  8
60
  6
Continuous
 62
     7
100
AcDbLine
 10
0.0
 20
8.0
 30
0.0
 11
4.0
 21
8.0
 31
0.0
  0
LINE
  5
2BF
330
6C
100
AcDbEntity
  8
160
  6
DASH_CENTER
 62
    30
100
AcDbLine
 10
0.0
 20
21.35413549455654
 30
0.0
 11
0.0
 21
-18.24899999999997
 31
0.0
  0
ARC
  5
2C0
330
6C
100
AcDbEntity
  8
160
  6
Continuous
 62
    30
100
AcDbCircle
 10
0.0000233513339936
 20
0.0000040065051508
 30
0.0
 40
11.99999599351761
100
AcDbArc
 50
90.00011149444063
 51
109.471345655572
  0
ARC
  5
2C1
330
6C
100
AcDbEntity
  8
60
  6
Continuous
 62
     7
100
AcDbCircle
 10
0.0
 20
0.0
 30
0.0
 40
11.99999198708065
100
AcDbArc
 50
109.4712341610541
 51
70.52876583894573
  0
ARC
  5
2C2
330
6C
100
AcDbEntity
  8
60
  6
Continuous
 62
     7
100
AcDbCircle
 10
156.6226556330278
 20
-129.4951
 30
0.0
 40
5.0
100
AcDbArc
 50
90.0
 51
180.0
  0
ARC
  5
2C3
330
6C
100
AcDbEntity
  8
60
  6
Continuous
 62
     7
100
AcDbCircle
 10
156.6226556330278
 20
-129.4951
 30
0.0
 40
5.0
100
AcDbArc
 50
180.0
 51
270.0
  0
ARC
  5
2C4
330
6C
100
AcDbEntity
  8
60
  6
Continuous
 62
     7
100
AcDbCircle
 10
171.6226556330275
 20
-129.4951
 30
0.0
 40
5.0
100
AcDbArc
 50
270.0
 51
0.0
  0
ARC
  5
2C5
330
6C
100
AcDbEntity
  8
60
  6
Continuous
 62
     7
100
AcDbCircle
 10
171.6226556330275
 20
-129.4951
 30
0.0
 40
5.0
100
AcDbArc
 50
0.0
 51
90.0
  0
ARC
  5
2C6
330
6C
100
AcDbEntity
  8
60
  6
Continuous
 62
     7
100
AcDbCircle
 10
174.1226556330276
 20
-139.4951
 30
0.0
 40
10.0
100
AcDbArc
 50
270.0
 51
0.0
  0
ARC
  5
2C7
330
6C
100
AcDbEntity
  8
60
  6
Continuous
 62
     7
100
AcDbCircle
 10
154.1226556330275
 20
-124.4951
 30
0.0
 40
10.0
100
AcDbArc
 50
90.0
 51
180.0
  0
POINT
  5
2C8
330
6C
100
AcDbEntity
  8
0
 62
     7
100
AcDbPoint
 10
-341.1800443669724
 20
-47.69324999999992
 30
0.0
  0
LINE
  5
2C9
330
6C
100
AcDbEntity
  8
0
  6
Continuous
 62
     7
100
AcDbLine
 10
-336.6952456641683
 20
92.75533269933019
 30
0.0
 11
-336.8414443669724
 21
94.42685000000006
 31
0.0
  0
LINE
  5
2CA
330
6C
100
AcDbEntity
  8
0
  6
Continuous
 62
     7
100
AcDbLine
 10
-345.5186443669723
 20
94.42685000000006
 30
0.0
 11
-345.6648430697764
 21
92.75533269933019
 31
0.0
  0
LINE
  5
2CB
330
6C
100
AcDbEntity
  8
0
  6
Continuous
 62
     7
100
AcDbLine
 10
-376.6818463347068
 20
92.23087401120041
 30
0.0
 11
-345.7305540459052
 21
92.75422160900212
 31
0.0
  0
LINE
  5
2CC
330
6C
100
AcDbEntity
  8
0
  6
Continuous
 62
     7
100
AcDbLine
 10
-376.8550105732539
 20
-85.99974999999997
 30
0.0
 11
-331.1801927313145
 21
-85.99975000000004
 31
0.0
  0
LINE
  5
2CD
330
6C
100
AcDbEntity
  8
100
  6
DASH_CENTER
 62
    30
100
AcDbLine
 10
-223.1805443669723
 20
-100.1941
 30
0.0
 11
-223.1805443669723
 21
100.1946
 31
0.0
  0
LINE
  5
2CE
330
6C
100
AcDbEntity
  8
0
  6
Continuous
 62
     7
100
AcDbLine
 10
-145.6805443669723
 20
-84.47370000000002
 30
0.0
 11
-145.6805443669723
 21
-89.97370000000001
 31
0.0
  0
LINE
  5
2CF
330
6C
100
AcDbEntity
  8
0
  6
Continuous
 62
     7
100
AcDbLine
 10
-300.6805443669723
 20
-84.47370000000002
 30
0.0
 11
-300.6805443669723
 21
-89.97370000000001
 31
0.0
  0
LINE
  5
2D0
330
6C
100
AcDbEntity
  8
0
  6
Continuous
 62
     7
100
AcDbLine
 10
-180.6805443669723
 20
-88.47370000000003
 30
0.0
 11
-180.6805443669723
 21
-89.97370000000001
 31
0.0
  0
LINE
  5
2D1
330
6C
100
AcDbEntity
  8
0
  6
Continuous
 62
     7
100
AcDbLine
 10
-265.6805443669723
 20
-88.47370000000003
 30
0.0
 11
-265.6805443669723
 21
-89.97370000000001
 31
0.0
  0
LINE
  5
2D2
330
6C
100
AcDbEntity
  8
100
  6
DASH_CENTER
 62
    30
100
AcDbLine
 10
-285.6805443669723
 20
-99.26610000000003
 30
0.0
 11
-285.6805443669723
 21
-80.52999999999997
 31
0.0
  0
LINE
  5
2D3
330
6C
100
AcDbEntity
  8
100
  6
DASH_CENTER
 62
    30
100
AcDbLine
 10
-160.6805443669723
 20
-99.16750000000002
 30
0.0
 11
-160.6805443669723
 21
-80.48069999999995
 31
0.0
  0
LINE
  5
2D4
330
6C
100
AcDbEntity
  8
0
  6
Continuous
 62
     7
100
AcDbLine
 10
-300.6152927313144
 20
-12.82354999999995
 30
0.0
 11
-300.5024927313145
 21
-12.92335000000003
 31
0.0
  0
LINE
  5
2D5
330
6C
100
AcDbEntity
  8
0
  6
Continuous
 62
     7
100
AcDbLine
 10
-304.5480927313144
 20
-15.10945000000004
 30
0.0
 11
-304.4137927313145
 21
-15.15895
 31
0.0
  0
LINE
  5
2D6
330
6C
100
AcDbEntity
  8
0
  6
Continuous
 62
     7
100
AcDbLine
 10
-303.7458927313145
 20
-12.82354999999995
 30
0.0
 11
-303.8586927313145
 21
-12.92335000000003
 31
0.0
  0
LINE
  5
2D7
330
6C
100
AcDbEntity
  8
0
  6
Continuous
 62
     7
100
AcDbLine
 10
-299.8129927313144
 20
-15.10945000000004
 30
0.0
 11
-299.9472927313145
 21
-15.15895
 31
0.0
  0
LINE
  5
2D8
330
6C
100
AcDbEntity
  8
100
  6
DASH_CENTER
 62
    40
100
AcDbLine
 10
-310.3962927313145
 20
-14.06354999999996
 30
0.0
 11
-294.1989927313144
 21
-14.06354999999996
 31
0.0
  0
LINE
  5
2D9
330
6C
100
AcDbEntity
  8
100
  6
DASH_CENTER
 62
    40
100
AcDbLine
 10
-302.1803927313144
 20
-20.65414999999996
 30
0.0
 11
-302.1803927313144
 21
-7.368749999999977
 31
0.0
  0
LINE
  5
2DA
330
6C
100
AcDbEntity
  8
0
  6
Continuous
 62
     7
100
AcDbLine
 10
-291.1559927313144
 20
-11.63824999999997
 30
0.0
 11
-282.5805927313145
 21
-11.63824999999997
 31
0.0
  0
LINE
  5
2DB
330
6C
100
AcDbEntity
  8
0
  6
Continuous
 62
     7
100
AcDbLine
 10
-282.5805927313145
 20
-14.32624999999996
 30
0.0
 11
-293.2321927313144
 21
-14.32624999999996
 31
0.0
  0
LINE
  5
2DC
330
6C
100
AcDbEntity
  8
0
  6
Continuous
 62
     7
100
AcDbLine
 10
-261.1805927313144
 20
2.392050000000037
 30
0.0
 11
-261.1805927313144
 21
41.40695000000003
 31
0.0
  0
LINE
  5
2DD
330
6C
100
AcDbEntity
  8
0
  6
Continuous
 62
     7
100
AcDbLine
 10
-281.9804927313145
 20
-20.48765000000003
 30
0.0
 11
-322.3803927313145
 21
-20.48765000000003
 31
0.0
  0
LINE
  5
2DE
330
6C
100
AcDbEntity
  8
0
  6
Continuous
 62
     7
100
AcDbLine
 10
-321.7804927313145
 20
-11.63824999999997
 30
0.0
 11
-313.2045927313145
 21
-11.63824999999997
 31
0.0
  0
LINE
  5
2DF
330
6C
100
AcDbEntity
  8
0
  6
Continuous
 62
     7
100
AcDbLine
 10
-265.7804927313144
 20
5.161849999999958
 30
0.0
 11
-265.7804927313144
 21
45.40695000000003
 31
0.0
  0
LINE
  5
2E0
330
6C
100
AcDbEntity
  8
0
  6
Continuous
 62
     7
100
AcDbLine
 10
-281.9804927313145
 20
-18.40805
 30
0.0
 11
-322.3803927313145
 21
-18.40805
 31
0.0
  0
LINE
  5
2E1
330
6C
100
AcDbEntity
  8
0
  6
Continuous
 62
     7
100
AcDbLine
 10
-343.1803927313144
 20
2.392050000000037
 30
0.0
 11
-343.1803927313144
 21
41.40695000000003
 31
0.0
  0
LINE
  5
2E2
330
6C
100
AcDbEntity
  8
0
  6
Continuous
 62
     7
100
AcDbLine
 10
-311.1283927313146
 20
-14.32624999999996
 30
0.0
 11
-321.7804927313145
 21
-14.32624999999996
 31
0.0
  0
LINE
  5
2E3
330
6C
100
AcDbEntity
  8
0
  6
Continuous
 62
     7
100
AcDbLine
 10
-281.9804927313145
 20
62.20695
 30
0.0
 11
-322.3803927313145
 21
62.20695
 31
0.0
  0
LINE
  5
2E4
330
6C
100
AcDbEntity
  8
0
  6
Continuous
 62
     7
100
AcDbLine
 10
-338.5805927313145
 20
2.47384999999997
 30
0.0
 11
-338.5805927313145
 21
45.40695000000003
 31
0.0
  0
LINE
  5
2E5
330
6C
100
AcDbEntity
  8
0
  6
DASHED
 62
     7
100
AcDbLine
 10
-55.68054436697228
 20
-12.0
 30
0.0
 11
-54.68054436697229
 21
-11.0
 31
0.0
  0
LINE
  5
2E6
330
6C
100
AcDbEntity
  8
0
  6
DASHED
 62
     7
100
AcDbLine
 10
-54.68054436697229
 20
11.0
 30
0.0
 11
-55.68054436697228
 21
12.0
 31
0.0
  0
LINE
  5
2E7
330
6C
100
AcDbEntity
  8
0
  6
Continuous
 62
     7
100
AcDbLine
 10
-55.68054436697228
 20
-12.0
 30
0.0
 11
-55.68054436697228
 21
12.0
 31
0.0
  0
LINE
  5
2E8
330
6C
100
AcDbEntity
  8
0
  6
Continuous
 62
     7
100
AcDbLine
 10
-104.6805443669723
 20
12.39999999999997
 30
0.0
 11
-104.6805443669723
 21
12.20000000000004
 31
0.0
  0
LINE
  5
2E9
330
6C
100
AcDbEntity
  8
0
  6
Continuous
 62
     7
100
AcDbLine
 10
-54.68054436697229
 20
-11.0
 30
0.0
 11
-54.68054436697229
 21
15.0
 31
0.0
  0
LINE
  5
2EA
330
6C
100
AcDbEntity
  8
0
  6
Continuous
 62
     7
100
AcDbLine
 10
-104.6805443669723
 20
12.39999999999997
 30
0.0
 11
-108.6805443669723
 21
12.39999999999997
 31
0.0
  0
LINE
  5
2EB
330
6C
100
AcDbEntity
  8
0
  6
Continuous
 62
     7
100
AcDbLine
 10
-104.6805443669723
 20
-12.39999999999997
 30
0.0
 11
-108.6805443669723
 21
-12.39999999999997
 31
0.0
  0
LINE
  5
2EC
330
6C
100
AcDbEntity
  8
0
  6
Continuous
 62
     7
100
AcDbLine
 10
-55.68054436697228
 20
-12.0
 30
0.0
 11
-104.4805443669722
 21
-12.0
 31
0.0
  0
LINE
  5
2ED
330
6C
100
AcDbEntity
  8
0
  6
Continuous
 62
     7
100
AcDbLine
 10
-90.68054436697227
 20
15.0
 30
0.0
 11
-54.68054436697229
 21
15.0
 31
0.0
  0
LINE
  5
2EE
330
6C
100
AcDbEntity
  8
0
  6
Continuous
 62
     7
100
AcDbLine
 10
-90.68054436697227
 20
12.0
 30
0.0
 11
-90.68054436697227
 21
15.0
 31
0.0
  0
LINE
  5
2EF
330
6C
100
AcDbEntity
  8
0
  6
Continuous
 62
     7
100
AcDbLine
 10
-55.68054436697228
 20
12.0
 30
0.0
 11
-104.4805443669722
 21
12.0
 31
0.0
  0
LINE
  5
2F0
330
6C
100
AcDbEntity
  8
0
  6
Continuous
 62
     7
100
AcDbLine
 10
-114.4331443669723
 20
-50.36329999999998
 30
0.0
 11
-117.7806443669724
 21
-50.36329999999998
 31
0.0
  0
LINE
  5
2F1
330
6C
100
AcDbEntity
  8
0
  6
Continuous
 62
     7
100
AcDbLine
 10
-114.4331443669723
 20
-42.87810000000003
 30
0.0
 11
-114.4331443669723
 21
-50.36329999999998
 31
0.0
  0
LINE
  5
2F2
330
6C
100
AcDbEntity
  8
0
  6
Continuous
 62
     7
100
AcDbLine
 10
-115.4331443669723
 20
-41.87810000000001
 30
0.0
 11
-120.6805443669723
 21
-41.87810000000001
 31
0.0
  0
LINE
  5
2F3
330
6C
100
AcDbEntity
  8
100
  6
DASH_CENTER
 62
    30
100
AcDbLine
 10
-111.8161443669723
 20
-53.38660000000004
 30
0.0
 11
-125.9924443669722
 21
-53.38660000000004
 31
0.0
  0
LINE
  5
2F4
330
6C
100
AcDbEntity
  8
0
  6
Continuous
 62
     7
100
AcDbLine
 10
-121.6805443669723
 20
-48.13660000000004
 30
0.0
 11
-119.5150443669722
 21
-48.32609999999998
 31
0.0
  0
LINE
  5
2F5
330
6C
100
AcDbEntity
  8
0
  6
Continuous
 62
     7
100
AcDbLine
 10
-117.7806443669724
 20
-56.55430000000001
 30
0.0
 11
-117.7806443669724
 21
-50.21879999999999
 31
0.0
  0
LINE
  5
2F6
330
6C
100
AcDbEntity
  8
0
  6
Continuous
 62
     7
100
AcDbLine
 10
-121.6805443669723
 20
-58.63660000000002
 30
0.0
 11
-119.5149443669722
 21
-58.44709999999998
 31
0.0
  0
LINE
  5
2F7
330
6C
100
AcDbEntity
  8
0
  6
Continuous
 62
     7
100
AcDbLine
 10
-116.6805443669723
 20
-71.66039999999998
 30
0.0
 11
-114.4331443669723
 21
-50.36329999999998
 31
0.0
  0
LINE
  5
2F8
330
6C
100
AcDbEntity
  8
0
  6
Continuous
 62
     7
100
AcDbLine
 10
-120.6805443669723
 20
-71.66039999999998
 30
0.0
 11
-116.6805443669723
 21
-71.66039999999998
 31
0.0
  0
LINE
  5
2F9
330
6C
100
AcDbEntity
  8
0
  6
Continuous
 62
     7
100
AcDbLine
 10
-112.6805443669723
 20
46.05939999999998
 30
0.0
 11
-112.6805443669723
 21
-46.05939999999998
 31
0.0
  0
LINE
  5
2FA
330
6C
100
AcDbEntity
  8
0
  6
Continuous
 62
     7
100
AcDbLine
 10
-116.6805443669723
 20
40.87799999999993
 30
0.0
 11
-116.6805443669723
 21
-40.87810000000001
 31
0.0
  0
LINE
  5
2FB
330
6C
100
AcDbEntity
  8
0
  6
Continuous
 62
     7
100
AcDbLine
 10
-116.6804443669723
 20
81.70439999999997
 30
0.0
 11
-116.6805443669723
 21
71.66039999999998
 31
0.0
  0
LINE
  5
2FC
330
6C
100
AcDbEntity
  8
0
  6
Continuous
 62
     7
100
AcDbLine
 10
-116.6804443669723
 20
-81.70440000000008
 30
0.0
 11
-116.6805443669723
 21
-71.66039999999998
 31
0.0
  0
LINE
  5
2FD
330
6C
100
AcDbEntity
  8
0
  6
Continuous
 62
     7
100
AcDbLine
 10
-121.6805443669723
 20
-42.87810000000003
 30
0.0
 11
-121.6805443669723
 21
-70.66039999999998
 31
0.0
  0
LINE
  5
2FE
330
6C
100
AcDbEntity
  8
0
  6
Continuous
 62
     7
100
AcDbLine
 10
-116.6805443669723
 20
71.66039999999998
 30
0.0
 11
-114.4331443669723
 21
50.36329999999998
 31
0.0
  0
LINE
  5
2FF
330
6C
100
AcDbEntity
  8
0
  6
Continuous
 62
     7
100
AcDbLine
 10
-121.6805443669723
 20
42.87799999999992
 30
0.0
 11
-121.6805443669723
 21
70.66039999999998
 31
0.0
  0
LINE
  5
300
330
6C
100
AcDbEntity
  8
0
  6
Continuous
 62
     7
100
AcDbLine
 10
-115.4331443669723
 20
41.87799999999993
 30
0.0
 11
-120.6805443669723
 21
41.87799999999993
 31
0.0
  0
LINE
  5
301
330
6C
100
AcDbEntity
  8
0
  6
Continuous
 62
     7
100
AcDbLine
 10
-120.6805443669723
 20
71.66039999999998
 30
0.0
 11
-116.6805443669723
 21
71.66039999999998
 31
0.0
  0
LINE
  5
302
330
6C
100
AcDbEntity
  8
0
  6
Continuous
 62
     7
100
AcDbLine
 10
-114.4331443669723
 20
50.36329999999998
 30
0.0
 11
-117.7806443669724
 21
50.36329999999998
 31
0.0
  0
LINE
  5
303
330
6C
100
AcDbEntity
  8
0
  6
Continuous
 62
     7
100
AcDbLine
 10
-104.6804443669723
 20
-12.20000000000004
 30
0.0
 11
-104.6805443669723
 21
12.20000000000004
 31
0.0
  0
LINE
  5
304
330
6C
100
AcDbEntity
  8
0
  6
Continuous
 62
     7
100
AcDbLine
 10
-104.6805443669723
 20
-12.20000000000004
 30
0.0
 11
-104.6805443669723
 21
-12.39999999999997
 31
0.0
  0
LINE
  5
305
330
6C
100
AcDbEntity
  8
0
  6
Continuous
 62
     7
100
AcDbLine
 10
-121.6805443669723
 20
48.13649999999995
 30
0.0
 11
-119.5150443669722
 21
48.32600000000002
 31
0.0
  0
LINE
  5
306
330
6C
100
AcDbEntity
  8
0
  6
Continuous
 62
     7
100
AcDbLine
 10
-117.7806443669724
 20
56.55420000000003
 30
0.0
 11
-117.7806443669724
 21
50.21879999999999
 31
0.0
  0
LINE
  5
307
330
6C
100
AcDbEntity
  8
0
  6
Continuous
 62
     7
100
AcDbLine
 10
-121.6805443669723
 20
58.63649999999996
 30
0.0
 11
-119.5149443669722
 21
58.44699999999999
 31
0.0
  0
LINE
  5
308
330
6C
100
AcDbEntity
  8
100
  6
DASH_CENTER
 62
    30
100
AcDbLine
 10
-111.8161443669723
 20
53.38649999999995
 30
0.0
 11
-125.9924443669722
 21
53.38649999999995
 31
0.0
  0
LINE
  5
309
330
6C
100
AcDbEntity
  8
0
  6
Continuous
 62
     7
100
AcDbLine
 10
-145.6805443669723
 20
-84.47370000000002
 30
0.0
 11
-147.7655443669723
 21
-84.47370000000002
 31
0.0
  0
LINE
  5
30A
330
6C
100
AcDbEntity
  8
0
  6
Continuous
 62
     7
100
AcDbLine
 10
-150.7677443669722
 20
-79.9769
 30
0.0
 11
-149.6515443669723
 21
-83.1395
 31
0.0
  0
LINE
  5
30B
330
6C
100
AcDbEntity
  8
0
  6
Continuous
 62
     7
100
AcDbLine
 10
-190.4195443669723
 20
-72.86339999999995
 30
0.0
 11
-186.696444366972
 21
-81.98540000000003
 31
0.0
  0
LINE
  5
30C
330
6C
100
AcDbEntity
  8
0
  6
Continuous
 62
     7
100
AcDbLine
 10
-193.1414443669723
 20
-66.19489999999996
 30
0.0
 11
-190.4195443669723
 21
-72.86339999999995
 31
0.0
  0
LINE
  5
30D
330
6C
100
AcDbEntity
  8
0
  6
Continuous
 62
     7
100
AcDbLine
 10
-263.3682443669723
 20
-84.47370000000002
 30
0.0
 11
-145.6805443669723
 21
-84.47370000000002
 31
0.0
  0
LINE
  5
30E
330
6C
100
AcDbEntity
  8
0
  6
Continuous
 62
     7
100
AcDbLine
 10
-298.5955443669723
 20
-84.47370000000002
 30
0.0
 11
-263.3682443669723
 21
-84.47370000000002
 31
0.0
  0
LINE
  5
30F
330
6C
100
AcDbEntity
  8
0
  6
Continuous
 62
     7
100
AcDbLine
 10
-300.6805443669723
 20
-84.47370000000002
 30
0.0
 11
-298.5955443669723
 21
-84.47370000000002
 31
0.0
  0
LINE
  5
310
330
6C
100
AcDbEntity
  8
0
  6
Continuous
 62
     7
100
AcDbLine
 10
-145.6805443669723
 20
-89.97370000000001
 30
0.0
 11
-180.6805443669723
 21
-89.97370000000001
 31
0.0
  0
LINE
  5
311
330
6C
100
AcDbEntity
  8
0
  6
Continuous
 62
     7
100
AcDbLine
 10
-180.6805443669723
 20
-84.47370000000002
 30
0.0
 11
-180.6805443669723
 21
-85.97370000000003
 31
0.0
  0
LINE
  5
312
330
6C
100
AcDbEntity
  8
0
  6
Continuous
 62
     7
100
AcDbLine
 10
-180.6805443669723
 20
-85.97370000000003
 30
0.0
 11
-145.6805443669723
 21
-85.97370000000003
 31
0.0
  0
LINE
  5
313
330
6C
100
AcDbEntity
  8
0
  6
Continuous
 62
     7
100
AcDbLine
 10
-289.9354443669722
 20
-75.97370000000002
 30
0.0
 11
-257.2112443669723
 21
-75.97370000000002
 31
0.0
  0
LINE
  5
314
330
6C
100
AcDbEntity
  8
0
  6
Continuous
 62
     7
100
AcDbLine
 10
-185.7904443669722
 20
-75.97370000000002
 30
0.0
 11
-156.4256443669724
 21
-75.97370000000002
 31
0.0
  0
LINE
  5
315
330
6C
100
AcDbEntity
  8
0
  6
Continuous
 62
     7
100
AcDbLine
 10
-265.6805443669723
 20
-89.97370000000001
 30
0.0
 11
-300.6805443669723
 21
-89.97370000000001
 31
0.0
  0
LINE
  5
316
330
6C
100
AcDbEntity
  8
0
  6
Continuous
 62
     7
100
AcDbLine
 10
-243.9612443669723
 20
-59.9737
 30
0.0
 11
-202.4000443669722
 21
-59.9737
 31
0.0
  0
LINE
  5
317
330
6C
100
AcDbEntity
  8
0
  6
Continuous
 62
     7
100
AcDbLine
 10
-265.6805443669723
 20
-84.47370000000002
 30
0.0
 11
-265.6805443669723
 21
-85.97370000000003
 31
0.0
  0
LINE
  5
318
330
6C
100
AcDbEntity
  8
0
  6
Continuous
 62
     7
100
AcDbLine
 10
-265.6805443669723
 20
-88.47370000000003
 30
0.0
 11
-180.6805443669723
 21
-88.47370000000003
 31
0.0
  0
LINE
  5
319
330
6C
100
AcDbEntity
  8
0
  6
Continuous
 62
     7
100
AcDbLine
 10
-300.6805443669723
 20
-85.97370000000003
 30
0.0
 11
-265.6805443669723
 21
-85.97370000000003
 31
0.0
  0
LINE
  5
31A
330
6C
100
AcDbEntity
  8
0
  6
Continuous
 62
     7
100
AcDbLine
 10
-295.5933443669723
 20
-79.9769
 30
0.0
 11
-296.7095443669723
 21
-83.1395
 31
0.0
  0
LINE
  5
31B
330
6C
100
AcDbEntity
  8
0
  6
Continuous
 62
     7
100
AcDbLine
 10
-253.2198443669722
 20
-66.19489999999996
 30
0.0
 11
-259.6649443669723
 21
-81.98540000000003
 31
0.0
  0
LINE
  5
31C
330
6C
100
AcDbEntity
  8
0
  6
Continuous
 62
     7
100
AcDbLine
 10
-133.1805443669723
 20
-83.0
 30
0.0
 11
-117.9892443669723
 21
-82.55539999999994
 31
0.0
  0
LINE
  5
31D
330
6C
100
AcDbEntity
  8
0
  6
Continuous
 62
     7
100
AcDbLine
 10
-133.1805443669723
 20
-83.20000000000005
 30
0.0
 11
-149.8066443669722
 21
-83.20000000000005
 31
0.0
  0
LINE
  5
31E
330
6C
100
AcDbEntity
  8
0
  6
Continuous
 62
     7
100
AcDbLine
 10
-296.5543443669723
 20
-83.20000000000005
 30
0.0
 11
-331.1801927313145
 21
-83.20000000000005
 31
0.0
  0
LINE
  5
31F
330
6C
100
AcDbEntity
  8
0
  6
Continuous
 62
     7
100
AcDbLine
 10
-112.7770443669724
 20
46.39249999999992
 30
0.0
 11
-116.5418443669723
 21
81.21720000000005
 31
0.0
  0
LINE
  5
320
330
6C
100
AcDbEntity
  8
0
  6
Continuous
 62
     7
100
AcDbLine
 10
-109.6805443669723
 20
-45.49999999999999
 30
0.0
 11
-111.7827443669723
 21
-45.49999999999999
 31
0.0
  0
LINE
  5
321
330
6C
100
AcDbEntity
  8
0
  6
Continuous
 62
     7
100
AcDbLine
 10
-109.6805443669723
 20
45.49999999999999
 30
0.0
 11
-111.7827443669723
 21
45.49999999999999
 31
0.0
  0
LINE
  5
322
330
6C
100
AcDbEntity
  8
0
  6
Continuous
 62
     7
100
AcDbLine
 10
-108.6805443669723
 20
44.5
 30
0.0
 11
-108.6805443669723
 21
-44.5
 31
0.0
  0
LINE
  5
323
330
6C
100
AcDbEntity
  8
0
  6
Continuous
 62
     7
100
AcDbLine
 10
-112.7770443669724
 20
-46.39260000000001
 30
0.0
 11
-116.5418443669723
 21
-81.21730000000003
 31
0.0
  0
LINE
  5
324
330
6C
100
AcDbEntity
  8
0
  6
Continuous
 62
     7
100
AcDbLine
 10
-133.1805443669723
 20
83.0
 30
0.0
 11
-117.9892443669723
 21
82.55529999999998
 31
0.0
  0
LINE
  5
325
330
6C
100
AcDbEntity
  8
0
  6
Continuous
 62
     7
100
AcDbLine
 10
-114.4331443669723
 20
42.87799999999992
 30
0.0
 11
-114.4331443669723
 21
50.36329999999998
 31
0.0
  0
LINE
  5
326
330
6C
100
AcDbEntity
  8
0
  6
Continuous
 62
     7
100
AcDbLine
 10
-133.1805443669723
 20
83.20000000000005
 30
0.0
 11
-331.1801927313145
 21
83.19999999999993
 31
0.0
  0
LINE
  5
327
330
6C
100
AcDbEntity
  8
0
  6
Continuous
 62
     7
100
AcDbLine
 10
-133.1805443669723
 20
83.20000000000005
 30
0.0
 11
-133.1805443669723
 21
-83.20000000000005
 31
0.0
  0
LINE
  5
328
330
6C
100
AcDbEntity
  8
100
  6
DASH_CENTER
 62
    30
100
AcDbLine
 10
-341.1800443669724
 20
-41.10264999999992
 30
0.0
 11
-341.1800443669724
 21
-54.38804999999991
 31
0.0
  0
LINE
  5
329
330
6C
100
AcDbEntity
  8
100
  6
DASH_CENTER
 62
    30
100
AcDbLine
 10
-332.9642443669725
 20
-47.69324999999992
 30
0.0
 11
-349.1615443669723
 21
-47.69324999999992
 31
0.0
  0
LINE
  5
32A
330
6C
100
AcDbEntity
  8
0
  6
Continuous
 62
     7
100
AcDbLine
 10
-343.5474443669725
 20
-46.64734999999972
 30
0.0
 11
-343.4132443669723
 21
-46.59775000000002
 31
0.0
  0
LINE
  5
32B
330
6C
100
AcDbEntity
  8
0
  6
Continuous
 62
     7
100
AcDbLine
 10
-339.6146443669725
 20
-48.93324999999993
 30
0.0
 11
-339.5018443669723
 21
-48.83334999999988
 31
0.0
  0
LINE
  5
32C
330
6C
100
AcDbEntity
  8
0
  6
Continuous
 62
     7
100
AcDbLine
 10
-338.8123443669724
 20
-46.64734999999972
 30
0.0
 11
-338.9466443669724
 21
-46.59775000000002
 31
0.0
  0
LINE
  5
32D
330
6C
100
AcDbEntity
  8
0
  6
Continuous
 62
     7
100
AcDbLine
 10
-342.7452443669724
 20
-48.93324999999993
 30
0.0
 11
-342.8580443669723
 21
-48.83334999999988
 31
0.0
  0
LINE
  5
32E
330
6C
100
AcDbEntity
  8
0
  6
Continuous
 62
     7
100
AcDbLine
 10
-343.9254443669723
 20
95.88705000000004
 30
0.0
 11
-338.4351443669723
 21
95.88705000000004
 31
0.0
  0
LINE
  5
32F
330
6C
100
AcDbEntity
  8
100
  6
DASH_CENTER
 62
    30
100
AcDbLine
 10
-341.1800443669724
 20
100.5361098964664
 30
0.0
 11
-341.1800443669724
 21
85.68502251880444
 31
0.0
  0
LINE
  5
330
330
6C
100
AcDbEntity
  8
100
  6
DASH_CENTER
 62
    30
100
AcDbLine
 10
-383.8110443669719
 20
0.0
 30
0.0
 11
-374.18039600263
 21
0.0
 31
0.0
  0
LINE
  5
331
330
6C
100
AcDbEntity
  8
0
  6
Continuous
 62
     7
100
AcDbLine
 10
-331.1801927313145
 20
60.25379376653018
 30
0.0
 11
-331.1801927313145
 21
83.20024999999999
 31
0.0
  0
LINE
  5
332
330
6C
100
AcDbEntity
  8
0
  6
Continuous
 62
     7
100
AcDbLine
 10
-345.7305540459052
 20
92.75422160900212
 30
0.0
 11
-336.8290131546916
 21
92.75422160900212
 31
0.0
  0
LINE
  5
333
330
6C
100
AcDbEntity
  8
0
  6
Continuous
 62
     7
100
AcDbLine
 10
-331.1801927313145
 20
92.75422160900212
 30
0.0
 11
-331.1801927313145
 21
83.20024999999999
 31
0.0
  0
LINE
  5
334
330
6C
100
AcDbEntity
  8
0
  6
Continuous
 62
     7
100
AcDbLine
 10
-336.8290131546914
 20
94.28472160900197
 30
0.0
 11
-336.8414443669724
 21
94.42685000000006
 31
0.0
  0
LINE
  5
335
330
6C
100
AcDbEntity
  8
0
  6
Continuous
 62
     7
100
AcDbLine
 10
-336.8290131546916
 20
92.75422160900212
 30
0.0
 11
-331.1801927313145
 21
92.75422160900212
 31
0.0
  0
LINE
  5
336
330
6C
100
AcDbEntity
  8
100
  6
DASH_CENTER
 62
    30
100
AcDbLine
 10
-390.8441443669723
 20
0.0
 30
0.0
 11
-46.1583443669724
 21
0.0
 31
0.0
  0
LINE
  5
337
330
6C
100
AcDbEntity
  8
0
  6
Continuous
 62
     7
100
AcDbLine
 10
-331.1801927313145
 20
83.20024999999999
 30
0.0
 11
-331.1801927313145
 21
60.25379376653018
 31
0.0
  0
LINE
  5
338
330
6C
100
AcDbEntity
  8
0
  6
Continuous
 62
     7
100
AcDbLine
 10
-331.1801927313145
 20
-18.5345834031657
 30
0.0
 11
-331.1801927313145
 21
-85.99975000000004
 31
0.0
  0
ARC
  5
339
330
6C
100
AcDbEntity
  8
0
  6
Continuous
 62
     7
100
AcDbCircle
 10
705.8194072686851
 20
0.0002500000000509
 30
0.0
 40
1099.999951635659
100
AcDbArc
 50
175.9181038462799
 51
183.7519902329208
  0
ARC
  5
33A
330
6C
100
AcDbEntity
  8
0
  6
Continuous
 62
     7
100
AcDbCircle
 10
-104.4805443669722
 20
-12.20000000000004
 30
0.0
 40
0.1999999999999886
100
AcDbArc
 50
90.0
 51
180.0
  0
ARC
  5
33B
330
6C
100
AcDbEntity
  8
0
  6
Continuous
 62
     7
100
AcDbCircle
 10
-302.1806969041461
 20
-16.40654999989783
 30
0.0
 40
4.650395695527696
100
AcDbArc
 50
28.4442583149163
 51
151.5529392160142
  0
ARC
  5
33C
330
6C
100
AcDbEntity
  8
0
  6
Continuous
 62
     7
100
AcDbCircle
 10
-302.1806546484529
 20
-12.46585000097752
 30
0.0
 40
5.191396237386391
100
AcDbArc
 50
221.3730516721041
 51
318.6240068018532
  0
ARC
  5
33D
330
6C
100
AcDbEntity
  8
0
  6
Continuous
 62
     7
100
AcDbCircle
 10
-304.950697916875
 20
-14.90580423668962
 30
0.0
 40
1.499976129103013
100
AcDbArc
 50
151.5552953323677
 51
221.3742254897926
  0
ARC
  5
33E
330
6C
100
AcDbEntity
  8
0
  6
Continuous
 62
     7
100
AcDbCircle
 10
-299.4106940477186
 20
-14.90586161813542
 30
0.0
 40
1.500009178259674
100
AcDbArc
 50
318.624717077511
 51
28.44651357002869
  0
ARC
  5
33F
330
6C
100
AcDbEntity
  8
0
  6
Continuous
 62
     7
100
AcDbCircle
 10
-306.0288458911913
 20
-22.08181494386236
 30
0.0
 40
9.117919921283892
100
AcDbArc
 50
49.71667642315017
 51
63.47782906925896
  0
ARC
  5
340
330
6C
100
AcDbEntity
  8
0
  6
Continuous
 62
     7
100
AcDbCircle
 10
-298.3320839811942
 20
-22.08171233274675
 30
0.0
 40
9.117942245236662
100
AcDbArc
 50
116.5238959275108
 51
130.2844863283331
  0
ARC
  5
341
330
6C
100
AcDbEntity
  8
0
  6
Continuous
 62
     7
100
AcDbCircle
 10
-302.1804427313146
 20
-14.37094999999999
 30
0.0
 40
0.500007322446349
100
AcDbArc
 50
63.48107036527947
 51
116.5189296347278
  0
ARC
  5
342
330
6C
100
AcDbEntity
  8
0
  6
Continuous
 62
     7
100
AcDbCircle
 10
-306.0286082025878
 20
-22.08191199527164
 30
0.0
 40
9.617913106132016
100
AcDbArc
 50
67.6462962768149
 51
75.2125670645884
  0
ARC
  5
343
330
6C
100
AcDbEntity
  8
0
  6
Continuous
 62
     7
100
AcDbCircle
 10
-298.3322938965295
 20
-22.08185039150453
 30
0.0
 40
9.617925870997279
100
AcDbArc
 50
104.7891587424869
 51
112.3548535421433
  0
ARC
  5
344
330
6C
100
AcDbEntity
  8
0
  6
Continuous
 62
     7
100
AcDbCircle
 10
-302.1804427313146
 20
-12.72444999999993
 30
0.0
 40
0.4999707816462964
100
AcDbArc
 50
247.6463565732964
 51
292.3536434267035
  0
ARC
  5
345
330
6C
100
AcDbEntity
  8
0
  6
Continuous
 62
     7
100
AcDbCircle
 10
-298.3322015796115
 20
-22.08178621524723
 30
0.0
 40
9.617933358192022
100
AcDbArc
 50
119.2545379140831
 51
130.7114116010361
  0
ARC
  5
346
330
6C
100
AcDbEntity
  8
0
  6
Continuous
 62
     7
100
AcDbCircle
 10
-306.0288302429594
 20
-22.08183877226998
 30
0.0
 40
9.117913053076724
100
AcDbArc
 50
70.94858305160501
 51
75.72514670384993
  0
ARC
  5
347
330
6C
100
AcDbEntity
  8
0
  6
Continuous
 62
     7
100
AcDbCircle
 10
-303.093296958536
 20
-13.58160268843585
 30
0.0
 40
0.1250001709748417
100
AcDbArc
 50
299.2639166711113
 51
70.94756201230275
  0
ARC
  5
348
330
6C
100
AcDbEntity
  8
0
  6
Continuous
 62
     7
100
AcDbCircle
 10
-298.3322552196694
 20
-22.08183877226998
 30
0.0
 40
9.117913053076719
100
AcDbArc
 50
104.27485329615
 51
109.051416948395
  0
ARC
  5
349
330
6C
100
AcDbEntity
  8
0
  6
Continuous
 62
     7
100
AcDbCircle
 10
-306.0289510119443
 20
-22.08173924078756
 30
0.0
 40
9.617876311207149
100
AcDbArc
 50
49.28855430792591
 51
60.74549617694987
  0
ARC
  5
34A
330
6C
100
AcDbEntity
  8
0
  6
Continuous
 62
     7
100
AcDbCircle
 10
-301.2675885040928
 20
-13.58160268843562
 30
0.0
 40
0.1250001709748838
100
AcDbArc
 50
109.052437987725
 51
240.736083328896
  0
ARC
  5
34B
330
6C
100
AcDbEntity
  8
0
  6
Continuous
 62
     7
100
AcDbCircle
 10
-300.6266979778853
 20
-13.06377163118884
 30
0.0
 40
0.1874618748027603
100
AcDbArc
 50
284.2692016309366
 51
48.46356789962658
  0
ARC
  5
34C
330
6C
100
AcDbEntity
  8
0
  6
Continuous
 62
     7
100
AcDbCircle
 10
-304.3488724164733
 20
-14.98324642144575
 30
0.0
 40
0.1874420965911958
100
AcDbArc
 50
249.7032692403462
 51
310.2775805042565
  0
ARC
  5
34D
330
6C
100
AcDbEntity
  8
0
  6
Continuous
 62
     7
100
AcDbCircle
 10
-304.4832057628614
 20
-14.93337767832588
 30
0.0
 40
0.1874950121996792
100
AcDbArc
 50
130.7087756481424
 51
249.7201136176693
  0
ARC
  5
34E
330
6C
100
AcDbEntity
  8
0
  6
Continuous
 62
     7
100
AcDbCircle
 10
-300.7394967167065
 20
-12.96394905341151
 30
0.0
 40
0.1875189989926779
100
AcDbArc
 50
48.47954260969918
 51
104.7984456946051
  0
ARC
  5
34F
330
6C
100
AcDbEntity
  8
0
  6
Continuous
 62
     7
100
AcDbCircle
 10
-303.7343874847436
 20
-13.06377163118884
 30
0.0
 40
0.187461874802743
100
AcDbArc
 50
131.5364321003734
 51
255.7307983690633
  0
ARC
  5
350
330
6C
100
AcDbEntity
  8
0
  6
Continuous
 62
     7
100
AcDbCircle
 10
-300.012276162365
 20
-14.98323531111941
 30
0.0
 40
0.1874744191176542
100
AcDbArc
 50
229.7160147254555
 51
290.3136447250366
  0
ARC
  5
351
330
6C
100
AcDbEntity
  8
0
  6
Continuous
 62
     7
100
AcDbCircle
 10
-299.8778864193389
 20
-14.93341490894659
 30
0.0
 40
0.1874624195106205
100
AcDbArc
 50
290.2857569082028
 51
49.3202576288261
  0
ARC
  5
352
330
6C
100
AcDbEntity
  8
0
  6
Continuous
 62
     7
100
AcDbCircle
 10
-303.6215887459223
 20
-12.96394905341151
 30
0.0
 40
0.1875189989926948
100
AcDbArc
 50
75.20155430539486
 51
131.5204573903008
  0
ARC
  5
353
330
6C
100
AcDbEntity
  8
0
  6
Continuous
 62
     7
100
AcDbCircle
 10
-291.1560102350852
 20
-7.638239918852034
 30
0.0
 40
4.000010081186306
100
AcDbArc
 50
210.1208978250625
 51
270.000250722416
  0
ARC
  5
354
330
6C
100
AcDbEntity
  8
0
  6
Continuous
 62
     7
100
AcDbCircle
 10
-293.2321746484597
 20
-8.326257089646219
 30
0.0
 40
5.999992910381052
100
AcDbArc
 50
227.1834030060003
 51
269.9998273212511
  0
ARC
  5
355
330
6C
100
AcDbEntity
  8
0
  6
Continuous
 62
     7
100
AcDbCircle
 10
-311.1284974907178
 20
-8.326291072447588
 30
0.0
 40
5.999958927554316
100
AcDbArc
 50
270.0000454492662
 51
312.8167242234855
  0
ARC
  5
356
330
6C
100
AcDbEntity
  8
0
  6
Continuous
 62
     7
100
AcDbCircle
 10
-321.7804927313145
 20
2.47384999999997
 30
0.0
 40
16.80000000000001
100
AcDbArc
 50
180.0
 51
269.9996589536905
  0
ARC
  5
357
330
6C
100
AcDbEntity
  8
0
  6
Continuous
 62
     7
100
AcDbCircle
 10
-321.7804927313145
 20
5.161849999999958
 30
0.0
 40
16.80000000000001
100
AcDbArc
 50
180.0
 51
269.9996589536905
  0
ARC
  5
358
330
6C
100
AcDbEntity
  8
0
  6
Continuous
 62
     7
100
AcDbCircle
 10
-282.5805927313145
 20
5.161849999999958
 30
0.0
 40
16.80000000029763
100
AcDbArc
 50
269.9996589536905
 51
359.9996589536905
  0
ARC
  5
359
330
6C
100
AcDbEntity
  8
0
  6
Continuous
 62
     7
100
AcDbCircle
 10
-282.5805714367961
 20
2.473873071965158
 30
0.0
 40
16.80002307197864
100
AcDbArc
 50
269.9999273759313
 51
4.588480481684091
  0
ARC
  5
35A
330
6C
100
AcDbEntity
  8
0
  6
Continuous
 62
     7
100
AcDbCircle
 10
-322.3803927313145
 20
41.40695000000003
 30
0.0
 40
20.79999999999995
100
AcDbArc
 50
115.0283914715186
 51
180.0
  0
ARC
  5
35B
330
6C
100
AcDbEntity
  8
0
  6
Continuous
 62
     7
100
AcDbCircle
 10
-281.9804927313145
 20
41.40695000000003
 30
0.0
 40
20.80000000000001
100
AcDbArc
 50
0.0
 51
90.0
  0
ARC
  5
35C
330
6C
100
AcDbEntity
  8
0
  6
Continuous
 62
     7
100
AcDbCircle
 10
-313.2045752275437
 20
-7.638239918852034
 30
0.0
 40
4.000010081186288
100
AcDbArc
 50
269.999749277584
 51
329.8791021749376
  0
ARC
  5
35D
330
6C
100
AcDbEntity
  8
0
  6
Continuous
 62
     7
100
AcDbCircle
 10
-281.9804927313145
 20
2.392050000000037
 30
0.0
 40
20.8000000002404
100
AcDbArc
 50
269.9997245395201
 51
0.0
  0
ARC
  5
35E
330
6C
100
AcDbEntity
  8
0
  6
Continuous
 62
     7
100
AcDbCircle
 10
-322.3803927313145
 20
2.392050000000037
 30
0.0
 40
20.79999999999996
100
AcDbArc
 50
180.0
 51
270.0
  0
ARC
  5
35F
330
6C
100
AcDbEntity
  8
0
  6
Continuous
 62
     7
100
AcDbCircle
 10
-281.9804427313145
 20
0.31219999951918
 30
0.0
 40
20.79995000006011
100
AcDbArc
 50
269.9995868082867
 51
359.9998622707533
  0
ARC
  5
360
330
6C
100
AcDbEntity
  8
0
  6
Continuous
 62
     7
100
AcDbCircle
 10
-322.3803927313145
 20
0.3121499999999742
 30
0.0
 40
20.79990000000002
100
AcDbArc
 50
244.9714799122472
 51
270.0
  0
ARC
  5
361
330
6C
100
AcDbEntity
  8
0
  6
Continuous
 62
     7
100
AcDbCircle
 10
-282.5805927313145
 20
45.40695000000003
 30
0.0
 40
16.80000000000001
100
AcDbArc
 50
0.0
 51
90.0
  0
ARC
  5
362
330
6C
100
AcDbEntity
  8
0
  6
Continuous
 62
     7
100
AcDbCircle
 10
-321.7804927313145
 20
45.40695000000003
 30
0.0
 40
16.80000000029763
100
AcDbArc
 50
90.000341046303
 51
180.0
  0
ARC
  5
363
330
6C
100
AcDbEntity
  8
0
  6
Continuous
 62
     7
100
AcDbCircle
 10
-115.4331443669723
 20
-42.87810000000003
 30
0.0
 40
1.0
100
AcDbArc
 50
0.0
 51
90.0
  0
ARC
  5
364
330
6C
100
AcDbEntity
  8
0
  6
Continuous
 62
     7
100
AcDbCircle
 10
-120.6805443669723
 20
-42.87810000000003
 30
0.0
 40
1.0
100
AcDbArc
 50
90.0
 51
180.0
  0
ARC
  5
365
330
6C
100
AcDbEntity
  8
0
  6
Continuous
 62
     7
100
AcDbCircle
 10
-117.6804443694723
 20
-40.87810000249965
 30
0.0
 40
1.000000002500001
100
AcDbArc
 50
269.9942705652915
 51
0.0000001432249064
  0
ARC
  5
366
330
6C
100
AcDbEntity
  8
0
  6
Continuous
 62
     7
100
AcDbCircle
 10
-119.6805140738088
 20
-50.21883305994959
 30
0.0
 40
1.89996970712411
100
AcDbArc
 50
0.0009969609356617
 51
84.99768618094945
  0
ARC
  5
367
330
6C
100
AcDbEntity
  8
0
  6
Continuous
 62
     7
100
AcDbCircle
 10
-119.6805140738088
 20
-56.5542669400504
 30
0.0
 40
1.899969707124124
100
AcDbArc
 50
275.0023138190506
 51
359.9990030390643
  0
ARC
  5
368
330
6C
100
AcDbEntity
  8
0
  6
Continuous
 62
     7
100
AcDbCircle
 10
-120.6805443669723
 20
-70.66039999999998
 30
0.0
 40
1.0
100
AcDbArc
 50
180.0
 51
270.0
  0
ARC
  5
369
330
6C
100
AcDbEntity
  8
0
  6
Continuous
 62
     7
100
AcDbCircle
 10
-117.6804443669723
 20
40.87799999999993
 30
0.0
 40
1.0
100
AcDbArc
 50
0.0
 51
90.0
  0
ARC
  5
36A
330
6C
100
AcDbEntity
  8
0
  6
Continuous
 62
     7
100
AcDbCircle
 10
-115.4331443669723
 20
42.87799999999992
 30
0.0
 40
1.0
100
AcDbArc
 50
270.0
 51
0.0
  0
ARC
  5
36B
330
6C
100
AcDbEntity
  8
0
  6
Continuous
 62
     7
100
AcDbCircle
 10
-120.6805443669723
 20
42.87799999999992
 30
0.0
 40
1.0
100
AcDbArc
 50
180.0
 51
270.0
  0
ARC
  5
36C
330
6C
100
AcDbEntity
  8
0
  6
Continuous
 62
     7
100
AcDbCircle
 10
-120.6805443669723
 20
70.66039999999998
 30
0.0
 40
1.0
100
AcDbArc
 50
90.0
 51
180.0
  0
ARC
  5
36D
330
6C
100
AcDbEntity
  8
0
  6
Continuous
 62
     7
100
AcDbCircle
 10
-119.6805638836383
 20
50.21877869967977
 30
0.0
 40
1.900019516785389
100
AcDbArc
 50
275.0036901252891
 51
0.0006423189035387
  0
ARC
  5
36E
330
6C
100
AcDbEntity
  8
0
  6
Continuous
 62
     7
100
AcDbCircle
 10
-119.6805638836383
 20
56.55422130032025
 30
0.0
 40
1.900019516785387
100
AcDbArc
 50
359.9993576810965
 51
84.99630987471091
  0
ARC
  5
36F
330
6C
100
AcDbEntity
  8
0
  6
Continuous
 62
     7
100
AcDbCircle
 10
-104.4805443669722
 20
12.20000000000004
 30
0.0
 40
0.2000000000000028
100
AcDbArc
 50
180.0
 51
270.0
  0
ARC
  5
370
330
6C
100
AcDbEntity
  8
0
  6
Continuous
 62
     7
100
AcDbCircle
 10
-147.7655046664203
 20
-82.47372808868261
 30
0.0
 40
1.99997191171148
100
AcDbArc
 50
199.4412811586898
 51
269.9988626469925
  0
ARC
  5
371
330
6C
100
AcDbEntity
  8
0
  6
Continuous
 62
     7
100
AcDbCircle
 10
-156.4256341059483
 20
-81.97370725997371
 30
0.0
 40
6.000007259982432
100
AcDbArc
 50
19.43886153725603
 51
90.00009798544246
  0
ARC
  5
372
330
6C
100
AcDbEntity
  8
0
  6
Continuous
 62
     7
100
AcDbCircle
 10
-182.9930823603486
 20
-80.47367447239878
 30
0.0
 40
4.000025527781656
100
AcDbArc
 50
202.2054571569325
 51
270.0005442115557
  0
ARC
  5
373
330
6C
100
AcDbEntity
  8
0
  6
Continuous
 62
     7
100
AcDbCircle
 10
-263.3683033924741
 20
-80.47373966273992
 30
0.0
 40
3.999960340421233
100
AcDbArc
 50
270.002277895108
 51
337.796717415354
  0
ARC
  5
374
330
6C
100
AcDbEntity
  8
0
  6
Continuous
 62
     7
100
AcDbCircle
 10
-289.9353879881326
 20
-81.97366010962173
 30
0.0
 40
5.999960109886607
100
AcDbArc
 50
90.00053838183694
 51
160.5614570329065
  0
ARC
  5
375
330
6C
100
AcDbEntity
  8
0
  6
Continuous
 62
     7
100
AcDbCircle
 10
-243.9612409239228
 20
-69.97369768649831
 30
0.0
 40
9.999997686498883
100
AcDbArc
 50
90.00001972722461
 51
157.7969634074779
  0
ARC
  5
376
330
6C
100
AcDbEntity
  8
0
  6
Continuous
 62
     7
100
AcDbCircle
 10
-202.400047810022
 20
-69.97369768649831
 30
0.0
 40
9.999997686498872
100
AcDbArc
 50
22.20303659252207
 51
89.99998027277539
  0
ARC
  5
377
330
6C
100
AcDbEntity
  8
0
  6
Continuous
 62
     7
100
AcDbCircle
 10
-298.5955174251373
 20
-82.47368093929457
 30
0.0
 40
2.000019060886859
100
AcDbArc
 50
269.9992281806379
 51
340.5577632053305
  0
ARC
  5
378
330
6C
100
AcDbEntity
  8
0
  6
Continuous
 62
     7
100
AcDbCircle
 10
-185.790422258071
 20
-70.97371485564192
 30
0.0
 40
4.999985144406985
100
AcDbArc
 50
202.2035499609249
 51
269.9997466499008
  0
ARC
  5
379
330
6C
100
AcDbEntity
  8
0
  6
Continuous
 62
     7
100
AcDbCircle
 10
-118.0331693608839
 20
-81.05602310650352
 30
0.0
 40
1.500020157811703
100
AcDbArc
 50
271.6780285043113
 51
353.8278285445493
  0
ARC
  5
37A
330
6C
100
AcDbEntity
  8
0
  6
Continuous
 62
     7
100
AcDbCircle
 10
-111.7827909390921
 20
-46.50004180858309
 30
0.0
 40
1.000041809667512
100
AcDbArc
 50
89.99733172564646
 51
173.8323909336339
  0
ARC
  5
37B
330
6C
100
AcDbEntity
  8
0
  6
Continuous
 62
     7
100
AcDbCircle
 10
-111.7827969284123
 20
46.50004718001127
 30
0.0
 40
1.000047181392622
100
AcDbArc
 50
186.1736480431011
 51
270.0030114066024
  0
ARC
  5
37C
330
6C
100
AcDbEntity
  8
0
  6
Continuous
 62
     7
100
AcDbCircle
 10
-109.6805443669723
 20
44.5
 30
0.0
 40
1.0
100
AcDbArc
 50
0.0
 51
90.0
  0
ARC
  5
37D
330
6C
100
AcDbEntity
  8
0
  6
Continuous
 62
     7
100
AcDbCircle
 10
-109.6805443669723
 20
-44.5
 30
0.0
 40
1.0
100
AcDbArc
 50
270.0
 51
0.0
  0
ARC
  5
37E
330
6C
100
AcDbEntity
  8
0
  6
Continuous
 62
     7
100
AcDbCircle
 10
-118.0331753655572
 20
81.05602865987737
 30
0.0
 40
1.500014782666418
100
AcDbArc
 50
6.168138364511562
 51
88.32173602314529
  0
ARC
  5
37F
330
6C
100
AcDbEntity
  8
0
  6
Continuous
 62
     7
100
AcDbCircle
 10
-338.4354529658831
 20
94.28725787977249
 30
0.0
 40
1.599992120250604
100
AcDbArc
 50
4.997973270581105
 51
89.99969207267184
  0
ARC
  5
380
330
6C
100
AcDbEntity
  8
0
  6
Continuous
 62
     7
100
AcDbCircle
 10
-343.9256357680613
 20
94.28725787977258
 30
0.0
 40
1.599992120250504
100
AcDbArc
 50
90.00030792732813
 51
175.0020267294189
  0
ARC
  5
381
330
6C
100
AcDbEntity
  8
0
  6
Continuous
 62
     7
100
AcDbCircle
 10
-339.7388483523646
 20
-48.79285094658836
 30
0.0
 40
0.1875189989926132
100
AcDbArc
 50
255.201554305368
 51
311.5204573902917
  0
ARC
  5
382
330
6C
100
AcDbEntity
  8
0
  6
Continuous
 62
     7
100
AcDbCircle
 10
-343.4825399462896
 20
-46.82332546636824
 30
0.0
 40
0.1875040116332448
100
AcDbArc
 50
110.2845556307285
 51
229.2865551034932
  0
ARC
  5
383
330
6C
100
AcDbEntity
  8
0
  6
Continuous
 62
     7
100
AcDbCircle
 10
-343.3483156381296
 20
-46.77353740697594
 30
0.0
 40
0.1874889857079891
100
AcDbArc
 50
49.69787171636427
 51
110.2615940384923
  0
ARC
  5
384
330
6C
100
AcDbEntity
  8
0
  6
Continuous
 62
     7
100
AcDbCircle
 10
-339.6261340790581
 20
-48.69299242941281
 30
0.0
 40
0.1875447895674103
100
AcDbArc
 50
311.5484671614344
 51
75.71061366105833
  0
ARC
  5
385
330
6C
100
AcDbEntity
  8
0
  6
Continuous
 62
     7
100
AcDbCircle
 10
-342.6209666967507
 20
-48.79284469327171
 30
0.0
 40
0.1875062384914031
100
AcDbArc
 50
228.486829753368
 51
284.7761887976682
  0
ARC
  5
386
330
6C
100
AcDbEntity
  8
0
  6
Continuous
 62
     7
100
AcDbCircle
 10
-338.8773487876552
 20
-46.82332546636813
 30
0.0
 40
0.187504011633228
100
AcDbArc
 50
310.7134448964977
 51
69.71544436927813
  0
ARC
  5
387
330
6C
100
AcDbEntity
  8
0
  6
Continuous
 62
     7
100
AcDbCircle
 10
-339.0115392709542
 20
-46.77353144037033
 30
0.0
 40
0.1875063161878695
100
AcDbArc
 50
69.71880486959722
 51
130.3111900763047
  0
ARC
  5
388
330
6C
100
AcDbEntity
  8
0
  6
Continuous
 62
     7
100
AcDbCircle
 10
-342.7337458121741
 20
-48.69295596794234
 30
0.0
 40
0.1875116395381938
100
AcDbArc
 50
104.2947545542283
 51
228.4797679276296
  0
ARC
  5
389
330
6C
100
AcDbEntity
  8
0
  6
Continuous
 62
     7
100
AcDbCircle
 10
-342.092948594194
 20
-48.17519731156415
 30
0.0
 40
0.1250001709748953
100
AcDbArc
 50
289.0524379876421
 51
60.73608332887337
  0
ARC
  5
38A
330
6C
100
AcDbEntity
  8
0
  6
Continuous
 62
     7
100
AcDbCircle
 10
-337.3315532152699
 20
-39.67501378475231
 30
0.0
 40
9.617933358192079
100
AcDbArc
 50
229.2885883989638
 51
240.7454620859241
  0
ARC
  5
38B
330
6C
100
AcDbEntity
  8
0
  6
Continuous
 62
     7
100
AcDbCircle
 10
-345.0279067063681
 20
-39.67484894760924
 30
0.0
 40
9.117929367228828
100
AcDbArc
 50
284.2723945870736
 51
289.0495522129553
  0
ARC
  5
38C
330
6C
100
AcDbEntity
  8
0
  6
Continuous
 62
     7
100
AcDbCircle
 10
-340.2672401397506
 20
-48.17519731156403
 30
0.0
 40
0.1250001709749653
100
AcDbArc
 50
119.2639166712009
 51
250.9475620123095
  0
ARC
  5
38D
330
6C
100
AcDbEntity
  8
0
  6
Continuous
 62
     7
100
AcDbCircle
 10
-337.3316068553297
 20
-39.67496122772923
 30
0.0
 40
9.117913053076719
100
AcDbArc
 50
250.9485830516189
 51
255.7251467038565
  0
ARC
  5
38E
330
6C
100
AcDbEntity
  8
0
  6
Continuous
 62
     7
100
AcDbCircle
 10
-345.0279774227599
 20
-39.67476321880702
 30
0.0
 40
9.61788973028144
100
AcDbArc
 50
299.252238410421
 51
310.7088209908624
  0
ARC
  5
38F
330
6C
100
AcDbEntity
  8
0
  6
Continuous
 62
     7
100
AcDbCircle
 10
-341.1800443669724
 20
-49.03234999999972
 30
0.0
 40
0.4999897998958697
100
AcDbArc
 50
67.64105744182805
 51
112.3589425581719
  0
ARC
  5
390
330
6C
100
AcDbEntity
  8
0
  6
Continuous
 62
     7
100
AcDbCircle
 10
-345.0286343175863
 20
-39.6750810423349
 30
0.0
 40
9.617898637476095
100
AcDbArc
 50
284.7916113767956
 51
292.3580837193965
  0
ARC
  5
391
330
6C
100
AcDbEntity
  8
0
  6
Continuous
 62
     7
100
AcDbCircle
 10
-337.3309811650137
 20
-39.67517288657666
 30
0.0
 40
9.61787960339932
100
AcDbArc
 50
247.6407536461044
 51
255.2066750646053
  0
ARC
  5
392
330
6C
100
AcDbEntity
  8
0
  6
Continuous
 62
     7
100
AcDbCircle
 10
-341.1800443669724
 20
-47.38584999999999
 30
0.0
 40
0.5000296491208781
100
AcDbArc
 50
243.4759439179905
 51
296.5240560820241
  0
ARC
  5
393
330
6C
100
AcDbEntity
  8
0
  6
Continuous
 62
     7
100
AcDbCircle
 10
-345.0279160633976
 20
-39.67473351909247
 30
0.0
 40
9.117929830578491
100
AcDbArc
 50
296.5201631709649
 51
310.2809523504275
  0
ARC
  5
394
330
6C
100
AcDbEntity
  8
0
  6
Continuous
 62
     7
100
AcDbCircle
 10
-337.3317473829946
 20
-39.674882068285
 30
0.0
 40
9.117897509830587
100
AcDbArc
 50
229.717843518457
 51
243.4781533064854
  0
ARC
  5
395
330
6C
100
AcDbEntity
  8
0
  6
Continuous
 62
     7
100
AcDbCircle
 10
-343.9498430505683
 20
-46.85093838186456
 30
0.0
 40
1.500009178259614
100
AcDbArc
 50
138.6247170775017
 51
208.4465135700184
  0
ARC
  5
396
330
6C
100
AcDbEntity
  8
0
  6
Continuous
 62
     7
100
AcDbCircle
 10
-338.4097543266197
 20
-46.85086205404672
 30
0.0
 40
1.499965213652085
100
AcDbArc
 50
331.5492606203302
 51
41.37287685676054
  0
ARC
  5
397
330
6C
100
AcDbEntity
  8
0
  6
Continuous
 62
     7
100
AcDbCircle
 10
-341.1797884083268
 20
-49.29085000071815
 30
0.0
 40
5.191325668060875
100
AcDbArc
 50
41.37373770879942
 51
138.6247915093089
  0
ARC
  5
398
330
6C
100
AcDbEntity
  8
0
  6
Continuous
 62
     7
100
AcDbCircle
 10
-341.1797901934783
 20
-45.35025000132473
 30
0.0
 40
4.650351731543037
100
AcDbArc
 50
208.4445517184231
 51
331.5526457782412
  0
ARC
  5
399
330
6C
100
AcDbEntity
  8
0
  6
Continuous
 62
     7
100
AcDbCircle
 10
-322.3803927313145
 20
41.40695000000003
 30
0.0
 40
20.80000000000001
100
AcDbArc
 50
90.0
 51
115.0283914715186
  0
ARC
  5
39A
330
6C
100
AcDbEntity
  8
0
  6
Continuous
 62
     7
100
AcDbCircle
 10
-322.3804427313536
 20
0.312228527225102
 30
0.0
 40
20.79994999997194
100
AcDbArc
 50
179.9999408508494
 51
244.9716962246102
  0
SPLINE
  5
39B
330
6C
100
AcDbEntity
  8
0
  6
Continuous
 62
     7
100
AcDbSpline
210
0.0
220
0.0
230
1.0
 70
  1064
 71
     3
 72
    41
 73
    37
 74
    35
 42
0.0000000001
 43
0.0000000001
 44
0.00000001
 40
0.0
 40
0.0
 40
0.0
 40
0.0
 40
0.2844998502755254
 40
0.5690185613214095
 40
0.851905662345498
 40
1.134790864611409
 40
1.416004737200857
 40
1.697217591963283
 40
1.976722408144059
 40
2.25622751194976
 40
2.534010604857316
 40
2.811793213292136
 40
3.087864340902866
 40
3.36393529472698
 40
3.638328874592718
 40
3.912722168489965
 40
4.185496301639734
 40
4.458270189685588
 40
4.729506609785178
 40
5.000742786714098
 40
5.270545961984015
 40
5.540348895448842
 40
5.808844822431261
 40
6.077340574942028
 40
6.344675363833546
 40
6.612009852879477
 40
6.87834720550512
 40
7.144684698157613
 40
7.410205062447526
 40
7.67572459433178
 40
7.940618905000063
 40
8.205514159231606
 40
8.469986602496216
 40
8.734461012504025
 40
8.998726507323185
 40
9.262968067464228
 40
9.262968067464228
 40
9.262968067464228
 40
9.262968067464228
 10
-294.6159927313145
 20
-9.645350000000007
 30
0.0
 10
-294.6642166448588
 20
-9.563686523301011
 30
0.0
 10
-294.760667681488
 20
-9.400354163582143
 30
0.0
 10
-294.913571903403
 20
-9.160998949658763
 30
0.0
 10
-295.0726043006768
 20
-8.926351473040281
 30
0.0
 10
-295.2377922305864
 20
-8.697340975154325
 30
0.0
 10
-295.4090487551587
 20
-8.473540330989727
 30
0.0
 10
-295.5859601134676
 20
-8.255628488328525
 30
0.0
 10
-295.7687487203403
 20
-8.04337411308019
 30
0.0
 10
-295.9568793649818
 20
-7.837384655306467
 30
0.0
 10
-296.1505687955528
 20
-7.637411611559233
 30
0.0
 10
-296.3492531807796
 20
-7.444037038459872
 30
0.0
 10
-296.5531732129658
 20
-7.257035123101242
 30
0.0
 10
-296.7617338942925
 20
-7.076946026546901
 30
0.0
 10
-296.9751810364217
 20
-6.90356185736057
 30
0.0
 10
-297.1929001191891
 20
-6.737377164411233
 30
0.0
 10
-297.4151371739652
 20
-6.578209941612234
 30
0.0
 10
-297.6412668798448
 20
-6.426502790605868
 30
0.0
 10
-297.8715262210537
 20
-6.282102554667532
 30
0.0
 10
-298.105289395111
 20
-6.14539614759845
 30
0.0
 10
-298.3427754069883
 20
-6.016261677547771
 30
0.0
 10
-298.5833685904282
 20
-5.895028106271433
 30
0.0
 10
-298.8272606344647
 20
-5.781605382771625
 30
0.0
 10
-299.0738566429182
 20
-5.676263744510651
 30
0.0
 10
-299.3233115724974
 20
-5.578943507583046
 30
0.0
 10
-299.5750622456215
 20
-5.489858748746706
 30
0.0
 10
-299.8292185728945
 20
-5.408978405837151
 30
0.0
 10
-300.0852576464272
 20
-5.336459049600884
 30
0.0
 10
-300.3432349249829
 20
-5.27228871956653
 30
0.0
 10
-300.6026812528503
 20
-5.21658973797356
 30
0.0
 10
-300.8635940901312
 20
-5.169377707332456
 30
0.0
 10
-301.125551799731
 20
-5.13069335113405
 30
0.0
 10
-301.3884833897302
 20
-5.100458071396134
 30
0.0
 10
-301.6520596125255
 20
-5.079062109995438
 30
0.0
 10
-301.9161317159369
 20
-5.065930477109409
 30
0.0
 10
-302.0923083856356
 20
-5.064343463560881
 30
0.0
 10
-302.1803927313144
 20
-5.063549999999962
 30
0.0
 11
-294.6159927313145
 21
-9.645350000000007
 31
0.0
 11
-294.7620841856619
 21
-9.401224106954034
 31
0.0
 11
-294.9149416027047
 21
-9.161254302630595
 31
0.0
 11
-295.0737358247157
 21
-8.927139999368023
 31
0.0
 11
-295.2391914221495
 21
-8.697687427007393
 31
0.0
 11
-295.4101077149933
 21
-8.474374052990015
 31
0.0
 11
-295.5873657960495
 21
-8.256061793985621
 31
0.0
 11
-295.7697654319423
 21
-8.044275781349824
 31
0.0
 11
-295.9582646637247
 21
-7.837899564865209
 31
0.0
 11
-296.1515361285608
 21
-7.638376163607517
 31
0.0
 11
-296.3506096394553
 21
-7.444642029088527
 31
0.0
 11
-296.5540873267223
 21
-7.258062023844217
 31
0.0
 11
-296.7630484187249
 21
-7.077644636514492
 31
0.0
 11
-296.9760369624138
 21
-6.904648344622727
 31
0.0
 11
-297.1941594392376
 21
-6.738172325557911
 31
0.0
 11
-297.4159301047791
 21
-6.579353247019867
 31
0.0
 11
-297.6424567806523
 21
-6.427395163297092
 31
0.0
 11
-297.8722513739342
 21
-6.283299221016815
 31
0.0
 11
-298.1063952861372
 21
-6.146384312576856
 31
0.0
 11
-298.3434281513414
 21
-6.017507727026552
 31
0.0
 11
-298.5843758880974
 21
-5.896108340006094
 31
0.0
 11
-298.8278365235979
 21
-5.782896229857326
 31
0.0
 11
-299.0747511197194
 21
-5.677429877577651
 31
0.0
 11
-299.323806628394
 21
-5.580274110462482
 31
0.0
 11
-299.5758307933322
 21
-5.491102649413846
 31
0.0
 11
-299.8296287879019
 21
-5.410342736624213
 31
0.0
 11
-300.0858878260167
 21
-5.337768873888308
 31
0.0
 11
-300.3435581041356
 21
-5.273682277602233
 31
0.0
 11
-300.6031641923824
 21
-5.217957050077416
 31
0.0
 11
-300.8638252954972
 21
-5.170789419128823
 31
0.0
 11
-301.1258769839942
 21
-5.132080136169861
 31
0.0
 11
-301.3886249739744
 21
-5.101927733252296
 31
0.0
 11
-301.6522245545636
 21
-5.080434126114141
 31
0.0
 11
-301.9161840985558
 21
-5.067721475582856
 31
0.0
 11
-302.1803927313144
 21
-5.063549999999962
 31
0.0
  0
SPLINE
  5
39C
330
6C
100
AcDbEntity
  8
0
  6
Continuous
 62
     7
100
AcDbSpline
210
0.0
220
0.0
230
1.0
 70
  1064
 71
     3
 72
    41
 73
    37
 74
    35
 42
0.0000000001
 43
0.0000000001
 44
0.00000001
 40
0.0
 40
0.0
 40
0.0
 40
0.0
 40
0.2642443491086231
 40
0.528512633768564
 40
0.7929898036888672
 40
1.057465006676046
 40
1.32236299886562
 40
1.587260047523322
 40
1.852782303212342
 40
2.118305391304491
 40
2.384645601250106
 40
2.650985671171417
 40
2.918322878477255
 40
3.185660385636317
 40
3.45415886449
 40
3.72265751781395
 40
3.992463192257726
 40
4.262269108542904
 40
4.53350804706835
 40
4.804747228681347
 40
5.077523903777579
 40
5.350300824294535
 40
5.624696935789664
 40
5.899093332273714
 40
6.17516713467166
 40
6.451241113979451
 40
6.729026612976529
 40
7.006812587083182
 40
7.286320598734103
 40
7.56582834922295
 40
7.847044200275706
 40
8.128261002828889
 40
8.411149121851289
 40
8.694039264741171
 40
8.978560781244935
 40
9.26306331528459
 40
9.26306331528459
 40
9.26306331528459
 40
9.26306331528459
 10
-302.1803927313144
 20
-5.063549999999962
 30
0.0
 10
-302.268478015584
 20
-5.064342502375136
 30
0.0
 10
-302.4446565627566
 20
-5.065927593466956
 30
0.0
 10
-302.7087315832183
 20
-5.079056576523369
 30
0.0
 10
-302.9723107869936
 20
-5.100450063672387
 30
0.0
 10
-303.2352454117543
 20
-5.130683061094694
 30
0.0
 10
-303.4972062066334
 20
-5.169365326131513
 30
0.0
 10
-303.7581221669963
 20
-5.216575456286177
 30
0.0
 10
-304.0175716534191
 20
-5.272272731614227
 30
0.0
 10
-304.2755521148623
 20
-5.336441546998505
 30
0.0
 10
-304.531594390234
 20
-5.408959583385131
 30
0.0
 10
-304.7857539300209
 20
-5.489838798088842
 30
0.0
 10
-305.037507818456
 20
-5.578922622589433
 30
0.0
 10
-305.286965960471
 20
-5.676242115813725
 30
0.0
 10
-305.5335651682197
 20
-5.781583201808033
 30
0.0
 10
-305.7774603951516
 20
-5.895005561586215
 30
0.0
 10
-306.0180567328076
 20
-6.016238956788949
 30
0.0
 10
-306.2555458691389
 20
-6.145373436068901
 30
0.0
 10
-306.4893121240323
 20
-6.282080034695038
 30
0.0
 10
-306.7195745028955
 20
-6.426480643329115
 30
0.0
 10
-306.9457071880985
 20
-6.578188343491349
 30
0.0
 10
-307.1679471666417
 20
-6.737356290530958
 30
0.0
 10
-307.3856691025432
 20
-6.903541874513996
 30
0.0
 10
-307.5991190269597
 20
-7.076927105476146
 30
0.0
 10
-307.8076824011167
 20
-7.257017429480398
 30
0.0
 10
-308.0116050528281
 20
-7.444020726799311
 30
0.0
 10
-308.2102919806376
 20
-7.637396810575159
 30
0.0
 10
-308.4039838300898
 20
-7.837371542499599
 30
0.0
 10
-308.5921167048092
 20
-8.043362903919604
 30
0.0
 10
-308.7749075547259
 20
-8.255619231963223
 30
0.0
 10
-308.9518213675537
 20
-8.473532886368037
 30
0.0
 10
-309.1230797637283
 20
-8.697335828285488
 30
0.0
 10
-309.288268177829
 20
-8.926349642353446
 30
0.0
 10
-309.4473024801437
 20
-9.160999283358027
 30
0.0
 10
-309.6002141316195
 20
-9.400353124467811
 30
0.0
 10
-309.6966676081556
 20
-9.563686188563574
 30
0.0
 10
-309.7448927313144
 20
-9.645350000000007
 30
0.0
 11
-302.1803927313144
 21
-5.063549999999962
 31
0.0
 11
-302.4446041982812
 21
-5.06771863120457
 31
0.0
 11
-302.7085666633563
 21
-5.080428623519308
 31
0.0
 11
-302.9721692146102
 21
-5.101919758139159
 31
0.0
 11
-303.2349202441046
 21
-5.132069880671449
 31
0.0
 11
-303.4969750094391
 21
-5.17077707055273
 31
0.0
 11
-303.7576392383635
 21
-5.217942803969208
 31
0.0
 11
-304.0172484792872
 21
-5.273666322510846
 31
0.0
 11
-304.2749219402051
 21
-5.337751406932625
 31
0.0
 11
-304.531184177073
 21
-5.410323946951846
 31
0.0
 11
-304.7849853814942
 21
-5.491082733704842
 31
0.0
 11
-305.0370127613102
 21
-5.58025325785934
 31
0.0
 11
-305.2860714774167
 21
-5.677408282426537
 31
0.0
 11
-305.532989274846
 21
-5.782874080598957
 31
0.0
 11
-305.7764530862402
 21
-5.896085826874013
 31
0.0
 11
-306.01740398135
 21
-6.017485036996731
 31
0.0
 11
-306.2544399624189
 21
-6.146361630082762
 31
0.0
 11
-306.4885869613695
 21
-6.283276730618354
 31
0.0
 11
-306.7183845825267
 21
-6.427373042324575
 31
0.0
 11
-306.9449142449555
 21
-6.579331676852687
 31
0.0
 11
-307.1666878239347
 21
-6.738151474485902
 31
0.0
 11
-307.3848131619259
 21
-6.904628388841955
 31
0.0
 11
-307.597804476661
 21
-7.077625736597155
 31
0.0
 11
-307.8067682709411
 21
-7.258044352950717
 31
0.0
 11
-308.0102485693954
 21
-7.444625730006575
 31
0.0
 11
-308.2093246267016
 21
-7.6383613925193
 31
0.0
 11
-308.4025984913392
 21
-7.837886480471977
 31
0.0
 11
-308.591099985093
 21
-8.04426456915678
 31
0.0
 11
-308.7735018922087
 21
-8.256052498269127
 31
0.0
 11
-308.9507623245828
 21
-8.474366707714011
 31
0.0
 11
-309.1216803435108
 21
-8.697682450288766
 31
0.0
 11
-309.2871368708413
 21
-8.927137948091626
 31
0.0
 11
-309.4459337450264
 21
-9.161254128018979
 31
0.0
 11
-309.5987970275087
 21
-9.401223522357099
 31
0.0
 11
-309.7448927313144
 21
-9.645350000000007
 31
0.0
  0
SPLINE
  5
39D
330
6C
100
AcDbEntity
  8
0
  6
Continuous
 62
     7
100
AcDbSpline
210
0.0
220
0.0
230
1.0
 70
  1064
 71
     3
 72
    73
 73
    69
 74
    67
 42
0.0000000001
 43
0.0000000001
 44
0.00000001
 40
0.0
 40
0.0
 40
0.0
 40
0.0
 40
0.1379190116313562
 40
0.2757920865818453
 40
0.4179293905175497
 40
0.5601444815783545
 40
0.7056045861603232
 40
0.8510249121065255
 40
0.9996770839042465
 40
1.148345647881473
 40
1.300129198545266
 40
1.451907329064205
 40
1.60667831565163
 40
1.761451490845259
 40
1.919053670084944
 40
2.076655468204206
 40
2.236898367322188
 40
2.397141663018314
 40
2.559812155540188
 40
2.72248276420178
 40
2.887345187163527
 40
3.052207775918767
 40
3.21900762301888
 40
3.385807588237419
 40
3.554273962559389
 40
3.722740438646048
 40
3.892588779383979
 40
4.062437198216398
 40
4.233371834435595
 40
4.404306528726837
 40
4.576023210034352
 40
4.74773992948439
 40
4.919928305365421
 40
5.09211670021177
 40
5.264462772161962
 40
5.436808844116947
 40
5.6089973992175
 40
5.781185935361936
 40
5.952902974088297
 40
6.124619974683575
 40
6.295555144800593
 40
6.466490256849892
 40
6.636339304310013
 40
6.8061882737056
 40
6.974655526276298
 40
7.143122677024789
 40
7.309923560083739
 40
7.476724325272252
 40
7.641587966280407
 40
7.806451440709221
 40
7.969123224740188
 40
8.131794895316456
 40
8.292039486755559
 40
8.452283672855061
 40
8.609886850245491
 40
8.767490437016416
 40
8.92226514139002
 40
9.077037568755361
 40
9.228817116682355
 40
9.380602351180781
 40
9.529272936450249
 40
9.677926371967798
 40
9.823347285450285
 40
9.968809929016128
 40
10.11102922545457
 40
10.25316667990562
 40
10.39099848157017
 40
10.52887847599734
 40
10.52887847599734
 40
10.52887847599734
 40
10.52887847599734
 10
-297.3100927313144
 20
-12.72735
 30
0.0
 10
-297.3437611911342
 20
-12.69604701989767
 30
0.0
 10
-297.4110869068965
 20
-12.63345149674275
 30
0.0
 10
-297.5151169020871
 20
-12.54073893309801
 30
0.0
 10
-297.6249914114506
 20
-12.45269094037729
 30
0.0
 10
-297.7400123593129
 20
-12.36724755848566
 30
0.0
 10
-297.857707257438
 20
-12.2836265300253
 30
0.0
 10
-297.9792024484349
 20
-12.20171500394948
 30
0.0
 10
-298.103845338357
 20
-12.12265963417064
 30
0.0
 10
-298.232344701312
 20
-12.04582791687061
 30
0.0
 10
-298.3636098472692
 20
-11.97168177323066
 30
0.0
 10
-298.4984471910173
 20
-11.89981759897367
 30
0.0
 10
-298.6358808490738
 20
-11.83080244083339
 30
0.0
 10
-298.7766704070552
 20
-11.76424421825484
 30
0.0
 10
-298.919830892165
 20
-11.70059253855499
 30
0.0
 10
-299.0660915036483
 20
-11.63952926835014
 30
0.0
 10
-299.2145080023621
 20
-11.58144942905476
 30
0.0
 10
-299.3657598628916
 20
-11.52608866713024
 30
0.0
 10
-299.5189470725971
 20
-11.47377288221187
 30
0.0
 10
-299.6746894690582
 20
-11.4242930470747
 30
0.0
 10
-299.8321451976742
 20
-11.37791440310786
 30
0.0
 10
-299.9918640520635
 20
-11.33447725472423
 30
0.0
 10
-300.1530720559716
 20
-11.29418968121818
 30
0.0
 10
-300.3162401624065
 20
-11.25693622580345
 30
0.0
 10
-300.4806714902561
 20
-11.22287377666215
 30
0.0
 10
-300.6467505928542
 20
-11.19192480363384
 30
0.0
 10
-300.8138654346101
 20
-11.16420121567793
 30
0.0
 10
-300.9823079101368
 20
-11.13965665110825
 30
0.0
 10
-301.1515573501773
 20
-11.11836492130723
 30
0.0
 10
-301.3218080261932
 20
-11.10030358620418
 30
0.0
 10
-301.4926358668601
 20
-11.0855156383281
 30
0.0
 10
-301.6641338426469
 20
-11.07399498387809
 30
0.0
 10
-301.8359784407401
 20
-11.06576140531777
 30
0.0
 10
-302.0081589344774
 20
-11.06081734234486
 30
0.0
 10
-302.1804550584087
 20
-11.05916719638357
 30
0.0
 10
-302.3527512678267
 20
-11.06081398935301
 30
0.0
 10
-302.52493196463
 20
-11.0657547010729
 30
0.0
 10
-302.696776936363
 20
-11.07398493592665
 30
0.0
 10
-302.8682754032159
 20
-11.08550225189168
 30
0.0
 10
-303.0391039043259
 20
-11.10028687633171
 30
0.0
 10
-303.2093553579073
 20
-11.11834489669945
 30
0.0
 10
-303.3786057428901
 20
-11.13963333424533
 30
0.0
 10
-303.5470492800296
 20
-11.16417461878745
 30
0.0
 10
-303.7141653480069
 20
-11.19189495645682
 30
0.0
 10
-303.8802457929151
 20
-11.22284069483695
 30
0.0
 10
-304.0446786240275
 20
-11.25689994632605
 30
0.0
 10
-304.2078483490362
 20
-11.29415022367127
 30
0.0
 10
-304.3690581284019
 20
-11.33443466252427
 30
0.0
 10
-304.5287788729867
 20
-11.37786869794672
 30
0.0
 10
-304.6862366424471
 20
-11.42424428079753
 30
0.0
 10
-304.8419811922207
 20
-11.47372108562905
 30
0.0
 10
-304.9951707041212
 20
-11.52603389177593
 30
0.0
 10
-305.1464249841499
 20
-11.58139168940733
 30
0.0
 10
-305.2948440291197
 20
-11.63946864620587
 30
0.0
 10
-305.4411072771807
 20
-11.70052912531097
 30
0.0
 10
-305.5842705762709
 20
-11.76417801202383
 30
0.0
 10
-305.7250631470645
 20
-11.83073327298776
 30
0.0
 10
-305.862499770679
 20
-11.89974579786629
 30
0.0
 10
-305.9973398188417
 20
-11.97160812075735
 30
0.0
 10
-306.128608425239
 20
-12.045751562275
 30
0.0
 10
-306.2571128545102
 20
-12.12257800620508
 30
0.0
 10
-306.3817585686897
 20
-12.20163153193684
 30
0.0
 10
-306.503250515297
 20
-12.28355049896255
 30
0.0
 10
-306.620951501957
 20
-12.36716680904735
 30
0.0
 10
-306.7360015577673
 20
-12.45257423161185
 30
0.0
 10
-306.8458659488629
 20
-12.54061907327266
 30
0.0
 10
-306.949768574553
 20
-12.63343533116637
 30
0.0
 10
-307.0170474291131
 20
-12.69604145900396
 30
0.0
 10
-307.0506927313145
 20
-12.72735
 30
0.0
 11
-297.3100927313144
 21
-12.72735
 31
0.0
 11
-297.4114291743335
 21
-12.63379477955766
 31
0.0
 11
-297.5148232169159
 21
-12.54258810814065
 31
0.0
 11
-297.6254955239247
 21
-12.45339923435927
 31
0.0
 11
-297.7394354277663
 21
-12.36829441986492
 31
0.0
 11
-297.8580575023981
 21
-12.28410745420433
 31
0.0
 11
-297.9786763192913
 21
-12.20287832085785
 31
0.0
 11
-298.104182476163
 21
-12.1232185902852
 31
0.0
 11
-298.2317578495981
 21
-12.04688467957794
 31
0.0
 11
-298.3639096288432
 21
-11.97222442633938
 31
0.0
 11
-298.4978463867479
 21
-11.90082732760174
 31
0.0
 11
-298.6361487029901
 21
-11.83135411310991
 31
0.0
 11
-298.7760654546787
 21
-11.76518736709909
 31
0.0
 11
-298.9200686841548
 21
-11.70114428222393
 31
0.0
 11
-299.0654986202521
 21
-11.64041158611951
 31
0.0
 11
-299.2147171350871
 21
-11.58200249894696
 31
0.0
 11
-299.3651925119181
 21
-11.52691098690434
 31
0.0
 11
-299.5191292205947
 21
-11.47432601973355
 31
0.0
 11
-299.6741599600491
 21
-11.42505943207584
 31
0.0
 11
-299.8323016519184
 21
-11.37846733287711
 31
0.0
 11
-299.9913832486054
 21
-11.33519241316128
 31
0.0
 11
-300.1532040148725
 21
-11.29474209172133
 31
0.0
 11
-300.3158174674163
 21
-11.25760594550843
 31
0.0
 11
-300.4807799476452
 21
-11.22342555202772
 31
0.0
 11
-300.6463939540372
 21
-11.19255559323267
 31
0.0
 11
-300.8139512204788
 21
-11.16475233413939
 31
0.0
 11
-300.9820238138455
 21
-11.14025562740811
 31
0.0
 11
-301.1516211208382
 21
-11.11891544886089
 31
0.0
 11
-301.3216015067793
 21
-11.10087832027351
 31
0.0
 11
-301.4926781120423
 21
-11.08606570167694
 31
0.0
 11
-301.6640084889045
 21
-11.07455337778174
 31
0.0
 11
-301.8359994850607
 21
-11.0663111737349
 31
0.0
 11
-302.0081168968169
 21
-11.06136751235567
 31
0.0
 11
-302.1804550637252
 21
-11.05971686374494
 31
0.0
 11
-302.3527932627406
 21
-11.06136415726621
 31
0.0
 11
-302.5249109309841
 21
-11.0663044693847
 31
0.0
 11
-302.6969022480884
 21
-11.07454332356474
 31
0.0
 11
-302.8682331688322
 21
-11.0860523150377
 31
0.0
 11
-303.0393103831825
 21
-11.10086160004687
 31
0.0
 11
-303.2092915982555
 21
-11.11889542397227
 31
0.0
 11
-303.3788898008206
 21
-11.14023229624683
 31
0.0
 11
-303.5469635054558
 21
-11.16472573690725
 31
0.0
 11
-303.7145219513878
 21
-11.19252572798814
 31
0.0
 11
-303.880137347226
 21
-11.22339246987348
 31
0.0
 11
-304.0451012872768
 21
-11.25756964455445
 31
0.0
 11
-304.2077164022219
 21
-11.29470263376754
 31
0.0
 11
-304.3695389044791
 21
-11.33514979607048
 31
0.0
 11
-304.5286224316387
 21
-11.37842162782306
 31
0.0
 11
-304.6867661293567
 21
-11.42501063922577
 31
0.0
 11
-304.8417990570143
 21
-11.47427422187161
 31
0.0
 11
-304.9957380387725
 21
-11.52685617901511
 31
0.0
 11
-305.1462158670391
 21
-11.58194476405947
 31
0.0
 11
-305.2954369019918
 21
-11.64035094372434
 31
0.0
 11
-305.4408694965084
 21
-11.70108085312029
 31
0.0
 11
-305.5848755330114
 21
-11.76512108994939
 31
0.0
 11
-305.7247953147105
 21
-11.8312850055305
 31
0.0
 11
-305.8631005422778
 21
-11.90075563400955
 31
0.0
 11
-305.9970400609652
 21
-11.9721505667826
 31
0.0
 11
-306.1291954770829
 21
-12.04680780569697
 31
0.0
 11
-306.256775615939
 21
-12.12313768851027
 31
0.0
 11
-306.3822838402912
 21
-12.20279651990483
 31
0.0
 11
-306.5029011571414
 21
-12.28402893245902
 31
0.0
 11
-306.6215319774566
 21
-12.36820796128609
 31
0.0
 11
-306.7354939150598
 21
-12.4532902987612
 31
0.0
 11
-306.8461518228196
 21
-12.54249727672436
 31
0.0
 11
-306.9494367607465
 21
-12.63376516428434
 31
0.0
 11
-307.0506927313145
 21
-12.72735
 31
0.0
  0
ARC
  5
39E
330
6C
100
AcDbEntity
  8
0
  6
Continuous
 62
     7
100
AcDbCircle
 10
-376.8550105732539
 20
-70.99974999999995
 30
0.0
 40
14.99999999999995
100
AcDbArc
 50
183.7519902329208
 51
270.0
  0
ARC
  5
39F
330
6C
100
AcDbEntity
  8
0
  6
Continuous
 62
     7
100
AcDbCircle
 10
-376.4282513660806
 20
77.2330178446715
 30
0.0
 40
15.00000000000003
100
AcDbArc
 50
90.9687075775937
 51
175.9181038462799
  0
POINT
  5
3A0
330
6C
100
AcDbEntity
  8
115
 62
     2
100
AcDbPoint
 10
239.9851556330277
 20
92.74989999999993
 30
0.0
  0
POINT
  5
3A1
330
6C
100
AcDbEntity
  8
115
 62
     2
100
AcDbPoint
 10
83.01705563302766
 20
-15.5498
 30
0.0
  0
POINT
  5
3A2
330
6C
100
AcDbEntity
  8
115
 62
     2
100
AcDbPoint
 10
150.8676360345614
 20
-41.29787607031366
 30
0.0
  0
POINT
  5
3A3
330
6C
100
AcDbEntity
  8
115
 62
     2
100
AcDbPoint
 10
311.5151752314941
 20
-51.45202392968633
 30
0.0
  0
LINE
  5
3A4
330
6C
100
AcDbEntity
  8
110
  6
DASH_CENTER
 62
    40
100
AcDbLine
 10
327.1226556330276
 20
0.0
 30
0.0
 11
327.2923926615238
 21
0.0
 31
0.0
  0
LINE
  5
3A5
330
6C
100
AcDbEntity
  8
110
  6
DASH_CENTER
 62
    40
100
AcDbLine
 10
326.1226556330275
 20
0.0
 30
0.0
 11
327.1226556330276
 21
0.0
 31
0.0
  0
LINE
  5
3A6
330
6C
100
AcDbEntity
  8
10
  6
Continuous
 62
     7
100
AcDbLine
 10
151.7088362099989
 20
40.88963643893612
 30
0.0
 11
150.6979291236562
 21
41.10127743558019
 31
0.0
  0
LINE
  5
3A7
330
6C
100
AcDbEntity
  8
10
  6
Continuous
 62
     7
100
AcDbLine
 10
154.4865556330278
 20
40.30809999999997
 30
0.0
 11
151.7088362099989
 21
40.88963643893612
 31
0.0
  0
LINE
  5
3A8
330
6C
100
AcDbEntity
  8
10
  6
Continuous
 62
     7
100
AcDbLine
 10
150.6979291236562
 20
41.10127743558019
 30
0.0
 11
146.3540556330276
 21
42.01070000000004
 31
0.0
  0
LINE
  5
3A9
330
6C
100
AcDbEntity
  8
10
  6
Continuous
 62
     7
100
AcDbLine
 10
324.1222556330277
 20
-90.0
 30
0.0
 11
284.1222556330276
 21
-90.0
 31
0.0
  0
LINE
  5
3AA
330
6C
100
AcDbEntity
  8
110
  6
DASH_CENTER
 62
    30
100
AcDbLine
 10
304.1222556330276
 20
-105.4651
 30
0.0
 11
304.1222556330276
 21
-73.83050000000003
 31
0.0
  0
LINE
  5
3AB
330
6C
100
AcDbEntity
  8
10
  6
Continuous
 62
     7
100
AcDbLine
 10
284.1222556330276
 20
-88.49999999999999
 30
0.0
 11
284.1222556330276
 21
-90.0
 31
0.0
  0
LINE
  5
3AC
330
6C
100
AcDbEntity
  8
10
  6
Continuous
 62
     7
100
AcDbLine
 10
324.1222556330277
 20
-84.50000000000001
 30
0.0
 11
324.1222556330277
 21
-90.0
 31
0.0
  0
LINE
  5
3AD
330
6C
100
AcDbEntity
  8
10
  6
Continuous
 62
     7
100
AcDbLine
 10
284.1222556330276
 20
-86.0
 30
0.0
 11
324.1222556330277
 21
-86.0
 31
0.0
  0
LINE
  5
3AE
330
6C
100
AcDbEntity
  8
10
  6
Continuous
 62
     7
100
AcDbLine
 10
98.52215563302777
 20
-17.519
 30
0.0
 11
122.1572556330277
 21
-21.68669999999996
 31
0.0
  0
LINE
  5
3AF
330
6C
100
AcDbEntity
  8
110
  6
DASH_CENTER
 62
    30
100
AcDbLine
 10
160.4364556330274
 20
-42.54250000000001
 30
0.0
 11
146.6571556330277
 21
-50.49779999999998
 31
0.0
  0
LINE
  5
3B0
330
6C
100
AcDbEntity
  8
10
  6
Continuous
 62
     7
100
AcDbLine
 10
238.5878556330276
 20
92.99969999999996
 30
0.0
 11
238.4630556330276
 21
94.42629999999995
 31
0.0
  0
LINE
  5
3B1
330
6C
100
AcDbEntity
  8
10
  6
Continuous
 62
     7
100
AcDbLine
 10
236.8690556330278
 20
95.8868
 30
0.0
 11
231.3789556330278
 21
95.8868
 31
0.0
  0
LINE
  5
3B2
330
6C
100
AcDbEntity
  8
10
  6
Continuous
 62
     7
100
AcDbLine
 10
229.6600556330277
 20
92.99969999999996
 30
0.0
 11
229.7847556330278
 21
94.42629999999995
 31
0.0
  0
LINE
  5
3B3
330
6C
100
AcDbEntity
  8
110
  6
DASH_CENTER
 62
    30
100
AcDbLine
 10
234.1228556330277
 20
85.08519999999998
 30
0.0
 11
234.1229556330277
 21
100.9960999999999
 31
0.0
  0
LINE
  5
3B4
330
6C
100
AcDbEntity
  8
110
  6
DASH_CENTER
 62
    30
100
AcDbLine
 10
307.8084556330277
 20
-42.54299999999999
 30
0.0
 11
321.5877556330277
 21
-50.49860000000001
 31
0.0
  0
LINE
  5
3B5
330
6C
100
AcDbEntity
  8
10
  6
Continuous
 62
     7
100
AcDbLine
 10
306.0990556330278
 20
43.69240000000002
 30
0.0
 11
305.3709556330277
 21
42.9642
 31
0.0
  0
LINE
  5
3B6
330
6C
100
AcDbEntity
  8
10
  6
Continuous
 62
     7
100
AcDbLine
 10
284.6290556330277
 20
-52.78650000000005
 30
0.0
 11
286.3089556330278
 21
-52.78650000000005
 31
0.0
  0
LINE
  5
3B7
330
6C
100
AcDbEntity
  8
10
  6
Continuous
 62
     7
100
AcDbLine
 10
284.6290556330277
 20
-53.9864
 30
0.0
 11
286.3089556330278
 21
-53.9864
 31
0.0
  0
LINE
  5
3B8
330
6C
100
AcDbEntity
  8
10
  6
Continuous
 62
     7
100
AcDbLine
 10
286.9090556330277
 20
-56.26620000000002
 30
0.0
 11
286.9090556330277
 21
-54.5865
 31
0.0
  0
LINE
  5
3B9
330
6C
100
AcDbEntity
  8
10
  6
Continuous
 62
     7
100
AcDbLine
 10
288.1090556330278
 20
-56.26620000000002
 30
0.0
 11
288.1090556330278
 21
-54.5865
 31
0.0
  0
LINE
  5
3BA
330
6C
100
AcDbEntity
  8
10
  6
Continuous
 62
     7
100
AcDbLine
 10
288.7091556330276
 20
-52.78650000000005
 30
0.0
 11
290.3890556330278
 21
-52.78650000000005
 31
0.0
  0
LINE
  5
3BB
330
6C
100
AcDbEntity
  8
10
  6
Continuous
 62
     7
100
AcDbLine
 10
286.9090556330277
 20
-52.18640000000005
 30
0.0
 11
286.9090556330277
 21
-50.50670000000001
 31
0.0
  0
LINE
  5
3BC
330
6C
100
AcDbEntity
  8
10
  6
Continuous
 62
     7
100
AcDbLine
 10
288.1090556330278
 20
-52.18640000000005
 30
0.0
 11
288.1090556330278
 21
-50.50670000000001
 31
0.0
  0
LINE
  5
3BD
330
6C
100
AcDbEntity
  8
10
  6
Continuous
 62
     7
100
AcDbLine
 10
288.7091556330276
 20
-53.9864
 30
0.0
 11
290.3890556330278
 21
-53.9864
 31
0.0
  0
LINE
  5
3BE
330
6C
100
AcDbEntity
  8
10
  6
Continuous
 62
     7
100
AcDbLine
 10
286.9090556330277
 20
-50.50670000000001
 30
0.0
 11
288.1090556330278
 21
-50.50670000000001
 31
0.0
  0
LINE
  5
3BF
330
6C
100
AcDbEntity
  8
10
  6
Continuous
 62
     7
100
AcDbLine
 10
286.9090556330277
 20
-56.26620000000002
 30
0.0
 11
288.1090556330278
 21
-56.26620000000002
 31
0.0
  0
LINE
  5
3C0
330
6C
100
AcDbEntity
  8
10
  6
Continuous
 62
     7
100
AcDbLine
 10
284.6290556330277
 20
-53.9864
 30
0.0
 11
284.6290556330277
 21
-52.78650000000005
 31
0.0
  0
LINE
  5
3C1
330
6C
100
AcDbEntity
  8
10
  6
Continuous
 62
     7
100
AcDbLine
 10
290.3890556330278
 20
-53.9864
 30
0.0
 11
290.3890556330278
 21
-52.78650000000005
 31
0.0
  0
LINE
  5
3C2
330
6C
100
AcDbEntity
  8
110
  6
DASH_CENTER
 62
    30
100
AcDbLine
 10
282.0570556330276
 20
-47.93450000000006
 30
0.0
 11
294.0980556330278
 21
-59.97550000000001
 31
0.0
  0
LINE
  5
3C3
330
6C
100
AcDbEntity
  8
10
  6
Continuous
 62
     7
100
AcDbLine
 10
181.3362556330274
 20
-50.50639999999997
 30
0.0
 11
181.3362556330274
 21
-52.18640000000005
 31
0.0
  0
LINE
  5
3C4
330
6C
100
AcDbEntity
  8
10
  6
Continuous
 62
     7
100
AcDbLine
 10
180.1362556330276
 20
-50.50639999999997
 30
0.0
 11
180.1362556330276
 21
-52.18640000000005
 31
0.0
  0
LINE
  5
3C5
330
6C
100
AcDbEntity
  8
10
  6
Continuous
 62
     7
100
AcDbLine
 10
177.8565556330277
 20
-52.78650000000005
 30
0.0
 11
179.5361556330276
 21
-52.78650000000005
 31
0.0
  0
LINE
  5
3C6
330
6C
100
AcDbEntity
  8
10
  6
Continuous
 62
     7
100
AcDbLine
 10
177.8565556330277
 20
-53.9864
 30
0.0
 11
179.5361556330276
 21
-53.9864
 31
0.0
  0
LINE
  5
3C7
330
6C
100
AcDbEntity
  8
10
  6
Continuous
 62
     7
100
AcDbLine
 10
181.3362556330274
 20
-54.5865
 30
0.0
 11
181.3362556330274
 21
-56.26639999999998
 31
0.0
  0
LINE
  5
3C8
330
6C
100
AcDbEntity
  8
10
  6
Continuous
 62
     7
100
AcDbLine
 10
181.9363556330277
 20
-52.78650000000005
 30
0.0
 11
183.6160556330278
 21
-52.78650000000005
 31
0.0
  0
LINE
  5
3C9
330
6C
100
AcDbEntity
  8
10
  6
Continuous
 62
     7
100
AcDbLine
 10
181.9363556330277
 20
-53.9864
 30
0.0
 11
183.6160556330278
 21
-53.9864
 31
0.0
  0
LINE
  5
3CA
330
6C
100
AcDbEntity
  8
10
  6
Continuous
 62
     7
100
AcDbLine
 10
180.1362556330276
 20
-54.5865
 30
0.0
 11
180.1362556330276
 21
-56.26639999999998
 31
0.0
  0
LINE
  5
3CB
330
6C
100
AcDbEntity
  8
10
  6
Continuous
 62
     7
100
AcDbLine
 10
183.6160556330278
 20
-52.78650000000005
 30
0.0
 11
183.6160556330278
 21
-53.9864
 31
0.0
  0
LINE
  5
3CC
330
6C
100
AcDbEntity
  8
10
  6
Continuous
 62
     7
100
AcDbLine
 10
177.8565556330277
 20
-52.78650000000005
 30
0.0
 11
177.8565556330277
 21
-53.9864
 31
0.0
  0
LINE
  5
3CD
330
6C
100
AcDbEntity
  8
10
  6
Continuous
 62
     7
100
AcDbLine
 10
180.1362556330276
 20
-50.50639999999997
 30
0.0
 11
181.3362556330274
 21
-50.50639999999997
 31
0.0
  0
LINE
  5
3CE
330
6C
100
AcDbEntity
  8
10
  6
Continuous
 62
     7
100
AcDbLine
 10
180.1362556330276
 20
-56.26639999999998
 30
0.0
 11
181.3362556330274
 21
-56.26639999999998
 31
0.0
  0
LINE
  5
3CF
330
6C
100
AcDbEntity
  8
110
  6
DASH_CENTER
 62
    30
100
AcDbLine
 10
186.1882556330277
 20
-47.93439999999998
 30
0.0
 11
174.1472556330277
 21
-59.97550000000001
 31
0.0
  0
LINE
  5
3D0
330
6C
100
AcDbEntity
  8
10
  6
Continuous
 62
     7
100
AcDbLine
 10
183.6162556330276
 20
52.78639999999995
 30
0.0
 11
181.9363556330277
 21
52.78639999999995
 31
0.0
  0
LINE
  5
3D1
330
6C
100
AcDbEntity
  8
10
  6
Continuous
 62
     7
100
AcDbLine
 10
183.6162556330276
 20
53.9864
 30
0.0
 11
181.9363556330277
 21
53.9864
 31
0.0
  0
LINE
  5
3D2
330
6C
100
AcDbEntity
  8
10
  6
Continuous
 62
     7
100
AcDbLine
 10
181.3362556330274
 20
56.26620000000002
 30
0.0
 11
181.3362556330274
 21
54.5865
 31
0.0
  0
LINE
  5
3D3
330
6C
100
AcDbEntity
  8
10
  6
Continuous
 62
     7
100
AcDbLine
 10
180.1363556330277
 20
56.26620000000002
 30
0.0
 11
180.1363556330277
 21
54.5865
 31
0.0
  0
LINE
  5
3D4
330
6C
100
AcDbEntity
  8
10
  6
Continuous
 62
     7
100
AcDbLine
 10
179.5362556330278
 20
52.78639999999995
 30
0.0
 11
177.8562556330276
 21
52.78639999999995
 31
0.0
  0
LINE
  5
3D5
330
6C
100
AcDbEntity
  8
10
  6
Continuous
 62
     7
100
AcDbLine
 10
181.3362556330274
 20
52.18629999999996
 30
0.0
 11
181.3362556330274
 21
50.50659999999993
 31
0.0
  0
LINE
  5
3D6
330
6C
100
AcDbEntity
  8
10
  6
Continuous
 62
     7
100
AcDbLine
 10
180.1363556330277
 20
52.18629999999996
 30
0.0
 11
180.1363556330277
 21
50.50659999999993
 31
0.0
  0
LINE
  5
3D7
330
6C
100
AcDbEntity
  8
10
  6
Continuous
 62
     7
100
AcDbLine
 10
179.5362556330278
 20
53.9864
 30
0.0
 11
177.8562556330276
 21
53.9864
 31
0.0
  0
LINE
  5
3D8
330
6C
100
AcDbEntity
  8
10
  6
Continuous
 62
     7
100
AcDbLine
 10
181.3362556330274
 20
50.50659999999993
 30
0.0
 11
180.1363556330277
 21
50.50659999999993
 31
0.0
  0
LINE
  5
3D9
330
6C
100
AcDbEntity
  8
10
  6
Continuous
 62
     7
100
AcDbLine
 10
181.3362556330274
 20
56.26620000000002
 30
0.0
 11
180.1363556330277
 21
56.26620000000002
 31
0.0
  0
LINE
  5
3DA
330
6C
100
AcDbEntity
  8
10
  6
Continuous
 62
     7
100
AcDbLine
 10
183.6162556330276
 20
53.9864
 30
0.0
 11
183.6162556330276
 21
52.78639999999995
 31
0.0
  0
LINE
  5
3DB
330
6C
100
AcDbEntity
  8
10
  6
Continuous
 62
     7
100
AcDbLine
 10
177.8562556330276
 20
53.9864
 30
0.0
 11
177.8562556330276
 21
52.78639999999995
 31
0.0
  0
LINE
  5
3DC
330
6C
100
AcDbEntity
  8
110
  6
DASH_CENTER
 62
    30
100
AcDbLine
 10
186.1882556330277
 20
47.93439999999998
 30
0.0
 11
174.1472556330277
 21
59.97540000000004
 31
0.0
  0
LINE
  5
3DD
330
6C
100
AcDbEntity
  8
10
  6
Continuous
 62
     7
100
AcDbLine
 10
286.9090556330277
 20
50.50639999999997
 30
0.0
 11
286.9090556330277
 21
52.18629999999996
 31
0.0
  0
LINE
  5
3DE
330
6C
100
AcDbEntity
  8
10
  6
Continuous
 62
     7
100
AcDbLine
 10
288.1090556330278
 20
50.50639999999997
 30
0.0
 11
288.1090556330278
 21
52.18629999999996
 31
0.0
  0
LINE
  5
3DF
330
6C
100
AcDbEntity
  8
10
  6
Continuous
 62
     7
100
AcDbLine
 10
290.3888556330278
 20
52.78639999999995
 30
0.0
 11
288.7091556330276
 21
52.78639999999995
 31
0.0
  0
LINE
  5
3E0
330
6C
100
AcDbEntity
  8
10
  6
Continuous
 62
     7
100
AcDbLine
 10
290.3888556330278
 20
53.9864
 30
0.0
 11
288.7091556330276
 21
53.9864
 31
0.0
  0
LINE
  5
3E1
330
6C
100
AcDbEntity
  8
10
  6
Continuous
 62
     7
100
AcDbLine
 10
286.9090556330277
 20
54.5865
 30
0.0
 11
286.9090556330277
 21
56.26639999999998
 31
0.0
  0
LINE
  5
3E2
330
6C
100
AcDbEntity
  8
10
  6
Continuous
 62
     7
100
AcDbLine
 10
286.3089556330278
 20
52.78639999999995
 30
0.0
 11
284.6292556330277
 21
52.78639999999995
 31
0.0
  0
LINE
  5
3E3
330
6C
100
AcDbEntity
  8
10
  6
Continuous
 62
     7
100
AcDbLine
 10
286.3089556330278
 20
53.9864
 30
0.0
 11
284.6292556330277
 21
53.9864
 31
0.0
  0
LINE
  5
3E4
330
6C
100
AcDbEntity
  8
10
  6
Continuous
 62
     7
100
AcDbLine
 10
288.1090556330278
 20
54.5865
 30
0.0
 11
288.1090556330278
 21
56.26639999999998
 31
0.0
  0
LINE
  5
3E5
330
6C
100
AcDbEntity
  8
10
  6
Continuous
 62
     7
100
AcDbLine
 10
284.6292556330277
 20
52.78639999999995
 30
0.0
 11
284.6292556330277
 21
53.9864
 31
0.0
  0
LINE
  5
3E6
330
6C
100
AcDbEntity
  8
10
  6
Continuous
 62
     7
100
AcDbLine
 10
290.3888556330278
 20
52.78639999999995
 30
0.0
 11
290.3888556330278
 21
53.9864
 31
0.0
  0
LINE
  5
3E7
330
6C
100
AcDbEntity
  8
10
  6
Continuous
 62
     7
100
AcDbLine
 10
288.1090556330278
 20
50.50639999999997
 30
0.0
 11
286.9090556330277
 21
50.50639999999997
 31
0.0
  0
LINE
  5
3E8
330
6C
100
AcDbEntity
  8
10
  6
Continuous
 62
     7
100
AcDbLine
 10
288.1090556330278
 20
56.26639999999998
 30
0.0
 11
286.9090556330277
 21
56.26639999999998
 31
0.0
  0
LINE
  5
3E9
330
6C
100
AcDbEntity
  8
110
  6
Continuous
 62
   171
100
AcDbLine
 10
99.84785563302786
 20
-12.87890000000004
 30
0.0
 11
99.98675563302777
 21
-12.09100000000001
 31
0.0
  0
LINE
  5
3EA
330
6C
100
AcDbEntity
  8
110
  6
Continuous
 62
   171
100
AcDbLine
 10
122.4985556330277
 20
-16.87279999999998
 30
0.0
 11
122.6374556330277
 21
-16.08490000000006
 31
0.0
  0
LINE
  5
3EB
330
6C
100
AcDbEntity
  8
10
  6
Continuous
 62
   171
100
AcDbLine
 10
96.40115563302764
 20
-12.27099999999996
 30
0.0
 11
96.08865563302764
 21
-14.04370000000006
 31
0.0
  0
LINE
  5
3EC
330
6C
100
AcDbEntity
  8
10
  6
Continuous
 62
     7
100
AcDbLine
 10
125.9531556330274
 20
-17.43399999999997
 30
0.0
 11
125.6325556330276
 21
-19.25310000000002
 31
0.0
  0
LINE
  5
3ED
330
6C
100
AcDbEntity
  8
10
  6
Continuous
 62
     7
100
AcDbLine
 10
238.1226556330278
 20
15.0
 30
0.0
 11
230.1226556330278
 21
15.0
 31
0.0
  0
LINE
  5
3EE
330
6C
100
AcDbEntity
  8
10
  6
Continuous
 62
     7
100
AcDbLine
 10
277.0865556330277
 20
71.24829999999997
 30
0.0
 11
277.8148556330277
 21
71.97649999999999
 31
0.0
  0
LINE
  5
3EF
330
6C
100
AcDbEntity
  8
110
  6
DASH_CENTER
 62
    30
100
AcDbLine
 10
86.06295563302772
 20
26.1069
 30
0.0
 11
170.5826556330274
 21
11.2038
 31
0.0
  0
LINE
  5
3F0
330
6C
100
AcDbEntity
  8
10
  6
Continuous
 62
     7
100
AcDbLine
 10
145.0641556330277
 20
47.1816
 30
0.0
 11
143.4885556330278
 21
47.45949999999993
 31
0.0
  0
LINE
  5
3F1
330
6C
100
AcDbEntity
  8
10
  6
Continuous
 62
     7
100
AcDbLine
 10
134.2979556330278
 20
-13.87650000000008
 30
0.0
 11
132.7223556330277
 21
-13.59860000000003
 31
0.0
  0
LINE
  5
3F2
330
6C
100
AcDbEntity
  8
10
  6
Continuous
 62
     7
100
AcDbLine
 10
93.6056556330277
 20
-15.48760000000004
 30
0.0
 11
90.71645563302764
 21
-19.56839999999999
 31
0.0
  0
LINE
  5
3F3
330
6C
100
AcDbEntity
  8
10
  6
Continuous
 62
     7
100
AcDbLine
 10
91.27405563302772
 20
-19.47289999999998
 30
0.0
 11
90.71645563302764
 21
-19.56839999999999
 31
0.0
  0
LINE
  5
3F4
330
6C
100
AcDbEntity
  8
10
  6
Continuous
 62
     7
100
AcDbLine
 10
93.70105563302786
 20
-16.04520000000002
 30
0.0
 11
93.6056556330277
 21
-15.48760000000004
 31
0.0
  0
LINE
  5
3F5
330
6C
100
AcDbEntity
  8
10
  6
Continuous
 62
     7
100
AcDbLine
 10
84.99035563302776
 20
-17.96460000000002
 30
0.0
 11
83.58205563302773
 21
-16.77030000000002
 31
0.0
  0
LINE
  5
3F6
330
6C
100
AcDbEntity
  8
10
  6
Continuous
 62
     7
100
AcDbLine
 10
91.27405563302772
 20
-19.47289999999998
 30
0.0
 11
93.70105563302786
 21
-16.04520000000002
 31
0.0
  0
LINE
  5
3F7
330
6C
100
AcDbEntity
  8
110
  6
Continuous
 62
    30
100
AcDbLine
 10
89.31295563302773
 20
-18.08450000000005
 30
0.0
 11
91.27405563302772
 21
-19.47289999999998
 31
0.0
  0
LINE
  5
3F8
330
6C
100
AcDbEntity
  8
110
  6
Continuous
 62
    30
100
AcDbLine
 10
91.73325563302773
 20
-14.65190000000007
 30
0.0
 11
93.70105563302786
 21
-16.04520000000002
 31
0.0
  0
LINE
  5
3F9
330
6C
100
AcDbEntity
  8
10
  6
Continuous
 62
     7
100
AcDbLine
 10
89.08245563302761
 20
-18.41139999999995
 30
0.0
 11
90.71645563302764
 21
-19.56839999999999
 31
0.0
  0
LINE
  5
3FA
330
6C
100
AcDbEntity
  8
10
  6
Continuous
 62
     7
100
AcDbLine
 10
91.96375563302764
 20
-14.32500000000004
 30
0.0
 11
93.6056556330277
 21
-15.48760000000004
 31
0.0
  0
LINE
  5
3FB
330
6C
100
AcDbEntity
  8
10
  6
Continuous
 62
     7
100
AcDbLine
 10
83.31115563302773
 20
-14.62549999999999
 30
0.0
 11
85.52165563302787
 21
-11.50350000000003
 31
0.0
  0
LINE
  5
3FC
330
6C
100
AcDbEntity
  8
10
  6
Continuous
 62
     7
100
AcDbLine
 10
134.2980556330276
 20
-13.87650000000008
 30
0.0
 11
145.0640556330277
 21
47.1816
 31
0.0
  0
LINE
  5
3FD
330
6C
100
AcDbEntity
  8
10
  6
Continuous
 62
     7
100
AcDbLine
 10
93.75945563302776
 20
-11.8057
 30
0.0
 11
125.1574556330275
 21
-17.34180000000003
 31
0.0
  0
LINE
  5
3FE
330
6C
100
AcDbEntity
  8
10
  6
Continuous
 62
     7
100
AcDbLine
 10
144.8903556330279
 20
46.19699999999999
 30
0.0
 11
146.0722556330277
 21
45.98849999999993
 31
0.0
  0
LINE
  5
3FF
330
6C
100
AcDbEntity
  8
10
  6
Continuous
 62
     7
100
AcDbLine
 10
146.0744556330278
 20
45.98829999999998
 30
0.0
 11
135.6533556330278
 21
-13.1001
 31
0.0
  0
LINE
  5
400
330
6C
100
AcDbEntity
  8
10
  6
Continuous
 62
     7
100
AcDbLine
 10
134.4716556330277
 20
-12.89160000000004
 30
0.0
 11
135.6533556330278
 21
-13.1001
 31
0.0
  0
LINE
  5
401
330
6C
100
AcDbEntity
  8
10
  6
Continuous
 62
     7
100
AcDbLine
 10
137.2785556330277
 20
-9.458499999999956
 30
0.0
 11
141.6715928743126
 21
-10.08964790188986
 31
0.0
  0
LINE
  5
402
330
6C
100
AcDbEntity
  8
110
  6
DASH_CENTER
 62
    30
100
AcDbLine
 10
112.5492556330278
 20
-7.071800000000052
 30
0.0
 11
109.3931556330276
 21
-24.97119999999995
 31
0.0
  0
LINE
  5
403
330
6C
100
AcDbEntity
  8
110
  6
DASH_CENTER
 62
    30
100
AcDbLine
 10
93.96435563302771
 20
-18.80100000000004
 30
0.0
 11
83.38885563302756
 21
-11.3193
 31
0.0
  0
LINE
  5
404
330
6C
100
AcDbEntity
  8
10
  6
Continuous
 62
     7
100
AcDbLine
 10
133.0349556330277
 20
-11.82590000000004
 30
0.0
 11
143.4885556330278
 21
47.45949999999993
 31
0.0
  0
LINE
  5
405
330
6C
100
AcDbEntity
  8
110
  6
DASHED
 62
   171
100
AcDbLine
 10
94.27045563302772
 20
-11.08339999999998
 30
0.0
 11
125.2963556330278
 21
-16.55399999999997
 31
0.0
  0
LINE
  5
406
330
6C
100
AcDbEntity
  8
10
  6
Continuous
 62
     7
100
AcDbLine
 10
85.49765563302775
 20
-17.25049999999999
 30
0.0
 11
84.99165563302765
 21
-17.96580000000006
 31
0.0
  0
LINE
  5
407
330
6C
100
AcDbEntity
  8
10
  6
Continuous
 62
     7
100
AcDbLine
 10
230.1226556330278
 20
8.0
 30
0.0
 11
238.1226556330278
 21
8.0
 31
0.0
  0
LINE
  5
408
330
6C
100
AcDbEntity
  8
10
  6
Continuous
 62
     7
100
AcDbLine
 10
230.1226556330278
 20
8.0
 30
0.0
 11
230.1226556330278
 21
15.0
 31
0.0
  0
LINE
  5
409
330
6C
100
AcDbEntity
  8
10
  6
Continuous
 62
     7
100
AcDbLine
 10
238.1226556330278
 20
8.0
 30
0.0
 11
238.1226556330278
 21
15.0
 31
0.0
  0
LINE
  5
40A
330
6C
100
AcDbEntity
  8
10
  6
Continuous
 62
     7
100
AcDbLine
 10
244.3985556330276
 20
-83.14110000000004
 30
0.0
 11
244.0115556330277
 21
-83.55349999999999
 31
0.0
  0
LINE
  5
40B
330
6C
100
AcDbEntity
  8
10
  6
Continuous
 62
     7
100
AcDbLine
 10
277.9217556330277
 20
-82.91700000000004
 30
0.0
 11
274.7774556330278
 21
-78.7704
 31
0.0
  0
LINE
  5
40C
330
6C
100
AcDbEntity
  8
10
  6
Continuous
 62
     7
100
AcDbLine
 10
320.0225556330277
 20
-83.77960000000006
 30
0.0
 11
303.2264556330279
 21
-63.60230000000001
 31
0.0
  0
LINE
  5
40D
330
6C
100
AcDbEntity
  8
10
  6
Continuous
 62
     7
100
AcDbLine
 10
321.5597556330276
 20
-84.50000000000001
 30
0.0
 11
324.1222556330277
 21
-84.50000000000001
 31
0.0
  0
LINE
  5
40E
330
6C
100
AcDbEntity
  8
10
  6
Continuous
 62
     7
100
AcDbLine
 10
284.1222556330276
 20
-84.50000000000001
 30
0.0
 11
284.1222556330276
 21
-86.0
 31
0.0
  0
LINE
  5
40F
330
6C
100
AcDbEntity
  8
10
  6
Continuous
 62
     7
100
AcDbLine
 10
281.1090556330277
 20
-84.50000000000001
 30
0.0
 11
321.5594556330277
 21
-84.50000000000001
 31
0.0
  0
LINE
  5
410
330
6C
100
AcDbEntity
  8
10
  6
Continuous
 62
     7
100
AcDbLine
 10
234.1226556330278
 20
-84.50009999999997
 30
0.0
 11
281.1090556330277
 21
-84.50000000000001
 31
0.0
  0
LINE
  5
411
330
6C
100
AcDbEntity
  8
10
  6
Continuous
 62
     7
100
AcDbLine
 10
234.1226556330278
 20
-88.49999999999999
 30
0.0
 11
284.1222556330276
 21
-88.49999999999999
 31
0.0
  0
LINE
  5
412
330
6C
100
AcDbEntity
  8
10
  6
Continuous
 62
     7
100
AcDbLine
 10
284.9527556330277
 20
41.87799999999993
 30
0.0
 11
304.6258556330276
 21
41.87799999999993
 31
0.0
  0
LINE
  5
413
330
6C
100
AcDbEntity
  8
10
  6
Continuous
 62
     7
100
AcDbLine
 10
234.1226556330278
 20
-84.50009999999997
 30
0.0
 11
187.1358556330278
 21
-84.50000000000001
 31
0.0
  0
LINE
  5
414
330
6C
100
AcDbEntity
  8
10
  6
Continuous
 62
     7
100
AcDbLine
 10
187.1358556330278
 20
-84.50000000000001
 30
0.0
 11
146.6854556330277
 21
-84.50000000000001
 31
0.0
  0
LINE
  5
415
330
6C
100
AcDbEntity
  8
10
  6
Continuous
 62
     7
100
AcDbLine
 10
183.2923556330277
 20
41.87799999999993
 30
0.0
 11
163.6192556330277
 21
41.87799999999993
 31
0.0
  0
LINE
  5
416
330
6C
100
AcDbEntity
  8
10
  6
Continuous
 62
     7
100
AcDbLine
 10
192.2444556330276
 20
-70.50340000000004
 30
0.0
 11
192.2444556330276
 21
-50.83019999999999
 31
0.0
  0
LINE
  5
417
330
6C
100
AcDbEntity
  8
10
  6
Continuous
 62
     7
100
AcDbLine
 10
304.6258556330276
 20
-41.87810000000001
 30
0.0
 11
284.9527556330277
 21
-41.87810000000001
 31
0.0
  0
LINE
  5
418
330
6C
100
AcDbEntity
  8
10
  6
Continuous
 62
     7
100
AcDbLine
 10
276.0006556330277
 20
70.50350000000003
 30
0.0
 11
276.0006556330277
 21
50.83029999999997
 31
0.0
  0
LINE
  5
419
330
6C
100
AcDbEntity
  8
10
  6
Continuous
 62
     7
100
AcDbLine
 10
144.1226556330278
 20
-90.0
 30
0.0
 11
184.1226556330276
 21
-90.0
 31
0.0
  0
LINE
  5
41A
330
6C
100
AcDbEntity
  8
110
  6
DASH_CENTER
 62
    30
100
AcDbLine
 10
164.1226556330276
 20
-105.4651
 30
0.0
 11
164.1226556330276
 21
-73.83050000000003
 31
0.0
  0
LINE
  5
41B
330
6C
100
AcDbEntity
  8
10
  6
Continuous
 62
     7
100
AcDbLine
 10
163.6192556330277
 20
-41.87810000000001
 30
0.0
 11
183.2923556330277
 21
-41.87810000000001
 31
0.0
  0
LINE
  5
41C
330
6C
100
AcDbEntity
  8
10
  6
Continuous
 62
     7
100
AcDbLine
 10
184.1226556330276
 20
-88.49999999999999
 30
0.0
 11
184.1226556330276
 21
-90.0
 31
0.0
  0
LINE
  5
41D
330
6C
100
AcDbEntity
  8
10
  6
Continuous
 62
     7
100
AcDbLine
 10
184.1226556330276
 20
-84.50000000000001
 30
0.0
 11
184.1226556330276
 21
-86.0
 31
0.0
  0
LINE
  5
41E
330
6C
100
AcDbEntity
  8
10
  6
Continuous
 62
     7
100
AcDbLine
 10
234.1226556330278
 20
-88.49999999999999
 30
0.0
 11
184.1226556330276
 21
-88.49999999999999
 31
0.0
  0
LINE
  5
41F
330
6C
100
AcDbEntity
  8
10
  6
Continuous
 62
     7
100
AcDbLine
 10
146.6851556330276
 20
-84.50000000000001
 30
0.0
 11
144.1226556330278
 21
-84.50000000000001
 31
0.0
  0
LINE
  5
420
330
6C
100
AcDbEntity
  8
10
  6
Continuous
 62
     7
100
AcDbLine
 10
148.2223556330277
 20
-83.77960000000006
 30
0.0
 11
165.0184556330276
 21
-63.60230000000001
 31
0.0
  0
LINE
  5
421
330
6C
100
AcDbEntity
  8
10
  6
Continuous
 62
     7
100
AcDbLine
 10
276.0006556330277
 20
-70.50350000000003
 30
0.0
 11
276.0006556330277
 21
-50.83040000000003
 31
0.0
  0
LINE
  5
422
330
6C
100
AcDbEntity
  8
10
  6
Continuous
 62
     7
100
AcDbLine
 10
144.1226556330278
 20
-84.50000000000001
 30
0.0
 11
144.1226556330278
 21
-90.0
 31
0.0
  0
LINE
  5
423
330
6C
100
AcDbEntity
  8
10
  6
Continuous
 62
     7
100
AcDbLine
 10
184.1226556330276
 20
-86.0
 30
0.0
 11
144.1226556330278
 21
-86.0
 31
0.0
  0
LINE
  5
424
330
6C
100
AcDbEntity
  8
10
  6
Continuous
 62
     7
100
AcDbLine
 10
190.3231556330277
 20
-82.91700000000004
 30
0.0
 11
193.4674556330278
 21
-78.7704
 31
0.0
  0
LINE
  5
425
330
6C
100
AcDbEntity
  8
10
  6
Continuous
 62
     7
100
AcDbLine
 10
223.8468556330277
 20
-83.14110000000004
 30
0.0
 11
224.2337556330276
 21
-83.55349999999999
 31
0.0
  0
LINE
  5
426
330
6C
100
AcDbEntity
  8
10
  6
Continuous
 62
     7
100
AcDbLine
 10
192.2444556330276
 20
70.50339999999993
 30
0.0
 11
192.2444556330276
 21
50.83019999999999
 31
0.0
  0
LINE
  5
427
330
6C
100
AcDbEntity
  8
110
  6
DASH_CENTER
 62
    30
100
AcDbLine
 10
282.0570556330276
 20
47.93439999999998
 30
0.0
 11
294.0980556330278
 21
59.97540000000004
 31
0.0
  0
LINE
  5
428
330
6C
100
AcDbEntity
  8
0
  6
Continuous
 62
     7
100
AcDbLine
 10
84.93405563302758
 20
-18.04719999999997
 30
0.0
 11
139.8295556330277
 21
59.54959999999993
 31
0.0
  0
LINE
  5
429
330
6C
100
AcDbEntity
  8
0
  6
Continuous
 62
     7
100
AcDbLine
 10
87.17975563302777
 20
-21.10609999999997
 30
0.0
 11
144.2545556330278
 21
59.56960000000004
 31
0.0
  0
LINE
  5
42A
330
6C
100
AcDbEntity
  8
0
  6
Continuous
 62
     7
100
AcDbLine
 10
140.3915556330275
 20
60.34280000000001
 30
0.0
 11
139.8300556330277
 21
59.54909999999995
 31
0.0
  0
LINE
  5
42B
330
6C
100
AcDbEntity
  8
0
  6
Continuous
 62
     7
100
AcDbLine
 10
137.5876556330277
 20
58.55200000000002
 30
0.0
 11
110.4201556330276
 21
61.77929999999992
 31
0.0
  0
LINE
  5
42C
330
6C
100
AcDbEntity
  8
0
  6
Continuous
 62
     7
100
AcDbLine
 10
85.88445563302775
 20
-14.64390000000003
 30
0.0
 11
85.73235563302773
 21
-14.38920000000007
 31
0.0
  0
LINE
  5
42D
330
6C
100
AcDbEntity
  8
0
  6
Continuous
 62
     7
100
AcDbLine
 10
142.6218556330276
 20
60.7251
 30
0.0
 11
144.2545556330278
 21
59.56989999999996
 31
0.0
  0
LINE
  5
42E
330
6C
100
AcDbEntity
  8
0
  6
Continuous
 62
     7
100
AcDbLine
 10
87.17975563302777
 20
-21.10609999999997
 30
0.0
 11
85.22055563302776
 21
-19.72000000000003
 31
0.0
  0
LINE
  5
42F
330
6C
100
AcDbEntity
  8
110
  6
DASH_CENTER
 62
    30
100
AcDbLine
 10
234.1224445534619
 20
82.24971122614695
 30
0.0
 11
234.1224445534619
 21
102.5635768266788
 31
0.0
  0
LINE
  5
430
330
6C
100
AcDbEntity
  8
110
  6
CENTER_DASH_DASH
 62
    30
100
AcDbLine
 10
234.1226556330278
 20
82.24934562561385
 30
0.0
 11
234.1226556330278
 21
106.085365747113
 31
0.0
  0
LINE
  5
431
330
6C
100
AcDbEntity
  8
110
  6
DASH_CENTER
 62
    30
100
AcDbLine
 10
234.1226556330278
 20
82.24934562561385
 30
0.0
 11
234.1226556330278
 21
106.085365747113
 31
0.0
  0
LINE
  5
432
330
6C
100
AcDbEntity
  8
110
  6
DASH_CENTER
 62
    30
100
AcDbLine
 10
234.1226556330278
 20
82.24934562561385
 30
0.0
 11
234.1226556330278
 21
106.085365747113
 31
0.0
  0
LINE
  5
433
330
6C
100
AcDbEntity
  8
110
  6
DASH_CENTER
 62
    30
100
AcDbLine
 10
234.1226556330278
 20
82.24934562561385
 30
0.0
 11
234.1226556330278
 21
0.0
 31
0.0
  0
LINE
  5
434
330
6C
100
AcDbEntity
  8
110
  6
DASH_CENTER
 62
    30
100
AcDbLine
 10
234.1226556330278
 20
82.24934562561385
 30
0.0
 11
234.1226556330278
 21
0.0
 31
0.0
  0
LINE
  5
435
330
6C
100
AcDbEntity
  8
110
  6
DASH_CENTER
 62
    30
100
AcDbLine
 10
234.1226556330278
 20
82.24934562561385
 30
0.0
 11
234.1226556330278
 21
0.0
 31
0.0
  0
LINE
  5
436
330
6C
100
AcDbEntity
  8
110
  6
DASH_CENTER
 62
    30
100
AcDbLine
 10
234.1226556330278
 20
0.0
 30
0.0
 11
326.1226556330275
 21
0.0
 31
0.0
  0
LINE
  5
437
330
6C
100
AcDbEntity
  8
10
  6
Continuous
 62
     7
100
AcDbLine
 10
244.1226556330278
 20
91.45490692138935
 30
0.0
 11
244.1226556330278
 21
84.14859999999999
 31
0.0
  0
LINE
  5
438
330
6C
100
AcDbEntity
  8
10
  6
Continuous
 62
     7
100
AcDbLine
 10
224.1226556330278
 20
91.45490692138935
 30
0.0
 11
224.1226556330278
 21
84.14859999999999
 31
0.0
  0
LINE
  5
439
330
6C
100
AcDbEntity
  8
10
  6
Continuous
 62
     7
100
AcDbLine
 10
318.3248579994579
 20
-37.06735918085815
 30
0.0
 11
311.9972556330276
 21
-33.41409999999996
 31
0.0
  0
LINE
  5
43A
330
6C
100
AcDbEntity
  8
10
  6
Continuous
 62
     7
100
AcDbLine
 10
308.324731305931
 20
-54.38797629837655
 30
0.0
 11
301.9974556330276
 21
-50.73500000000001
 31
0.0
  0
LINE
  5
43B
330
6C
100
AcDbEntity
  8
10
  6
Continuous
 62
     7
100
AcDbLine
 10
149.9203759266565
 20
-37.06718349497362
 30
0.0
 11
156.2477556330277
 21
-33.41409999999996
 31
0.0
  0
LINE
  5
43C
330
6C
100
AcDbEntity
  8
10
  6
Continuous
 62
     7
100
AcDbLine
 10
159.9203684911122
 20
-54.38768778785084
 30
0.0
 11
166.2477556330277
 21
-50.7346
 31
0.0
  0
LINE
  5
43D
330
6C
100
AcDbEntity
  8
10
  6
Continuous
 62
     7
100
AcDbLine
 10
142.6939208769838
 20
-10.23652582221916
 30
0.0
 11
145.5029556330278
 21
-10.64010000000007
 31
0.0
  0
LINE
  5
43E
330
6C
100
AcDbEntity
  8
10
  6
Continuous
 62
     7
100
AcDbLine
 10
151.3499528886959
 20
-42.63287336702171
 30
0.0
 11
150.1768810476569
 21
-43.45425333741398
 31
0.0
  0
LINE
  5
43F
330
6C
100
AcDbEntity
  8
10
  6
Continuous
 62
     7
100
AcDbLine
 10
149.70905094543
 20
-45.56494783104642
 30
0.0
 11
152.4541009454301
 21
-50.3195139003634
 31
0.0
  0
LINE
  5
440
330
6C
100
AcDbEntity
  8
10
  6
Continuous
 62
     7
100
AcDbLine
 10
155.8138528886961
 20
-50.36457496692843
 30
0.0
 11
154.5160310476572
 21
-50.96988159907652
 31
0.0
  0
LINE
  5
441
330
6C
100
AcDbEntity
  8
10
  6
Continuous
 62
     7
100
AcDbLine
 10
312.4301583773595
 20
-50.36682663297836
 30
0.0
 11
313.7280302183981
 21
-50.97204666258608
 31
0.0
  0
LINE
  5
442
330
6C
100
AcDbEntity
  8
10
  6
Continuous
 62
     7
100
AcDbLine
 10
315.7898603206254
 20
-50.32185216895356
 30
0.0
 11
318.5349103206254
 21
-45.56728609963671
 31
0.0
  0
LINE
  5
443
330
6C
100
AcDbEntity
  8
10
  6
Continuous
 62
     7
100
AcDbLine
 10
316.8940583773594
 20
-42.63512503307163
 30
0.0
 11
318.0671802183983
 21
-43.45641840092354
 31
0.0
  0
LINE
  5
444
330
6C
100
AcDbEntity
  8
0
  6
DASH_CENTER
 62
    30
100
AcDbLine
 10
234.1226556330278
 20
0.0
 30
0.0
 11
234.1226556330278
 21
-107.6171894109842
 31
0.0
  0
LINE
  5
445
330
6C
100
AcDbEntity
  8
110
  6
DASH_CENTER
 62
    30
100
AcDbLine
 10
234.1226556330278
 20
0.0
 30
0.0
 11
141.1226556330276
 21
0.0
 31
0.0
  0
LINE
  5
446
330
6C
100
AcDbEntity
  8
0
  6
Continuous
 62
    30
100
AcDbLine
 10
234.1226556330278
 20
106.085365747113
 30
0.0
 11
234.1226556330278
 21
112.1900812715189
 31
0.0
  0
LINE
  5
447
330
6C
100
AcDbEntity
  8
0
  6
Continuous
 62
     7
100
AcDbLine
 10
158.0382921834316
 20
51.71782343718996
 30
0.0
 11
158.1969988970272
 21
51.95473654256193
 31
0.0
  0
LINE
  5
448
330
6C
100
AcDbEntity
  8
10
  6
Continuous
 62
     7
100
AcDbLine
 10
141.6715928743126
 20
-10.08964790188986
 30
0.0
 11
142.6939208769838
 21
-10.23652582221916
 31
0.0
  0
LINE
  5
449
330
6C
100
AcDbEntity
  8
110
  6
DASH_CENTER
 62
    30
100
AcDbLine
 10
141.1226556330276
 20
0.0
 30
0.0
 11
84.08535563302756
 21
0.0
 31
0.0
  0
LINE
  5
44A
330
6C
100
AcDbEntity
  8
110
  6
DASH_CENTER
 62
    30
100
AcDbLine
 10
327.2923926615238
 20
0.0
 30
0.0
 11
342.3607556330278
 21
0.0
 31
0.0
  0
ARC
  5
44B
330
6C
100
AcDbEntity
  8
0
  6
Continuous
 62
     7
100
AcDbCircle
 10
234.1226556330278
 20
0.0
 30
0.0
 40
93.0
100
AcDbArc
 50
317.4493682537231
 51
0.0
  0
ARC
  5
44C
330
6C
100
AcDbEntity
  8
0
  6
Continuous
 62
     7
100
AcDbCircle
 10
234.1226556330278
 20
0.0
 30
0.0
 40
92.99999999999988
100
AcDbArc
 50
0.0
 51
153.7716846944866
  0
ARC
  5
44D
330
6C
100
AcDbEntity
  8
0
  6
Continuous
 62
     7
100
AcDbCircle
 10
234.1226556330278
 20
0.0
 30
0.0
 40
92.00000000000006
100
AcDbArc
 50
336.2400223902274
 51
0.0
  0
ARC
  5
44E
330
6C
100
AcDbEntity
  8
0
  6
Continuous
 62
     7
100
AcDbCircle
 10
234.1226556330278
 20
0.0
 30
0.0
 40
91.99999999999986
100
AcDbArc
 50
0.0
 51
83.75986890173759
  0
ARC
  5
44F
330
6C
100
AcDbEntity
  8
0
  6
Continuous
 62
     7
100
AcDbCircle
 10
234.1226556330278
 20
0.0
 30
0.0
 40
92.0
100
AcDbArc
 50
96.24013109826243
 51
153.6116803277794
  0
ARC
  5
450
330
6C
100
AcDbEntity
  8
0
  6
DASHED
 62
    30
100
AcDbCircle
 10
234.1226556330278
 20
0.0
 30
0.0
 40
92.99999999999993
100
AcDbArc
 50
153.7716846944866
 51
186.2283262801654
  0
ARC
  5
451
330
6C
100
AcDbEntity
  8
10
  6
Continuous
 62
     7
100
AcDbCircle
 10
236.8691470341168
 20
94.28670787977251
 30
0.0
 40
1.599992120250592
100
AcDbArc
 50
4.997973270581105
 51
89.99969207266536
  0
ARC
  5
452
330
6C
100
AcDbEntity
  8
10
  6
Continuous
 62
     7
100
AcDbCircle
 10
231.3789098761813
 20
94.28665806986009
 30
0.0
 40
1.60004193105937
100
AcDbArc
 50
90.00194238894708
 51
175.0003922678049
  0
ARC
  5
453
330
6C
100
AcDbEntity
  8
110
  6
DASH_CENTER
 62
    30
100
AcDbCircle
 10
234.1225499125203
 20
-0.0001044328548687
 30
0.0
 40
75.50004705871323
100
AcDbArc
 50
305.838721391988
 51
323.4591615717878
  0
ARC
  5
454
330
6C
100
AcDbEntity
  8
10
  6
Continuous
 62
     7
100
AcDbCircle
 10
286.3089556330278
 20
-52.18640000000005
 30
0.0
 40
0.5999999999999944
100
AcDbArc
 50
270.0
 51
0.0
  0
ARC
  5
455
330
6C
100
AcDbEntity
  8
10
  6
Continuous
 62
     7
100
AcDbCircle
 10
286.3089556330278
 20
-54.5865
 30
0.0
 40
0.6000000000000229
100
AcDbArc
 50
0.0
 51
90.0
  0
ARC
  5
456
330
6C
100
AcDbEntity
  8
10
  6
Continuous
 62
     7
100
AcDbCircle
 10
288.7091556330276
 20
-54.5865
 30
0.0
 40
0.5999999999999944
100
AcDbArc
 50
90.0
 51
180.0
  0
ARC
  5
457
330
6C
100
AcDbEntity
  8
10
  6
Continuous
 62
     7
100
AcDbCircle
 10
288.7091556330276
 20
-52.18640000000005
 30
0.0
 40
0.5999999999999659
100
AcDbArc
 50
180.0
 51
270.0
  0
ARC
  5
458
330
6C
100
AcDbEntity
  8
110
  6
DASH_CENTER
 62
    30
100
AcDbCircle
 10
234.1227371817345
 20
-0.0000825547068644
 30
0.0
 40
75.50000652530791
100
AcDbArc
 50
215.8385673601205
 51
233.458963106886
  0
ARC
  5
459
330
6C
100
AcDbEntity
  8
10
  6
Continuous
 62
     7
100
AcDbCircle
 10
181.9363556330277
 20
-52.18640000000005
 30
0.0
 40
0.5999999999999944
100
AcDbArc
 50
180.0
 51
270.0
  0
ARC
  5
45A
330
6C
100
AcDbEntity
  8
10
  6
Continuous
 62
     7
100
AcDbCircle
 10
179.5361556330276
 20
-52.18640000000005
 30
0.0
 40
0.5999999999999944
100
AcDbArc
 50
270.0
 51
0.0
  0
ARC
  5
45B
330
6C
100
AcDbEntity
  8
10
  6
Continuous
 62
     7
100
AcDbCircle
 10
179.5361556330276
 20
-54.5865
 30
0.0
 40
0.5999999999999944
100
AcDbArc
 50
0.0
 51
90.0
  0
ARC
  5
45C
330
6C
100
AcDbEntity
  8
10
  6
Continuous
 62
     7
100
AcDbCircle
 10
181.9363556330277
 20
-54.5865
 30
0.0
 40
0.5999999999999944
100
AcDbArc
 50
90.0
 51
180.0
  0
ARC
  5
45D
330
6C
100
AcDbEntity
  8
110
  6
DASH_CENTER
 62
    30
100
AcDbCircle
 10
234.1226236913258
 20
-0.0000315524648613
 30
0.0
 40
75.49993707860281
100
AcDbArc
 50
125.8385591918031
 51
143.4589712751969
  0
ARC
  5
45E
330
6C
100
AcDbEntity
  8
10
  6
Continuous
 62
     7
100
AcDbCircle
 10
181.9363556330277
 20
52.18629999999996
 30
0.0
 40
0.5999999999999944
100
AcDbArc
 50
90.0
 51
180.0
  0
ARC
  5
45F
330
6C
100
AcDbEntity
  8
10
  6
Continuous
 62
     7
100
AcDbCircle
 10
181.9363556330277
 20
54.5865
 30
0.0
 40
0.5999999999999944
100
AcDbArc
 50
180.0
 51
270.0
  0
ARC
  5
460
330
6C
100
AcDbEntity
  8
10
  6
Continuous
 62
     7
100
AcDbCircle
 10
179.5362556330278
 20
54.5865
 30
0.0
 40
0.5999999999999944
100
AcDbArc
 50
270.0
 51
0.0
  0
ARC
  5
461
330
6C
100
AcDbEntity
  8
10
  6
Continuous
 62
     7
100
AcDbCircle
 10
179.5362556330278
 20
52.18629999999996
 30
0.0
 40
0.6000000000000229
100
AcDbArc
 50
0.0
 51
90.0
  0
ARC
  5
462
330
6C
100
AcDbEntity
  8
10
  6
Continuous
 62
     7
100
AcDbCircle
 10
286.3089556330278
 20
52.18629999999996
 30
0.0
 40
0.6000000000000229
100
AcDbArc
 50
0.0
 51
90.0
  0
ARC
  5
463
330
6C
100
AcDbEntity
  8
10
  6
Continuous
 62
     7
100
AcDbCircle
 10
288.7091556330276
 20
52.18629999999996
 30
0.0
 40
0.5999999999999944
100
AcDbArc
 50
90.0
 51
180.0
  0
ARC
  5
464
330
6C
100
AcDbEntity
  8
10
  6
Continuous
 62
     7
100
AcDbCircle
 10
288.7091556330276
 20
54.5865
 30
0.0
 40
0.5999999999999659
100
AcDbArc
 50
180.0
 51
270.0
  0
ARC
  5
465
330
6C
100
AcDbEntity
  8
10
  6
Continuous
 62
     7
100
AcDbCircle
 10
286.3089556330278
 20
54.5865
 30
0.0
 40
0.5999999999999944
100
AcDbArc
 50
270.0
 51
0.0
  0
ARC
  5
466
330
6C
100
AcDbEntity
  8
10
  6
Continuous
 62
     7
100
AcDbCircle
 10
122.6779086479428
 20
-18.73213290024011
 30
0.0
 40
3.000027284327587
100
AcDbArc
 50
260.0018666906371
 51
349.999654243467
  0
ARC
  5
467
330
6C
100
AcDbEntity
  8
10
  6
Continuous
 62
     7
100
AcDbCircle
 10
99.04314859020132
 20
-14.56468994179613
 30
0.0
 40
2.999978044061194
100
AcDbArc
 50
169.9990454301084
 51
260.0009262880558
  0
ARC
  5
468
330
6C
100
AcDbEntity
  8
10
  6
Continuous
 62
     7
100
AcDbCircle
 10
234.1226828716608
 20
-0.0000272385368589
 30
0.0
 40
84.1999713323794
100
AcDbArc
 50
31.25941963894412
 51
58.74078293381288
  0
ARC
  5
469
330
6C
100
AcDbEntity
  8
10
  6
Continuous
 62
     7
100
AcDbCircle
 10
84.61695294492619
 20
-15.55007871745931
 30
0.0
 40
1.599985132599604
100
AcDbArc
 50
144.69933701984
 51
229.697967772025
  0
ARC
  5
46A
330
6C
100
AcDbEntity
  8
10
  6
Continuous
 62
     7
100
AcDbCircle
 10
146.5588618190657
 20
42.98949085856043
 30
0.0
 40
1.000009044898175
100
AcDbArc
 50
169.9965445400859
 51
258.1761011653019
  0
ARC
  5
46B
330
6C
100
AcDbEntity
  8
10
  6
Continuous
 62
     7
100
AcDbCircle
 10
146.5588618190657
 20
42.98949085856043
 30
0.0
 40
1.000009044898175
100
AcDbArc
 50
169.9965445400859
 51
258.1761011653019
  0
ARC
  5
46C
330
6C
100
AcDbEntity
  8
10
  6
Continuous
 62
     7
100
AcDbCircle
 10
153.4209363471673
 20
35.2185252113411
 30
0.0
 40
5.199991125857089
100
AcDbArc
 50
356.6526205512655
 51
78.17701779830405
  0
ARC
  5
46D
330
6C
100
AcDbEntity
  8
10
  6
Continuous
 62
     7
100
AcDbCircle
 10
146.2424088184546
 20
-5.49292992044775
 30
0.0
 40
5.200028725104615
100
AcDbArc
 50
261.8236147182208
 51
343.3438566000234
  0
ARC
  5
46E
330
6C
100
AcDbEntity
  8
10
  6
Continuous
 62
     7
100
AcDbCircle
 10
137.136451363923
 20
-10.44820309151202
 30
0.0
 40
0.9999803322926958
100
AcDbArc
 50
81.81863160233154
 51
170.0024244370149
  0
ARC
  5
46F
330
6C
100
AcDbEntity
  8
10
  6
Continuous
 62
   171
100
AcDbCircle
 10
93.61609994791729
 20
-16.85725236747146
 30
0.0
 40
5.000010292587278
100
AcDbArc
 50
80.00683009578665
 51
89.00236697650061
  0
ARC
  5
470
330
6C
100
AcDbEntity
  8
110
  6
DASHED
 62
   171
100
AcDbCircle
 10
126.3382556330277
 20
-10.64499999999998
 30
0.0
 40
6.00005456808521
100
AcDbArc
 50
259.9999858590804
 51
349.999985859082
  0
ARC
  5
471
330
6C
100
AcDbEntity
  8
10
  6
Continuous
 62
     7
100
AcDbCircle
 10
126.3382656916792
 20
-10.64499295696487
 30
0.0
 40
6.800014530488112
100
AcDbArc
 50
260.0000006218081
 51
349.9991708404021
  0
ARC
  5
472
330
6C
100
AcDbEntity
  8
10
  6
Continuous
 62
     7
100
AcDbCircle
 10
137.7766487292172
 20
48.46651301221903
 30
0.0
 40
5.800030907657566
100
AcDbArc
 50
349.999516361806
 51
65.89807788844757
  0
ARC
  5
473
330
6C
100
AcDbEntity
  8
10
  6
Continuous
 62
     7
100
AcDbCircle
 10
155.2477805526185
 20
-31.68195986094406
 30
0.0
 40
2.000064904638819
100
AcDbArc
 50
299.9981022322143
 51
356.3352703614589
  0
ARC
  5
474
330
6C
100
AcDbEntity
  8
10
  6
Continuous
 62
     7
100
AcDbCircle
 10
222.1226281284751
 20
84.14864863492402
 30
0.0
 40
2.000027505212154
100
AcDbArc
 50
303.6629359697383
 51
0.0014714807945265
  0
ARC
  5
475
330
6C
100
AcDbEntity
  8
10
  6
Continuous
 62
     7
100
AcDbCircle
 10
167.2478019613522
 20
-52.46659851733647
 30
0.0
 40
1.999977880590544
100
AcDbArc
 50
63.66416878448572
 51
120.0018984198865
  0
ARC
  5
476
330
6C
100
AcDbEntity
  8
10
  6
Continuous
 62
     7
100
AcDbCircle
 10
312.9972578187909
 20
-31.68200351930045
 30
0.0
 40
2.000040647082617
100
AcDbArc
 50
183.6864859605669
 51
240.0005999788585
  0
ARC
  5
477
330
6C
100
AcDbEntity
  8
10
  6
Continuous
 62
     7
100
AcDbCircle
 10
246.122641522581
 20
84.14862634984251
 30
0.0
 40
1.999985889726879
100
AcDbArc
 50
180.0007548727056
 51
236.3377024226787
  0
ARC
  5
478
330
6C
100
AcDbEntity
  8
10
  6
Continuous
 62
     7
100
AcDbCircle
 10
300.9972950236809
 20
-52.46700125868072
 30
0.0
 40
1.99997400194272
100
AcDbArc
 50
60.00418096756374
 51
116.3354297121191
  0
ARC
  5
479
330
6C
100
AcDbEntity
  8
10
  6
Continuous
 62
     7
100
AcDbCircle
 10
234.1227056330276
 20
0.0
 30
0.0
 40
12.00000865385105
100
AcDbArc
 50
109.4714592399536
 51
70.52854076004627
  0
ARC
  5
47A
330
6C
100
AcDbEntity
  8
10
  6
Continuous
 62
     7
100
AcDbCircle
 10
234.1227056330276
 20
0.0
 30
0.0
 40
12.39999662953583
100
AcDbArc
 50
108.8193127560959
 51
71.18068724390409
  0
ARC
  5
47B
330
6C
100
AcDbEntity
  8
110
  6
DASH_CENTER
 62
    30
100
AcDbCircle
 10
234.1225740843208
 20
0.000082554706637
 30
0.0
 40
75.50000652530788
100
AcDbArc
 50
35.83856736012047
 51
53.45896310688605
  0
ARC
  5
47C
330
6C
100
AcDbEntity
  8
10
  6
Continuous
 62
     7
100
AcDbCircle
 10
234.1227556330277
 20
0.0
 30
0.0
 40
12.74999998784314
100
AcDbArc
 50
108.2838899584528
 51
71.71611004154714
  0
ARC
  5
47D
330
6C
100
AcDbEntity
  8
10
  6
Continuous
 62
     7
100
AcDbCircle
 10
295.5406556330276
 20
-70.0
 30
0.0
 40
9.999986402490772
100
AcDbArc
 50
50.78777529490597
 51
124.6116270276668
  0
ARC
  5
47E
330
6C
100
AcDbEntity
  8
10
  6
Continuous
 62
     7
100
AcDbCircle
 10
321.5597416123669
 20
-82.49999342886997
 30
0.0
 40
2.000006571179258
100
AcDbArc
 50
219.7769958471073
 51
270.0004016610271
  0
ARC
  5
47F
330
6C
100
AcDbEntity
  8
10
  6
Continuous
 62
     7
100
AcDbCircle
 10
246.5856992355755
 20
-85.1941392284557
 30
0.0
 40
2.999966520693277
100
AcDbArc
 50
112.8354279365561
 51
136.807313780495
  0
ARC
  5
480
330
6C
100
AcDbEntity
  8
10
  6
Continuous
 62
     7
100
AcDbCircle
 10
241.8240334372051
 20
-81.50000960760158
 30
0.0
 40
2.999990394887132
100
AcDbArc
 50
270.002333775776
 51
316.8090211563757
  0
ARC
  5
481
330
6C
100
AcDbEntity
  8
10
  6
Continuous
 62
     7
100
AcDbCircle
 10
269.199621298894
 20
-82.99975502009852
 30
0.0
 40
6.999977124610646
100
AcDbArc
 50
37.17097636819076
 51
50.28431491787358
  0
ARC
  5
482
330
6C
100
AcDbEntity
  8
10
  6
Continuous
 62
     7
100
AcDbCircle
 10
281.1090389170136
 20
-80.49999169758711
 30
0.0
 40
4.000008302447808
100
AcDbArc
 50
217.1749508031003
 51
270.0002394387646
  0
ARC
  5
483
330
6C
100
AcDbEntity
  8
10
  6
Continuous
 62
     7
100
AcDbCircle
 10
269.1996362406289
 20
-83.0000284389092
 30
0.0
 40
6.999971058346845
100
AcDbArc
 50
37.17382264449803
 51
103.959801728904
  0
ARC
  5
484
330
6C
100
AcDbEntity
  8
10
  6
Continuous
 62
     7
100
AcDbCircle
 10
277.0006742310798
 20
-50.83035997648902
 30
0.0
 40
1.000018598853165
100
AcDbArc
 50
130.1511769550091
 51
180.002293135611
  0
ARC
  5
485
330
6C
100
AcDbEntity
  8
10
  6
Continuous
 62
     7
100
AcDbCircle
 10
191.2443048050827
 20
-50.83009058608491
 30
0.0
 40
1.0000508339305
100
AcDbArc
 50
359.9937313630936
 51
49.84046901451293
  0
ARC
  5
486
330
6C
100
AcDbEntity
  8
10
  6
Continuous
 62
     7
100
AcDbCircle
 10
284.9527978513766
 20
-42.87808038205457
 30
0.0
 40
0.9999803837239655
100
AcDbArc
 50
89.9966892903083
 51
139.8498406190659
  0
ARC
  5
487
330
6C
100
AcDbEntity
  8
10
  6
Continuous
 62
     7
100
AcDbCircle
 10
277.0006742310798
 20
50.83025997648896
 30
0.0
 40
1.000018598853162
100
AcDbArc
 50
179.9977068643824
 51
229.8488230449909
  0
ARC
  5
488
330
6C
100
AcDbEntity
  8
10
  6
Continuous
 62
     7
100
AcDbCircle
 10
191.2443430087082
 20
50.83017283158302
 30
0.0
 40
1.000012626971555
100
AcDbArc
 50
310.158514170774
 51
359.9958271103588
  0
ARC
  5
489
330
6C
100
AcDbEntity
  8
10
  6
Continuous
 62
     7
100
AcDbCircle
 10
304.6258920581299
 20
39.87797875463911
 30
0.0
 40
2.000021245692606
100
AcDbArc
 50
29.49222132218773
 51
90.00104349122812
  0
ARC
  5
48A
330
6C
100
AcDbEntity
  8
10
  6
Continuous
 62
     7
100
AcDbCircle
 10
234.1226556330278
 20
0.0
 30
0.0
 40
65.50004568616727
100
AcDbArc
 50
310.1493892430688
 51
319.8506107569289
  0
ARC
  5
48B
330
6C
100
AcDbEntity
  8
10
  6
Continuous
 62
     7
100
AcDbCircle
 10
183.2923956565387
 20
-42.87811859805219
 30
0.0
 40
1.000018598853152
100
AcDbArc
 50
40.15117695501259
 51
90.0022931356111
  0
ARC
  5
48C
330
6C
100
AcDbEntity
  8
10
  6
Continuous
 62
     7
100
AcDbCircle
 10
284.9527978513766
 20
42.8779803820546
 30
0.0
 40
0.9999803837239655
100
AcDbArc
 50
220.150159380934
 51
270.0033107096917
  0
ARC
  5
48D
330
6C
100
AcDbEntity
  8
10
  6
Continuous
 62
     7
100
AcDbCircle
 10
163.6192516188159
 20
39.87799765876082
 30
0.0
 40
2.000002341243224
100
AcDbArc
 50
89.99988500143448
 51
150.504803249486
  0
ARC
  5
48E
330
6C
100
AcDbEntity
  8
10
  6
Continuous
 62
     7
100
AcDbCircle
 10
194.2443333570504
 20
-70.50336181010312
 30
0.0
 40
1.999977724387291
100
AcDbArc
 50
180.0010940721447
 51
240.5085059063207
  0
ARC
  5
48F
330
6C
100
AcDbEntity
  8
10
  6
Continuous
 62
     7
100
AcDbCircle
 10
163.6191770012796
 20
-39.87805414164304
 30
0.0
 40
2.000045859902713
100
AcDbArc
 50
209.4959238200467
 51
270.0022525819947
  0
ARC
  5
490
330
6C
100
AcDbEntity
  8
10
  6
Continuous
 62
     7
100
AcDbCircle
 10
304.6258920581299
 20
-39.87807875463909
 30
0.0
 40
2.000021245692618
100
AcDbArc
 50
269.9989565087719
 51
330.5077786778123
  0
ARC
  5
491
330
6C
100
AcDbEntity
  8
10
  6
Continuous
 62
     7
100
AcDbCircle
 10
274.0006532917885
 20
70.50350401421178
 30
0.0
 40
2.000002341243253
100
AcDbArc
 50
359.9998850014344
 51
60.50480324948603
  0
ARC
  5
492
330
6C
100
AcDbEntity
  8
10
  6
Continuous
 62
     7
100
AcDbCircle
 10
274.0006532917885
 20
-70.50350401421178
 30
0.0
 40
2.000002341243234
100
AcDbArc
 50
299.495196750514
 51
0.0001149985655157
  0
ARC
  5
493
330
6C
100
AcDbEntity
  8
10
  6
Continuous
 62
     7
100
AcDbCircle
 10
194.2443087399474
 20
70.50331961450092
 30
0.0
 40
1.999953108535093
100
AcDbArc
 50
119.4877914684919
 51
179.9976970710895
  0
ARC
  5
494
330
6C
100
AcDbEntity
  8
10
  6
Continuous
 62
     7
100
AcDbCircle
 10
234.1226556330278
 20
0.0
 30
0.0
 40
65.50004568616728
100
AcDbArc
 50
40.14938924307112
 51
49.85061075693119
  0
ARC
  5
495
330
6C
100
AcDbEntity
  8
10
  6
Continuous
 62
     7
100
AcDbCircle
 10
199.0456048411606
 20
-82.99998264114709
 30
0.0
 40
6.999967143299838
100
AcDbArc
 50
76.03538117614346
 51
142.826623508773
  0
ARC
  5
496
330
6C
100
AcDbEntity
  8
10
  6
Continuous
 62
     7
100
AcDbCircle
 10
187.1358723490418
 20
-80.49999169758711
 30
0.0
 40
4.000008302447836
100
AcDbArc
 50
269.9997605612288
 51
322.8250491968997
  0
ARC
  5
497
330
6C
100
AcDbEntity
  8
10
  6
Continuous
 62
     7
100
AcDbCircle
 10
199.04529657486
 20
-82.99995720205901
 30
0.0
 40
6.999945185606242
100
AcDbArc
 50
129.7127803720525
 51
142.8267485406101
  0
ARC
  5
498
330
6C
100
AcDbEntity
  8
10
  6
Continuous
 62
     7
100
AcDbCircle
 10
234.1223360297722
 20
-0.0003195991752136
 30
0.0
 40
65.49993102981646
100
AcDbArc
 50
130.1491080916803
 51
139.8501603996926
  0
ARC
  5
499
330
6C
100
AcDbEntity
  8
10
  6
Continuous
 62
     7
100
AcDbCircle
 10
234.1226056330277
 20
0.0000499999999874
 30
0.0
 40
65.49996327056224
100
AcDbArc
 50
220.1495072774336
 51
229.8504927225699
  0
ARC
  5
49A
330
6C
100
AcDbEntity
  8
10
  6
Continuous
 62
     7
100
AcDbCircle
 10
226.4212778262304
 20
-81.50000960602822
 30
0.0
 40
2.999990394053823
100
AcDbArc
 50
223.1909788997756
 51
269.999576139692
  0
ARC
  5
49B
330
6C
100
AcDbEntity
  8
10
  6
Continuous
 62
     7
100
AcDbCircle
 10
221.6597561303515
 20
-85.19423944657466
 30
0.0
 40
3.000002965891133
100
AcDbArc
 50
43.19465812737575
 51
67.16785126974136
  0
ARC
  5
49C
330
6C
100
AcDbEntity
  8
10
  6
Continuous
 62
     7
100
AcDbCircle
 10
146.6851696536887
 20
-82.49999342886985
 30
0.0
 40
2.000006571179258
100
AcDbArc
 50
269.999598338973
 51
320.2230041528927
  0
ARC
  5
49D
330
6C
100
AcDbEntity
  8
10
  6
Continuous
 62
     7
100
AcDbCircle
 10
172.7042556330277
 20
-70.0
 30
0.0
 40
9.999950632378192
100
AcDbArc
 50
129.2105222168861
 51
140.2250934270624
  0
ARC
  5
49E
330
6C
100
AcDbEntity
  8
10
  6
Continuous
 62
     7
100
AcDbCircle
 10
183.2922262829127
 20
42.87798635601734
 30
0.0
 40
0.9999863643832563
100
AcDbArc
 50
270.0074113167511
 51
319.8571775259317
  0
ARC
  5
49F
330
6C
100
AcDbEntity
  8
0
  6
Continuous
 62
     7
100
AcDbCircle
 10
141.6977792429241
 20
59.41900404471903
 30
0.0
 40
1.599996451379254
100
AcDbArc
 50
54.71727522128464
 51
144.7251901440508
  0
ARC
  5
4A0
330
6C
100
AcDbEntity
  8
0
  6
Continuous
 62
     7
100
AcDbCircle
 10
384.1880669418888
 20
-45.54355368593781
 30
0.0
 40
300.599902895846
100
AcDbArc
 50
160.2268260275705
 51
171.6184749491135
  0
ARC
  5
4A1
330
6C
100
AcDbEntity
  8
0
  6
Continuous
 62
     7
100
AcDbCircle
 10
109.4057252733551
 20
53.23934305551414
 30
0.0
 40
8.599996137690792
100
AcDbArc
 50
83.2257860037542
 51
160.2275272614182
  0
ARC
  5
4A2
330
6C
100
AcDbEntity
  8
0
  6
Continuous
 62
     7
100
AcDbCircle
 10
87.96525027815368
 20
-13.05697540442565
 30
0.0
 40
2.600072005611854
100
AcDbArc
 50
173.745262884014
 51
210.8199170984204
  0
ARC
  5
4A3
330
6C
100
AcDbEntity
  8
0
  6
Continuous
 62
     7
100
AcDbCircle
 10
137.8708357820951
 20
60.93529117313368
 30
0.0
 40
2.399956492215634
100
AcDbArc
 50
263.2236629068501
 51
324.721701624787
  0
ARC
  5
4A4
330
6C
100
AcDbEntity
  8
0
  6
Continuous
 62
     7
100
AcDbCircle
 10
384.1882891146262
 20
-45.5421608565731
 30
0.0
 40
300.5999196745273
100
AcDbArc
 50
171.6187437662477
 51
173.7417382381696
  0
ARC
  5
4A5
330
6C
100
AcDbEntity
  8
0
  6
Continuous
 62
     7
100
AcDbCircle
 10
84.16685942955609
 20
-15.66850252893755
 30
0.0
 40
1.999986765077439
100
AcDbArc
 50
324.7214139567203
 51
30.81746392486452
  0
ARC
  5
4A6
330
6C
100
AcDbEntity
  8
0
  6
Continuous
 62
     7
100
AcDbCircle
 10
85.91366252968237
 20
-18.74024025134145
 30
0.0
 40
1.200054329325245
100
AcDbArc
 50
144.7245835200441
 51
234.7206858368923
  0
ARC
  5
4A7
330
6C
100
AcDbEntity
  8
0
  6
Continuous
 62
     7
100
AcDbCircle
 10
234.1226556330278
 20
0.0
 30
0.0
 40
92.0
100
AcDbArc
 50
83.75986890173759
 51
96.24013109826243
  0
ARC
  5
4A8
330
6C
100
AcDbEntity
  8
0
  6
Continuous
 62
     7
100
AcDbCircle
 10
234.1226556330278
 20
0.0
 30
0.0
 40
92.99999999999995
100
AcDbArc
 50
186.2283262801654
 51
222.5504406344371
  0
ARC
  5
4A9
330
6C
100
AcDbEntity
  8
0
  6
Continuous
 62
     7
100
AcDbCircle
 10
234.1226556330278
 20
0.0
 30
0.0
 40
92.0
100
AcDbArc
 50
216.2401158785212
 51
222.5823748824146
  0
ARC
  5
4AA
330
6C
100
AcDbEntity
  8
10
  6
Continuous
 62
     7
100
AcDbCircle
 10
172.704304766833
 20
-69.99999803041191
 30
0.0
 40
9.999980167359462
100
AcDbArc
 50
55.38033599402229
 51
129.2107474779022
  0
ARC
  5
4AB
330
6C
100
AcDbEntity
  8
10
  6
Continuous
 62
     7
100
AcDbCircle
 10
295.5405231957213
 20
-69.99986885210296
 30
0.0
 40
9.999968515713492
100
AcDbArc
 50
39.77384358757745
 51
50.78671231335797
  0
ARC
  5
4AC
330
6C
100
AcDbEntity
  8
0
  6
Continuous
 62
     7
100
AcDbCircle
 10
234.1226556330278
 20
0.0
 30
0.0
 40
92.0
100
AcDbArc
 50
323.7596613458814
 51
336.2400223902274
  0
ARC
  5
4AD
330
6C
100
AcDbEntity
  8
0
  6
Continuous
 62
     7
100
AcDbCircle
 10
234.1226556330278
 20
0.0
 30
0.0
 40
92.00000000000004
100
AcDbArc
 50
317.4174896756894
 51
323.7596613458814
  0
ARC
  5
4AE
330
6C
100
AcDbEntity
  8
0
  6
Continuous
 62
     7
100
AcDbCircle
 10
234.1226556330278
 20
0.0
 30
0.0
 40
92.0
100
AcDbArc
 50
203.7598580635572
 51
216.2401158785212
  0
ARC
  5
4AF
330
6C
100
AcDbEntity
  8
0
  6
Continuous
 62
     7
100
AcDbCircle
 10
234.1226556330278
 20
0.0
 30
0.0
 40
91.99999999999995
100
AcDbArc
 50
186.3883337880013
 51
203.7598580635572
  0
ARC
  5
4B0
330
6C
100
AcDbEntity
  8
10
  6
Continuous
 62
     7
100
AcDbCircle
 10
151.0947256693978
 20
-44.76482261526757
 30
0.0
 40
1.599992120250606
100
AcDbArc
 50
124.9979732705811
 51
209.9996920726685
  0
ARC
  5
4B1
330
6C
100
AcDbEntity
  8
10
  6
Continuous
 62
     7
100
AcDbCircle
 10
153.8398873850151
 20
-49.51948256188495
 30
0.0
 40
1.600041931059348
100
AcDbArc
 50
210.0019423889494
 51
295.0003922678131
  0
ARC
  5
4B2
330
6C
100
AcDbEntity
  8
10
  6
Continuous
 62
     7
100
AcDbCircle
 10
314.4040941955686
 20
-49.52188526450493
 30
0.0
 40
1.599992120250606
100
AcDbArc
 50
244.9979732705788
 51
329.9996920726617
  0
ARC
  5
4B3
330
6C
100
AcDbEntity
  8
10
  6
Continuous
 62
     7
100
AcDbCircle
 10
317.1491696378869
 20
-44.76717550797525
 30
0.0
 40
1.600041931059323
100
AcDbArc
 50
330.001942388943
 51
55.00039226781247
  0
CIRCLE
  5
4B4
330
6C
100
AcDbEntity
  8
10
  6
Continuous
 62
     7
100
AcDbCircle
 10
287.5091556330276
 20
-53.38660000000004
 30
0.0
 40
5.25
  0
CIRCLE
  5
4B5
330
6C
100
AcDbEntity
  8
10
  6
Continuous
 62
     7
100
AcDbCircle
 10
234.1226556330278
 20
0.0
 30
0.0
 40
83.19999999999993
  0
CIRCLE
  5
4B6
330
6C
100
AcDbEntity
  8
10
  6
Continuous
 62
     7
100
AcDbCircle
 10
180.7361556330277
 20
-53.38660000000004
 30
0.0
 40
5.25
  0
CIRCLE
  5
4B7
330
6C
100
AcDbEntity
  8
10
  6
Continuous
 62
     7
100
AcDbCircle
 10
180.7361556330277
 20
53.38649999999995
 30
0.0
 40
5.25
  0
CIRCLE
  5
4B8
330
6C
100
AcDbEntity
  8
10
  6
Continuous
 62
     7
100
AcDbCircle
 10
287.5091556330276
 20
53.38649999999995
 30
0.0
 40
5.25
  0
CIRCLE
  5
4B9
330
6C
100
AcDbEntity
  8
10
  6
Continuous
 62
     7
100
AcDbCircle
 10
234.1226556330278
 20
0.0
 30
0.0
 40
45.49999999999997
  0
MTEXT
  5
5E0
330
6C
100
AcDbEntity
  8
0
100
AcDbMText
 10
-63.55578892930657
 20
-136.8932019466262
 30
0.0
 40
8.0
 41
133.4636726466827
 71
     1
 72
     1
  1
AFM-FBKH 2P 1.5kW
 73
     1
 44
1.0
  0
MTEXT
  5
5E1
330
6C
100
AcDbEntity
  8
0
100
AcDbMText
 10
-63.55578892930657
 20
-156.8932019466262
 30
0.0
 40
8.0
 41
135.8
 71
     1
 72
     1
  1
AFM-FBKH 4P 1.5kW
 73
     1
 44
1.0
  0
MTEXT
  5
62C
330
6C
100
AcDbEntity
  8
0
100
AcDbMText
 10
-63.55578892930657
 20
-176.8932019466262
 30
0.0
 40
8.0
 41
151.1758626652749
 71
     1
 72
     1
  1
AFM-FBKH 6P 0.75kW
 73
     1
 44
1.0
  0
ENDSEC
  0
SECTION
  2
OBJECTS
  0
DICTIONARY
  5
C
330
0
100
AcDbDictionary
281
     1
  3
ACAD_2007HEADERVARS_RT
350
6B2
  3
ACAD_CIP_PREVIOUS_PRODUCT_INFO
350
77
  3
ACAD_COLOR
350
63
  3
ACAD_GROUP
350
D
  3
ACAD_LAYOUT
350
62
  3
ACAD_MATERIAL
350
10
  3
ACAD_MLEADERSTYLE
350
66
  3
ACAD_MLINESTYLE
350
5F
  3
ACAD_PLOTSETTINGS
350
61
  3
ACAD_PLOTSTYLENAME
350
E
  3
ACAD_SCALELIST
350
42
  3
ACAD_TABLESTYLE
350
64
  3
ACAD_VISUALSTYLE
350
29
  3
ACDB_RECOMPOSE_DATA
350
6B1
  3
AcDbVariableDictionary
350
4BB
  0
DICTIONARY
  5
89
330
2
100
AcDbDictionary
280
     1
281
     1
  3
ACAD_LAYERSTATES
360
8A
  0
DICTIONARY
  5
7C
330
7B
100
AcDbDictionary
280
     1
281
     1
  0
DICTIONARY
  5
7E
330
7D
100
AcDbDictionary
280
     1
281
     1
  0
DICTIONARY
  5
80
330
7F
100
AcDbDictionary
280
     1
281
     1
  0
DICTIONARY
  5
82
330
81
100
AcDbDictionary
280
     1
281
     1
  0
DICTIONARY
  5
84
330
83
100
AcDbDictionary
280
     1
281
     1
  0
DICTIONARY
  5
86
330
85
100
AcDbDictionary
280
     1
281
     1
  0
DICTIONARY
  5
88
330
87
100
AcDbDictionary
280
     1
281
     1
  0
DICTIONARY
  5
6B2
102
{ACAD_REACTORS
330
C
102
}
330
C
100
AcDbDictionary
281
     1
  3
DIMJOGANG
350
6B3
  0
XRECORD
  5
77
102
{ACAD_REACTORS
330
C
102
}
330
C
100
AcDbXrecord
280
     1
300
ACDLT
300
2012
300
ACDLT_F_S
  0
DICTIONARY
  5
63
102
{ACAD_REACTORS
330
C
102
}
330
C
100
AcDbDictionary
281
     1
  0
DICTIONARY
  5
D
102
{ACAD_REACTORS
330
C
102
}
330
C
100
AcDbDictionary
281
     1
  0
DICTIONARY
  5
62
102
{ACAD_REACTORS
330
C
102
}
330
C
100
AcDbDictionary
281
     1
  3
Model
350
6F
  3
レイアウト1
350
6B
  3
レイアウト2
350
73
  0
DICTIONARY
  5
10
102
{ACAD_REACTORS
330
C
102
}
330
C
100
AcDbDictionary
281
     1
  3
ByBlock
350
19
  3
ByLayer
350
11
  3
Global
350
21
  0
DICTIONARY
  5
66
102
{ACAD_REACTORS
330
C
102
}
330
C
100
AcDbDictionary
281
     1
  3
Standard
350
67
  0
DICTIONARY
  5
5F
102
{ACAD_REACTORS
330
C
102
}
330
C
100
AcDbDictionary
281
     1
  3
Standard
350
60
  0
DICTIONARY
  5
61
102
{ACAD_REACTORS
330
C
102
}
330
C
100
AcDbDictionary
281
     1
  0
ACDBDICTIONARYWDFLT
  5
E
102
{ACAD_REACTORS
330
C
102
}
330
C
100
AcDbDictionary
281
     1
  3
Normal
350
F
100
AcDbDictionaryWithDefault
340
F
  0
DICTIONARY
  5
42
102
{ACAD_REACTORS
330
C
102
}
330
C
100
AcDbDictionary
281
     1
  3
A0
350
43
  3
A1
350
44
  3
A2
350
45
  3
A3
350
46
  3
A4
350
47
  3
A5
350
48
  3
A6
350
49
  3
A7
350
4A
  3
A8
350
4B
  3
A9
350
4C
  3
B0
350
4D
  3
B1
350
4E
  3
B2
350
4F
  3
B3
350
50
  3
B4
350
51
  3
B5
350
52
  3
B6
350
53
  0
DICTIONARY
  5
64
102
{ACAD_REACTORS
330
C
102
}
330
C
100
AcDbDictionary
281
     1
  3
Standard
350
65
  0
DICTIONARY
  5
29
102
{ACAD_REACTORS
330
C
102
}
330
C
100
AcDbDictionary
281
     1
  3
2dWireframe
350
2F
  3
Basic
350
2E
  3
Brighten
350
35
  3
ColorChange
350
39
  3
Conceptual
350
32
  3
Dim
350
34
  3
EdgeColorOff
350
41
  3
Facepattern
350
38
  3
Flat
350
2A
  3
FlatWithEdges
350
2B
  3
Gouraud
350
2C
  3
GouraudWithEdges
350
2D
  3
Hidden
350
31
  3
JitterOff
350
3F
  3
Linepattern
350
37
  3
OverhangOff
350
40
  3
Realistic
350
33
  3
Shaded
350
3E
  3
Shaded with edges
350
3D
  3
Shades of Gray
350
3A
  3
Sketchy
350
3B
  3
Thicken
350
36
  3
Wireframe
350
30
  3
X-Ray
350
3C
  0
XRECORD
  5
6B1
102
{ACAD_REACTORS
330
C
102
}
330
C
100
AcDbXrecord
280
     1
 90
        1
330
65
  0
DICTIONARY
  5
4BB
102
{ACAD_REACTORS
330
C
102
}
330
C
100
AcDbDictionary
281
     1
  3
CANNOSCALE
350
4BF
  3
CMLEADERSTYLE
350
4BD
  3
CTABLESTYLE
350
4BC
  3
DIMASSOC
350
4C6
  3
HIDETEXT
350
4C5
  3
INDEXCTL
350
4C4
  3
LAYEREVAL
350
4C1
  3
LAYERNOTIFY
350
4C2
  3
LIGHTINGUNITS
350
4C0
  3
MSLTSCALE
350
4BE
  3
SORTENTS
350
4C3
  3
XCLIPFRAME
350
62F
  0
DICTIONARY
  5
8A
102
{ACAD_REACTORS
330
89
102
}
330
89
100
AcDbDictionary
281
     1
  0
XRECORD
  5
6B3
102
{ACAD_REACTORS
330
6B2
102
}
330
6B2
100
AcDbXrecord
280
     1
 40
1.570796326794896
  0
LAYOUT
  5
6F
102
{ACAD_XDICTIONARY
360
66E
102
}
102
{ACAD_REACTORS
330
62
102
}
330
62
100
AcDbPlotSettings
  1

  2
RICOH IPSiO SP 6330 RPCS
  4

  6

 40
0.0
 41
0.0
 42
0.0
 43
0.0
 44
0.0
 45
0.0
 46
0.0
 47
0.0
 48
0.0
 49
0.0
140
0.0
141
0.0
142
1.0
143
1.0
 70
  1712
 72
     0
 73
     0
 74
     0
  7

 75
     0
147
1.0
 76
     0
 77
     2
 78
   300
148
0.0
149
0.0
100
AcDbLayout
  1
Model
 70
     1
 71
     0
 10
0.0
 20
0.0
 11
12.0
 21
9.0
 12
0.0
 22
0.0
 32
0.0
 14
0.0
 24
0.0
 34
0.0
 15
0.0
 25
0.0
 35
0.0
146
0.0
 13
0.0
 23
0.0
 33
0.0
 16
1.0
 26
0.0
 36
0.0
 17
0.0
 27
1.0
 37
0.0
 76
     0
330
6C
331
57
  0
LAYOUT
  5
6B
102
{ACAD_REACTORS
330
62
102
}
330
62
100
AcDbPlotSettings
  1

  2
RICOH IPSiO SP 6330 RPCS
  4

  6

 40
0.0
 41
0.0
 42
0.0
 43
0.0
 44
0.0
 45
0.0
 46
0.0
 47
0.0
 48
0.0
 49
0.0
140
0.0
141
0.0
142
1.0
143
1.0
 70
   688
 72
     0
 73
     0
 74
     5
  7

 75
    16
147
1.0
 76
     0
 77
     2
 78
   300
148
0.0
149
0.0
100
AcDbLayout
  1
レイアウト1
 70
     1
 71
     1
 10
0.0
 20
0.0
 11
420.0
 21
297.0
 12
0.0
 22
0.0
 32
0.0
 14
1.000000000000000E+20
 24
1.000000000000000E+20
 34
1.000000000000000E+20
 15
-1.000000000000000E+20
 25
-1.000000000000000E+20
 35
-1.000000000000000E+20
146
0.0
 13
0.0
 23
0.0
 33
0.0
 16
1.0
 26
0.0
 36
0.0
 17
0.0
 27
1.0
 37
0.0
 76
     0
330
68
  0
LAYOUT
  5
73
102
{ACAD_REACTORS
330
62
102
}
330
62
100
AcDbPlotSettings
  1

  2
RICOH IPSiO SP 6330 RPCS
  4

  6

 40
0.0
 41
0.0
 42
0.0
 43
0.0
 44
0.0
 45
0.0
 46
0.0
 47
0.0
 48
0.0
 49
0.0
140
0.0
141
0.0
142
1.0
143
1.0
 70
   688
 72
     0
 73
     0
 74
     5
  7

 75
    16
147
1.0
 76
     0
 77
     2
 78
   300
148
0.0
149
0.0
100
AcDbLayout
  1
レイアウト2
 70
     1
 71
     2
 10
0.0
 20
0.0
 11
12.0
 21
9.0
 12
0.0
 22
0.0
 32
0.0
 14
0.0
 24
0.0
 34
0.0
 15
0.0
 25
0.0
 35
0.0
146
0.0
 13
0.0
 23
0.0
 33
0.0
 16
1.0
 26
0.0
 36
0.0
 17
0.0
 27
1.0
 37
0.0
 76
     0
330
70
  0
MATERIAL
  5
19
102
{ACAD_XDICTIONARY
360
1A
102
}
102
{ACAD_REACTORS
330
10
102
}
330
10
100
AcDbMaterial
  1
ByBlock
 72
     0
 43
0.0208333333333333
 43
0.0
 43
0.0
 43
0.0
 43
0.0
 43
0.0208333333333333
 43
0.0
 43
0.0
 43
0.0
 43
0.0
 43
1.0
 43
0.0
 43
0.0
 43
0.0
 43
0.0
 43
1.0
 77
     0
 47
0.0208333333333333
 47
0.0
 47
0.0
 47
0.0
 47
0.0
 47
0.0208333333333333
 47
0.0
 47
0.0
 47
0.0
 47
0.0
 47
1.0
 47
0.0
 47
0.0
 47
0.0
 47
0.0
 47
1.0
171
     0
 49
0.0208333333333333
 49
0.0
 49
0.0
 49
0.0
 49
0.0
 49
0.0208333333333333
 49
0.0
 49
0.0
 49
0.0
 49
0.0
 49
1.0
 49
0.0
 49
0.0
 49
0.0
 49
0.0
 49
1.0
175
     0
142
0.0208333333333333
142
0.0
142
0.0
142
0.0
142
0.0
142
0.0208333333333333
142
0.0
142
0.0
142
0.0
142
0.0
142
1.0
142
0.0
142
0.0
142
0.0
142
0.0
142
1.0
179
     0
144
0.0208333333333333
144
0.0
144
0.0
144
0.0
144
0.0
144
0.0208333333333333
144
0.0
144
0.0
144
0.0
144
0.0
144
1.0
144
0.0
144
0.0
144
0.0
144
0.0
144
1.0
147
0.0208333333333333
147
0.0
147
0.0
147
0.0
147
0.0
147
0.0208333333333333
147
0.0
147
0.0
147
0.0
147
0.0
147
1.0
147
0.0
147
0.0
147
0.0
147
0.0
147
1.0
  0
MATERIAL
  5
11
102
{ACAD_XDICTIONARY
360
12
102
}
102
{ACAD_REACTORS
330
10
102
}
330
10
100
AcDbMaterial
  1
ByLayer
 72
     0
 43
0.0208333333333333
 43
0.0
 43
0.0
 43
0.0
 43
0.0
 43
0.0208333333333333
 43
0.0
 43
0.0
 43
0.0
 43
0.0
 43
1.0
 43
0.0
 43
0.0
 43
0.0
 43
0.0
 43
1.0
 77
     0
 47
0.0208333333333333
 47
0.0
 47
0.0
 47
0.0
 47
0.0
 47
0.0208333333333333
 47
0.0
 47
0.0
 47
0.0
 47
0.0
 47
1.0
 47
0.0
 47
0.0
 47
0.0
 47
0.0
 47
1.0
171
     0
 49
0.0208333333333333
 49
0.0
 49
0.0
 49
0.0
 49
0.0
 49
0.0208333333333333
 49
0.0
 49
0.0
 49
0.0
 49
0.0
 49
1.0
 49
0.0
 49
0.0
 49
0.0
 49
0.0
 49
1.0
175
     0
142
0.0208333333333333
142
0.0
142
0.0
142
0.0
142
0.0
142
0.0208333333333333
142
0.0
142
0.0
142
0.0
142
0.0
142
1.0
142
0.0
142
0.0
142
0.0
142
0.0
142
1.0
179
     0
144
0.0208333333333333
144
0.0
144
0.0
144
0.0
144
0.0
144
0.0208333333333333
144
0.0
144
0.0
144
0.0
144
0.0
144
1.0
144
0.0
144
0.0
144
0.0
144
0.0
144
1.0
147
0.0208333333333333
147
0.0
147
0.0
147
0.0
147
0.0
147
0.0208333333333333
147
0.0
147
0.0
147
0.0
147
0.0
147
1.0
147
0.0
147
0.0
147
0.0
147
0.0
147
1.0
  0
MATERIAL
  5
21
102
{ACAD_XDICTIONARY
360
22
102
}
102
{ACAD_REACTORS
330
10
102
}
330
10
100
AcDbMaterial
  1
Global
 72
     0
 43
0.0208333333333333
 43
0.0
 43
0.0
 43
0.0
 43
0.0
 43
0.0208333333333333
 43
0.0
 43
0.0
 43
0.0
 43
0.0
 43
1.0
 43
0.0
 43
0.0
 43
0.0
 43
0.0
 43
1.0
 77
     0
 47
0.0208333333333333
 47
0.0
 47
0.0
 47
0.0
 47
0.0
 47
0.0208333333333333
 47
0.0
 47
0.0
 47
0.0
 47
0.0
 47
1.0
 47
0.0
 47
0.0
 47
0.0
 47
0.0
 47
1.0
171
     0
 49
0.0208333333333333
 49
0.0
 49
0.0
 49
0.0
 49
0.0
 49
0.0208333333333333
 49
0.0
 49
0.0
 49
0.0
 49
0.0
 49
1.0
 49
0.0
 49
0.0
 49
0.0
 49
0.0
 49
1.0
175
     0
142
0.0208333333333333
142
0.0
142
0.0
142
0.0
142
0.0
142
0.0208333333333333
142
0.0
142
0.0
142
0.0
142
0.0
142
1.0
142
0.0
142
0.0
142
0.0
142
0.0
142
1.0
179
     0
144
0.0208333333333333
144
0.0
144
0.0
144
0.0
144
0.0
144
0.0208333333333333
144
0.0
144
0.0
144
0.0
144
0.0
144
1.0
144
0.0
144
0.0
144
0.0
144
0.0
144
1.0
147
0.0208333333333333
147
0.0
147
0.0
147
0.0
147
0.0
147
0.0208333333333333
147
0.0
147
0.0
147
0.0
147
0.0
147
1.0
147
0.0
147
0.0
147
0.0
147
0.0
147
1.0
  0
MLEADERSTYLE
  5
67
102
{ACAD_XDICTIONARY
360
6AF
102
}
102
{ACAD_REACTORS
330
66
102
}
330
66
100
AcDbMLeaderStyle
170
     2
171
     1
172
     0
 90
        2
 40
0.0
 41
0.0
173
     1
 91
-1056964608
340
5B
 92
       -2
290
     1
 42
0.09
291
     1
 43
0.36
  3
Standard
 44
0.18
300

342
55
174
     1
178
     6
175
     1
176
     0
 93
-1056964608
 45
0.18
292
     0
297
     0
 46
0.18
 94
-1056964608
 47
1.0
 49
1.0
140
1.0
293
     1
141
0.0
294
     1
177
     0
142
1.0
295
     0
296
     0
143
0.125
1001
ACAD_MLEADERVER
1070
     2
  0
MLINESTYLE
  5
60
102
{ACAD_REACTORS
330
5F
102
}
330
5F
100
AcDbMlineStyle
  2
STANDARD
 70
     0
  3

 62
   256
 51
90.0
 52
90.0
 71
     2
 49
0.5
 62
   256
  6
BYLAYER
 49
-0.5
 62
   256
  6
BYLAYER
  0
ACDBPLACEHOLDER
  5
F
102
{ACAD_REACTORS
330
E
102
}
330
E
  0
SCALE
  5
43
102
{ACAD_REACTORS
330
42
102
}
330
42
100
AcDbScale
 70
     0
300
1:1
140
1.0
141
1.0
290
     1
  0
SCALE
  5
44
102
{ACAD_REACTORS
330
42
102
}
330
42
100
AcDbScale
 70
     0
300
1:2
140
1.0
141
2.0
290
     0
  0
SCALE
  5
45
102
{ACAD_REACTORS
330
42
102
}
330
42
100
AcDbScale
 70
     0
300
1:4
140
1.0
141
4.0
290
     0
  0
SCALE
  5
46
102
{ACAD_REACTORS
330
42
102
}
330
42
100
AcDbScale
 70
     0
300
1:5
140
1.0
141
5.0
290
     0
  0
SCALE
  5
47
102
{ACAD_REACTORS
330
42
102
}
330
42
100
AcDbScale
 70
     0
300
1:8
140
1.0
141
8.0
290
     0
  0
SCALE
  5
48
102
{ACAD_REACTORS
330
42
102
}
330
42
100
AcDbScale
 70
     0
300
1:10
140
1.0
141
10.0
290
     0
  0
SCALE
  5
49
102
{ACAD_REACTORS
330
42
102
}
330
42
100
AcDbScale
 70
     0
300
1:16
140
1.0
141
16.0
290
     0
  0
SCALE
  5
4A
102
{ACAD_REACTORS
330
42
102
}
330
42
100
AcDbScale
 70
     0
300
1:20
140
1.0
141
20.0
290
     0
  0
SCALE
  5
4B
102
{ACAD_REACTORS
330
42
102
}
330
42
100
AcDbScale
 70
     0
300
1:30
140
1.0
141
30.0
290
     0
  0
SCALE
  5
4C
102
{ACAD_REACTORS
330
42
102
}
330
42
100
AcDbScale
 70
     0
300
1:40
140
1.0
141
40.0
290
     0
  0
SCALE
  5
4D
102
{ACAD_REACTORS
330
42
102
}
330
42
100
AcDbScale
 70
     0
300
1:50
140
1.0
141
50.0
290
     0
  0
SCALE
  5
4E
102
{ACAD_REACTORS
330
42
102
}
330
42
100
AcDbScale
 70
     0
300
1:100
140
1.0
141
100.0
290
     0
  0
SCALE
  5
4F
102
{ACAD_REACTORS
330
42
102
}
330
42
100
AcDbScale
 70
     0
300
2:1
140
2.0
141
1.0
290
     0
  0
SCALE
  5
50
102
{ACAD_REACTORS
330
42
102
}
330
42
100
AcDbScale
 70
     0
300
4:1
140
4.0
141
1.0
290
     0
  0
SCALE
  5
51
102
{ACAD_REACTORS
330
42
102
}
330
42
100
AcDbScale
 70
     0
300
8:1
140
8.0
141
1.0
290
     0
  0
SCALE
  5
52
102
{ACAD_REACTORS
330
42
102
}
330
42
100
AcDbScale
 70
     0
300
10:1
140
10.0
141
1.0
290
     0
  0
SCALE
  5
53
102
{ACAD_REACTORS
330
42
102
}
330
42
100
AcDbScale
 70
     0
300
100:1
140
100.0
141
1.0
290
     0
  0
TABLESTYLE
  5
65
102
{ACAD_XDICTIONARY
360
4C8
102
}
102
{ACAD_REACTORS
330
64
102
}
330
64
100
AcDbTableStyle
  3
Standard
 70
     0
 71
     0
 40
1.5
 41
1.5
280
     0
281
     0
  7
Standard
140
4.5
170
     2
 62
     0
 63
     7
283
     0
274
    -2
284
     1
 64
     0
275
    -2
285
     1
 65
     0
276
    -2
286
     1
 66
     0
277
    -2
287
     1
 67
     0
278
    -2
288
     1
 68
     0
279
    -2
289
     1
 69
     0
  7
Standard
140
6.0
170
     5
 62
     0
 63
     7
283
     0
274
    -2
284
     1
 64
     0
275
    -2
285
     1
 65
     0
276
    -2
286
     1
 66
     0
277
    -2
287
     1
 67
     0
278
    -2
288
     1
 68
     0
279
    -2
289
     1
 69
     0
  7
Standard
140
4.5
170
     5
 62
     0
 63
     7
283
     0
274
    -2
284
     1
 64
     0
275
    -2
285
     1
 65
     0
276
    -2
286
     1
 66
     0
277
    -2
287
     1
 67
     0
278
    -2
288
     1
 68
     0
279
    -2
289
     1
 69
     0
  0
VISUALSTYLE
  5
2F
102
{ACAD_XDICTIONARY
360
6BE
102
}
102
{ACAD_REACTORS
330
29
102
}
330
29
100
AcDbVisualStyle
  2

 70
     4
 71
     0
 72
     2
 73
     0
 90
        0
 40
-0.6
 41
-30.0
 62
     5
 63
     7
 74
     1
 91
        4
 64
     7
 65
   257
 75
     1
175
     1
 42
1.0
 92
        0
 66
   257
 43
1.0
 76
     1
 77
     6
 78
     2
 67
     7
 79
     5
170
     0
171
     0
290
     0
174
     0
 93
        1
 44
0.0
173
     0
291
     0
 45
0.0
1001
ACAD
1000
AcDbSavedByObjectVersion
1070
     0
  0
VISUALSTYLE
  5
2E
102
{ACAD_XDICTIONARY
360
6BC
102
}
102
{ACAD_REACTORS
330
29
102
}
330
29
100
AcDbVisualStyle
  2

 70
     7
 71
     1
 72
     0
 73
     1
 90
        0
 40
-0.6
 41
-30.0
 62
     5
 63
     7
 74
     0
 91
        4
 64
     7
 65
   257
 75
     1
175
     1
 42
1.0
 92
        8
 66
     7
 43
1.0
 76
     1
 77
     6
 78
     2
 67
     7
 79
     5
170
     0
171
     0
290
     0
174
     0
 93
        1
 44
0.0
173
     0
291
     1
 45
0.0
1001
ACAD
1000
AcDbSavedByObjectVersion
1070
     0
  0
VISUALSTYLE
  5
35
102
{ACAD_XDICTIONARY
360
6CA
102
}
102
{ACAD_REACTORS
330
29
102
}
330
29
100
AcDbVisualStyle
  2

 70
    12
 71
     2
 72
     2
 73
     0
 90
        0
 40
-0.6
 41
-30.0
 62
     5
 63
     7
 74
     1
 91
        4
 64
     7
 65
   257
 75
     1
175
     1
 42
1.0
 92
        8
 66
     7
 43
1.0
 76
     1
 77
     6
 78
     2
 67
     7
 79
     5
170
     0
171
     0
290
     0
174
     0
 93
        1
 44
50.0
173
     0
291
     1
 45
0.0
1001
ACAD
1000
AcDbSavedByObjectVersion
1070
     0
  0
VISUALSTYLE
  5
39
102
{ACAD_XDICTIONARY
360
6D2
102
}
102
{ACAD_REACTORS
330
29
102
}
330
29
100
AcDbVisualStyle
  2

 70
    16
 71
     2
 72
     2
 73
     3
 90
        0
 40
-0.6
 41
-30.0
 62
     5
 63
     8
 74
     1
 91
        4
 64
     7
 65
   257
 75
     1
175
     1
 42
1.0
 92
        8
 66
     8
 43
1.0
 76
     1
 77
     6
 78
     2
 67
     7
 79
     5
170
     0
171
     0
290
     0
174
     0
 93
        1
 44
0.0
173
     0
291
     1
 45
0.0
1001
ACAD
1000
AcDbSavedByObjectVersion
1070
     0
  0
VISUALSTYLE
  5
32
102
{ACAD_XDICTIONARY
360
6C4
102
}
102
{ACAD_REACTORS
330
29
102
}
330
29
100
AcDbVisualStyle
  2

 70
     9
 71
     3
 72
     2
 73
     0
 90
        0
 40
-0.6
 41
-30.0
 62
     5
 63
     7
 74
     2
 91
        2
 64
     7
 65
   257
 75
     1
175
     1
 42
179.0
 92
        8
 66
     7
 43
1.0
 76
     1
 77
     6
 78
     2
 67
     7
 79
     3
170
     0
171
     0
290
     0
174
     0
 93
        1
 44
0.0
173
     0
291
     0
 45
0.0
1001
ACAD
1000
AcDbSavedByObjectVersion
1070
     0
  0
VISUALSTYLE
  5
34
102
{ACAD_XDICTIONARY
360
6C8
102
}
102
{ACAD_REACTORS
330
29
102
}
330
29
100
AcDbVisualStyle
  2

 70
    11
 71
     2
 72
     2
 73
     0
 90
        0
 40
-0.6
 41
-30.0
 62
     5
 63
     7
 74
     1
 91
        4
 64
     7
 65
   257
 75
     1
175
     1
 42
1.0
 92
        8
 66
     7
 43
1.0
 76
     1
 77
     6
 78
     2
 67
     7
 79
     5
170
     0
171
     0
290
     0
174
     0
 93
        1
 44
-50.0
173
     0
291
     1
 45
0.0
1001
ACAD
1000
AcDbSavedByObjectVersion
1070
     0
  0
VISUALSTYLE
  5
41
102
{ACAD_XDICTIONARY
360
6E2
102
}
102
{ACAD_REACTORS
330
29
102
}
330
29
100
AcDbVisualStyle
  2

 70
    22
 71
     2
 72
     2
 73
     0
 90
        0
 40
-0.6
 41
-30.0
 62
     5
 63
     7
 74
     1
 91
        4
 64
     7
 65
   257
 75
     1
175
     1
 42
1.0
 92
        8
 66
     7
 43
1.0
 76
     1
 77
     6
 78
     2
 67
     7
 79
     5
170
     0
171
     0
290
     0
174
     0
 93
        1
 44
0.0
173
     0
291
     1
 45
0.0
1001
ACAD
1000
AcDbSavedByObjectVersion
1070
     0
  0
VISUALSTYLE
  5
38
102
{ACAD_XDICTIONARY
360
6D0
102
}
102
{ACAD_REACTORS
330
29
102
}
330
29
100
AcDbVisualStyle
  2

 70
    15
 71
     2
 72
     2
 73
     0
 90
        0
 40
-0.6
 41
-30.0
 62
     5
 63
     7
 74
     1
 91
        4
 64
     7
 65
   257
 75
     1
175
     1
 42
1.0
 92
        8
 66
     7
 43
1.0
 76
     1
 77
     6
 78
     2
 67
     7
 79
     5
170
     0
171
     0
290
     0
174
     0
 93
        1
 44
0.0
173
     0
291
     1
 45
0.0
1001
ACAD
1000
AcDbSavedByObjectVersion
1070
     0
  0
VISUALSTYLE
  5
2A
102
{ACAD_XDICTIONARY
360
6B4
102
}
102
{ACAD_REACTORS
330
29
102
}
330
29
100
AcDbVisualStyle
  2

 70
     0
 71
     2
 72
     1
 73
     1
 90
        2
 40
-0.6
 41
30.0
 62
     5
 63
     7
 74
     0
 91
        0
 64
     7
 65
   257
 75
     1
175
     1
 42
1.0
 92
        8
 66
     7
 43
1.0
 76
     1
 77
     6
 78
     2
 67
     7
 79
     5
170
     0
171
     0
290
     0
174
     0
 93
       13
 44
0.0
173
     0
291
     1
 45
0.0
1001
ACAD
1000
AcDbSavedByObjectVersion
1070
     0
  0
VISUALSTYLE
  5
2B
102
{ACAD_XDICTIONARY
360
6B6
102
}
102
{ACAD_REACTORS
330
29
102
}
330
29
100
AcDbVisualStyle
  2

 70
     1
 71
     2
 72
     1
 73
     1
 90
        2
 40
-0.6
 41
30.0
 62
     5
 63
     7
 74
     1
 91
        0
 64
     7
 65
   257
 75
     1
175
     1
 42
1.0
 92
        0
 66
   257
 43
1.0
 76
     1
 77
     6
 78
     2
 67
     7
 79
     5
170
     0
171
     0
290
     0
174
     0
 93
       13
 44
0.0
173
     0
291
     1
 45
0.0
1001
ACAD
1000
AcDbSavedByObjectVersion
1070
     0
  0
VISUALSTYLE
  5
2C
102
{ACAD_XDICTIONARY
360
6B8
102
}
102
{ACAD_REACTORS
330
29
102
}
330
29
100
AcDbVisualStyle
  2

 70
     2
 71
     2
 72
     2
 73
     1
 90
        2
 40
-0.6
 41
30.0
 62
     5
 63
     7
 74
     0
 91
        0
 64
     7
 65
   257
 75
     1
175
     1
 42
1.0
 92
        0
 66
     7
 43
1.0
 76
     1
 77
     6
 78
     2
 67
     7
 79
     5
170
     0
171
     0
290
     0
174
     0
 93
       13
 44
0.0
173
     0
291
     1
 45
0.0
1001
ACAD
1000
AcDbSavedByObjectVersion
1070
     0
  0
VISUALSTYLE
  5
2D
102
{ACAD_XDICTIONARY
360
6BA
102
}
102
{ACAD_REACTORS
330
29
102
}
330
29
100
AcDbVisualStyle
  2

 70
     3
 71
     2
 72
     2
 73
     1
 90
        2
 40
-0.6
 41
30.0
 62
     5
 63
     7
 74
     1
 91
        0
 64
     7
 65
   257
 75
     1
175
     1
 42
1.0
 92
        0
 66
   257
 43
1.0
 76
     1
 77
     6
 78
     2
 67
     7
 79
     5
170
     0
171
     0
290
     0
174
     0
 93
       13
 44
0.0
173
     0
291
     1
 45
0.0
1001
ACAD
1000
AcDbSavedByObjectVersion
1070
     0
  0
VISUALSTYLE
  5
31
102
{ACAD_XDICTIONARY
360
6C2
102
}
102
{ACAD_REACTORS
330
29
102
}
330
29
100
AcDbVisualStyle
  2

 70
     6
 71
     1
 72
     2
 73
     2
 90
        0
 40
-0.6
 41
-30.0
 62
     5
 63
     7
 74
     2
 91
        2
 64
     7
 65
   257
 75
     2
175
     1
 42
40.0
 92
        0
 66
   257
 43
1.0
 76
     1
 77
     6
 78
     2
 67
     7
 79
     3
170
     0
171
     0
290
     0
174
     0
 93
        1
 44
0.0
173
     0
291
     0
 45
0.0
1001
ACAD
1000
AcDbSavedByObjectVersion
1070
     0
  0
VISUALSTYLE
  5
3F
102
{ACAD_XDICTIONARY
360
6DE
102
}
102
{ACAD_REACTORS
330
29
102
}
330
29
100
AcDbVisualStyle
  2

 70
    20
 71
     2
 72
     2
 73
     0
 90
        0
 40
-0.6
 41
-30.0
 62
     5
 63
     7
 74
     1
 91
        4
 64
     7
 65
   257
 75
     1
175
     1
 42
1.0
 92
       10
 66
     7
 43
1.0
 76
     1
 77
     6
 78
     2
 67
     7
 79
     5
170
     0
171
     0
290
     0
174
     0
 93
        1
 44
0.0
173
     0
291
     1
 45
0.0
1001
ACAD
1000
AcDbSavedByObjectVersion
1070
     0
  0
VISUALSTYLE
  5
37
102
{ACAD_XDICTIONARY
360
6CE
102
}
102
{ACAD_REACTORS
330
29
102
}
330
29
100
AcDbVisualStyle
  2

 70
    14
 71
     2
 72
     2
 73
     0
 90
        0
 40
-0.6
 41
-30.0
 62
     5
 63
     7
 74
     1
 91
        4
 64
     7
 65
   257
 75
     7
175
     7
 42
1.0
 92
        8
 66
     7
 43
1.0
 76
     1
 77
     6
 78
     2
 67
     7
 79
     5
170
     0
171
     0
290
     0
174
     0
 93
        1
 44
0.0
173
     0
291
     1
 45
0.0
1001
ACAD
1000
AcDbSavedByObjectVersion
1070
     0
  0
VISUALSTYLE
  5
40
102
{ACAD_XDICTIONARY
360
6E0
102
}
102
{ACAD_REACTORS
330
29
102
}
330
29
100
AcDbVisualStyle
  2

 70
    21
 71
     2
 72
     2
 73
     0
 90
        0
 40
-0.6
 41
-30.0
 62
     5
 63
     7
 74
     1
 91
        4
 64
     7
 65
   257
 75
     1
175
     1
 42
1.0
 92
        9
 66
     7
 43
1.0
 76
     1
 77
     6
 78
     2
 67
     7
 79
     5
170
     0
171
     0
290
     0
174
     0
 93
        1
 44
0.0
173
     0
291
     1
 45
0.0
1001
ACAD
1000
AcDbSavedByObjectVersion
1070
     0
  0
VISUALSTYLE
  5
33
102
{ACAD_XDICTIONARY
360
6C6
102
}
102
{ACAD_REACTORS
330
29
102
}
330
29
100
AcDbVisualStyle
  2

 70
     8
 71
     2
 72
     3
 73
     0
 90
        2
 40
-0.6
 41
30.0
 62
     5
 63
     7
 74
     0
 91
        0
 64
     7
 65
   257
 75
     1
175
     1
 42
1.0
 92
        8
 66
   257
 43
1.0
 76
     1
 77
     6
 78
     2
 67
     7
 79
     3
170
     0
171
     0
290
     0
174
     0
 93
       13
 44
0.0
173
     0
291
     0
 45
0.0
1001
ACAD
1000
AcDbSavedByObjectVersion
1070
     0
  0
VISUALSTYLE
  5
3E
102
{ACAD_XDICTIONARY
360
6DC
102
}
102
{ACAD_REACTORS
330
29
102
}
330
29
100
AcDbVisualStyle
  2

 70
    27
 71
     2
 72
     2
 73
     1
 90
        2
 40
-0.6
 41
30.0
 62
     5
 63
     7
 74
     0
 91
        4
 64
     7
 65
   257
 75
     1
175
     1
 42
1.0
 92
        8
 66
   257
 43
1.0
 76
     1
 77
     6
 78
     2
 67
     8
 79
     3
170
     0
171
     0
290
     0
174
     0
 93
        5
 44
0.0
173
     0
291
     0
 45
0.0
1001
ACAD
1000
AcDbSavedByObjectVersion
1070
     0
  0
VISUALSTYLE
  5
3D
102
{ACAD_XDICTIONARY
360
6DA
102
}
102
{ACAD_REACTORS
330
29
102
}
330
29
100
AcDbVisualStyle
  2

 70
    26
 71
     2
 72
     2
 73
     1
 90
        2
 40
-0.6
 41
30.0
 62
     5
 63
     7
 74
     1
 91
       10
 64
     7
 65
   257
 75
     2
175
     1
 42
1.0
 92
        8
 66
   257
 43
1.0
 76
     1
 77
     6
 78
     2
 67
     7
 79
     3
170
     0
171
     0
290
     0
174
     0
 93
        5
 44
0.0
173
     0
291
     0
 45
0.0
1001
ACAD
1000
AcDbSavedByObjectVersion
1070
     0
  0
VISUALSTYLE
  5
3A
102
{ACAD_XDICTIONARY
360
6D4
102
}
102
{ACAD_REACTORS
330
29
102
}
330
29
100
AcDbVisualStyle
  2

 70
    23
 71
     2
 72
     2
 73
     3
 90
        0
 40
-0.6
 41
-30.0
 62
     5
 63
     7
 74
     2
 91
        2
 64
     7
 65
     7
 75
     1
175
     1
 42
40.0
 92
        8
 66
     7
 43
1.0
 76
     1
 77
     6
 78
     2
 67
     7
 79
     3
170
     0
171
     0
290
     0
174
     0
 93
        1
 44
0.0
173
     0
291
     0
 45
0.0
1001
ACAD
1000
AcDbSavedByObjectVersion
1070
     0
  0
VISUALSTYLE
  5
3B
102
{ACAD_XDICTIONARY
360
6D6
102
}
102
{ACAD_REACTORS
330
29
102
}
330
29
100
AcDbVisualStyle
  2

 70
    24
 71
     1
 72
     2
 73
     2
 90
        0
 40
-0.6
 41
-30.0
 62
     5
 63
     7
 74
     2
 91
        2
 64
     7
 65
     7
 75
     1
175
     1
 42
40.0
 92
       11
 66
     7
 43
1.0
 76
     1
 77
     6
 78
     2
 67
     7
 79
     6
170
     0
171
     0
290
     0
174
     0
 93
        1
 44
0.0
173
     0
291
     0
 45
0.0
1001
ACAD
1000
AcDbSavedByObjectVersion
1070
     0
  0
VISUALSTYLE
  5
36
102
{ACAD_XDICTIONARY
360
6CC
102
}
102
{ACAD_REACTORS
330
29
102
}
330
29
100
AcDbVisualStyle
  2

 70
    13
 71
     2
 72
     2
 73
     0
 90
        0
 40
-0.6
 41
-30.0
 62
     5
 63
     7
 74
     1
 91
        4
 64
     7
 65
   257
 75
     1
175
     1
 42
1.0
 92
       12
 66
     7
 43
1.0
 76
     1
 77
     6
 78
     2
 67
     7
 79
     5
170
     0
171
     0
290
     0
174
     0
 93
        1
 44
0.0
173
     0
291
     1
 45
0.0
1001
ACAD
1000
AcDbSavedByObjectVersion
1070
     0
  0
VISUALSTYLE
  5
30
102
{ACAD_XDICTIONARY
360
6C0
102
}
102
{ACAD_REACTORS
330
29
102
}
330
29
100
AcDbVisualStyle
  2

 70
     5
 71
     0
 72
     2
 73
     0
 90
        0
 40
-0.6
 41
-30.0
 62
     5
 63
     7
 74
     1
 91
        4
 64
     7
 65
   257
 75
     1
175
     1
 42
1.0
 92
        0
 66
   257
 43
1.0
 76
     1
 77
     6
 78
     2
 67
     7
 79
     3
170
     0
171
     0
290
     0
174
     0
 93
        1
 44
0.0
173
     0
291
     0
 45
0.0
1001
ACAD
1000
AcDbSavedByObjectVersion
1070
     0
  0
VISUALSTYLE
  5
3C
102
{ACAD_XDICTIONARY
360
6D8
102
}
102
{ACAD_REACTORS
330
29
102
}
330
29
100
AcDbVisualStyle
  2

 70
    25
 71
     2
 72
     2
 73
     1
 90
        1
 40
0.5
 41
-30.0
 62
     5
 63
     7
 74
     1
 91
        0
 64
     7
 65
   257
 75
     1
175
     1
 42
1.0
 92
        8
 66
     7
 43
1.0
 76
     1
 77
     6
 78
     2
 67
     7
 79
     3
170
     0
171
     0
290
     0
174
     0
 93
       13
 44
0.0
173
     0
291
     0
 45
0.0
1001
ACAD
1000
AcDbSavedByObjectVersion
1070
     0
  0
DICTIONARYVAR
  5
4BF
102
{ACAD_REACTORS
330
4BB
102
}
330
4BB
100
DictionaryVariables
280
     0
  1
1:1
  0
DICTIONARYVAR
  5
4BD
102
{ACAD_REACTORS
330
4BB
102
}
330
4BB
100
DictionaryVariables
280
     0
  1
STANDARD
  0
DICTIONARYVAR
  5
4BC
102
{ACAD_REACTORS
330
4BB
102
}
330
4BB
100
DictionaryVariables
280
     0
  1
STANDARD
  0
DICTIONARYVAR
  5
4C6
102
{ACAD_REACTORS
330
4BB
102
}
330
4BB
100
DictionaryVariables
280
     0
  1
2
  0
DICTIONARYVAR
  5
4C5
102
{ACAD_REACTORS
330
4BB
102
}
330
4BB
100
DictionaryVariables
280
     0
  1
1
  0
DICTIONARYVAR
  5
4C4
102
{ACAD_REACTORS
330
4BB
102
}
330
4BB
100
DictionaryVariables
280
     0
  1
0
  0
DICTIONARYVAR
  5
4C1
102
{ACAD_REACTORS
330
4BB
102
}
330
4BB
100
DictionaryVariables
280
     0
  1
0
  0
DICTIONARYVAR
  5
4C2
102
{ACAD_REACTORS
330
4BB
102
}
330
4BB
100
DictionaryVariables
280
     0
  1
0
  0
DICTIONARYVAR
  5
4C0
102
{ACAD_REACTORS
330
4BB
102
}
330
4BB
100
DictionaryVariables
280
     0
  1
2
  0
DICTIONARYVAR
  5
4BE
102
{ACAD_REACTORS
330
4BB
102
}
330
4BB
100
DictionaryVariables
280
     0
  1
1
  0
DICTIONARYVAR
  5
4C3
102
{ACAD_REACTORS
330
4BB
102
}
330
4BB
100
DictionaryVariables
280
     0
  1
127
  0
DICTIONARYVAR
  5
62F
102
{ACAD_REACTORS
330
4BB
102
}
330
4BB
100
DictionaryVariables
280
     0
  1
2
  0
DICTIONARY
  5
66E
330
6F
100
AcDbDictionary
280
     1
281
     1
  3
ADSK_XREC_LAYOUTTHUMBNAIL
360
66F
  0
DICTIONARY
  5
1A
330
19
100
AcDbDictionary
280
     1
281
     1
  3
ACAD_XREC_ROUNDTRIP
360
4D1
  3
BUMPTILE
360
1C
  3
DIFFUSETILE
360
1B
  3
OPACITYTILE
360
1F
  3
REFLECTIONTILE
360
1E
  3
REFRACTIONTILE
360
20
  3
SPECULARTILE
360
1D
  0
DICTIONARY
  5
12
330
11
100
AcDbDictionary
280
     1
281
     1
  3
ACAD_XREC_ROUNDTRIP
360
4D0
  3
BUMPTILE
360
14
  3
DIFFUSETILE
360
13
  3
OPACITYTILE
360
17
  3
REFLECTIONTILE
360
16
  3
REFRACTIONTILE
360
18
  3
SPECULARTILE
360
15
  0
DICTIONARY
  5
22
330
21
100
AcDbDictionary
280
     1
281
     1
  3
ACAD_XREC_ROUNDTRIP
360
4D2
  3
BUMPTILE
360
24
  3
DIFFUSETILE
360
23
  3
OPACITYTILE
360
27
  3
REFLECTIONTILE
360
26
  3
REFRACTIONTILE
360
28
  3
SPECULARTILE
360
25
  0
DICTIONARY
  5
6AF
330
67
100
AcDbDictionary
280
     1
281
     1
  3
ACAD_XREC_ROUNDTRIP
360
6B0
  0
DICTIONARY
  5
4C8
330
65
100
AcDbDictionary
280
     1
281
     1
  3
ACAD_ROUNDTRIP_2008_TABLESTYLE_CELLSTYLEMAP
360
6AE
  3
ACAD_XREC_ROUNDTRIP
360
6E4
  0
DICTIONARY
  5
6BE
330
2F
100
AcDbDictionary
280
     1
281
     1
  3
ACAD_XREC_ROUNDTRIP
360
6BF
  0
DICTIONARY
  5
6BC
330
2E
100
AcDbDictionary
280
     1
281
     1
  3
ACAD_XREC_ROUNDTRIP
360
6BD
  0
DICTIONARY
  5
6CA
330
35
100
AcDbDictionary
280
     1
281
     1
  3
ACAD_XREC_ROUNDTRIP
360
6CB
  0
DICTIONARY
  5
6D2
330
39
100
AcDbDictionary
280
     1
281
     1
  3
ACAD_XREC_ROUNDTRIP
360
6D3
  0
DICTIONARY
  5
6C4
330
32
100
AcDbDictionary
280
     1
281
     1
  3
ACAD_XREC_ROUNDTRIP
360
6C5
  0
DICTIONARY
  5
6C8
330
34
100
AcDbDictionary
280
     1
281
     1
  3
ACAD_XREC_ROUNDTRIP
360
6C9
  0
DICTIONARY
  5
6E2
330
41
100
AcDbDictionary
280
     1
281
     1
  3
ACAD_XREC_ROUNDTRIP
360
6E3
  0
DICTIONARY
  5
6D0
330
38
100
AcDbDictionary
280
     1
281
     1
  3
ACAD_XREC_ROUNDTRIP
360
6D1
  0
DICTIONARY
  5
6B4
330
2A
100
AcDbDictionary
280
     1
281
     1
  3
ACAD_XREC_ROUNDTRIP
360
6B5
  0
DICTIONARY
  5
6B6
330
2B
100
AcDbDictionary
280
     1
281
     1
  3
ACAD_XREC_ROUNDTRIP
360
6B7
  0
DICTIONARY
  5
6B8
330
2C
100
AcDbDictionary
280
     1
281
     1
  3
ACAD_XREC_ROUNDTRIP
360
6B9
  0
DICTIONARY
  5
6BA
330
2D
100
AcDbDictionary
280
     1
281
     1
  3
ACAD_XREC_ROUNDTRIP
360
6BB
  0
DICTIONARY
  5
6C2
330
31
100
AcDbDictionary
280
     1
281
     1
  3
ACAD_XREC_ROUNDTRIP
360
6C3
  0
DICTIONARY
  5
6DE
330
3F
100
AcDbDictionary
280
     1
281
     1
  3
ACAD_XREC_ROUNDTRIP
360
6DF
  0
DICTIONARY
  5
6CE
330
37
100
AcDbDictionary
280
     1
281
     1
  3
ACAD_XREC_ROUNDTRIP
360
6CF
  0
DICTIONARY
  5
6E0
330
40
100
AcDbDictionary
280
     1
281
     1
  3
ACAD_XREC_ROUNDTRIP
360
6E1
  0
DICTIONARY
  5
6C6
330
33
100
AcDbDictionary
280
     1
281
     1
  3
ACAD_XREC_ROUNDTRIP
360
6C7
  0
DICTIONARY
  5
6DC
330
3E
100
AcDbDictionary
280
     1
281
     1
  3
ACAD_XREC_ROUNDTRIP
360
6DD
  0
DICTIONARY
  5
6DA
330
3D
100
AcDbDictionary
280
     1
281
     1
  3
ACAD_XREC_ROUNDTRIP
360
6DB
  0
DICTIONARY
  5
6D4
330
3A
100
AcDbDictionary
280
     1
281
     1
  3
ACAD_XREC_ROUNDTRIP
360
6D5
  0
DICTIONARY
  5
6D6
330
3B
100
AcDbDictionary
280
     1
281
     1
  3
ACAD_XREC_ROUNDTRIP
360
6D7
  0
DICTIONARY
  5
6CC
330
36
100
AcDbDictionary
280
     1
281
     1
  3
ACAD_XREC_ROUNDTRIP
360
6CD
  0
DICTIONARY
  5
6C0
330
30
100
AcDbDictionary
280
     1
281
     1
  3
ACAD_XREC_ROUNDTRIP
360
6C1
  0
DICTIONARY
  5
6D8
330
3C
100
AcDbDictionary
280
     1
281
     1
  3
ACAD_XREC_ROUNDTRIP
360
6D9
  0
XRECORD
  5
66F
102
{ACAD_REACTORS
330
66E
102
}
330
66E
100
AcDbXrecord
280
     1
310
28000000000100009D0000000100080000000000009D0000000000000000000000010000000000003028210000000000C8C8C8000000000000000000000000000000000000000000000000000000000000000000330000006600000099000000CC000000FF00000000330000333300006633000099330000CC330000FF3300
310
0000660000336600006666000099660000CC660000FF66000000990000339900006699000099990000CC990000FF99000000CC000033CC000066CC000099CC0000CCCC0000FFCC000000FF000033FF000066FF000099FF0000CCFF0000FFFF000000003300330033006600330099003300CC003300FF003300003333003333
310
33006633330099333300CC333300FF33330000663300336633006666330099663300CC663300FF66330000993300339933006699330099993300CC993300FF99330000CC330033CC330066CC330099CC3300CCCC3300FFCC330000FF330033FF330066FF330099FF3300CCFF3300FFFF330000006600330066006600660099
310
006600CC006600FF00660000336600333366006633660099336600CC336600FF33660000666600336666006666660099666600CC666600FF66660000996600339966006699660099996600CC996600FF99660000CC660033CC660066CC660099CC6600CCCC6600FFCC660000FF660033FF660066FF660099FF6600CCFF6600
310
FFFF660000009900330099006600990099009900CC009900FF00990000339900333399006633990099339900CC339900FF33990000669900336699006666990099669900CC669900FF66990000999900339999006699990099999900CC999900FF99990000CC990033CC990066CC990099CC9900CCCC9900FFCC990000FF99
310
0033FF990066FF990099FF9900CCFF9900FFFF99000000CC003300CC006600CC009900CC00CC00CC00FF00CC000033CC003333CC006633CC009933CC00CC33CC00FF33CC000066CC003366CC006666CC009966CC00CC66CC00FF66CC000099CC003399CC006699CC009999CC00CC99CC00FF99CC0000CCCC0033CCCC0066CC
310
CC0099CCCC00CCCCCC00FFCCCC0000FFCC0033FFCC0066FFCC0099FFCC00CCFFCC00FFFFCC000000FF003300FF006600FF009900FF00CC00FF00FF00FF000033FF003333FF006633FF009933FF00CC33FF00FF33FF000066FF003366FF006666FF009966FF00CC66FF00FF66FF000099FF003399FF006699FF009999FF00CC
310
99FF00FF99FF0000CCFF0033CCFF0066CCFF0099CCFF00CCCCFF00FFCCFF0000FFFF0033FFFF0066FFFF0099FFFF00CCFFFF00FFFFFF00000000000D0D0D001A1A1A00282828003535350043434300505050005D5D5D006B6B6B00787878008686860093939300A1A1A100AEAEAE00BBBBBB00C9C9C900D6D6D600E4E4E400
310
F1F1F100FFFFFF000000000000000000000000000000000000000000000000000000000000000000000000000000000000000000000000000000000000000000000000000000000000000000000000000000000000000000000000000000000000000000000000000000000000000000000000000000000000000000000000
310
00000000000000000000000000000000000000000000000000000000000000000000000000000000000000000000000000000000000000000000000000000000000000000000000000000000000000000000000000000000000000000000000000000000000000000000000000000000000000000000000000000000000000
310
00000000000000000000000000000000000000000000000000000000000000000000000000000000000000000000000000000000000000000000000000000000000000000000000000000000000000000000000000000000000000000000000000000000000000000000000000000000000000000000000000000000000000
310
00000000000000000000000000000000000000000000000000000000000000000000000000000000000000000000000000000000000000000000000000000000000000000000000000000000000000000000000000000000000000000000000000000000000000000000000000000000000000000000000000000000000000
310
00000000000000000000000000000000000000000000000000000000000000000000000000000000000000000000000000000000000000000000000000000000000000000000000000000000000000000000000000000000000000000000000000000000000000000000000000000000000000000000000000000000000000
310
00000000000000000000000000000000000000000000000000000000000000000000000000000000000000000000000000000000000000000000000000000000000000000000000000000000000000000000000000000000000000000000000000000000000000000000000000000000000000000000000000000000000000
310
00000000000000000000000000000000000000000000000000000000000000000000000000000000000000000000000000000000000000000000000000000000000000000000000000000000000000000000000000000000000000000000000000000000000000000000000000000000000000000000000000000000000000
310
00000000000000000000000000000000000000000000000000000000000000000000000000000000000000000000000000000000000000000000000000000000000000000000000000000000000000000000000000000000000000000000000000000000000000000000000000000000000000000000000000000000000000
310
00000000000000000000000000000000000000000000000000000000000000000000000000000000000000000000000000000000000000000000000000000000000000000000000000000000000000000000000000000000000000000000000000000000000000000000000000000000000000000000000000000000000000
310
00000000000000000000000000000000000000000000000000000000000000000000000000000000000000000000000000000000000000000000000000000000000000000000000000000000000000000000000000000000000000000000000000000000000000000000000000000000000000000000000000000000000000
310
00000000000000000000000000000000000000000000000000000000000000000000000000000000000000000000000000000000000000000000000000000000000000000000000000000000000000000000000000000000000000000000000000000000000000000000000000000000000000000000000000000000000000
310
00000000000000000000000000000000000000000000000000000000000000000000000000000000000000000000000000000000000000000000000000000000000000000000000000000000000000000000000000000000000000000000000000000000000000000000000000000000000000000000000000000000000000
310
00000000000000000000000000000000000000000000000000000000000000000000000000000000000000000000000000000000000000000000000000000000000000000000000000000000000000000000000000000000000000000000000000000000000000000000000000000000000000000000000000000000000000
310
00000000000000000000000000000000000000000000000000000000000000000000000000000000000000000000000000000000000000000000000000000000000000000000000000000000000000000000000000000000000000000000000000000000000000000000000000000000000000000000000000000000000000
310
00000000000000000000000000000000000000000000000000000000000000000000000000000000000000000000000000000000000000000000000000000000000000000000000000000000000000000000000000000000000000000000000000000000000000000000000000000000000000000000000000000000000000
310
00000000000000000000000000000000000000000000000000000000000000000000000000000000000000000000000000000000000000000000000000000000000000000000000000000000000000000000000000000000000000000000000000000000000000000000000000000000000000000000000000000000000000
310
00000000000000000000000000000000000000000000000000000000000000000000000000000000000000000000000000000000000000000000000000000000000000000000000000000000000000000000000000000000000000000000000000000000000000000000000000000000000000000000000000000000000000
310
00000000000000000000000000000000000000000000000000000000000000000000000000000000000000000000000000000000000000000000000000000000000000000000000000000000000000000000000000000000000000000000000000000000000000000000000000000000000000000000000000000000000000
310
00000000000000000000000000000000000000000000000000000000000000000000000000000000000000000000000000000000000000000000000000000000000000000000000000000000000000000000000000000000000000000000000000000000000000000000000000000000000000000000000000000000000000
310
00000000000000000000000000000000000000000000000000000000000000000000000000000000000000000000000000000000000000000000000000000000000000000000000000000000000000000000000000000000000000000000000000000000000000000000000000000000000000000000000000000000000000
310
00000000000000000000000000000000000000000000000000000000000000000000000000000000000000000000000000000000000000000000000000000000000000000000000000000000000000000000000000000000000000000000000000000000000000000000000000000000000000000000000000000000000000
310
00000000000000000000000000000000000000000000000000000000000000000000000000000000000000000000000000000000000000000000000000000000000000000000000000000000000000000000000000000000000000000000000000000000000000000000000000000000000000000000000000000000000000
310
00000000000000000000000000000000000000000000000000000000000000000000000000000000000000000000000000000000000000000000000000000000000000000000000000000000000000000000000000000000000000000000000000000000000000000000000000000000000000000000000000000000000000
310
00000000000000000000000000000000000000000000000000000000000000000000000000000000000000000000000000000000000000000000000000000000000000000000000000000000000000000000000000000000000000000000000000000000000000000000000000000000000000000000000000000000000000
310
00000000000000000000000000000000000000000000000000000000000000000000000000000000000000000000000000000000000000000000000000000000000000000000000000000000000000000000000000000000000000000000000000000000000000000000000000000000000000000000000000000000000000
310
00000000000000000000000000000000000000000000000000000000000000000000000000000000000000000000000000000000000000000000000000000000000000000000000000000000000000000000000000000000000000000000000000000000000000000000000000000000000000000000000000000000000000
310
00000000000000000000000000000000000000000000000000000000000000000000000000000000000000000000000000000000000000000000000000000000000000000000000000000000000000000000000000000000000000000000000000000000000000000000000000000000000000000000000000000000000000
310
00000000000000000000000000000000000000000000000000000000000000000000000000000000000000000000000000000000000000000000000000000000000000000000000000000000000000000000000000000000000000000000000000000000000000000000000000000000000000000000000000000000000000
310
00000000000000000000000000000000000000000000000000000000000000000000000000000000000000000000000000000000000000000000000000000000000000000000000000000000000000000000000000000000000000000000000000000000000000000000000000000000000000000000000000000000000000
310
00000000000000000000000000000000000000000000000000000000000000000000000000000000000000000000000000000000000000000000000000000000000000000000000000000000000000000000000000000000000000000000000000000000000000000000000000000000000000000000000000000000000000
310
00000000000000000000000000000000000000000000000000000000000000000000000000000000000000000000000000000000000000000000000000000000000000000000000000000000000000000000000000000000000000000000000000000000000000000000000000000000000000000000000000000000000000
310
00000000000000000000000000000000000000000000000000000000000000000000000000000000000000000000000000000000000000000000000000000000000000000000000000000000000000000000000000000000000000000000000000000000000000000000000000000000000000000000000000000000000000
310
00000000000000000000000000000000000000000000000000000000000000000000000000000000000000000000000000000000000000000000000000000000000000000000000000000000000000000000000000000000000000000000000000000000000000000000000000000000000000000000000000000000000000
310
00000000000000000000000000000000000000000000000000000000000000000000000000000000000000000000000000000000000000000000000000000000000000000000000000000000000000000000000000000000000000000000000000000000000000000000000000000000000000000000000000000000000000
310
00000000000000000000000000000000000000000000000000000000000000000000000000000000000000000000000000000000000000000000000000000000000000000000000000000000000000000000000000000000000000000000000000000000000000000000000000000000000000000000000000000000000000
310
00000000000000000000000000000000000000000000000000000000000000000000000000000000000000000000000000000000000000000000000000000000000000000000000000000000000000000000000000000000000000000000000000000000000000000000000000000000000000000000000000000000000000
310
00000000000000000000000000000000000000000000000000000000000000000000000000000000000000000000000000000000000000000000000000000000000000000000000000000000000000000000000000000000000000000000000000000000000000000000000000000000000000000000000000000000000000
310
00000000000000000000000000000000000000000000000000000000000000000000000000000000000000000000000000000000000000000000000000000000000000000000000000000000000000000000000000000000000000000000000000000000000000000000000000000000000000000000000000000000000000
310
00000000000000000000000000000000000000000000000000000000000000000000000000000000000000000000000000000000000000000000000000000000000000000000000000000000000000000000000000000000000000000000000000000000000000000000000000000000000000000000000000000000000000
310
00000000000000000000000000000000000000000000000000000000000000000000000000000000000000000000000000000000000000000000000000000000000000000000000000000000000000000000000000000000000000000000000000000000000000000000000000000000000000000000000000000000000000
310
00000000000000000000000000000000000000000000000000000000000000000000000000000000000000000000000000000000000000000000000000000000000000000000000000000000000000000000000000000000000000000000000000000000000000000000000000000000000000000000000000000000000000
310
00000000000000000000000000000000000000000000000000000000000000000000000000000000000000000000000000000000000000000000000000000000000000000000000000000000000000000000000000000000000000000000000000000000000000000000000000000000000000000000000000000000000000
310
00000000000000000000000000000000000000000000000000000000000000000000000000000000000000000000000000000000000000000000000000000000000000000000000000000000000000000000000000000000000000000000000000000000000000000000000000000000000000000000000000000000000000
310
00000000000000000000000000000000000000000000000000000000000000000000000000000000000000000000000000000000000000000000000000000000000000000000000000000000000000000000000000000000000000000000000000000000000000000000000000000000000000000000000000000000000000
310
00000000000000000000000000000000000000000000000000000000000000000000000000000000000000000000000000000000000000000000000000000000000000000000000000000000000000000000000000000000000000000000000000000000000000000000000000000000000000000000000000000000000000
310
00000000000000000000000000000000000000000000000000000000000000000000000000000000000000000000000000000000000000000000000000000000000000000000000000000000000000000000000000000000000000000000000000000000000000000000000000000000000000000000000000000000000000
310
00000000000000000000000000000000000000000000000000000000000000000000000000000000000000000000000000000000000000000000000000000000000000000000000000000000000000000000000000000000000000000000000000000000000000000000000000000000000000000000000000000000000000
310
00000000000000000000000000000000000000000000000000000000000000000000000000000000000000000000000000000000000000000000000000000000000000000000000000000000000000000000000000000000000000000000000000000000000000000000000000000000000000000000000000000000000000
310
00000000000000000000000000000000000000000000000000000000000000000000000000000000000000000000000000000000000000000000000000000000000000000000000000000000000000000000000000000000000000000000000000000000000000000000000000000000000000000000000000000000000000
310
00000000000000000000000000000000000000000000000000000000000000000000000000000000000000000000000000000000000000000000000000000000000000000000000000000000000000000000000000000000000000000000000000000000000000000000000000000000000000000000000000000000000000
310
00000000000000000000000000000000000000000000000000000000000000000000000000000000000000000000000000000000000000000000000000000000000000000000000000000000000000000000000000000000000000000000000000000000000000000000000000000000000000000000000000000000000000
310
00000000000000000000000000000000000000000000000000000000000000000000000000000000000000000000000000000000000000000000000000000000000000000000000000000000000000000000000000000000000000000000000000000000000000000000000000000000000000000000000000000000000000
310
00000000000000000000000000000000000000000000000000000000000000000000000000000000000000000000000000000000000000000000000000000000000000000000000000000000000000000000000000000000000000000000000000000000000000000000000000000000000000000000000000000000000000
310
00000000000000000000000000000000000000000000000000000000000000000000000000000000000000000000000000000000000000000000000000000000000000000000000000000000000000000000000000000000000000000000000000000000000000000000000000000000000000000000000000000000000000
310
00000000000000000000000000000000000000000000000000000000000000000000000000000000000000000000000000000000000000000000000000000000000000000000000000000000000000000000000000000000000000000000000000000000000000000000000000000000000000000000000000000000000000
310
00000000000000000000000000000000000000000000000000000000000000000000000000000000000000000000000000000000000000000000000000000000000000000000000000000000000000000000000000000000000000000000000000000000000000000000000000000000000000000000000000000000000000
310
00000000000000000000000000000000000000000000000000000000000000000000000000000000000000000000000000000000000000000000000000000000000000000000000000000000000000000000000000000000000000000000000000000000000000000000000000000000000000000000000000000000000000
310
00000000000000000000000000000000000000000000000000000000000000000000000000000000000000000000000000000000000000000000000000000000000000000000000000000000000000000000000000000000000000000000000000000000000000000000000000000000000000000000000000000000000000
310
00000000000000000000000000000000000000000000000000000000000000000000000000000000000000000000000000000000000000000000000000000000000000000000000000000000000000000000000000000000000000000000000000000000000000000000000000000000000000000000000000000000000000
310
00000000000000000000000000000000000000000000000000000000000000000000000000000000000000000000000000000000000000000000000000000000000000000000000000000000000000000000000000000000000000000000000000000000000000000000000000000000000000000000000000000000000000
310
00000000000000000000000000000000000000000000000000000000000000000000000000000000000000000000000000000000000000000000000000000000000000000000000000000000000000000000000000000000000000000000000000000000000000000000000000000000000000000000000000000000000000
310
00000000000000000000000000000000000000000000000000000000000000000000000000000000000000000000000000000000000000000000000000000000000000000000000000000000000000000000000000000000000000000000000000000000000000000000000000000000000000000000000000000000000000
310
00000000000000000000000000000000000000000000000000000000000000000000000000000000000000000000000000000000000000000000000000000000000000000000000000000000000000000000000000000000000000000000000000000000000000000000000000000000000000000000000000000000000000
310
00000000000000000000000000000000000000000000000000000000000000000000000000000000000000000000000000000000000000000000000000000000000000000000000000000000000000000000000000000000000000000000000000000000000000000000000000000000000000000000000000000000000000
310
00000000000000000000000000000000000000000000000000000000000000000000000000000000000000000000000000000000000000000000000000000000000000000000000000000000000000000000000000000000000000000000000000000000000000000000000000000000000000000000000000000000000000
310
00000000000000000000000000000000000000000000000000000000000000000000000000000000000000000000000000000000000000000000000000000000000000000000000000000000000000000000000000000000000000000000000000000000000000000000000000000000000000000000000000000000000000
310
00000000000000000000000000000000000000000000000000000000000000000000000000000000000000000000000000000000000000000000000000000000000000000000000000000000000000000000000000000000000000000000000000000000000000000000000000000000000000000000000000000000000000
310
00000000000000000000000000000000000000000000000000000000000000000000000000000000000000000000000000000000000000000000000000000000000000000000000000000000000000000000000000000000000000000000000000000000000000000000000000000000000000000000000000000000000000
310
00000000000000000000000000000000000000000000000000000000000000000000000000000000000000000000000000000000000000000000000000000000000000000000000000000000000000000000000000000000000000000000000000000000000000000000000000000000000000000000000000000000000000
310
00000000000000000000000000000000000000000000000000000000000000000000000000000000000000000000000000000000000000000000000000000000000000000000000000000000000000000000000000000000000000000000000000000000000000000000000000000000000000000000000000000000000000
310
00000000000000000000000000000000000000000000000000000000000000000000000000000000000000000000000000000000000000000000000000000000000000000000000000000000000000000000000000000000000000000000000000000000000000000000000000000000000000000000000000000000000000
310
00000000000000000000000000000000000000000000000000000000000000000000000000000000000000000000000000000000000000000000000000000000000000000000000000000000000000000000000000000000000000000000000000000000000000000000000000000000000000000000000000000000000000
310
00000000000000000000000000000000000000000000000000000000000000000000000000000000000000000000000000000000000000000000000000000000000000000000000000000000000000000000000000000000000000000000000000000000000000000000000000000000000000000000000000000000000000
310
00000000000000000000000000000000000000000000000000000000000000000000000000000000000000000000000000000000000000000000000000000000000000000000000000000000000000000000000000000000000000000000000000000000000000000000000000000000000000000000000000000000000000
310
00000000000000000000000000000000000000000000000000000000000000000000000000000000000000000000000000000000000000000000000000000000000000000000000000000000000000000000000000000000000000000000000000000000000000000000000000000000000000000000000000000000000000
310
00000000000000000000000000000000000000000000000000000000000000000000000000000000000000000000000000000000000000000000000000000000000000000000000000000000000000000000000000000000000000000000000000000000000000000000000000000000000000000000000000000000000000
310
00000000000000000000000000000000000000000000000000000000000000000000000000000000000000000000000000000000000000000000000000000000000000000000000000000000000000000000000000000000000000000000000000000000000000000000000000000000000000000000000000000000000000
310
00000000000000000000000000000000000000000000000000000000000000000000000000000000000000000000000000000000000000000000000000000000000000000000000000000000000000000000000000000000000000000000000000000000000000000000000000000000000000000000000000000000000000
310
00000000000000000000000000000000000000000000000000000000000000000000000000000000000000000000000000000000000000000000000000000000000000000000000000000000000000000000000000000000000000000000000000000000000000000000000000000000000000000000000000000000000000
310
00000000000000000000000000000000000000000000000000000000000000000000000000000000000000000000000000000000000000000000000000000000000000000000000000000000000000000000000000000000000000000000000000000000000000000000000000000000000000000000000000000000000000
310
00000000000000000000000000000000000000000000000000000000000000000000000000000000000000000000000000000000000000000000000000000000000000000000000000000000000000000000000000000000000000000000000000000000000000000000000000000000000000000000000000000000000000
310
00000000000000000000000000000000000000000000000000000000000000000000000000000000000000000000000000000000000000000000000000000000000000000000000000000000000000000000000000000000000000000000000000000000000000000000000000000000000000000000000000000000000000
310
00000000000000000000000000000000000000000000000000000000000000000000000000000000000000000000000000000000000000000000000000000000000000000000000000000000000000000000000000000000000000000000000000000000000000000000000000000000000000000000000000000000000000
310
00000000000000000000000000000000000000000000000000000000000000000000000000000000000000000000000000000000000000000000000000000000000000000000000000000000000000000000000000000000000000000000000000000000000000000000000000000000000000000000000000000000000000
310
00000000000000000000000000000000000000000000000000000000000000000000000000000000000000000000000000000000000000000000000000000000000000000000000000000000000000000000000000000000000000000000000000000000000000000000000000000000000000000000000000000000000000
310
00000000000000000000000000000000000000000000000000000000000000000000000000000000000000000000000000000000000000000000000000000000000000000000000000000000000000000000000000000000000000000000000000000000000000000000000000000000000000000000000000000000000000
310
00000000000000000000000000000000000000000000000000000000000000000000000000000000000000000000000000000000000000000000000000000000000000000000000000000000000000000000000000000000000000000000000000000000000000000000000000000000000000000000000000000000000000
310
00000000000000000000000000000000000000000000000000000000000000000000000000000000000000000000000000000000000000000000000000000000000000000000000000000000000000000000000000000000000000000000000000000000000000000000000000000000000000000000000000000000000000
310
00000000000000000000000000000000000000000000000000000000000000000000000000000000000000000000000000000000000000000000000000000000000000000000000000000000000000000000000000000000000000000000000000000000000000000000000000000000000000000000000000000000000000
310
00000000000000000000000000000000000000000000000000000000000000000000000000000000000000000000000000000000000000000000000000000000000000000000000000000000000000000000000000000000000000000000000000000000000000000000000000000000000000000000000000000000000000
310
00000000000000000000000000000000000000000000000000000000000000000000000000000000000000000000000000000000000000000000000000000000000000000000000000000000000000000000000000000000000000000000000000000000000000000000000000000000000000000000000000000000000000
310
00000000000000000000000000000000000000000000000000000000000000000000000000000000000000000000000000000000000000000000000000000000000000000000000000000000000000000000000000000000000000000000000000000000000000000000000000000000000000000000000000000000000000
310
00000000000000000000000000000000000000000000000000000000000000000000000000000000000000000000000000000000000000000000000000000000000000000000000000000000000000000000000000000000000000000000000000000000000000000000000000000000000000000000000000000000000000
310
00000000000000000000000000000000000000000000000000000000000000000000000000000000000000000000000000000000000000000000000000000000000000000000000000000000000000000000000000000000000000000000000000000000000000000000000000000000000000000000000000000000000000
310
00000000000000000000000000000000000000000000000000000000000000000000000000000000000000000000000000000000000000000000000000000000000000000000000000000000000000000000000000000000000000000000000000000000000000000000000000000000000000000000000000000000000000
310
00000000000000000000000000000000000000000000000000000000000000000000000000000000000000000000000000000000000000000000000000000000000000000000000000000000000000000000000000000000000000000000000000000000000000000000000000000000000000000000000000000000000000
310
00000000000000000000000000000000000000000000000000000000000000000000000000000000000000000000000000000000000000000000000000000000000000000000000000000000000000000000000000000000000000000000000000000000000000000000000000000000000000000000000000000000000000
310
00000000000000000000000000000000000000000000000000000000000000000000000000000000000000000000000000000000000000000000000000000000000000000000000000000000000000000000000000000000000000000000000000000000000000000000000000000000000000000000000000000000000000
310
00000000000000000000000000000000000000000000000000000000000000000000000000000000000000000000000000000000000000000000000000000000000000000000000000000000000000000000000000000000000000000000000000000000000000000000000000000000000000000000000000000000000000
310
00000000000000000000000000000000000000000000000000000000000000000000000000000000000000000000000000000000000000000000000000000000000000000000000000000000000000000000000000000000000000000000000000000000000000000000000000000000000000000000000000000000000000
310
00000000000000000000000000000000000000000000000000000000000000000000000000000000000000000000000000000000000000000000000000000000000000000000000000000000000000000000000000000000000000000000000000000000000000000000000000000000000000000000000000000000000000
310
00000000000000000000000000000000000000000000000000000000000000000000000000000000000000000000000000000000000000000000000000000000000000000000000000000000000000000000000000000000000000000000000000000000000000000000000000000000000000000000000000000000000000
310
00000000000000000000000000000000000000000000000000000000000000000000000000000000000000000000000000000000000000000000000000000000000000000000000000000000000000000000000000000000000000000000000000000000000000000000000000000000000000000000000000000000000000
310
00000000000000000000000000000000000000000000000000000000000000000000000000000000000000000000000000000000000000000000000000000000000000000000000000000000000000000000000000000000000000000000000000000000000000000000000000000000000000000000000000000000000000
310
00000000000000000000000000000000000000000000000000000000000000000000000000000000000000000000000000000000000000000000000000000000000000000000000000000000000000000000000000000000000000000000000000000000000000000000000000000000000000000000000000000000000000
310
00000000000000000000000000000000000000000000000000000000000000000000000000000000000000000000000000000000000000000000000000000000000000000000000000000000000000000000000000000000000000000000000000000000000000000000000000000000000000000000000000000000000000
310
00000000000000000000000000000000000000000000000000000000000000000000000000000000000000000000000000000000000000000000000000000000000000000000000000000000000000000000000000000000000000000000000000000000000000000000000000000000000000000000000000000000000000
310
00000000000000000000000000000000000000000000000000000000000000000000000000000000000000000000000000000000000000000000000000000000000000000000000000000000000000000000000000000000000000000000000000000000000000000000000000000000000000000000000000000000000000
310
00000000000000000000000000000000000000000000000000000000000000000000000000000000000000000000000000000000000000000000000000000000000000000000000000000000000000000000000000000000000000000000000000000000000000000000000000000000000000000000000000000000000000
310
00000000000000000000000000000000000000000000000000000000000000000000000000000000000000000000000000000000000000000000000000000000000000000000000000000000000000000000000000000000000000000000000000000000000000000000000000000000000000000000000000000000000000
310
00000000000000000000000000000000000000000000000000000000F5F5F5F5F5F5F5F5F5F5F5F500F5F5F5F500F5F5F5F5F5F5F5F500000000000000000000000000000000000000000000000000000000000000000000000000000000000000000000000000000000000000000000000000000000000000000000000000
310
00000000000000000000000000000000000000000000000000000000000000000000000000000000000000000000000000000000000000000000000000000000000000000000000000000000000000000000000000000000000000000000000000000000000000000000000000000000000000000000000000000000000000
310
000000000000000000000000000000000000000000000000000000000000F5F5F5F5F500F5F5F5F5F5F500F5F5F5F500F5F5F5F5F5F5F500F500000000000000000000000000000000000000000000000000000000000000000000000000000000000000000000000000000000000000000000000000000000000000000000
310
00000000000000000000000000000000000000000000000000000000000000000000000000000000000000000000000000000000000000000000000000000000000000000000000000000000000000000000000000000000000000000000000000000000000000000000000000000000000000000000000000000000000000
310
00000000000000000000000000000000000000000000000000000000000000000000000000000000000000000000000000000000000000000000000000000000000000000000000000000000000000000000000000000000000000000000000000000000000000000000000000000000000000000000000000000000000000
310
00000000000000000000000000000000000000000000000000000000000000000000000000000000000000000000000000000000000000000000000000000000000000000000000000000000000000000000000000000000000000000000000000000000000000000000000000000000000000000000000000000000000000
310
00000000000000000000000000000000000000000000000000000000000000000000000000000000000000000000000000000000000000000000000000000000000000000000000000000000000000000000000000000000000000000000000000000000000000000000000000000000000000000000000000000000000000
310
00000000000000000000000000000000000000000000000000000000000000000000000000000000000000000000000000000000000000000000000000000000000000000000000000000000000000000000000000000000000000000000000000000000000000000000000000000000000000000000000000000000000000
310
000000000000000000000000000000000000000000000000000000000000000000000000F5F5F5F5F5F5F5F5F5F5F5F500F5F5F5F500F5F5F5F5F5F5F5000000000000000000000000000000000000000000000000000000000000000000000000000000000000000000000000000000000000000000000000000000000000
310
00000000000000000000000000000000000000000000000000000000000000000000000000000000000000000000000000000000000000000000000000000000000000000000000000000000000000000000000000000000000000000000000000000000000000000000000000000000000000000000000000000000000000
310
0000000000000000000000000000000000000000000000000000000000000000000000000000F5F5F5F5F500F5F5F5F5F5F50000F5F5F500F500F5F5F5F5F5000000000000000000000000000000005E5E5E000000000000000000000000000000000000000000000000000000000000000000000000000000000000000000
310
00000000000000000000000000000000000000000000000000000000000000000000000000000000000000000000000000000000000000000000000000000000000000000000000000000000000000000000000000000000000000000000000000000000000000000000000000000000000000000000000000000000000000
310
00000000000000000000000000000000000000000000000000000000000000000000000000000000000000000000000000000000000000000000000000000000000000000000000000000000000000F5F5F5F5F5F5F5F55E000000000000000000000000000000000000000000000000000000000000000000000000000000
310
00000000000000000000000000000000000000000000000000000000000000000000000000000000000000000000000000000000000000000000000000000000000000000000000000000000000000000000000000000000000000000000000000000000000000000000000000000000000000000000000000000000000000
310
000000000000000000000000000000000000000000000000000000000000000000000000000000000000F5F500F5F500F5F5F5F5F5F500F5F5F50000F5F5F5F5F5F5F50000000000000000000000000000F5000000000000F5F500000000000000000000000000000000000000000000000000000000000000000000000000
310
00000000000000000000000000000000000000000000000000000000000000000000000000000000000000000000000000000000000000000000000000000000000000000000000000000000000000000000000000000000000000000000000000000000000000000000000000000000000000000000000000000000000000
310
0000000000000000000000000000000000000000000000000000000000000000000000000000000000000000F5F5F5F5F5F5F5F5F5F5F5F500F5F5F5F500F5F5F5F5F5F5F50000000000000000000000000000F5000000CA000000F55E00000000000000000000000000000000000000000000000000000000000000000000
310
00000000000000000000000000000000000000000000000000000000000000000000000000000000000000000000000000000000000000000000000000000000000000000000000000000000000000000000000000000000000000000000000000000000000000000000000000000000000000000000000000000000000000
310
00000000000000000000000000000000000000000000000000000000000000000000000000000000000000000000F5F5F5F5F500F5F5F5F5F5F500F5F5F5F500F500F5F500F5F50000000000000000000000000000F500F5F5CAF5F500F55E0000000000000000000000000000000000000000000000000000000000000000
310
00000000000000000000000000000000000000000000000000000000000000000000000000000000000000000000000000000000000000000000000000000000000000000000000000000000000000000000000000000000000000000000000000000000000000000000000000000000000000000000000000000000000000
310
000000000000000000000000000000000000000000000000000000000000000000000000000000000000000000000000000000000000000000000000000000000000000000000000000000000000000000000000000000F5CAF5CACACAF5F5F55E000000000000000000000000000000000000000000000000000000000000
310
00000000000000000000000000000000000000000000000000000000000000000000000000000000000000000000000000000000000000000000000000000000000000000000000000000000000000000000000000000000000000000000000000000000000000000000000000000000000000000000000000000000000000
310
0000000000000000000000000000000000000000000000000000000000000000000000000000000000000000000000000000000000000000000000000000000000000000000000000000000000000000000000000000000000F500F5F5CAF5F5F5F55E00000000000000000000000000000000000000000000000000000000
310
00000000000000000000000000000000000000000000000000000000000000000000000000000000000000000000000000000000000000000000000000000000000000000000000000000000000000000000000000000000000000000000000000000000000000000000000000000000000000000000000000000000000000
310
00000000000000000000000000000000000000000000000000000000000000000000000000000000000000000000000000000000000000000000000000000000000000000000000000000000000000000000000000000000000000F5F50000CA000000F55E0000000000000000000000000000000000000000000000000000
310
00000000000000000000000000000000000000000000000000000000000000000000000000000000000000000000000000000000000000000000000000000000000000000000000000000000000000000000000000000000000000000000000000000000000000000000000000000000000000000000000000000000000000
310
00000000000000000000000000000000000000000000000000000000000000000000000000000000000000000000000000000000000000000000000000000000000000000000000000000000000000000000000000000000000000000000F5F5F5F5F5F5F5F55E000000000000000000000000000000000000000000000000
310
00000000000000000000000000000000000000000000000000000000000000000000000000000000000000000000000000000000000000000000000000000000000000000000000000000000000000000000000000000000000000000000000000000000000000000000000000000000000000000000000000000000000000
310
0000000000000000000000000000000000000000000000000000000000000000000000000000000000000000000000000000000000000000000000000000000000000000000000000000000000000000000000000000000000000000000000000000000000000000000000000000000000CA00000000000000000000000000
310
00000000000000000000000000000000000000000000000000000000000000000000000000000000000000000000000000000000000000000000000000000000000000000000000000000000000000000000000000000000000000000000000000000000000000000000000000000000000000000000000000000000000000
310
0000000000000000000000000000000000000000000000000000000000000000000000000000000000000000000000000000000000000000000000000000000000000000000000000000000000000000000000000000000000000000000000000000000000CA00000000000000000000000000CA0000000000000000000000
310
00CA0000000000000000000000000000000000000000000000000000000000000000000000000000000000000000000000000000000000000000000000000000000000000000000000000000000000000000000000000000000000000000000000000000000000000000000000000000000000000000000000000000000000
310
0000000000000000000000000000000000CA0000000000000000000000CA0000000000000000000000CA00000000000000000000000000000000000000000000000000000000000000000000000000000000000000000000000000000000000000000000000000CA00000000000000000000000000CA000000000000000000
310
000000CA000000000000000000000000000000000000000000000000000000000000000000000000000000000000000000000000000000000000000000000000000000000000000000000000000000000000000000000000000000000000000000000000000000000000000000000000000000000000000000000000000000
310
00000000000000000000000000000000000000CA0000000000000000000000CA0000000000000000000000CA00000000000000000000000000000000000000000000000000000000000000000000000000000000000000000000000000000000000000000000000000CA00000000000000000000000000CA00000000000000
310
0000000000CA00000000000000000000000000000000000000000000000000000000000000000000000000000000000000000000000000000000000000000000000000000000000000000000000000000000000000000000000000000000000000000000000000000000000000000000000000000000000000000000000000
310
000000000000000000000000000000000000F5F5F5F5F5F5F5F5F5F5F5F5F5F5F5F5F5F5F5F5F5F5F5F5F5F5F5F5F5F5F5000000000000000000000000000000000000000000000000000000000000000000000000000000000000000000000000000000000000F5F5F5F5CAF5F5F5F5F5F5F5F5F5F5F5F5F5CAF5F5F5F5F5
310
F5F5F5F5F5F5F5CAF5F5F5F500000000000000000000000000000000000000000000000000000000000000000000000000000000000000000000000000000000000000000000000000000000000000000000000000000000000000000000000000000000000000000000000000000000000000000000000000000000000000
310
000000F5F5F5F5F5F5F5F5F5F5F5F5F5F5F5F5F5F5F5F5F5F5F5F5F5F5F5F5F5F5F5F5F5F5F5F5F5F5F5F5F5F5F5F5F5F5F5F5F5F5F5F5F500000000000000000000000000000000000000000000000000000000000000000000000000000000000000000000000000F5F5F5F5F5F5F5F5F5F5F5F5F5F5F5F5F5F5F5F5F5F5
310
F5F5F5F5F5F5F5F5F5F5F5F5F5F50000000000000000000000000000000000000000000000000000000000000000000000000000000000000000000000000000000000000000000000000000000000000000000000000000000000000000000000000000000000000000000000000000000000000000000000000000000000
310
0000000000F500000000000000000000F5000000000000F5F5CA00000000F5000000000000CA000000000000F500000000CAF5F50000F50000F5000000000000000000000000000000000000000000000000000000000000000000000000000000000000000000000000000000F500CA0000000000F5F5F5F5F5000000CA00
310
0000F5F5F5F5F500000000CA00F50000000000000000000000000000000000000000000000000000000000000000000000000000000000000000000000000000000000000000000000000000000000000000000000000000000000000000000000000000000000000000000000000000000000000000000000000000000000
310
000000000000F50000000000000000000000F500000000000000F5F5F5F5F5F5F5F50000000000CA0000000000F5F5F5F5F5F5F5F5000000F500F5F500000000000000000000000000000000000000000000000000000000000000000000000000000000000000000000000000000000F5CA0000000000F5F5000000000000
310
CA0000000000F5F5F500000000CA00F5000000000000000000000000000000000000000000000000000000000000000000000000000000000000000000000000000000000000000000000000000000000000000000000000000000000000000000000000000000000000000000000000000000000000000000000000000000
310
0000000000000000F50000000000000000000000F50000000000000000000000000000F50000000000CA0000000000F500000000000000000000F500F5F500000000000000000000000000000000000000000000000000000000000000000000000000000000000000000000000000000000F500000000F5F5F50000000000
310
0000CA00000000000000F5F500000000F50000000000000000000000000000000000000000000000000000000000000000000000000000000000000000000000000000000000000000000000000000000000000000000000000000000000000000000000000000000000000000000000000000000000000000000000000000
310
00000000000000000000F50000000000000000000000F50000000000000000000000000000F5F500000000CA00000000F50000000000000000000000F500F5F5F500000000000000000000000000000000000000000000000000000000000000000000000000000000000000000000000000000000F5F500F5F5CAF5000000
310
00000000CA00000000000000CA00F5F5F5F500000000000000000000000000000000000000000000000000000000000000000000000000000000000000000000000000000000000000000000000000000000000000000000000000000000000000000000000000000000000000000000000000000000000000000000000000
310
000000000000000000000000F50000000000000000000000F5000000000000000000000000000000F5F5F5F5F5F5F5F5F5F5000000000000000000000000F500F5F5F5000000000000000000000000000000000000000000000000000000000000000000000000000000000000000000000000000000F5F5F5F5F5F5CAF500
310
000000000000CA00000000000000F5F5F5F5F5F5F500000000000000000000000000000000000000000000000000000000000000000000000000000000000000000000000000000000000000000000000000000000000000000000000000000000000000000000000000000000000000000000000000000000000000000000
310
0000000000000000000000000000F5000000000000000000F500F50000000000000000000000000000000000000000CA00000000000000000000000000000000F5CAF5F5F500000000000000000000000000000000000000000000000000000000000000000000000000000000000000000000000000CAF5F5F5F500F5F5F5
310
F500000000000000CA00000000000000F5F5F5F5F5F5F5F5F5CA0000000000000000000000000000000000000000000000000000000000000000000000000000000000000000000000000000000000000000000000000000000000000000000000000000000000000000000000000000000000000000000000000000000000
310
00000000000000000000000000000000F50000000000000000F5F5F5F50000000000000000000000000000000000000000CA00000000000000000000000000000000F500F5F5F5F500000000000000000000000000000000000000000000000000000000000000000000000000000000000000000000000000F5F5F5F5CAF5
310
F5F500000000000000F5F5F5000000000000F5F5F5F500F500F5F500000000000000000000000000000000000000000000000000000000000000000000000000000000000000000000000000000000000000000000000000000000000000000000000000000000000000000000000000000000000000000000000000000000
310
000000000000000000000000000000000000F5000000000000000000F5F5F50000000000000000000000000000000000000000CA00000000000000000000000000000000F500F5F5F5F500000000000000000000000000000000000000000000000000000000000000000000000000000000000000000000000000F500F5F5
310
CAF5F50000000000F5F5F500CA00F5F5F500000000F5F5F5F5F5F5F5F50000000000000000000000000000000000000000000000000000000000000000000000000000000000000000000000000000000000000000000000000000000000000000000000000000000000000000000000000000000000000000000000000000
310
0000000000000000000000000000000000000000F50000000000000000000000F50000000000000000000000000000000000000000CA00000000000000000000000000000000F50000F5F5F5000000000000000000000000000000000000000000000000000000000000000000000000000000000000000000000000F5F5F5
310
F500000000000000F5F500000000CA000000F5F50000000000000000F500F5000000000000000000000000000000000000000000000000000000000000000000000000000000000000000000000000000000000000000000000000000000000000000000000000000000000000000000000000000000000000000000000000
310
00000000000000000000000000000000000000000000F50000000000000000000000F50000000000000000000000000000000000000000CA00000000000000000000000000000000F50000F5F5F5000000000000000000000000000000000000000000000000000000000000000000000000000000000000000000000000F5
310
00F500000000000000F5F50000000000CA0000000000F50000000000000000F5F5F5000000000000000000000000000000000000000000000000000000000000000000000000000000000000000000000000000000000000000000000000000000000000000000000000000000000000000000000000000000000000000000
310
000000000000000000000000000000000000000000000000F50000000000000000000000F50000000000000000000000000000000000000000CA00000000000000000000000000000000F50000F5F5F50000000000000000000000000000000000000000000000000000000000000000000000000000000000CA0000000000
310
00F5F5F500000000000000F5000000000000CA000000000000F500000000000000F500F500000000000000000000000000000000000000000000000000000000000000000000000000000000000000000000000000000000000000000000000000000000000000000000000000000000000000000000000000000000000000
310
0000000000000000000000000000000000000000000000000000F50000000000000000000000F5F5F5F5F5F5F5F5F5F5F5F5000000000000000000CA00000000000000000000000000000000F50000F5F5F5000000000000000000000000000000000000000000000000000000000000000000000000F5F5CA0000CAF5F5F5
310
0000F500F500000000000000F500000000000000CA000000000000F5F5000000000000F500F50000000000000000000000000000000000000000000000000000000000000000000000000000000000000000000000000000000000000000000000000000000000000000000000000000000000000000000000000000000000
310
00000000000000000000000000000000000000000000000000000000F500000000000000000000F5F5F5F5F5F5F5F5F5F5F5F5F5F50000000000000000CA00000000000000000000000000000000F50000F5F5F50000000000000000000000000000000000000000CA000000000000000000000000000000F5CAF5F5F5CA63
310
63F5F5F5F500F500000000000000F500000000000000CA00000000000000F5000000000000F500F5000000000000000000000000000000000000000000000000000000000000000000000000000000000000000000000000000000000000000000000000000000000000000000000000000000000000000000000000000000
310
000000000000000000000000000000000000000000000000000000000000F5000000000000000000F5F5F5F5F5F5F5F5F5F5F5F5F5F5F5F500000000000000CA00000000000000000000000000000000F50000F5F5F5F5F5F5F5F5F5F5F5F5F50000000000000000F5F5F5F50000000000000000000000000000F5F5636363
310
63000000F5F5F5F5F5000000000000F5000000000000F5F5F5F5F50000000000F500000000000000F5F5F5000000000000000000000000000000000000000000000000000000000000000000000000000000000000000000000000000000000000000000000000000000000000000000000000000000000000000000000000
310
0000000000000000000000000000000000000000000000000000000000000000F5000000000000000000F5F5F5000000F5F5F5F5000000F5F5F500000000000000CA00000000000000000000000000000000F50000F5F5F5F50000000000000000F50000000000000000F500CAF5F500000000000000000000000000F500F5
310
F500CA000000F5F5CA00F5000000000000F50000000000F5F500CA00F50000000000F5F5000000000000F5F5F500000000000000000000000000000000000000000000000000000000000000000000000000000000000000000000000000000000000000000000000000000000000000000000000000000000000000000000
310
00000000000000000000000000000000000000000000000000000000000000000000F5CACACACACACACACACAF5F5CACACACACACACACACACACACAF5F5CACACACACACACACACACACACACACACACACACACACACACACACACACACACACACACACACACACACACACACACACACA00000000CAF5CACACACAF5CA000000000000000000000000F5
310
CACACACACACACACACACACACAF5CACACACACACAF5CACACACACAF5F5CACACAF5CACACACACACAF5CACACACACACAF5F5F5CACACA0000000000000000000000000000000000000000000000000000000000000000000000000000000000000000000000000000000000000000000000000000000000000000000000000000000000
310
000000000000000000000000000000000000000000000000000000000000000000000000F5000000000000000000F5F500000000000000000000000000F500000000000000CA00000000000000000000000000000000F50000F5F5F5F50000000000000000F50000000000000000F500CA00F5000000000000000000000000
310
0000F500F5F50000000000F5CA00F5000000000000F50000000000F5F500CA00F50000000000F5F5000000000000F5F5F5000000000000000000000000000000000000000000000000000000000000000000000000000000000000000000000000000000000000000000000000000000000000000000000000000000000000
310
0000000000000000000000000000000000000000000000000000000000000000000000000000F5000000000000000000F5F500000000000000000000000000F500000000000000CA00000000000000000000000000000000F50000F5F5F5F5F5F5F5F5F5F5F5F5F50000000000000000F5F5CAF50000000000000000000000
310
00000000F50000F5F500000000F5CA00F500CACACA0000F5000000000000F5F5CAF5F50000000000F500000000000000F5F5F500000000000000000000000000000000000000000000000000000000000000000000000000000000000000000000000000000000000000000000000000000000000000000000000000000000
310
00000000000000000000000000000000000000000000000000000000000000000000000000000000F5000000000000000000F5F500000000000000000000000000F500000000000000CA00000000000000000000000000000000F50000F5F5F50000F5F5F5F5F5F5F5F5000000000000000000F5CAF5000000000000000000
310
000000000000F5000000F5F50000CAF5F5CAF5CACA0000000000F5000000000000F5CAF5000000000000F5000000000000F500F5F50000000000000000000000000000000000000000000000000000000000000000000000000000000000000000000000000000000000000000000000000000000000000000000000000000
310
000000000000000000000000000000000000000000000000000000000000000000000000000000000000F5000000000000000000F5F500000000000000000000000000F500000000000000CA00000000000000000000000000000000F50000F5F5F50000000000000000000000000000000000000000CA0000000000000000
310
0000000000000000F50000CAF5F5CACA00F5CA00F500000000000000F500000000000000CA00000000000000F5000000000000F500F500000000000000000000000000000000000000000000000000000000000000000000000000000000000000000000000000000000000000000000000000000000000000000000000000
310
0000000000000000000000000000000000000000000000000000000000000000000000000000000000000000F5000000000000000000F5F500000000000000000000000000F500000000000000CA00000000000000000000000000000000F50000F5F5F5000000000000000000000000000000000000000000000000000000
310
000000000000000000CACAF5CA0000F5F50000F5F5CAF5F5000000000000F5F5000000000000CA000000000000F500000000000000F500F50000000000000000000000000000000000000000000000000000000000000000000000000000000000000000000000000000000000000000000000000000000000000000000000
310
00000000000000000000000000000000000000000000000000000000000000000000000000000000000000000000F5000000000000000000F5F500000000000000000000000000F500000000000000CA00000000000000000000000000000000F50000F5F5F500000000000000000000000000000000000000000000000000
310
00000000000000000000000000F500000000F5F500F5F50000F500000000000000F5F50000000000CA0000000000F5F500000000000000F500F5000000000000000000000000000000000000000000000000000000000000000000000000000000000000000000000000000000000000000000000000000000000000000000
310
000000000000000000000000000000000000000000000000000000000000000000000000000000000000000000000000F5000000000000000000F5F500000000000000000000000000F500000000000000CA00000000000000000000000000000000F50000F5F5F50000000000000000000000000000000000000000000000
310
000000000000000000000000000000F50000000000F50000F5CA00F50000000000000000F5F500000000CA000000F5F50000000000000000F500F50000000000000000000000000000000000000000000000000000000000000000000000000000000000000000000000000000000000000000000000000000000000000000
310
0000000000000000000000000000000000000000000000000000000000000000000000000000000000000000000000000000F5000000000000000000F5F500000000000000000000000000F500000000000000CA00000000000000000000000000000000F500F5F5F5F5000000000000000000000000000000000000000000
310
0000000000000000000000000000000000F5000000000000F500F5F5F5F5F5F5F5F5F50000000000F5F50000CA00F5F5F500000000F5F5F5F5F5F500F5000000000000000000000000000000000000000000000000000000000000000000000000000000000000000000000000000000000000000000000000000000000000
310
00000000000000000000000000000000000000000000000000000000000000000000000000000000000000000000000000000000F5000000000000000000F5F500000000000000000000000000F500000000000000CA00000000000000000000000000000000F500F5F5F5F500000000000000000000000000000000000000
310
0000000000000000000000000000000000000000F50000000000F5F5F5F5F5F5F500CAF5F5F5000000000000F5F5F5F5F50000000000F5F5F5F5CAF500F50000000000000000000000000000000000000000000000000000000000000000000000000000000000000000000000000000000000000000000000000000000000
310
000000000000000000000000000000000000000000000000000000000000000000000000000000000000000000000000000000000000F5000000000000000000F5F5000000000000000000000000F5F500000000000000CA00000000000000000000000000000000F5CACAF5F5000000000000000000000000000000000000
310
00000000000000000000000000000000000000000000F5000000000000F5F50000F500F500F5F5F5F500000000000000CA00000000000000F5F5CAF5F5F5F5F5000000000000000000000000000000000000000000000000000000000000000000000000000000000000000000000000000000000000000000000000000000
310
0000000000000000000000000000000000000000000000000000000000000000000000000000000000000000000000000000000000000000F500000000000000000000F5F500000000000000000000F5F50000000000000000CA00000000000000000000000000000000F500F5F5F500000000000000000000000000000000
310
000000000000000000000000000000000000000000000000F5F5000000F5F5F5F5000000F500F5F5F5CAF500000000000000CA00000000000000F5F5F5F5F5F5F50000000000000000000000000000000000000000000000000000000000000000000000000000000000000000000000000000000000000000000000000000
310
00000000000000000000000000000000000000000000000000000000000000000000000000000000000000000000000000000000000000000000F50000000000000000000000F5F5F5F5F5F5F5F5F5F5F5F5000000000000000000CA00000000000000000000000000000000F500F500F50000000000000000000000000000
310
000000000000000000000000000000000000000000000000000000F5F5F5F5000000F500000000F5CAF5F5CAF500000000000000CA00000000000000CA00F5F500F500000000000000000000000000000000000000000000000000000000000000000000000000000000000000000000000000000000000000000000000000
310
000000000000000000000000000000000000000000000000000000000000000000000000000000000000000000000000000000000000000000000000F50000000000000000000000F50000000000000000000000000000000000000000CA00000000000000000000000000000000F500F5F500000000000000000000000000
310
0000000000000000000000000000000000000000000000000000000000000000000000000000000000F5F500F5F5F500000000000000CA00000000000000F5F500F5F5000000000000000000000000000000000000000000000000000000000000000000000000000000000000000000000000000000000000000000000000
310
0000000000000000000000000000000000000000000000000000000000000000000000000000000000000000000000000000000000000000000000000000F50000000000000000000000F50000000000000000000000000000000000000000CA00000000000000000000000000000000F500F5F50000000000000000000000
310
000000000000000000000000000000000000000000000000000000000000000000000000000000000000000000F50000F5F5000000000000CA000000000000F5F500F5F50000000000000000000000000000000000000000000000000000000000000000000000000000000000000000000000000000000000000000000000
310
00000000000000000000000000000000000000000000000000000000000000000000000000000000000000000000000000000000000000000000000000000000F50000000000000000000000F50000000000000000000000000000000000000000CA00000000000000000000000000000000F50000F5000000000000000000
310
000000000000000000000000000000000000000000000000000000000000000000000000000000000000000000000000F5F50000F5F5F5000000CA000000F5F5F50000F5F500000000000000000000000000000000000000000000000000000000000000000000000000000000000000000000000000000000000000000000
310
00000000000000000000000000000000000000000000000000000000000000000000000000000000000000000000000000000000000000000000000000000000000000F50000000000000000CA00F5F5F5F5F5F5F5F5F5F5F5F5F5F5F5F5F5F5F5F5F5F5F5F5F5F5F5F5F5F5F5F5F5F5F5F5F5F5F5F5F5F500000000000000
310
000000000000000000000000000000000000000000000000000000000000000000000000000000000000000000000000000000F5F5F5000000F5F5F5F5F5F5F5000000F5F5F5000000000000000000000000000000000000000000000000000000000000000000000000000000000000000000000000000000000000000000
310
000000000000000000000000000000000000000000000000000000000000000000000000000000000000000000000000000000000000000000000000000000000000000000F5F500000000000000CA00F50000000000000000000000000000000000000000CA00000000000000000000000000000000000000000000000000
310
0000000000000000000000000000000000000000000000000000000000000000000000000000000000000000000000000000000000000000F5F5F5F5F500CA00F5F5F5F5F500000000000000000000000000000000000000000000000000000000000000000000000000000000000000000000000000000000000000000000
310
000000000000000000000000000000000000000000000000000000000000000000000000000000000000000000000000000000000000000000000000000000000000000000000000F5F5F5F5F5F5F5F5F5F5F50000000000000000000000000000000000000000CA0000000000000000000000000000000000000000000000
310
00000000000000000000000000000000000000000000000000000000000000000000000000000000000000000000000000000000000000000000000000F5F5F5F5F5F5F50000000000000000000000000000000000000000000000000000000000000000000000000000000000000000000000000000000000000000000000
310
00000000000000000000000000000000000000000000000000000000000000000000000000000000000000000000000000000000000000000000000000000000000000000000000000000000000000000000CA00000000000000000000000000000000000000000000CA000000000000000000000000000000000000000000
310
000000000000000000000000000000000000000000000000000000000000000000000000000000000000000000000000000000000000000000000000000000000000CA000000000000000000000000000000000000000000000000000000000000000000000000000000000000000000000000000000000000000000000000
310
00000000000000000000000000000000000000000000000000000000000000000000000000000000000000000000000000000000000000000000000000000000000000000000000000000000000000000000000000000000000000000000000000000000000000000000000000000000000000000000000000000000000000
310
0000000000000000000000000000000000000000000000000000000000000000000000000000000000000000000000000000000000000000000000000000000000000000CA00000000000000000000000000000000000000000000000000000000000000000000000000000000000000000000000000000000000000000000
310
00000000000000000000000000000000000000000000000000000000000000000000000000000000000000000000000000000000000000000000000000000000000000000000000000000000000000000000000000000000000000000000000000000000000000000000000000000000000000000000000000000000000000
310
00000000000000000000000000000000000000000000000000000000000000000000000000000000000000000000000000000000000000000000000000000000000000000000CA0000000000000000000000000000000000000000000000000000000000000000000000000000000000000000000000000000000000000000
310
00000000000000000000000000000000000000000000000000000000000000000000000000000000000000000000000000000000000000000000000000000000000000000000000000000000000000000000000000000000000000000000000000000000000000000000000000000000000000000000000000000000000000
310
000000000000000000000000000000000000000000000000000000000000000000000000000000000000000000000000000000000000000000000000000000000000000000000000CA000000000000000000000000000000000000000000000000000000000000000000000000000000000000000000000000000000000000
310
00000000000000000000000000000000000000000000000000000000000000000000000000000000000000000000000000000000000000000000000000000000000000000000000000000000000000000000000000000000000000000000000000000000000000000000000000000000000000000000000000000000000000
310
00000000000000000000000000000000000000000000000000000000000000000000000000000000000000000000000000000000000000000000000000000000000000000000000000000000000000000000000000000000000000000000000000000000000000000000000000000000000000000000000000000000000000
310
00000000000000000000000000000000000000000000000000000000000000000000000000000000000000000000000000000000000000000000000000000000000000000000000000000000000000000000000000000000000000000000000000000000000000000000000000000000000000000000000000000000000000
310
00000000000000000000000000000000000000000000000000000000000000000000000000000000000000000000000000000000000000000000000000000000000000000000000000000000000000000000000000000000000000000000000000000000000000000000000000000000000000000000000000000000000000
310
00000000000000000000000000000000000000000000000000000000000000000000000000000000000000000000000000000000000000000000000000000000000000000000000000000000000000000000000000000000000000000000000000000000000000000000000000000000000000000000000000000000000000
310
00000000000000000000000000000000000000000000000000000000000000000000000000000000000000000000000000000000000000000000000000000000000000000000000000000000000000000000000000000000000000000000000000000000000000000000000000000000000000000000000000000000000000
310
00000000000000000000000000000000000000000000000000000000000000000000000000000000000000000000000000000000000000000000000000000000000000000000000000000000000000000000000000000000000000000000000000000000000000000000000000000000000000000000000000000000000000
310
00000000000000000000000000000000000000000000000000000000000000000000000000000000000000000000000000000000000000000000000000000000000000000000000000000000000000000000000000000000000000000000000000000000000000000000000000000000000000000000000000000000000000
310
00000000000000000000000000000000000000000000000000000000000000000000000000000000000000000000000000000000000000000000000000000000000000000000000000000000000000000000000000000000000000000000000000000000000000000000000000000000000000000000000000000000000000
310
00000000000000000000000000000000000000000000000000000000000000000000000000000000000000000000000000000000000000000000000000000000000000000000000000000000000000000000000000000000000000000000000000000000000000000000000000000000000000000000000000000000000000
310
00000000000000000000000000000000000000000000000000000000000000000000000000000000000000000000000000000000000000000000000000000000000000000000000000000000000000000000000000000000000000000000000000000000000000000000000000000000000000000000000000000000000000
310
00000000000000000000000000000000000000000000000000000000000000000000000000000000000000000000000000000000000000000000000000000000000000000000000000000000000000000000000000000000000000000000000000000000000000000000000000000000000000000000000000000000000000
310
00000000000000000000000000000000000000000000000000000000000000000000000000000000000000000000000000000000000000000000000000000000000000000000000000000000000000000000000000000000000000000000000000000000000000000000000000000000000000000000000000000000000000
310
00000000000000000000000000000000000000000000000000000000000000000000000000000000000000000000000000000000000000000000000000000000000000000000000000000000000000000000000000000000000000000000000000000000000000000000000000000000000000000000000000000000000000
310
00000000000000000000000000000000000000000000000000000000000000000000000000000000000000000000000000000000000000000000000000000000000000000000000000000000000000000000000000000000000000000000000000000000000000000000000000000000000000000000000000000000000000
310
00000000000000000000000000000000000000000000000000000000000000000000000000000000000000000000000000000000000000000000000000000000000000000000000000000000000000000000000000000000000000000000000000000000000000000000000000000000000000000000000000000000000000
310
00000000000000000000000000000000000000000000000000000000000000000000000000000000000000000000000000000000000000000000000000000000000000000000000000000000000000000000000000000000000000000000000000000000000000000000000000000000000000000000000000000000000000
310
00000000000000000000000000000000000000000000000000000000000000000000000000000000000000000000000000000000000000000000000000000000000000000000000000000000000000000000000000000000000000000000000000000000000000000000000000000000000000000000000000000000000000
310
00000000000000000000000000000000000000000000000000000000000000000000000000000000000000000000000000000000000000000000000000000000000000000000000000000000000000000000000000000000000000000000000000000000000000000000000000000000000000000000000000000000000000
310
00000000000000000000000000000000000000000000000000000000000000000000000000000000000000000000000000000000000000000000000000000000000000000000000000000000000000000000000000000000000000000000000000000000000000000000000000000000000000000000000000000000000000
310
00000000000000000000000000000000000000000000000000000000000000000000000000000000000000000000000000000000000000000000000000000000000000000000000000000000000000000000000000000000000000000000000000000000000000000000000000000000000000000000000000000000000000
310
00000000000000000000000000000000000000000000000000000000000000000000000000000000000000000000000000000000000000000000000000000000000000000000000000000000000000000000000000000000000000000000000000000000000000000000000000000000000000000000000000000000000000
310
00000000000000000000000000000000000000000000000000000000000000000000000000000000000000000000000000000000000000000000000000000000000000000000000000000000000000000000000000000000000000000000000000000000000000000000000000000000000000000000000000000000000000
310
00000000000000000000000000000000000000000000000000000000000000000000000000000000000000000000000000000000000000000000000000000000000000000000000000000000000000000000000000000000000000000000000000000000000000000000000000000000000000000000000000000000000000
310
00000000000000000000000000000000000000000000000000000000000000000000000000000000000000000000000000000000000000000000000000000000000000000000000000000000000000000000000000000000000000000000000000000000000000000000000000000000000000000000000000000000000000
310
00000000000000000000000000000000000000000000000000000000000000000000000000000000000000000000000000000000000000000000000000000000000000000000000000000000000000000000000000000000000000000000000000000000000000000000000000000000000000000000000000000000000000
310
00000000000000000000000000000000000000000000000000000000000000000000000000000000000000000000000000000000000000000000000000000000000000000000000000000000000000000000000000000000000000000000000000000000000000000000000000000000000000000000000000000000000000
310
00000000000000000000000000000000000000000000000000000000000000000000000000000000000000000000000000000000000000000000000000000000000000000000000000000000000000000000000000000000000000000000000000000000000000000000000000000000000000000000000000000000000000
310
00000000000000000000000000000000000000000000000000000000000000000000000000000000000000000000000000000000000000000000000000000000000000000000000000000000000000000000000000000000000000000000000000000000000000000000000000000000000000000000000000000000000000
310
00000000000000000000000000000000000000000000000000000000000000000000000000000000000000000000000000000000000000000000000000000000000000000000000000000000000000000000000000000000000000000000000000000000000000000000000000000000000000000000000000000000000000
310
00000000000000000000000000000000000000000000000000000000000000000000000000000000000000000000000000000000000000000000000000000000000000000000000000000000000000000000000000000000000000000000000000000000000000000000000000000000000000000000000000000000000000
310
00000000000000000000000000000000000000000000000000000000000000000000000000000000000000000000000000000000000000000000000000000000000000000000000000000000000000000000000000000000000000000000000000000000000000000000000000000000000000000000000000000000000000
310
00000000000000000000000000000000000000000000000000000000000000000000000000000000000000000000000000000000000000000000000000000000000000000000000000000000000000000000000000000000000000000000000000000000000000000000000000000000000000000000000000000000000000
310
00000000000000000000000000000000000000000000000000000000000000000000000000000000000000000000000000000000000000000000000000000000000000000000000000000000000000000000000000000000000000000000000000000000000000000000000000000000000000000000000000000000000000
310
00000000000000000000000000000000000000000000000000000000000000000000000000000000000000000000000000000000000000000000000000000000000000000000000000000000000000000000000000000000000000000000000000000000000000000000000000000000000000000000000000000000000000
310
00000000000000000000000000000000000000000000000000000000000000000000000000000000000000000000000000000000000000000000000000000000000000000000000000000000000000000000000000000000000000000000000000000000000000000000000000000000000000000000000000000000000000
310
00000000000000000000000000000000000000000000000000000000000000000000000000000000000000000000000000000000000000000000000000000000000000000000000000000000000000000000000000000000000000000000000000000000000000000000000000000000000000000000000000000000000000
310
00000000000000000000000000000000000000000000000000000000000000000000000000000000000000000000000000000000000000000000000000000000000000000000000000000000000000000000000000000000000000000000000000000000000000000000000000000000000000000000000000000000000000
310
00000000000000000000000000000000000000000000000000000000000000000000000000000000000000000000000000000000000000000000000000000000000000000000000000000000000000000000000000000000000000000000000000000000000000000000000000000000000000000000000000000000000000
310
00000000000000000000000000000000000000000000000000000000000000000000000000000000000000000000000000000000000000000000000000000000000000000000000000000000000000000000000000000000000000000000000000000000000000000000000000000000000000000000000000000000000000
310
00000000000000000000000000000000000000000000000000000000000000000000000000000000000000000000000000000000000000000000000000000000000000000000000000000000000000000000000000000000000000000000000000000000000000000000000000000000000000000000000000000000000000
310
00000000000000000000000000000000000000000000000000000000000000000000000000000000000000000000000000000000000000000000000000000000000000000000000000000000000000000000000000000000000000000000000000000000000000000000000000000000000000000000000000000000000000
310
00000000000000000000000000000000000000000000000000000000000000000000000000000000000000000000000000000000000000000000000000000000000000000000000000000000000000000000000000000000000000000000000000000000000000000000000000000000000000000000000000000000000000
310
00000000000000000000000000000000000000000000000000000000000000000000000000000000000000000000000000000000000000000000000000000000000000000000000000000000000000000000000000000000000000000000000000000000000000000000000000000000000000000000000000000000000000
310
00000000000000000000000000000000000000000000000000000000000000000000000000000000000000000000000000000000000000000000000000000000000000000000000000000000000000000000000000000000000000000000000000000000000000000000000000000000000000000000000000000000000000
310
00000000000000000000000000000000000000000000000000000000000000000000000000000000000000000000000000000000000000000000000000000000000000000000000000000000000000000000000000000000000000000000000000000000000000000000000000000000000000000000000000000000000000
310
00000000000000000000000000000000000000000000000000000000000000000000000000000000000000000000000000000000000000000000000000000000000000000000000000000000000000000000000000000000000000000000000000000000000000000000000000000000000000000000000000000000000000
310
00000000000000000000000000000000000000000000000000000000000000000000000000000000000000000000000000000000000000000000000000000000000000000000000000000000000000000000000000000000000000000000000000000000000000000000000000000000000000000000000000000000000000
310
00000000000000000000000000000000000000000000000000000000000000000000000000000000000000000000000000000000000000000000000000000000000000000000000000000000000000000000000000000000000000000000000000000000000000000000000000000000000000000000000000000000000000
310
00000000000000000000000000000000000000000000000000000000000000000000000000000000000000000000000000000000000000000000000000000000000000000000000000000000000000000000000000000000000000000000000000000000000000000000000000000000000000000000000000000000000000
310
00000000000000000000000000000000000000000000000000000000000000000000000000000000000000000000000000000000000000000000000000000000000000000000000000000000000000000000000000000000000000000000000000000000000000000000000000000000000000000000000000000000000000
310
00000000000000000000000000000000000000000000000000000000000000000000000000000000000000000000000000000000000000000000000000000000000000000000000000000000000000000000000000000000000000000000000000000000000000000000000000000000000000000000000000000000000000
310
00000000000000000000000000000000000000000000000000000000000000000000000000000000000000000000000000000000000000000000000000000000000000000000000000000000000000000000000000000000000000000000000000000000000000000000000000000000000000000000000000000000000000
310
00000000000000000000000000000000000000000000000000000000000000000000000000000000000000000000000000000000000000000000000000000000000000000000000000000000000000000000000000000000000000000000000000000000000000000000000000000000000000000000000000000000000000
310
00000000000000000000000000000000000000000000000000000000000000000000000000000000000000000000000000000000000000000000000000000000000000000000000000000000000000000000000000000000000000000000000000000000000000000000000000000000000000000000000000000000000000
310
00000000000000000000000000000000000000000000000000000000000000000000000000000000000000000000000000000000000000000000000000000000000000000000000000000000000000000000000000000000000000000000000000000000000000000000000000000000000000000000000000000000000000
310
00000000000000000000000000000000000000000000000000000000000000000000000000000000000000000000000000000000000000000000000000000000000000000000000000000000000000000000000000000000000000000000000000000000000000000000000000000000000000000000000000000000000000
310
00000000000000000000000000000000000000000000000000000000000000000000000000000000000000000000000000000000000000000000000000000000000000000000000000000000000000000000000000000000000000000000000000000000000000000000000000000000000000000000000000000000000000
310
00000000000000000000000000000000000000000000000000000000000000000000000000000000000000000000000000000000000000000000000000000000000000000000000000000000000000000000000000000000000000000000000000000000000000000000000000000000000000000000000000000000000000
310
00000000000000000000000000000000000000000000000000000000000000000000000000000000000000000000000000000000000000000000000000000000000000000000000000000000000000000000000000000000000000000000000000000000000000000000000000000000000000000000000000000000000000
310
00000000000000000000000000000000000000000000000000000000000000000000000000000000000000000000000000000000000000000000000000000000000000000000000000000000000000000000000000000000000000000000000000000000000000000000000000000000000000000000000000000000000000
310
00000000000000000000000000000000000000000000000000000000000000000000000000000000000000000000000000000000000000000000000000000000000000000000000000000000000000000000000000000000000000000000000000000000000000000000000000000000000000000000000000000000000000
310
00000000000000000000000000000000000000000000000000000000000000000000000000000000000000000000000000000000000000000000000000000000000000000000000000000000000000000000000000000000000000000000000000000000000000000000000000000000000000000000000000000000000000
310
00000000000000000000000000000000000000000000000000000000000000000000000000000000000000000000000000000000000000000000000000000000000000000000000000000000000000000000000000000000000000000000000000000000000000000000000000000000000000000000000000000000000000
310
00000000000000000000000000000000000000000000000000000000000000000000000000000000000000000000000000000000000000000000000000000000000000000000000000000000000000000000000000000000000000000000000000000000000000000000000000000000000000000000000000000000000000
310
00000000000000000000000000000000000000000000000000000000000000000000000000000000000000000000000000000000000000000000000000000000000000000000000000000000000000000000000000000000000000000000000000000000000000000000000000000000000000000000000000000000000000
310
00000000000000000000000000000000000000000000000000000000000000000000000000000000000000000000000000000000000000000000000000000000000000000000000000000000000000000000000000000000000000000000000000000000000000000000000000000000000000000000000000000000000000
310
00000000000000000000000000000000000000000000000000000000000000000000000000000000000000000000000000000000000000000000000000000000000000000000000000000000000000000000000000000000000000000000000000000000000000000000000000000000000000000000000000000000000000
310
00000000000000000000000000000000000000000000000000000000000000000000000000000000000000000000000000000000000000000000000000000000000000000000000000000000000000000000000000000000000000000000000000000000000000000000000000000000000000000000000000000000000000
310
00000000000000000000000000000000000000000000000000000000000000000000000000000000000000000000000000000000000000000000000000000000000000000000000000000000000000000000000000000000000000000000000000000000000000000000000000000000000000000000000000000000000000
310
00000000000000000000000000000000000000000000000000000000000000000000000000000000000000000000000000000000000000000000000000000000000000000000000000000000000000000000000000000000000000000000000000000000000000000000000000000000000000000000000000000000000000
310
00000000000000000000000000000000000000000000000000000000000000000000000000000000000000000000000000000000000000000000000000000000000000000000000000000000000000000000000000000000000000000000000000000000000000000000000000000000000000000000000000000000000000
310
00000000000000000000000000000000000000000000000000000000000000000000000000000000000000000000000000000000000000000000000000000000000000000000000000000000000000000000000000000000000000000000000000000000000000000000000000000000000000000000000000000000000000
310
00000000000000000000000000000000000000000000000000000000000000000000000000000000000000000000000000000000000000000000000000000000000000000000000000000000000000000000000000000000000000000000000000000000000000000000000000000000000000000000000000000000000000
310
00000000000000000000000000000000000000000000000000000000000000000000000000000000000000000000000000000000000000000000000000000000000000000000000000000000000000000000000000000000000000000000000000000000000000000000000000000000000000000000000000000000000000
310
00000000000000000000000000000000000000000000000000000000000000000000000000000000000000000000000000000000000000000000000000000000000000000000000000000000000000000000000000000000000000000000000000000000000000000000000000000000000000000000000000000000000000
310
00000000000000000000000000000000000000000000000000000000000000000000000000000000000000000000000000000000000000000000000000000000000000000000000000000000000000000000000000000000000000000000000000000000000000000000000000000000000000000000000000000000000000
310
00000000000000000000000000000000000000000000000000000000000000000000000000000000000000000000000000000000000000000000000000000000000000000000000000000000000000000000000000000000000000000000000000000000000000000000000000000000000000000000000000000000000000
310
00000000000000000000000000000000000000000000000000000000000000000000000000000000000000000000000000000000000000000000000000000000000000000000000000000000000000000000000000000000000000000000000000000000000000000000000000000000000000000000000000000000000000
310
00000000000000000000000000000000000000000000000000000000000000000000000000000000000000000000000000000000000000000000000000000000000000000000000000000000000000000000000000000000000000000000000000000000000000000000000000000000000000000000000000000000000000
310
00000000000000000000000000000000000000000000000000000000000000000000000000000000000000000000000000000000000000000000000000000000000000000000000000000000000000000000000000000000000000000000000000000000000000000000000000000000000000000000000000000000000000
310
00000000000000000000000000000000000000000000000000000000000000000000000000000000000000000000000000000000000000000000000000000000000000000000000000000000000000000000000000000000000000000000000000000000000000000000000000000000000000000000000000000000000000
310
00000000000000000000000000000000000000000000000000000000000000000000000000000000000000000000000000000000000000000000000000000000000000000000000000000000000000000000000000000000000000000000000000000000000000000000000000000000000000000000000000000000000000
310
00000000000000000000000000000000000000000000000000000000000000000000000000000000000000000000000000000000000000000000000000000000000000000000000000000000000000000000000000000000000000000000000000000000000000000000000000000000000000000000000000000000000000
310
00000000000000000000000000000000000000000000000000000000000000000000000000000000000000000000000000000000000000000000000000000000000000000000000000000000000000000000000000000000000000000000000000000000000000000000000000000000000000000000000000000000000000
310
00000000000000000000000000000000000000000000000000000000000000000000000000000000000000000000000000000000000000000000000000000000000000000000000000000000000000000000000000000000000000000000000000000000000000000000000000000000000000000000000000000000000000
310
00000000000000000000000000000000000000000000000000000000000000000000000000000000000000000000000000000000000000000000000000000000000000000000000000000000000000000000000000000000000000000000000000000000000000000000000000000000000000000000000000000000000000
310
00000000000000000000000000000000000000000000000000000000000000000000000000000000000000000000000000000000000000000000000000000000000000000000000000000000000000000000000000000000000000000000000000000000000000000000000000000000000000000000000000000000000000
310
00000000000000000000000000000000000000000000000000000000000000000000000000000000000000000000000000000000000000000000000000000000000000000000000000000000000000000000000000000000000000000000000000000000000000000000000000000000000000000000000000000000000000
310
00000000000000000000000000000000000000000000000000000000000000000000000000000000000000000000000000000000000000000000000000000000000000000000000000000000000000000000000000000000000000000000000000000000000000000000000000000000000000000000000000000000000000
310
000000000000000000000000000000000000000000000000000000000000000000000000000000000000000000000000000000000000000000000000000000000000000000000000000000000000000000000000000000000000000000000000000000000000000000000000
  0
XRECORD
  5
4D1
102
{ACAD_REACTORS
330
1A
102
}
330
1A
100
AcDbXrecord
280
     1
102
MATERIAL
148
0.0
149
0.0
149
0.0
 93
        0
 94
      127
282
     0
 72
     0
 77
     0
171
     0
175
     0
179
     0
273
     0
  0
XRECORD
  5
1C
102
{ACAD_REACTORS
330
1A
102
}
330
1A
100
AcDbXrecord
280
     1
270
     1
271
     1
  0
XRECORD
  5
1B
102
{ACAD_REACTORS
330
1A
102
}
330
1A
100
AcDbXrecord
280
     1
270
     1
271
     1
  0
XRECORD
  5
1F
102
{ACAD_REACTORS
330
1A
102
}
330
1A
100
AcDbXrecord
280
     1
270
     1
271
     1
  0
XRECORD
  5
1E
102
{ACAD_REACTORS
330
1A
102
}
330
1A
100
AcDbXrecord
280
     1
270
     1
271
     1
  0
XRECORD
  5
20
102
{ACAD_REACTORS
330
1A
102
}
330
1A
100
AcDbXrecord
280
     1
270
     1
271
     1
  0
XRECORD
  5
1D
102
{ACAD_REACTORS
330
1A
102
}
330
1A
100
AcDbXrecord
280
     1
270
     1
271
     1
  0
XRECORD
  5
4D0
102
{ACAD_REACTORS
330
12
102
}
330
12
100
AcDbXrecord
280
     1
102
MATERIAL
148
0.0
149
0.0
149
0.0
 93
        0
 94
      127
282
     0
 72
     0
 77
     0
171
     0
175
     0
179
     0
273
     0
  0
XRECORD
  5
14
102
{ACAD_REACTORS
330
12
102
}
330
12
100
AcDbXrecord
280
     1
270
     1
271
     1
  0
XRECORD
  5
13
102
{ACAD_REACTORS
330
12
102
}
330
12
100
AcDbXrecord
280
     1
270
     1
271
     1
  0
XRECORD
  5
17
102
{ACAD_REACTORS
330
12
102
}
330
12
100
AcDbXrecord
280
     1
270
     1
271
     1
  0
XRECORD
  5
16
102
{ACAD_REACTORS
330
12
102
}
330
12
100
AcDbXrecord
280
     1
270
     1
271
     1
  0
XRECORD
  5
18
102
{ACAD_REACTORS
330
12
102
}
330
12
100
AcDbXrecord
280
     1
270
     1
271
     1
  0
XRECORD
  5
15
102
{ACAD_REACTORS
330
12
102
}
330
12
100
AcDbXrecord
280
     1
270
     1
271
     1
  0
XRECORD
  5
4D2
102
{ACAD_REACTORS
330
22
102
}
330
22
100
AcDbXrecord
280
     1
102
MATERIAL
148
0.0
149
0.0
149
0.0
 93
        0
 94
      127
282
     0
 72
     0
 77
     0
171
     0
175
     0
179
     0
273
     0
  0
XRECORD
  5
24
102
{ACAD_REACTORS
330
22
102
}
330
22
100
AcDbXrecord
280
     1
270
     1
271
     1
  0
XRECORD
  5
23
102
{ACAD_REACTORS
330
22
102
}
330
22
100
AcDbXrecord
280
     1
270
     1
271
     1
  0
XRECORD
  5
27
102
{ACAD_REACTORS
330
22
102
}
330
22
100
AcDbXrecord
280
     1
270
     1
271
     1
  0
XRECORD
  5
26
102
{ACAD_REACTORS
330
22
102
}
330
22
100
AcDbXrecord
280
     1
270
     1
271
     1
  0
XRECORD
  5
28
102
{ACAD_REACTORS
330
22
102
}
330
22
100
AcDbXrecord
280
     1
270
     1
271
     1
  0
XRECORD
  5
25
102
{ACAD_REACTORS
330
22
102
}
330
22
100
AcDbXrecord
280
     1
270
     1
271
     1
  0
XRECORD
  5
6B0
102
{ACAD_REACTORS
330
6AF
102
}
330
6AF
100
AcDbXrecord
280
     1
102
ACAD_ROUNDTRIP_2012_MLEADER_STYLE
298
     1
  0
CELLSTYLEMAP
  5
6AE
102
{ACAD_REACTORS
330
4C8
102
}
330
4C8
100
AcDbCellStyleMap
 90
        3
300
CELLSTYLE
  1
TABLEFORMAT_BEGIN
 90
        5
170
     1
 91
        0
 92
    32768
 62
   257
 93
        1
300
CONTENTFORMAT
  1
CONTENTFORMAT_BEGIN
 90
        0
 91
        0
 92
      512
 93
        0
300

 40
0.0
140
1.0
 94
        5
 62
     0
340
55
144
6.0
309
CONTENTFORMAT_END
171
     1
301
MARGIN
  1
CELLMARGIN_BEGIN
 40
1.5
 40
1.5
 40
1.5
 40
1.5
 40
0.18
 40
0.18
309
CELLMARGIN_END
 94
        6
 95
        1
302
GRIDFORMAT
  1
GRIDFORMAT_BEGIN
 90
        0
 91
        1
 62
     0
 92
       -2
340
0
 93
        0
 40
1.125
309
GRIDFORMAT_END
 95
        2
302
GRIDFORMAT
  1
GRIDFORMAT_BEGIN
 90
        0
 91
        1
 62
     0
 92
       -2
340
0
 93
        0
 40
1.125
309
GRIDFORMAT_END
 95
        4
302
GRIDFORMAT
  1
GRIDFORMAT_BEGIN
 90
        0
 91
        1
 62
     0
 92
       -2
340
0
 93
        0
 40
1.125
309
GRIDFORMAT_END
 95
        8
302
GRIDFORMAT
  1
GRIDFORMAT_BEGIN
 90
        0
 91
        1
 62
     0
 92
       -2
340
0
 93
        0
 40
1.125
309
GRIDFORMAT_END
 95
       16
302
GRIDFORMAT
  1
GRIDFORMAT_BEGIN
 90
        0
 91
        1
 62
     0
 92
       -2
340
0
 93
        0
 40
1.125
309
GRIDFORMAT_END
 95
       32
302
GRIDFORMAT
  1
GRIDFORMAT_BEGIN
 90
        0
 91
        1
 62
     0
 92
       -2
340
0
 93
        0
 40
1.125
309
GRIDFORMAT_END
309
TABLEFORMAT_END
  1
CELLSTYLE_BEGIN
 90
        1
 91
        1
300
_TITLE
309
CELLSTYLE_END
300
CELLSTYLE
  1
TABLEFORMAT_BEGIN
 90
        5
170
     1
 91
        0
 92
        0
 62
   257
 93
        1
300
CONTENTFORMAT
  1
CONTENTFORMAT_BEGIN
 90
        0
 91
        0
 92
      512
 93
        0
300

 40
0.0
140
1.0
 94
        5
 62
     0
340
55
144
4.5
309
CONTENTFORMAT_END
171
     1
301
MARGIN
  1
CELLMARGIN_BEGIN
 40
1.5
 40
1.5
 40
1.5
 40
1.5
 40
0.18
 40
0.18
309
CELLMARGIN_END
 94
        6
 95
        1
302
GRIDFORMAT
  1
GRIDFORMAT_BEGIN
 90
        0
 91
        1
 62
     0
 92
       -2
340
0
 93
        0
 40
1.125
309
GRIDFORMAT_END
 95
        2
302
GRIDFORMAT
  1
GRIDFORMAT_BEGIN
 90
        0
 91
        1
 62
     0
 92
       -2
340
0
 93
        0
 40
1.125
309
GRIDFORMAT_END
 95
        4
302
GRIDFORMAT
  1
GRIDFORMAT_BEGIN
 90
        0
 91
        1
 62
     0
 92
       -2
340
0
 93
        0
 40
1.125
309
GRIDFORMAT_END
 95
        8
302
GRIDFORMAT
  1
GRIDFORMAT_BEGIN
 90
        0
 91
        1
 62
     0
 92
       -2
340
0
 93
        0
 40
1.125
309
GRIDFORMAT_END
 95
       16
302
GRIDFORMAT
  1
GRIDFORMAT_BEGIN
 90
        0
 91
        1
 62
     0
 92
       -2
340
0
 93
        0
 40
1.125
309
GRIDFORMAT_END
 95
       32
302
GRIDFORMAT
  1
GRIDFORMAT_BEGIN
 90
        0
 91
        1
 62
     0
 92
       -2
340
0
 93
        0
 40
1.125
309
GRIDFORMAT_END
309
TABLEFORMAT_END
  1
CELLSTYLE_BEGIN
 90
        2
 91
        1
300
_HEADER
309
CELLSTYLE_END
300
CELLSTYLE
  1
TABLEFORMAT_BEGIN
 90
        5
170
     1
 91
        0
 92
        0
 62
   257
 93
        1
300
CONTENTFORMAT
  1
CONTENTFORMAT_BEGIN
 90
        0
 91
        0
 92
      512
 93
        0
300

 40
0.0
140
1.0
 94
        2
 62
     0
340
55
144
4.5
309
CONTENTFORMAT_END
171
     1
301
MARGIN
  1
CELLMARGIN_BEGIN
 40
1.5
 40
1.5
 40
1.5
 40
1.5
 40
0.18
 40
0.18
309
CELLMARGIN_END
 94
        6
 95
        1
302
GRIDFORMAT
  1
GRIDFORMAT_BEGIN
 90
        0
 91
        1
 62
     0
 92
       -2
340
0
 93
        0
 40
1.125
309
GRIDFORMAT_END
 95
        2
302
GRIDFORMAT
  1
GRIDFORMAT_BEGIN
 90
        0
 91
        1
 62
     0
 92
       -2
340
0
 93
        0
 40
1.125
309
GRIDFORMAT_END
 95
        4
302
GRIDFORMAT
  1
GRIDFORMAT_BEGIN
 90
        0
 91
        1
 62
     0
 92
       -2
340
0
 93
        0
 40
1.125
309
GRIDFORMAT_END
 95
        8
302
GRIDFORMAT
  1
GRIDFORMAT_BEGIN
 90
        0
 91
        1
 62
     0
 92
       -2
340
0
 93
        0
 40
1.125
309
GRIDFORMAT_END
 95
       16
302
GRIDFORMAT
  1
GRIDFORMAT_BEGIN
 90
        0
 91
        1
 62
     0
 92
       -2
340
0
 93
        0
 40
1.125
309
GRIDFORMAT_END
 95
       32
302
GRIDFORMAT
  1
GRIDFORMAT_BEGIN
 90
        0
 91
        1
 62
     0
 92
       -2
340
0
 93
        0
 40
1.125
309
GRIDFORMAT_END
309
TABLEFORMAT_END
  1
CELLSTYLE_BEGIN
 90
        3
 91
        2
300
_DATA
309
CELLSTYLE_END
  0
XRECORD
  5
6E4
102
{ACAD_REACTORS
330
4C8
102
}
330
4C8
100
AcDbXrecord
280
     1
102
ACAD_ROUNDTRIP_PRE2007_TABLESTYLE
 90
      512
 91
        0
  1

 92
      512
 93
        0
  2

 94
      512
 95
        0
  3

  0
XRECORD
  5
6BF
102
{ACAD_REACTORS
330
6BE
102
}
330
6BE
100
AcDbXrecord
280
     1
102
RTVSPropertyOp0
 70
     1
102
RTVSPropertyOp1
 70
     1
102
RTVSPropertyOp2
 70
     1
102
RTVSPropertyOp3
 70
     1
102
RTVSPropertyOp4
 70
     1
102
RTVSPropertyOp5
 70
     1
102
RTVSPropertyOp6
 70
     1
102
RTVSPropertyOp7
 70
     1
102
RTVSPropertyOp8
 70
     1
102
RTVSPropertyOp9
 70
     1
102
RTVSPropertyOp10
 70
     1
102
RTVSPropertyOp11
 70
     1
102
RTVSPropertyOp12
 70
     1
102
RTVSPropertyOp13
 70
     1
102
RTVSPropertyOp14
 70
     1
102
RTVSPropertyOp15
 70
     1
102
RTVSPropertyOp16
 70
     1
102
RTVSPropertyOp17
 70
     1
102
RTVSPropertyOp18
 70
     1
102
RTVSPropertyOp19
 70
     1
102
RTVSPropertyOp20
 70
     1
102
RTVSPropertyOp21
 70
     1
102
RTVSPropertyOp22
 70
     1
102
RTVSPropertyOp23
 70
     1
102
RTVSPropertyOp24
 70
     1
102
RTVSPropertyOp25
 70
     1
102
RTVSPropertyOp26
 70
     1
102
RTVSPropertyOp27
 70
     1
102
RTVSPropertyOp28
 70
     1
102
RTVSPropertyOp29
 70
     1
102
RTVSPropertyOp30
 70
     1
102
RTVSPropertyOp31
 70
     1
102
RTVSPropertyOp32
 70
     1
  0
XRECORD
  5
6BD
102
{ACAD_REACTORS
330
6BC
102
}
330
6BC
100
AcDbXrecord
280
     1
102
RTVSPropertyOp0
 70
     1
102
RTVSPropertyOp1
 70
     1
102
RTVSPropertyOp2
 70
     1
102
RTVSPropertyOp3
 70
     1
102
RTVSPropertyOp4
 70
     1
102
RTVSPropertyOp5
 70
     1
102
RTVSPropertyOp6
 70
     1
102
RTVSPropertyOp7
 70
     1
102
RTVSPropertyOp8
 70
     1
102
RTVSPropertyOp9
 70
     1
102
RTVSPropertyOp10
 70
     1
102
RTVSPropertyOp11
 70
     1
102
RTVSPropertyOp12
 70
     1
102
RTVSPropertyOp13
 70
     1
102
RTVSPropertyOp14
 70
     1
102
RTVSPropertyOp15
 70
     1
102
RTVSPropertyOp16
 70
     1
102
RTVSPropertyOp17
 70
     1
102
RTVSPropertyOp18
 70
     1
102
RTVSPropertyOp19
 70
     1
102
RTVSPropertyOp20
 70
     1
102
RTVSPropertyOp21
 70
     1
102
RTVSPropertyOp22
 70
     1
102
RTVSPropertyOp23
 70
     1
102
RTVSPropertyOp24
 70
     1
102
RTVSPropertyOp25
 70
     1
102
RTVSPropertyOp26
 70
     1
102
RTVSPropertyOp27
 70
     1
102
RTVSPropertyOp28
 70
     1
102
RTVSPropertyOp29
 70
     1
102
RTVSPropertyOp30
 70
     1
102
RTVSPropertyOp31
 70
     1
102
RTVSPropertyOp32
 70
     1
  0
XRECORD
  5
6CB
102
{ACAD_REACTORS
330
6CA
102
}
330
6CA
100
AcDbXrecord
280
     1
102
RTVSPropertyOp0
 70
     1
102
RTVSPropertyOp1
 70
     1
102
RTVSPropertyOp2
 70
     1
102
RTVSPropertyOp3
 70
     1
102
RTVSPropertyOp4
 70
     1
102
RTVSPropertyOp5
 70
     1
102
RTVSPropertyOp6
 70
     1
102
RTVSPropertyOp7
 70
     1
102
RTVSPropertyOp8
 70
     1
102
RTVSPropertyOp9
 70
     1
102
RTVSPropertyOp10
 70
     1
102
RTVSPropertyOp11
 70
     1
102
RTVSPropertyOp12
 70
     1
102
RTVSPropertyOp13
 70
     1
102
RTVSPropertyOp14
 70
     1
102
RTVSPropertyOp15
 70
     1
102
RTVSPropertyOp16
 70
     1
102
RTVSPropertyOp17
 70
     1
102
RTVSPropertyOp18
 70
     1
102
RTVSPropertyOp19
 70
     1
102
RTVSPropertyOp20
 70
     1
102
RTVSPropertyOp21
 70
     1
102
RTVSPropertyOp22
 70
     1
102
RTVSPropertyOp23
 70
     1
102
RTVSPropertyOp24
 70
     1
102
RTVSPropertyOp25
 70
     1
102
RTVSPropertyOp26
 70
     1
102
RTVSPropertyOp27
 70
     1
102
RTVSPropertyOp28
 70
     1
102
RTVSPropertyOp29
 70
     1
102
RTVSPropertyOp30
 70
     1
102
RTVSPropertyOp31
 70
     1
102
RTVSPropertyOp32
 70
     1
  0
XRECORD
  5
6D3
102
{ACAD_REACTORS
330
6D2
102
}
330
6D2
100
AcDbXrecord
280
     1
102
RTVSPropertyOp0
 70
     1
102
RTVSPropertyOp1
 70
     1
102
RTVSPropertyOp2
 70
     1
102
RTVSPropertyOp3
 70
     1
102
RTVSPropertyOp4
 70
     1
102
RTVSPropertyOp5
 70
     1
102
RTVSPropertyOp6
 70
     1
102
RTVSPropertyOp7
 70
     1
102
RTVSPropertyOp8
 70
     1
102
RTVSPropertyOp9
 70
     1
102
RTVSPropertyOp10
 70
     1
102
RTVSPropertyOp11
 70
     1
102
RTVSPropertyOp12
 70
     1
102
RTVSPropertyOp13
 70
     1
102
RTVSPropertyOp14
 70
     1
102
RTVSPropertyOp15
 70
     1
102
RTVSPropertyOp16
 70
     1
102
RTVSPropertyOp17
 70
     1
102
RTVSPropertyOp18
 70
     1
102
RTVSPropertyOp19
 70
     1
102
RTVSPropertyOp20
 70
     1
102
RTVSPropertyOp21
 70
     1
102
RTVSPropertyOp22
 70
     1
102
RTVSPropertyOp23
 70
     1
102
RTVSPropertyOp24
 70
     1
102
RTVSPropertyOp25
 70
     1
102
RTVSPropertyOp26
 70
     1
102
RTVSPropertyOp27
 70
     1
102
RTVSPropertyOp28
 70
     1
102
RTVSPropertyOp29
 70
     1
102
RTVSPropertyOp30
 70
     1
102
RTVSPropertyOp31
 70
     1
102
RTVSPropertyOp32
 70
     1
  0
XRECORD
  5
6C5
102
{ACAD_REACTORS
330
6C4
102
}
330
6C4
100
AcDbXrecord
280
     1
102
RTVSPropertyOp0
 70
     1
102
RTVSPropertyOp1
 70
     1
102
RTVSPropertyOp2
 70
     1
102
RTVSPropertyOp3
 70
     1
102
RTVSPropertyOp4
 70
     1
102
RTVSPropertyOp5
 70
     1
102
RTVSPropertyOp6
 70
     1
102
RTVSPropertyOp7
 70
     1
102
RTVSPropertyOp8
 70
     1
102
RTVSPropertyOp9
 70
     1
102
RTVSPropertyOp10
 70
     1
102
RTVSPropertyOp11
 70
     1
102
RTVSPropertyOp12
 70
     1
102
RTVSPropertyOp13
 70
     1
102
RTVSPropertyOp14
 70
     1
102
RTVSPropertyOp15
 70
     1
102
RTVSPropertyOp16
 70
     1
102
RTVSPropertyOp17
 70
     1
102
RTVSPropertyOp18
 70
     1
102
RTVSPropertyOp19
 70
     1
102
RTVSPropertyOp20
 70
     1
102
RTVSPropertyOp21
 70
     1
102
RTVSPropertyOp22
 70
     1
102
RTVSPropertyOp23
 70
     1
102
RTVSPropertyOp24
 70
     1
102
RTVSPropertyOp25
 70
     1
102
RTVSPropertyOp26
 70
     1
102
RTVSPropertyOp27
 70
     1
102
RTVSPropertyOp28
 70
     1
102
RTVSPropertyOp29
 70
     1
102
RTVSPropertyOp30
 70
     1
102
RTVSPropertyOp31
 70
     1
102
RTVSPropertyOp32
 70
     1
  0
XRECORD
  5
6C9
102
{ACAD_REACTORS
330
6C8
102
}
330
6C8
100
AcDbXrecord
280
     1
102
RTVSPropertyOp0
 70
     1
102
RTVSPropertyOp1
 70
     1
102
RTVSPropertyOp2
 70
     1
102
RTVSPropertyOp3
 70
     1
102
RTVSPropertyOp4
 70
     1
102
RTVSPropertyOp5
 70
     1
102
RTVSPropertyOp6
 70
     1
102
RTVSPropertyOp7
 70
     1
102
RTVSPropertyOp8
 70
     1
102
RTVSPropertyOp9
 70
     1
102
RTVSPropertyOp10
 70
     1
102
RTVSPropertyOp11
 70
     1
102
RTVSPropertyOp12
 70
     1
102
RTVSPropertyOp13
 70
     1
102
RTVSPropertyOp14
 70
     1
102
RTVSPropertyOp15
 70
     1
102
RTVSPropertyOp16
 70
     1
102
RTVSPropertyOp17
 70
     1
102
RTVSPropertyOp18
 70
     1
102
RTVSPropertyOp19
 70
     1
102
RTVSPropertyOp20
 70
     1
102
RTVSPropertyOp21
 70
     1
102
RTVSPropertyOp22
 70
     1
102
RTVSPropertyOp23
 70
     1
102
RTVSPropertyOp24
 70
     1
102
RTVSPropertyOp25
 70
     1
102
RTVSPropertyOp26
 70
     1
102
RTVSPropertyOp27
 70
     1
102
RTVSPropertyOp28
 70
     1
102
RTVSPropertyOp29
 70
     1
102
RTVSPropertyOp30
 70
     1
102
RTVSPropertyOp31
 70
     1
102
RTVSPropertyOp32
 70
     1
  0
XRECORD
  5
6E3
102
{ACAD_REACTORS
330
6E2
102
}
330
6E2
100
AcDbXrecord
280
     1
102
RTVSPropertyOp0
 70
     0
102
RTVSPropertyOp1
 70
     0
102
RTVSPropertyOp2
 70
     0
102
RTVSPropertyOp3
 70
     0
102
RTVSPropertyOp4
 70
     0
102
RTVSPropertyOp5
 70
     0
102
RTVSPropertyOp6
 70
     0
102
RTVSPropertyOp7
 70
     0
102
RTVSPropertyOp8
 70
     0
102
RTVSPropertyOp9
 70
     0
102
RTVSPropertyOp10
 70
     0
102
RTVSPropertyOp11
 70
     0
102
RTVSPropertyOp12
 70
     0
102
RTVSPropertyOp13
 70
     0
102
RTVSPropertyOp14
 70
     2
102
RTVSPropertyOp15
 70
     0
102
RTVSPropertyOp16
 70
     0
102
RTVSPropertyOp17
 70
     0
102
RTVSPropertyOp18
 70
     0
102
RTVSPropertyOp19
 70
     0
102
RTVSPropertyOp20
 70
     0
102
RTVSPropertyOp21
 70
     0
102
RTVSPropertyOp22
 70
     0
102
RTVSPropertyOp23
 70
     0
102
RTVSPropertyOp24
 70
     0
102
RTVSPropertyOp25
 70
     0
102
RTVSPropertyOp26
 70
     0
102
RTVSPropertyOp27
 70
     0
102
RTVSPropertyOp28
 70
     0
102
RTVSPropertyOp29
 70
     0
102
RTVSPropertyOp30
 70
     0
102
RTVSPropertyOp31
 70
     0
102
RTVSPropertyOp32
 70
     0
  0
XRECORD
  5
6D1
102
{ACAD_REACTORS
330
6D0
102
}
330
6D0
100
AcDbXrecord
280
     1
102
RTVSPropertyOp0
 70
     1
102
RTVSPropertyOp1
 70
     1
102
RTVSPropertyOp2
 70
     1
102
RTVSPropertyOp3
 70
     1
102
RTVSPropertyOp4
 70
     1
102
RTVSPropertyOp5
 70
     1
102
RTVSPropertyOp6
 70
     1
102
RTVSPropertyOp7
 70
     1
102
RTVSPropertyOp8
 70
     1
102
RTVSPropertyOp9
 70
     1
102
RTVSPropertyOp10
 70
     1
102
RTVSPropertyOp11
 70
     1
102
RTVSPropertyOp12
 70
     1
102
RTVSPropertyOp13
 70
     1
102
RTVSPropertyOp14
 70
     1
102
RTVSPropertyOp15
 70
     1
102
RTVSPropertyOp16
 70
     1
102
RTVSPropertyOp17
 70
     1
102
RTVSPropertyOp18
 70
     1
102
RTVSPropertyOp19
 70
     1
102
RTVSPropertyOp20
 70
     1
102
RTVSPropertyOp21
 70
     1
102
RTVSPropertyOp22
 70
     1
102
RTVSPropertyOp23
 70
     1
102
RTVSPropertyOp24
 70
     1
102
RTVSPropertyOp25
 70
     1
102
RTVSPropertyOp26
 70
     1
102
RTVSPropertyOp27
 70
     1
102
RTVSPropertyOp28
 70
     1
102
RTVSPropertyOp29
 70
     1
102
RTVSPropertyOp30
 70
     1
102
RTVSPropertyOp31
 70
     1
102
RTVSPropertyOp32
 70
     1
  0
XRECORD
  5
6B5
102
{ACAD_REACTORS
330
6B4
102
}
330
6B4
100
AcDbXrecord
280
     1
102
RTVSPropertyOp0
 70
     1
102
RTVSPropertyOp1
 70
     1
102
RTVSPropertyOp2
 70
     1
102
RTVSPropertyOp3
 70
     1
102
RTVSPropertyOp4
 70
     1
102
RTVSPropertyOp5
 70
     1
102
RTVSPropertyOp6
 70
     1
102
RTVSPropertyOp7
 70
     1
102
RTVSPropertyOp8
 70
     1
102
RTVSPropertyOp9
 70
     1
102
RTVSPropertyOp10
 70
     1
102
RTVSPropertyOp11
 70
     1
102
RTVSPropertyOp12
 70
     1
102
RTVSPropertyOp13
 70
     1
102
RTVSPropertyOp14
 70
     1
102
RTVSPropertyOp15
 70
     1
102
RTVSPropertyOp16
 70
     1
102
RTVSPropertyOp17
 70
     1
102
RTVSPropertyOp18
 70
     1
102
RTVSPropertyOp19
 70
     1
102
RTVSPropertyOp20
 70
     1
102
RTVSPropertyOp21
 70
     1
102
RTVSPropertyOp22
 70
     1
102
RTVSPropertyOp23
 70
     1
102
RTVSPropertyOp24
 70
     1
102
RTVSPropertyOp25
 70
     1
102
RTVSPropertyOp26
 70
     1
102
RTVSPropertyOp27
 70
     1
102
RTVSPropertyOp28
 70
     1
102
RTVSPropertyOp29
 70
     1
102
RTVSPropertyOp30
 70
     1
102
RTVSPropertyOp31
 70
     1
102
RTVSPropertyOp32
 70
     1
  0
XRECORD
  5
6B7
102
{ACAD_REACTORS
330
6B6
102
}
330
6B6
100
AcDbXrecord
280
     1
102
RTVSPropertyOp0
 70
     1
102
RTVSPropertyOp1
 70
     1
102
RTVSPropertyOp2
 70
     1
102
RTVSPropertyOp3
 70
     1
102
RTVSPropertyOp4
 70
     1
102
RTVSPropertyOp5
 70
     1
102
RTVSPropertyOp6
 70
     1
102
RTVSPropertyOp7
 70
     1
102
RTVSPropertyOp8
 70
     1
102
RTVSPropertyOp9
 70
     1
102
RTVSPropertyOp10
 70
     1
102
RTVSPropertyOp11
 70
     1
102
RTVSPropertyOp12
 70
     1
102
RTVSPropertyOp13
 70
     1
102
RTVSPropertyOp14
 70
     1
102
RTVSPropertyOp15
 70
     1
102
RTVSPropertyOp16
 70
     1
102
RTVSPropertyOp17
 70
     1
102
RTVSPropertyOp18
 70
     1
102
RTVSPropertyOp19
 70
     1
102
RTVSPropertyOp20
 70
     1
102
RTVSPropertyOp21
 70
     1
102
RTVSPropertyOp22
 70
     1
102
RTVSPropertyOp23
 70
     1
102
RTVSPropertyOp24
 70
     1
102
RTVSPropertyOp25
 70
     1
102
RTVSPropertyOp26
 70
     1
102
RTVSPropertyOp27
 70
     1
102
RTVSPropertyOp28
 70
     1
102
RTVSPropertyOp29
 70
     1
102
RTVSPropertyOp30
 70
     1
102
RTVSPropertyOp31
 70
     1
102
RTVSPropertyOp32
 70
     1
  0
XRECORD
  5
6B9
102
{ACAD_REACTORS
330
6B8
102
}
330
6B8
100
AcDbXrecord
280
     1
102
RTVSPropertyOp0
 70
     1
102
RTVSPropertyOp1
 70
     1
102
RTVSPropertyOp2
 70
     1
102
RTVSPropertyOp3
 70
     1
102
RTVSPropertyOp4
 70
     1
102
RTVSPropertyOp5
 70
     1
102
RTVSPropertyOp6
 70
     1
102
RTVSPropertyOp7
 70
     1
102
RTVSPropertyOp8
 70
     1
102
RTVSPropertyOp9
 70
     1
102
RTVSPropertyOp10
 70
     1
102
RTVSPropertyOp11
 70
     1
102
RTVSPropertyOp12
 70
     1
102
RTVSPropertyOp13
 70
     1
102
RTVSPropertyOp14
 70
     1
102
RTVSPropertyOp15
 70
     1
102
RTVSPropertyOp16
 70
     1
102
RTVSPropertyOp17
 70
     1
102
RTVSPropertyOp18
 70
     1
102
RTVSPropertyOp19
 70
     1
102
RTVSPropertyOp20
 70
     1
102
RTVSPropertyOp21
 70
     1
102
RTVSPropertyOp22
 70
     1
102
RTVSPropertyOp23
 70
     1
102
RTVSPropertyOp24
 70
     1
102
RTVSPropertyOp25
 70
     1
102
RTVSPropertyOp26
 70
     1
102
RTVSPropertyOp27
 70
     1
102
RTVSPropertyOp28
 70
     1
102
RTVSPropertyOp29
 70
     1
102
RTVSPropertyOp30
 70
     1
102
RTVSPropertyOp31
 70
     1
102
RTVSPropertyOp32
 70
     1
  0
XRECORD
  5
6BB
102
{ACAD_REACTORS
330
6BA
102
}
330
6BA
100
AcDbXrecord
280
     1
102
RTVSPropertyOp0
 70
     1
102
RTVSPropertyOp1
 70
     1
102
RTVSPropertyOp2
 70
     1
102
RTVSPropertyOp3
 70
     1
102
RTVSPropertyOp4
 70
     1
102
RTVSPropertyOp5
 70
     1
102
RTVSPropertyOp6
 70
     1
102
RTVSPropertyOp7
 70
     1
102
RTVSPropertyOp8
 70
     1
102
RTVSPropertyOp9
 70
     1
102
RTVSPropertyOp10
 70
     1
102
RTVSPropertyOp11
 70
     1
102
RTVSPropertyOp12
 70
     1
102
RTVSPropertyOp13
 70
     1
102
RTVSPropertyOp14
 70
     1
102
RTVSPropertyOp15
 70
     1
102
RTVSPropertyOp16
 70
     1
102
RTVSPropertyOp17
 70
     1
102
RTVSPropertyOp18
 70
     1
102
RTVSPropertyOp19
 70
     1
102
RTVSPropertyOp20
 70
     1
102
RTVSPropertyOp21
 70
     1
102
RTVSPropertyOp22
 70
     1
102
RTVSPropertyOp23
 70
     1
102
RTVSPropertyOp24
 70
     1
102
RTVSPropertyOp25
 70
     1
102
RTVSPropertyOp26
 70
     1
102
RTVSPropertyOp27
 70
     1
102
RTVSPropertyOp28
 70
     1
102
RTVSPropertyOp29
 70
     1
102
RTVSPropertyOp30
 70
     1
102
RTVSPropertyOp31
 70
     1
102
RTVSPropertyOp32
 70
     1
  0
XRECORD
  5
6C3
102
{ACAD_REACTORS
330
6C2
102
}
330
6C2
100
AcDbXrecord
280
     1
102
RTVSPropertyOp0
 70
     1
102
RTVSPropertyOp1
 70
     1
102
RTVSPropertyOp2
 70
     1
102
RTVSPropertyOp3
 70
     1
102
RTVSPropertyOp4
 70
     1
102
RTVSPropertyOp5
 70
     1
102
RTVSPropertyOp6
 70
     1
102
RTVSPropertyOp7
 70
     1
102
RTVSPropertyOp8
 70
     1
102
RTVSPropertyOp9
 70
     1
102
RTVSPropertyOp10
 70
     1
102
RTVSPropertyOp11
 70
     1
102
RTVSPropertyOp12
 70
     1
102
RTVSPropertyOp13
 70
     1
102
RTVSPropertyOp14
 70
     1
102
RTVSPropertyOp15
 70
     1
102
RTVSPropertyOp16
 70
     1
102
RTVSPropertyOp17
 70
     1
102
RTVSPropertyOp18
 70
     1
102
RTVSPropertyOp19
 70
     1
102
RTVSPropertyOp20
 70
     1
102
RTVSPropertyOp21
 70
     1
102
RTVSPropertyOp22
 70
     1
102
RTVSPropertyOp23
 70
     1
102
RTVSPropertyOp24
 70
     1
102
RTVSPropertyOp25
 70
     1
102
RTVSPropertyOp26
 70
     1
102
RTVSPropertyOp27
 70
     1
102
RTVSPropertyOp28
 70
     1
102
RTVSPropertyOp29
 70
     1
102
RTVSPropertyOp30
 70
     1
102
RTVSPropertyOp31
 70
     1
102
RTVSPropertyOp32
 70
     1
  0
XRECORD
  5
6DF
102
{ACAD_REACTORS
330
6DE
102
}
330
6DE
100
AcDbXrecord
280
     1
102
RTVSPropertyOp0
 70
     0
102
RTVSPropertyOp1
 70
     0
102
RTVSPropertyOp2
 70
     0
102
RTVSPropertyOp3
 70
     0
102
RTVSPropertyOp4
 70
     0
102
RTVSPropertyOp5
 70
     0
102
RTVSPropertyOp6
 70
     0
102
RTVSPropertyOp7
 70
     0
102
RTVSPropertyOp8
 70
     0
102
RTVSPropertyOp9
 70
     0
102
RTVSPropertyOp10
 70
     0
102
RTVSPropertyOp11
 70
     0
102
RTVSPropertyOp12
 70
     0
102
RTVSPropertyOp13
 70
     0
102
RTVSPropertyOp14
 70
     2
102
RTVSPropertyOp15
 70
     0
102
RTVSPropertyOp16
 70
     0
102
RTVSPropertyOp17
 70
     0
102
RTVSPropertyOp18
 70
     0
102
RTVSPropertyOp19
 70
     0
102
RTVSPropertyOp20
 70
     0
102
RTVSPropertyOp21
 70
     0
102
RTVSPropertyOp22
 70
     0
102
RTVSPropertyOp23
 70
     0
102
RTVSPropertyOp24
 70
     0
102
RTVSPropertyOp25
 70
     0
102
RTVSPropertyOp26
 70
     0
102
RTVSPropertyOp27
 70
     0
102
RTVSPropertyOp28
 70
     0
102
RTVSPropertyOp29
 70
     0
102
RTVSPropertyOp30
 70
     0
102
RTVSPropertyOp31
 70
     0
102
RTVSPropertyOp32
 70
     0
  0
XRECORD
  5
6CF
102
{ACAD_REACTORS
330
6CE
102
}
330
6CE
100
AcDbXrecord
280
     1
102
RTVSPropertyOp0
 70
     1
102
RTVSPropertyOp1
 70
     1
102
RTVSPropertyOp2
 70
     1
102
RTVSPropertyOp3
 70
     1
102
RTVSPropertyOp4
 70
     1
102
RTVSPropertyOp5
 70
     1
102
RTVSPropertyOp6
 70
     1
102
RTVSPropertyOp7
 70
     1
102
RTVSPropertyOp8
 70
     1
102
RTVSPropertyOp9
 70
     1
102
RTVSPropertyOp10
 70
     1
102
RTVSPropertyOp11
 70
     1
102
RTVSPropertyOp12
 70
     1
102
RTVSPropertyOp13
 70
     1
102
RTVSPropertyOp14
 70
     1
102
RTVSPropertyOp15
 70
     1
102
RTVSPropertyOp16
 70
     1
102
RTVSPropertyOp17
 70
     1
102
RTVSPropertyOp18
 70
     1
102
RTVSPropertyOp19
 70
     1
102
RTVSPropertyOp20
 70
     1
102
RTVSPropertyOp21
 70
     1
102
RTVSPropertyOp22
 70
     1
102
RTVSPropertyOp23
 70
     1
102
RTVSPropertyOp24
 70
     1
102
RTVSPropertyOp25
 70
     1
102
RTVSPropertyOp26
 70
     1
102
RTVSPropertyOp27
 70
     1
102
RTVSPropertyOp28
 70
     1
102
RTVSPropertyOp29
 70
     1
102
RTVSPropertyOp30
 70
     1
102
RTVSPropertyOp31
 70
     1
102
RTVSPropertyOp32
 70
     1
  0
XRECORD
  5
6E1
102
{ACAD_REACTORS
330
6E0
102
}
330
6E0
100
AcDbXrecord
280
     1
102
RTVSPropertyOp0
 70
     0
102
RTVSPropertyOp1
 70
     0
102
RTVSPropertyOp2
 70
     0
102
RTVSPropertyOp3
 70
     0
102
RTVSPropertyOp4
 70
     0
102
RTVSPropertyOp5
 70
     0
102
RTVSPropertyOp6
 70
     0
102
RTVSPropertyOp7
 70
     0
102
RTVSPropertyOp8
 70
     0
102
RTVSPropertyOp9
 70
     0
102
RTVSPropertyOp10
 70
     0
102
RTVSPropertyOp11
 70
     0
102
RTVSPropertyOp12
 70
     0
102
RTVSPropertyOp13
 70
     0
102
RTVSPropertyOp14
 70
     2
102
RTVSPropertyOp15
 70
     0
102
RTVSPropertyOp16
 70
     0
102
RTVSPropertyOp17
 70
     0
102
RTVSPropertyOp18
 70
     0
102
RTVSPropertyOp19
 70
     0
102
RTVSPropertyOp20
 70
     0
102
RTVSPropertyOp21
 70
     0
102
RTVSPropertyOp22
 70
     0
102
RTVSPropertyOp23
 70
     0
102
RTVSPropertyOp24
 70
     0
102
RTVSPropertyOp25
 70
     0
102
RTVSPropertyOp26
 70
     0
102
RTVSPropertyOp27
 70
     0
102
RTVSPropertyOp28
 70
     0
102
RTVSPropertyOp29
 70
     0
102
RTVSPropertyOp30
 70
     0
102
RTVSPropertyOp31
 70
     0
102
RTVSPropertyOp32
 70
     0
  0
XRECORD
  5
6C7
102
{ACAD_REACTORS
330
6C6
102
}
330
6C6
100
AcDbXrecord
280
     1
102
RTVSPropertyOp0
 70
     1
102
RTVSPropertyOp1
 70
     1
102
RTVSPropertyOp2
 70
     1
102
RTVSPropertyOp3
 70
     1
102
RTVSPropertyOp4
 70
     1
102
RTVSPropertyOp5
 70
     1
102
RTVSPropertyOp6
 70
     1
102
RTVSPropertyOp7
 70
     1
102
RTVSPropertyOp8
 70
     1
102
RTVSPropertyOp9
 70
     1
102
RTVSPropertyOp10
 70
     1
102
RTVSPropertyOp11
 70
     1
102
RTVSPropertyOp12
 70
     1
102
RTVSPropertyOp13
 70
     1
102
RTVSPropertyOp14
 70
     1
102
RTVSPropertyOp15
 70
     1
102
RTVSPropertyOp16
 70
     1
102
RTVSPropertyOp17
 70
     1
102
RTVSPropertyOp18
 70
     1
102
RTVSPropertyOp19
 70
     1
102
RTVSPropertyOp20
 70
     1
102
RTVSPropertyOp21
 70
     1
102
RTVSPropertyOp22
 70
     1
102
RTVSPropertyOp23
 70
     1
102
RTVSPropertyOp24
 70
     1
102
RTVSPropertyOp25
 70
     1
102
RTVSPropertyOp26
 70
     1
102
RTVSPropertyOp27
 70
     1
102
RTVSPropertyOp28
 70
     1
102
RTVSPropertyOp29
 70
     1
102
RTVSPropertyOp30
 70
     1
102
RTVSPropertyOp31
 70
     1
102
RTVSPropertyOp32
 70
     1
  0
XRECORD
  5
6DD
102
{ACAD_REACTORS
330
6DC
102
}
330
6DC
100
AcDbXrecord
280
     1
102
RTVSPropertyOp0
 70
     1
102
RTVSPropertyOp1
 70
     1
102
RTVSPropertyOp2
 70
     1
102
RTVSPropertyOp3
 70
     1
102
RTVSPropertyOp4
 70
     1
102
RTVSPropertyOp5
 70
     1
102
RTVSPropertyOp6
 70
     1
102
RTVSPropertyOp7
 70
     1
102
RTVSPropertyOp8
 70
     1
102
RTVSPropertyOp9
 70
     1
102
RTVSPropertyOp10
 70
     1
102
RTVSPropertyOp11
 70
     1
102
RTVSPropertyOp12
 70
     1
102
RTVSPropertyOp13
 70
     1
102
RTVSPropertyOp14
 70
     1
102
RTVSPropertyOp15
 70
     1
102
RTVSPropertyOp16
 70
     1
102
RTVSPropertyOp17
 70
     1
102
RTVSPropertyOp18
 70
     1
102
RTVSPropertyOp19
 70
     1
102
RTVSPropertyOp20
 70
     1
102
RTVSPropertyOp21
 70
     1
102
RTVSPropertyOp22
 70
     1
102
RTVSPropertyOp23
 70
     1
102
RTVSPropertyOp24
 70
     1
102
RTVSPropertyOp25
 70
     1
102
RTVSPropertyOp26
 70
     1
102
RTVSPropertyOp27
 70
     1
102
RTVSPropertyOp28
 70
     1
102
RTVSPropertyOp29
 70
     1
102
RTVSPropertyOp30
 70
     1
102
RTVSPropertyOp31
 70
     1
102
RTVSPropertyOp32
 70
     1
  0
XRECORD
  5
6DB
102
{ACAD_REACTORS
330
6DA
102
}
330
6DA
100
AcDbXrecord
280
     1
102
RTVSPropertyOp0
 70
     1
102
RTVSPropertyOp1
 70
     1
102
RTVSPropertyOp2
 70
     1
102
RTVSPropertyOp3
 70
     1
102
RTVSPropertyOp4
 70
     1
102
RTVSPropertyOp5
 70
     1
102
RTVSPropertyOp6
 70
     1
102
RTVSPropertyOp7
 70
     1
102
RTVSPropertyOp8
 70
     1
102
RTVSPropertyOp9
 70
     1
102
RTVSPropertyOp10
 70
     1
102
RTVSPropertyOp11
 70
     1
102
RTVSPropertyOp12
 70
     1
102
RTVSPropertyOp13
 70
     1
102
RTVSPropertyOp14
 70
     1
102
RTVSPropertyOp15
 70
     1
102
RTVSPropertyOp16
 70
     1
102
RTVSPropertyOp17
 70
     1
102
RTVSPropertyOp18
 70
     1
102
RTVSPropertyOp19
 70
     1
102
RTVSPropertyOp20
 70
     1
102
RTVSPropertyOp21
 70
     1
102
RTVSPropertyOp22
 70
     1
102
RTVSPropertyOp23
 70
     1
102
RTVSPropertyOp24
 70
     1
102
RTVSPropertyOp25
 70
     1
102
RTVSPropertyOp26
 70
     1
102
RTVSPropertyOp27
 70
     1
102
RTVSPropertyOp28
 70
     1
102
RTVSPropertyOp29
 70
     1
102
RTVSPropertyOp30
 70
     1
102
RTVSPropertyOp31
 70
     1
102
RTVSPropertyOp32
 70
     1
  0
XRECORD
  5
6D5
102
{ACAD_REACTORS
330
6D4
102
}
330
6D4
100
AcDbXrecord
280
     1
102
RTVSPropertyOp0
 70
     1
102
RTVSPropertyOp1
 70
     1
102
RTVSPropertyOp2
 70
     1
102
RTVSPropertyOp3
 70
     1
102
RTVSPropertyOp4
 70
     1
102
RTVSPropertyOp5
 70
     1
102
RTVSPropertyOp6
 70
     1
102
RTVSPropertyOp7
 70
     1
102
RTVSPropertyOp8
 70
     1
102
RTVSPropertyOp9
 70
     1
102
RTVSPropertyOp10
 70
     1
102
RTVSPropertyOp11
 70
     1
102
RTVSPropertyOp12
 70
     1
102
RTVSPropertyOp13
 70
     1
102
RTVSPropertyOp14
 70
     1
102
RTVSPropertyOp15
 70
     1
102
RTVSPropertyOp16
 70
     1
102
RTVSPropertyOp17
 70
     1
102
RTVSPropertyOp18
 70
     1
102
RTVSPropertyOp19
 70
     1
102
RTVSPropertyOp20
 70
     1
102
RTVSPropertyOp21
 70
     1
102
RTVSPropertyOp22
 70
     1
102
RTVSPropertyOp23
 70
     1
102
RTVSPropertyOp24
 70
     1
102
RTVSPropertyOp25
 70
     1
102
RTVSPropertyOp26
 70
     1
102
RTVSPropertyOp27
 70
     1
102
RTVSPropertyOp28
 70
     1
102
RTVSPropertyOp29
 70
     1
102
RTVSPropertyOp30
 70
     1
102
RTVSPropertyOp31
 70
     1
102
RTVSPropertyOp32
 70
     1
  0
XRECORD
  5
6D7
102
{ACAD_REACTORS
330
6D6
102
}
330
6D6
100
AcDbXrecord
280
     1
102
RTVSPropertyOp0
 70
     1
102
RTVSPropertyOp1
 70
     1
102
RTVSPropertyOp2
 70
     1
102
RTVSPropertyOp3
 70
     1
102
RTVSPropertyOp4
 70
     1
102
RTVSPropertyOp5
 70
     1
102
RTVSPropertyOp6
 70
     1
102
RTVSPropertyOp7
 70
     1
102
RTVSPropertyOp8
 70
     1
102
RTVSPropertyOp9
 70
     1
102
RTVSPropertyOp10
 70
     1
102
RTVSPropertyOp11
 70
     1
102
RTVSPropertyOp12
 70
     1
102
RTVSPropertyOp13
 70
     1
102
RTVSPropertyOp14
 70
     1
102
RTVSPropertyOp15
 70
     1
102
RTVSPropertyOp16
 70
     1
102
RTVSPropertyOp17
 70
     1
102
RTVSPropertyOp18
 70
     1
102
RTVSPropertyOp19
 70
     1
102
RTVSPropertyOp20
 70
     1
102
RTVSPropertyOp21
 70
     1
102
RTVSPropertyOp22
 70
     1
102
RTVSPropertyOp23
 70
     1
102
RTVSPropertyOp24
 70
     1
102
RTVSPropertyOp25
 70
     1
102
RTVSPropertyOp26
 70
     1
102
RTVSPropertyOp27
 70
     1
102
RTVSPropertyOp28
 70
     1
102
RTVSPropertyOp29
 70
     1
102
RTVSPropertyOp30
 70
     1
102
RTVSPropertyOp31
 70
     1
102
RTVSPropertyOp32
 70
     1
  0
XRECORD
  5
6CD
102
{ACAD_REACTORS
330
6CC
102
}
330
6CC
100
AcDbXrecord
280
     1
102
RTVSPropertyOp0
 70
     1
102
RTVSPropertyOp1
 70
     1
102
RTVSPropertyOp2
 70
     1
102
RTVSPropertyOp3
 70
     1
102
RTVSPropertyOp4
 70
     1
102
RTVSPropertyOp5
 70
     1
102
RTVSPropertyOp6
 70
     1
102
RTVSPropertyOp7
 70
     1
102
RTVSPropertyOp8
 70
     1
102
RTVSPropertyOp9
 70
     1
102
RTVSPropertyOp10
 70
     1
102
RTVSPropertyOp11
 70
     1
102
RTVSPropertyOp12
 70
     1
102
RTVSPropertyOp13
 70
     1
102
RTVSPropertyOp14
 70
     1
102
RTVSPropertyOp15
 70
     1
102
RTVSPropertyOp16
 70
     1
102
RTVSPropertyOp17
 70
     1
102
RTVSPropertyOp18
 70
     1
102
RTVSPropertyOp19
 70
     1
102
RTVSPropertyOp20
 70
     1
102
RTVSPropertyOp21
 70
     1
102
RTVSPropertyOp22
 70
     1
102
RTVSPropertyOp23
 70
     1
102
RTVSPropertyOp24
 70
     1
102
RTVSPropertyOp25
 70
     1
102
RTVSPropertyOp26
 70
     1
102
RTVSPropertyOp27
 70
     1
102
RTVSPropertyOp28
 70
     1
102
RTVSPropertyOp29
 70
     1
102
RTVSPropertyOp30
 70
     1
102
RTVSPropertyOp31
 70
     1
102
RTVSPropertyOp32
 70
     1
  0
XRECORD
  5
6C1
102
{ACAD_REACTORS
330
6C0
102
}
330
6C0
100
AcDbXrecord
280
     1
102
RTVSPropertyOp0
 70
     1
102
RTVSPropertyOp1
 70
     1
102
RTVSPropertyOp2
 70
     1
102
RTVSPropertyOp3
 70
     1
102
RTVSPropertyOp4
 70
     1
102
RTVSPropertyOp5
 70
     1
102
RTVSPropertyOp6
 70
     1
102
RTVSPropertyOp7
 70
     1
102
RTVSPropertyOp8
 70
     1
102
RTVSPropertyOp9
 70
     1
102
RTVSPropertyOp10
 70
     1
102
RTVSPropertyOp11
 70
     1
102
RTVSPropertyOp12
 70
     1
102
RTVSPropertyOp13
 70
     1
102
RTVSPropertyOp14
 70
     1
102
RTVSPropertyOp15
 70
     1
102
RTVSPropertyOp16
 70
     1
102
RTVSPropertyOp17
 70
     1
102
RTVSPropertyOp18
 70
     1
102
RTVSPropertyOp19
 70
     1
102
RTVSPropertyOp20
 70
     1
102
RTVSPropertyOp21
 70
     1
102
RTVSPropertyOp22
 70
     1
102
RTVSPropertyOp23
 70
     1
102
RTVSPropertyOp24
 70
     1
102
RTVSPropertyOp25
 70
     1
102
RTVSPropertyOp26
 70
     1
102
RTVSPropertyOp27
 70
     1
102
RTVSPropertyOp28
 70
     1
102
RTVSPropertyOp29
 70
     1
102
RTVSPropertyOp30
 70
     1
102
RTVSPropertyOp31
 70
     1
102
RTVSPropertyOp32
 70
     1
  0
XRECORD
  5
6D9
102
{ACAD_REACTORS
330
6D8
102
}
330
6D8
100
AcDbXrecord
280
     1
102
RTVSPropertyOp0
 70
     1
102
RTVSPropertyOp1
 70
     1
102
RTVSPropertyOp2
 70
     1
102
RTVSPropertyOp3
 70
     1
102
RTVSPropertyOp4
 70
     1
102
RTVSPropertyOp5
 70
     1
102
RTVSPropertyOp6
 70
     1
102
RTVSPropertyOp7
 70
     1
102
RTVSPropertyOp8
 70
     1
102
RTVSPropertyOp9
 70
     1
102
RTVSPropertyOp10
 70
     1
102
RTVSPropertyOp11
 70
     1
102
RTVSPropertyOp12
 70
     1
102
RTVSPropertyOp13
 70
     1
102
RTVSPropertyOp14
 70
     1
102
RTVSPropertyOp15
 70
     1
102
RTVSPropertyOp16
 70
     1
102
RTVSPropertyOp17
 70
     1
102
RTVSPropertyOp18
 70
     1
102
RTVSPropertyOp19
 70
     1
102
RTVSPropertyOp20
 70
     1
102
RTVSPropertyOp21
 70
     1
102
RTVSPropertyOp22
 70
     1
102
RTVSPropertyOp23
 70
     1
102
RTVSPropertyOp24
 70
     1
102
RTVSPropertyOp25
 70
     1
102
RTVSPropertyOp26
 70
     1
102
RTVSPropertyOp27
 70
     1
102
RTVSPropertyOp28
 70
     1
102
RTVSPropertyOp29
 70
     1
102
RTVSPropertyOp30
 70
     1
102
RTVSPropertyOp31
 70
     1
102
RTVSPropertyOp32
 70
     1
  0
ENDSEC
  0
EOF
