  0
SECTION
  2
HEADER
  9
$ACADVER
  1
AC1015
  9
$ACADMAINTVER
 70
    20
  9
$DWGCODEPAGE
  3
ANSI_932
  9
$INSBASE
 10
0.0
 20
0.0
 30
0.0
  9
$EXTMIN
 10
-211.3938644110744
 20
-288.7037252452724
 30
-0.0000000000112498
  9
$EXTMAX
 10
243.5107083097953
 20
353.5411890185733
 30
0.0000000000002956
  9
$LIMMIN
 10
0.0
 20
0.0
  9
$LIMMAX
 10
420.0
 20
297.0
  9
$ORTHOMODE
 70
     0
  9
$REGENMODE
 70
     1
  9
$FILLMODE
 70
     1
  9
$QTEXTMODE
 70
     0
  9
$MIRRTEXT
 70
     1
  9
$LTSCALE
 40
1.0
  9
$ATTMODE
 70
     1
  9
$TEXTSIZE
 40
2.5
  9
$TRACEWID
 40
1.0
  9
$TEXTSTYLE
  7
Standard
  9
$CLAYER
  8
0
  9
$CELTYPE
  6
ByLayer
  9
$CECOLOR
 62
   256
  9
$CELTSCALE
 40
1.0
  9
$DISPSILH
 70
     0
  9
$DIMSCALE
 40
1.0
  9
$DIMASZ
 40
2.5
  9
$DIMEXO
 40
0.625
  9
$DIMDLI
 40
3.75
  9
$DIMRND
 40
0.0
  9
$DIMDLE
 40
0.0
  9
$DIMEXE
 40
1.25
  9
$DIMTP
 40
0.0
  9
$DIMTM
 40
0.0
  9
$DIMTXT
 40
2.5
  9
$DIMCEN
 40
2.5
  9
$DIMTSZ
 40
0.0
  9
$DIMTOL
 70
     0
  9
$DIMLIM
 70
     0
  9
$DIMTIH
 70
     0
  9
$DIMTOH
 70
     0
  9
$DIMSE1
 70
     0
  9
$DIMSE2
 70
     0
  9
$DIMTAD
 70
     1
  9
$DIMZIN
 70
     8
  9
$DIMBLK
  1

  9
$DIMASO
 70
     1
  9
$DIMSHO
 70
     1
  9
$DIMPOST
  1

  9
$DIMAPOST
  1

  9
$DIMALT
 70
     0
  9
$DIMALTD
 70
     3
  9
$DIMALTF
 40
0.03937007874016
  9
$DIMLFAC
 40
1.0
  9
$DIMTOFL
 70
     1
  9
$DIMTVP
 40
0.0
  9
$DIMTIX
 70
     0
  9
$DIMSOXD
 70
     0
  9
$DIMSAH
 70
     0
  9
$DIMBLK1
  1

  9
$DIMBLK2
  1

  9
$DIMSTYLE
  2
ISO-25
  9
$DIMCLRD
 70
     0
  9
$DIMCLRE
 70
     0
  9
$DIMCLRT
 70
     0
  9
$DIMTFAC
 40
1.0
  9
$DIMGAP
 40
0.625
  9
$DIMJUST
 70
     0
  9
$DIMSD1
 70
     0
  9
$DIMSD2
 70
     0
  9
$DIMTOLJ
 70
     0
  9
$DIMTZIN
 70
     8
  9
$DIMALTZ
 70
     0
  9
$DIMALTTZ
 70
     0
  9
$DIMUPT
 70
     0
  9
$DIMDEC
 70
     2
  9
$DIMTDEC
 70
     2
  9
$DIMALTU
 70
     2
  9
$DIMALTTD
 70
     3
  9
$DIMTXSTY
  7
Standard
  9
$DIMAUNIT
 70
     0
  9
$DIMADEC
 70
     0
  9
$DIMALTRND
 40
0.0
  9
$DIMAZIN
 70
     0
  9
$DIMDSEP
 70
    44
  9
$DIMATFIT
 70
     3
  9
$DIMFRAC
 70
     0
  9
$DIMLDRBLK
  1

  9
$DIMLUNIT
 70
     2
  9
$DIMLWD
 70
    -2
  9
$DIMLWE
 70
    -2
  9
$DIMTMOVE
 70
     0
  9
$LUNITS
 70
     2
  9
$LUPREC
 70
     4
  9
$SKETCHINC
 40
1.0
  9
$FILLETRAD
 40
10.0
  9
$AUNITS
 70
     0
  9
$AUPREC
 70
     0
  9
$MENU
  1
.
  9
$ELEVATION
 40
0.0
  9
$PELEVATION
 40
0.0
  9
$THICKNESS
 40
0.0
  9
$LIMCHECK
 70
     0
  9
$CHAMFERA
 40
10.0
  9
$CHAMFERB
 40
10.0
  9
$CHAMFERC
 40
20.0
  9
$CHAMFERD
 40
0.0
  9
$SKPOLY
 70
     0
  9
$TDCREATE
 40
2456042.417254780
  9
$TDUCREATE
 40
2456042.042254780
  9
$TDUPDATE
 40
2457124.478046644
  9
$TDUUPDATE
 40
2457124.103046643
  9
$TDINDWG
 40
0.0163916667
  9
$TDUSRTIMER
 40
0.0163916667
  9
$USRTIMER
 70
     1
  9
$ANGBASE
 50
0.0
  9
$ANGDIR
 70
     0
  9
$PDMODE
 70
     0
  9
$PDSIZE
 40
0.0
  9
$PLINEWID
 40
0.0
  9
$SPLFRAME
 70
     0
  9
$SPLINETYPE
 70
     6
  9
$SPLINESEGS
 70
     8
  9
$HANDSEED
  5
6E7
  9
$SURFTAB1
 70
     6
  9
$SURFTAB2
 70
     6
  9
$SURFTYPE
 70
     6
  9
$SURFU
 70
     6
  9
$SURFV
 70
     6
  9
$UCSBASE
  2

  9
$UCSNAME
  2

  9
$UCSORG
 10
0.0
 20
0.0
 30
0.0
  9
$UCSXDIR
 10
1.0
 20
0.0
 30
0.0
  9
$UCSYDIR
 10
0.0
 20
1.0
 30
0.0
  9
$UCSORTHOREF
  2

  9
$UCSORTHOVIEW
 70
     0
  9
$UCSORGTOP
 10
0.0
 20
0.0
 30
0.0
  9
$UCSORGBOTTOM
 10
0.0
 20
0.0
 30
0.0
  9
$UCSORGLEFT
 10
0.0
 20
0.0
 30
0.0
  9
$UCSORGRIGHT
 10
0.0
 20
0.0
 30
0.0
  9
$UCSORGFRONT
 10
0.0
 20
0.0
 30
0.0
  9
$UCSORGBACK
 10
0.0
 20
0.0
 30
0.0
  9
$PUCSBASE
  2

  9
$PUCSNAME
  2

  9
$PUCSORG
 10
0.0
 20
0.0
 30
0.0
  9
$PUCSXDIR
 10
1.0
 20
0.0
 30
0.0
  9
$PUCSYDIR
 10
0.0
 20
1.0
 30
0.0
  9
$PUCSORTHOREF
  2

  9
$PUCSORTHOVIEW
 70
     0
  9
$PUCSORGTOP
 10
0.0
 20
0.0
 30
0.0
  9
$PUCSORGBOTTOM
 10
0.0
 20
0.0
 30
0.0
  9
$PUCSORGLEFT
 10
0.0
 20
0.0
 30
0.0
  9
$PUCSORGRIGHT
 10
0.0
 20
0.0
 30
0.0
  9
$PUCSORGFRONT
 10
0.0
 20
0.0
 30
0.0
  9
$PUCSORGBACK
 10
0.0
 20
0.0
 30
0.0
  9
$USERI1
 70
     0
  9
$USERI2
 70
     0
  9
$USERI3
 70
     0
  9
$USERI4
 70
     0
  9
$USERI5
 70
     0
  9
$USERR1
 40
0.0
  9
$USERR2
 40
0.0
  9
$USERR3
 40
0.0
  9
$USERR4
 40
0.0
  9
$USERR5
 40
0.0
  9
$WORLDVIEW
 70
     1
  9
$SHADEDGE
 70
     3
  9
$SHADEDIF
 70
    70
  9
$TILEMODE
 70
     1
  9
$MAXACTVP
 70
    64
  9
$PINSBASE
 10
0.0
 20
0.0
 30
0.0
  9
$PLIMCHECK
 70
     0
  9
$PEXTMIN
 10
26.66076962115562
 20
20.31135699206657
 30
-0.0015258207003583
  9
$PEXTMAX
 10
240.039213369355
 20
182.8886381005154
 30
0.0000000349246037
  9
$PLIMMIN
 10
-6.350006103515625
 20
-6.349999904632567
  9
$PLIMMAX
 10
273.0499877929687
 20
209.5499939918517
  9
$UNITMODE
 70
     0
  9
$VISRETAIN
 70
     1
  9
$PLINEGEN
 70
     0
  9
$PSLTSCALE
 70
     1
  9
$TREEDEPTH
 70
  3020
  9
$CMLSTYLE
  2
Standard
  9
$CMLJUST
 70
     0
  9
$CMLSCALE
 40
20.0
  9
$PROXYGRAPHICS
 70
     1
  9
$MEASUREMENT
 70
     1
  9
$CELWEIGHT
370
    -1
  9
$ENDCAPS
280
     0
  9
$JOINSTYLE
280
     0
  9
$LWDISPLAY
290
     0
  9
$INSUNITS
 70
     4
  9
$HYPERLINKBASE
  1

  9
$STYLESHEET
  1

  9
$XEDIT
290
     1
  9
$CEPSNTYPE
380
     0
  9
$PSTYLEMODE
290
     1
  9
$FINGERPRINTGUID
  2
{FDEAD578-A652-11D2-9A35-0060089B3A3F}
  9
$VERSIONGUID
  2
{F57E7BBD-6671-4ED0-B492-C38CC36C9F34}
  9
$EXTNAMES
290
     1
  9
$PSVPSCALE
 40
0.0
  9
$OLESTARTUP
290
     0
  0
ENDSEC
  0
SECTION
  2
CLASSES
  0
CLASS
  1
ACDBDICTIONARYWDFLT
  2
AcDbDictionaryWithDefault
  3
ObjectDBX Classes
 90
        0
280
     0
281
     0
  0
CLASS
  1
ACDBPLACEHOLDER
  2
AcDbPlaceHolder
  3
ObjectDBX Classes
 90
        0
280
     0
281
     0
  0
CLASS
  1
LAYOUT
  2
AcDbLayout
  3
ObjectDBX Classes
 90
        0
280
     0
281
     0
  0
CLASS
  1
DICTIONARYVAR
  2
AcDbDictionaryVar
  3
ObjectDBX Classes
 90
        0
280
     0
281
     0
  0
CLASS
  1
MATERIAL
  2
AcDbMaterial
  3
ObjectDBX Classes
 90
     1153
280
     0
281
     0
  0
CLASS
  1
VISUALSTYLE
  2
AcDbVisualStyle
  3
ObjectDBX Classes
 90
     4095
280
     0
281
     0
  0
CLASS
  1
TABLESTYLE
  2
AcDbTableStyle
  3
ObjectDBX Classes
 90
     4095
280
     0
281
     0
  0
CLASS
  1
SCALE
  2
AcDbScale
  3
ObjectDBX Classes
 90
     1153
280
     0
281
     0
  0
CLASS
  1
MLEADERSTYLE
  2
AcDbMLeaderStyle
  3
ACDB_MLEADERSTYLE_CLASS
 90
     4095
280
     0
281
     0
  0
CLASS
  1
CELLSTYLEMAP
  2
AcDbCellStyleMap
  3
ObjectDBX Classes
 90
     1152
280
     0
281
     0
  0
ENDSEC
  0
SECTION
  2
TABLES
  0
TABLE
  2
VPORT
  5
8
330
0
100
AcDbSymbolTable
 70
     1
  0
VPORT
  5
5F3
330
8
100
AcDbSymbolTableRecord
100
AcDbViewportTableRecord
  2
*Active
 70
     0
 10
0.0
 20
0.0
 11
1.0
 21
1.0
 12
16.05842194936048
 22
32.41873188665045
 13
0.0
 23
0.0
 14
10.0
 24
10.0
 15
10.0
 25
10.0
 16
0.0
 26
0.0
 36
1.0
 17
0.0
 27
0.0
 37
0.0
 40
647.5020349808758
 41
1.80327868852459
 42
50.0
 43
0.0
 44
0.0
 50
0.0
 51
0.0
 71
     0
 72
   100
 73
     1
 74
     3
 75
     0
 76
     0
 77
     0
 78
     0
281
     0
 65
     1
110
0.0
120
0.0
130
0.0
111
1.0
121
0.0
131
0.0
112
0.0
122
1.0
132
0.0
 79
     0
146
0.0
1001
ACAD_NAV_VCDISPLAY
1070
     3
  0
ENDTAB
  0
TABLE
  2
LTYPE
  5
5
330
0
100
AcDbSymbolTable
 70
     5
  0
LTYPE
  5
14
330
5
100
AcDbSymbolTableRecord
100
AcDbLinetypeTableRecord
  2
ByBlock
 70
     0
  3

 72
    65
 73
     0
 40
0.0
  0
LTYPE
  5
15
330
5
100
AcDbSymbolTableRecord
100
AcDbLinetypeTableRecord
  2
ByLayer
 70
     0
  3

 72
    65
 73
     0
 40
0.0
  0
LTYPE
  5
16
330
5
100
AcDbSymbolTableRecord
100
AcDbLinetypeTableRecord
  2
Continuous
 70
     0
  3
Solid line
 72
    65
 73
     0
 40
0.0
  0
LTYPE
  5
8C
330
5
100
AcDbSymbolTableRecord
100
AcDbLinetypeTableRecord
  2
DASHED
 70
     0
  3
Dashed
 72
    65
 73
     2
 40
15.0
 49
7.0
 74
     0
 49
-8.0
 74
     0
  0
LTYPE
  5
8D
330
5
100
AcDbSymbolTableRecord
100
AcDbLinetypeTableRecord
  2
DASH_CENTER
 70
     0
  3
Dash_Center
 72
    65
 73
     4
 40
14.0
 49
11.0
 74
     0
 49
-1.0
 74
     0
 49
1.0
 74
     0
 49
-1.0
 74
     0
  0
LTYPE
  5
8E
330
5
100
AcDbSymbolTableRecord
100
AcDbLinetypeTableRecord
  2
PHANTOM
 70
     0
  3
Phantom
 72
    65
 73
     6
 40
13.0
 49
10.0
 74
     0
 49
-1.0
 74
     0
 49
0.0
 74
     0
 49
-1.0
 74
     0
 49
0.0
 74
     0
 49
-1.0
 74
     0
  0
ENDTAB
  0
TABLE
  2
LAYER
  5
2
330
0
100
AcDbSymbolTable
 70
     1
  0
LAYER
  5
10
102
{ACAD_XDICTIONARY
360
651
102
}
330
2
100
AcDbSymbolTableRecord
100
AcDbLayerTableRecord
  2
0
 70
     0
 62
     7
  6
Continuous
370
    -3
390
F
  0
ENDTAB
  0
TABLE
  2
STYLE
  5
3
330
0
100
AcDbSymbolTable
 70
    22
  0
STYLE
  5
11
330
3
100
AcDbSymbolTableRecord
100
AcDbTextStyleTableRecord
  2
Standard
 70
     0
 40
0.0
 41
1.0
 50
0.0
 71
     0
 42
2.5
  3
txt
  4

  0
ENDTAB
  0
TABLE
  2
VIEW
  5
6
330
0
100
AcDbSymbolTable
 70
     0
  0
ENDTAB
  0
TABLE
  2
UCS
  5
7
330
0
100
AcDbSymbolTable
 70
     0
  0
ENDTAB
  0
TABLE
  2
APPID
  5
9
330
0
100
AcDbSymbolTable
 70
     4
  0
APPID
  5
12
330
9
100
AcDbSymbolTableRecord
100
AcDbRegAppTableRecord
  2
ACAD
 70
     0
  0
APPID
  5
647
330
9
100
AcDbSymbolTableRecord
100
AcDbRegAppTableRecord
  2
ACAD_EXEMPT_FROM_CAD_STANDARDS
 70
     0
  0
APPID
  5
649
330
9
100
AcDbSymbolTableRecord
100
AcDbRegAppTableRecord
  2
ACAD_NAV_VCDISPLAY
 70
     0
  0
APPID
  5
6E6
330
9
100
AcDbSymbolTableRecord
100
AcDbRegAppTableRecord
  2
ACAD_MLEADERVER
 70
     0
  0
ENDTAB
  0
TABLE
  2
DIMSTYLE
  5
A
330
0
100
AcDbSymbolTable
 70
     3
100
AcDbDimStyleTable
 71
     0
  0
DIMSTYLE
105
27
330
A
100
AcDbSymbolTableRecord
100
AcDbDimStyleTableRecord
  2
ISO-25
 70
     0
 41
2.5
 42
0.625
 43
3.75
 44
1.25
 73
     0
 74
     0
 77
     1
 78
     8
140
2.5
141
2.5
143
0.03937007874016
147
0.625
171
     3
172
     1
271
     2
272
     2
274
     3
278
    44
283
     0
284
     8
340
11
  0
DIMSTYLE
105
A4
330
A
100
AcDbSymbolTableRecord
100
AcDbDimStyleTableRecord
  2
Standard
 70
     0
340
11
  0
ENDTAB
  0
TABLE
  2
BLOCK_RECORD
  5
1
330
0
100
AcDbSymbolTable
 70
     2
  0
BLOCK_RECORD
  5
1F
330
1
100
AcDbSymbolTableRecord
100
AcDbBlockTableRecord
  2
*Model_Space
340
22
  0
BLOCK_RECORD
  5
55
330
1
100
AcDbSymbolTableRecord
100
AcDbBlockTableRecord
  2
*Paper_Space
340
56
  0
BLOCK_RECORD
  5
50
330
1
100
AcDbSymbolTableRecord
100
AcDbBlockTableRecord
  2
*Paper_Space0
340
51
  0
ENDTAB
  0
ENDSEC
  0
SECTION
  2
BLOCKS
  0
BLOCK
  5
20
330
1F
100
AcDbEntity
  8
0
100
AcDbBlockBegin
  2
*Model_Space
 70
     0
 10
0.0
 20
0.0
 30
0.0
  3
*Model_Space
  1

  0
ENDBLK
  5
21
330
1F
100
AcDbEntity
  8
0
100
AcDbBlockEnd
  0
BLOCK
  5
57
330
55
100
AcDbEntity
 67
     1
  8
0
100
AcDbBlockBegin
  2
*Paper_Space
 70
     0
 10
0.0
 20
0.0
 30
0.0
  3
*Paper_Space
  1

  0
ENDBLK
  5
58
330
55
100
AcDbEntity
 67
     1
  8
0
100
AcDbBlockEnd
  0
BLOCK
  5
52
330
50
100
AcDbEntity
 67
     1
  8
0
100
AcDbBlockBegin
  2
*Paper_Space0
 70
     0
 10
0.0
 20
0.0
 30
0.0
  3
*Paper_Space0
  1

  0
VIEWPORT
  5
6B
102
{ACAD_XDICTIONARY
360
6AA
102
}
330
50
100
AcDbEntity
 67
     1
  8
0
100
AcDbViewport
 10
133.3499908447265
 20
101.5999970436096
 30
0.0
 40
381.3957395593833
 41
218.2856291881582
 68
     0
 69
     0
 12
133.3499908447265
 22
101.5999970436096
 13
0.0
 23
0.0
 14
10.0
 24
10.0
 15
10.0
 25
10.0
 16
0.0
 26
0.0
 36
1.0
 17
0.0
 27
0.0
 37
0.0
 42
50.0
 43
0.0
 44
0.0
 45
218.2856291881582
 50
0.0
 51
0.0
 72
   100
 90
    32800
  1

281
     0
 71
     1
 74
     0
110
0.0
120
0.0
130
0.0
111
1.0
121
0.0
131
0.0
112
0.0
122
1.0
132
0.0
 79
     0
146
0.0
  0
VIEWPORT
  5
6D
102
{ACAD_XDICTIONARY
360
6AC
102
}
330
50
100
AcDbEntity
 67
     1
  8
0
100
AcDbViewport
 10
133.3499939441679
 20
101.5999939441679
 30
0.0
 40
213.3599903106689
 41
162.5599903106689
 68
     0
 69
     0
 12
210.0
 22
148.5
 13
0.0
 23
0.0
 14
10.0
 24
10.0
 15
10.0
 25
10.0
 16
0.0
 26
0.0
 36
1.0
 17
0.0
 27
0.0
 37
0.0
 42
50.0
 43
0.0
 44
0.0
 45
324.0677920111345
 50
0.0
 51
0.0
 72
   100
 90
    32864
  1

281
     0
 71
     1
 74
     0
110
0.0
120
0.0
130
0.0
111
1.0
121
0.0
131
0.0
112
0.0
122
1.0
132
0.0
 79
     0
146
0.0
  0
ENDBLK
  5
53
330
50
100
AcDbEntity
 67
     1
  8
0
100
AcDbBlockEnd
  0
ENDSEC
  0
SECTION
  2
ENTITIES
  0
ARC
  5
340
330
1F
100
AcDbEntity
  8
0
  6
Continuous
 62
     7
100
AcDbCircle
 10
-33.5886949135623
 20
343.8217407542687
 30
0.0
 40
7.000027723040865
100
AcDbArc
 50
359.9997557338841
 51
85.78228626872844
  0
LINE
  5
341
330
1F
100
AcDbEntity
  8
0
  6
DASH_CENTER
 62
    30
100
AcDbLine
 10
-19.84726719058494
 20
308.0092109114149
 30
0.0
 11
-32.01496719058491
 21
308.0092109114149
 31
0.0
  0
LINE
  5
342
330
1F
100
AcDbEntity
  8
0
  6
Continuous
 62
     7
100
AcDbLine
 10
-26.86456719058492
 20
311.5092109114148
 30
0.0
 11
-25.45126719058497
 21
311.3857109114146
 31
0.0
  0
LINE
  5
343
330
1F
100
AcDbEntity
  8
0
  6
Continuous
 62
     7
100
AcDbLine
 10
-26.86456719058492
 20
304.5092109114149
 30
0.0
 11
-25.45126719058497
 21
304.633010911415
 31
0.0
  0
LINE
  5
344
330
1F
100
AcDbEntity
  8
0
  6
Continuous
 62
     7
100
AcDbLine
 10
-206.5904698966367
 20
85.50921091141495
 30
0.0
 11
-6.590220434436602
 21
85.50921091141495
 31
0.0
  0
LINE
  5
345
330
1F
100
AcDbEntity
  8
0
  6
Continuous
 62
     7
100
AcDbLine
 10
-206.5904698966367
 20
73.50921091141493
 30
0.0
 11
-6.590320434436589
 21
73.50921091141493
 31
0.0
  0
CIRCLE
  5
346
330
1F
100
AcDbEntity
  8
0
  6
Continuous
 62
   250
100
AcDbCircle
 10
-106.5910396613759
 20
-183.8721225595692
 30
0.0
 40
82.4999005161297
  0
CIRCLE
  5
347
330
1F
100
AcDbEntity
  8
0
  6
Continuous
 62
     7
100
AcDbCircle
 10
-106.5909671905849
 20
-183.8720747524854
 30
0.0
 40
99.7871892549484
  0
LINE
  5
349
330
1F
100
AcDbEntity
  8
0
  6
DASH_CENTER
 62
    30
100
AcDbLine
 10
-1.803777935673863
 20
-183.871986277055
 30
0.0
 11
-211.3781564453716
 21
-183.8722588418946
 31
0.0
  0
LINE
  5
36C
330
1F
100
AcDbEntity
  8
0
  6
DASH_CENTER
 62
    30
100
AcDbLine
 10
-106.589067190585
 20
330.9460109114148
 30
0.0
 11
-106.590567190585
 21
18.31981091141494
 31
0.0
  0
CIRCLE
  5
37F
330
1F
100
AcDbEntity
  8
0
  6
Continuous
 62
     7
100
AcDbCircle
 10
-164.9270795179775
 20
-242.2080805023532
 30
0.0
 40
6.0
  0
CIRCLE
  5
380
330
1F
100
AcDbEntity
  8
0
  6
Continuous
 62
     7
100
AcDbCircle
 10
-48.25488123441983
 20
-242.208067282771
 30
0.0
 40
6.0
  0
CIRCLE
  5
381
330
1F
100
AcDbEntity
  8
0
  6
Continuous
 62
     7
100
AcDbCircle
 10
-106.5909671905849
 20
-183.8720747524854
 30
0.0
 40
65.0
  0
ARC
  5
382
330
1F
100
AcDbEntity
  8
0
  6
DASH_CENTER
 62
    30
100
AcDbCircle
 10
-106.590808723548
 20
-183.8718339574053
 30
0.0
 40
82.49993972304844
100
AcDbArc
 50
214.6095902975555
 51
236.4174339478537
  0
ARC
  5
383
330
1F
100
AcDbEntity
  8
0
  6
DASH_CENTER
 62
    30
100
AcDbCircle
 10
-106.5913070814329
 20
-183.8720171736161
 30
0.0
 40
82.49993847846271
100
AcDbArc
 50
304.6095901310457
 51
326.4174341143647
  0
LINE
  5
385
330
1F
100
AcDbEntity
  8
0
  6
DASH_CENTER
 62
    30
100
AcDbLine
 10
-106.5908747988101
 20
-288.6592640073931
 30
0.0
 11
-106.5912741679597
 21
-34.81903447037177
 31
0.0
  0
LINE
  5
386
330
1F
100
AcDbEntity
  8
0
  6
DASH_CENTER
 62
    30
100
AcDbLine
 10
-175.3621671905851
 20
-252.6432747524856
 30
0.0
 11
-155.7796671905849
 21
-233.0605747524855
 31
0.0
  0
LINE
  5
387
330
1F
100
AcDbEntity
  8
0
  6
DASH_CENTER
 62
    30
100
AcDbLine
 10
-37.81976719058504
 20
-252.6430747524855
 30
0.0
 11
-57.40246719058497
 21
-233.0605747524855
 31
0.0
  0
CIRCLE
  5
3BA
330
1F
100
AcDbEntity
  8
0
  6
Continuous
 62
     7
100
AcDbCircle
 10
-106.5909671905849
 20
-183.8720747524854
 30
0.0
 40
27.0
  0
CIRCLE
  5
3BB
330
1F
100
AcDbEntity
  8
0
  6
Continuous
 62
     7
100
AcDbCircle
 10
-106.5909671905849
 20
-183.8720747524854
 30
0.0
 40
31.0
  0
CIRCLE
  5
3BC
330
1F
100
AcDbEntity
  8
0
  6
Continuous
 62
     7
100
AcDbCircle
 10
-106.5909671905849
 20
-183.8720747524854
 30
0.0
 40
61.0
  0
ARC
  5
3BD
330
1F
100
AcDbEntity
  8
0
  6
Continuous
 62
     7
100
AcDbCircle
 10
-114.4159302640519
 20
-55.48654889619854
 30
0.0
 40
9.999976053119773
100
AcDbArc
 50
80.00066641906412
 51
169.9994384168224
  0
ARC
  5
3BE
330
1F
100
AcDbEntity
  8
0
  6
Continuous
 62
     7
100
AcDbCircle
 10
-111.6188342928127
 20
-62.65762173667224
 30
0.0
 40
9.999984735152759
100
AcDbArc
 50
79.99948815586645
 51
169.9990234035766
  0
ARC
  5
3BF
330
1F
100
AcDbEntity
  8
0
  6
Continuous
 62
     7
100
AcDbCircle
 10
-114.3502302639197
 20
-59.27894889603168
 30
0.0
 40
10.72336330742204
100
AcDbArc
 50
80.00070218684459
 51
169.9995570248536
  0
ARC
  5
3C0
330
1F
100
AcDbEntity
  8
0
  6
Continuous
 62
     7
100
AcDbCircle
 10
-114.3502403215231
 20
-59.27895593836677
 30
0.0
 40
9.999967371393008
100
AcDbArc
 50
80.00118093146047
 51
169.9993886740204
  0
CIRCLE
  5
3C4
330
1F
100
AcDbEntity
  8
0
  6
Continuous
 62
     7
100
AcDbCircle
 10
-164.9272356846902
 20
-125.5356996873234
 30
0.0
 40
6.0
  0
ARC
  5
3C5
330
1F
100
AcDbEntity
  8
0
  6
DASH_CENTER
 62
    30
100
AcDbCircle
 10
-106.5906764035372
 20
-183.8722823233229
 30
0.0
 40
82.50000853201916
100
AcDbArc
 50
124.6095995033572
 51
146.4174247420524
  0
LINE
  5
3C6
330
1F
100
AcDbEntity
  8
0
  6
DASH_CENTER
 62
    30
100
AcDbLine
 10
-175.3621671905851
 20
-115.1008747524856
 30
0.0
 11
-155.7794671905849
 21
-134.6833747524856
 31
0.0
  0
LINE
  5
3D1
330
1F
100
AcDbEntity
  8
0
  6
Continuous
 62
     7
100
AcDbLine
 10
-129.7277173495297
 20
-84.73591712030481
 30
0.0
 11
-127.3161797631155
 21
-71.0593317646473
 31
0.0
  0
LINE
  5
3D2
330
1F
100
AcDbEntity
  8
0
  6
Continuous
 62
     7
100
AcDbLine
 10
-129.009248795133
 20
-84.82744503925788
 30
0.0
 11
-126.6037608418753
 21
-71.18495057715424
 31
0.0
  0
LINE
  5
3D3
330
1F
100
AcDbEntity
  8
0
  6
Continuous
 62
     7
100
AcDbLine
 10
-123.377056799661
 20
-71.75390617056909
 30
0.0
 11
-125.287210228635
 21
-82.58672633547064
 31
0.0
  0
ARC
  5
3D4
330
1F
100
AcDbEntity
  8
0
  6
Continuous
 62
     7
100
AcDbCircle
 10
-119.1613324948393
 20
-86.56385259579796
 30
0.0
 40
10.72333143197572
100
AcDbArc
 50
170.0005922130568
 51
170.1852371277175
  0
ARC
  5
3D5
330
1F
100
AcDbEntity
  8
0
  6
Continuous
 62
     7
100
AcDbCircle
 10
-119.1613560418927
 20
-86.56417564593892
 30
0.0
 40
10.72336330262482
100
AcDbArc
 50
170.18351486151
 51
181.4786768441789
  0
ARC
  5
3D6
330
1F
100
AcDbEntity
  8
0
  6
Continuous
 62
     7
100
AcDbCircle
 10
-119.1613530225143
 20
-86.56410256274162
 30
0.0
 40
9.999967368301506
100
AcDbArc
 50
169.9992922643526
 51
180.6113396551965
  0
ARC
  5
3D7
330
1F
100
AcDbEntity
  8
0
  6
Continuous
 62
     7
100
AcDbCircle
 10
-115.4390084212002
 20
-84.32288242704926
 30
0.0
 40
9.999984729219347
100
AcDbArc
 50
170.0026250866612
 51
188.8325077793938
  0
LINE
  5
3D8
330
1F
100
AcDbEntity
  8
0
  6
Continuous
 62
     7
100
AcDbLine
 10
-126.6037608418753
 20
-71.18495057715424
 30
0.0
 11
-124.198167190585
 21
-57.54247475248553
 31
0.0
  0
LINE
  5
3D9
330
1F
100
AcDbEntity
  8
0
  6
Continuous
 62
     7
100
AcDbLine
 10
-124.2640671905849
 20
-53.75007475248573
 30
0.0
 11
-127.3161797631155
 21
-71.0593317646473
 31
0.0
  0
LINE
  5
3DA
330
1F
100
AcDbEntity
  8
0
  6
Continuous
 62
     7
100
AcDbLine
 10
-121.4669671905849
 20
-60.92107475248552
 30
0.0
 11
-123.377056799661
 21
-71.75390617056909
 31
0.0
  0
ARC
  5
3DD
330
1F
100
AcDbEntity
  8
0
  6
Continuous
 62
     7
100
AcDbCircle
 10
-106.5909671905849
 20
-183.8720747524854
 30
0.0
 40
9.899989406559813
100
AcDbArc
 50
17.6397208893956
 51
342.3602791106044
  0
ARC
  5
3DE
330
1F
100
AcDbEntity
  8
0
  6
Continuous
 62
     7
100
AcDbCircle
 10
-106.5909671905849
 20
-183.8720747524854
 30
0.0
 40
10.24995420526342
100
AcDbArc
 50
17.01872575746573
 51
342.9812742425342
  0
ARC
  5
3DF
330
1F
100
AcDbEntity
  8
0
  6
Continuous
 62
     7
100
AcDbCircle
 10
-106.5909671905849
 20
-183.8720747524854
 30
0.0
 40
9.500020695240515
100
AcDbArc
 50
18.40843862947775
 51
341.5915613705222
  0
LINE
  5
3E0
330
1F
100
AcDbEntity
  8
0
  6
Continuous
 62
     7
100
AcDbLine
 10
-100.5909671905849
 20
-180.8720747524855
 30
0.0
 11
-94.59096719058493
 21
-180.8720747524855
 31
0.0
  0
LINE
  5
3E1
330
1F
100
AcDbEntity
  8
0
  6
Continuous
 62
     7
100
AcDbLine
 10
-94.59096719058493
 20
-186.8720747524855
 30
0.0
 11
-100.5909671905849
 21
-186.8720747524855
 31
0.0
  0
LINE
  5
3E2
330
1F
100
AcDbEntity
  8
0
  6
Continuous
 62
     7
100
AcDbLine
 10
-100.5909671905849
 20
-180.8720747524855
 30
0.0
 11
-100.5909671905849
 21
-186.8720747524855
 31
0.0
  0
LINE
  5
3E3
330
1F
100
AcDbEntity
  8
0
  6
Continuous
 62
     7
100
AcDbLine
 10
-94.59096719058493
 20
-180.8720747524855
 30
0.0
 11
-94.59096719058493
 21
-186.8720747524855
 31
0.0
  0
CIRCLE
  5
3E4
330
1F
100
AcDbEntity
  8
0
  6
Continuous
 62
     7
100
AcDbCircle
 10
-48.25448794966529
 20
-125.5360553765055
 30
0.0
 40
6.000000000000013
  0
ARC
  5
3E5
330
1F
100
AcDbEntity
  8
0
  6
DASH_CENTER
 62
    30
100
AcDbCircle
 10
-106.5909275524389
 20
-183.8724136864153
 30
0.0
 40
82.50002252961465
100
AcDbArc
 50
34.60954904031655
 51
56.41747055170884
  0
LINE
  5
3E6
330
1F
100
AcDbEntity
  8
0
  6
DASH_CENTER
 62
    30
100
AcDbLine
 10
-37.81946719058487
 20
-115.1008747524856
 30
0.0
 11
-57.40196719058507
 21
-134.6836747524855
 31
0.0
  0
ARC
  5
3E9
330
1F
100
AcDbEntity
  8
0
  6
Continuous
 62
     7
100
AcDbCircle
 10
-87.92377049295962
 20
-78.00529348116231
 30
0.0
 40
14.99993052850585
100
AcDbArc
 50
315.5624031700797
 51
350.0000258478481
  0
ARC
  5
3EA
330
1F
100
AcDbEntity
  8
0
  6
Continuous
 62
     7
100
AcDbCircle
 10
-87.92376719058506
 20
-78.00527475248554
 30
0.0
 40
14.99993052850579
100
AcDbArc
 50
349.9999531392517
 51
170.0000257814591
  0
LINE
  5
3EB
330
1F
100
AcDbEntity
  8
0
  6
Continuous
 62
     7
100
AcDbLine
 10
-57.26996719058502
 20
-53.88547475248561
 30
0.0
 11
-108.479867190585
 21
-44.85577475248556
 31
0.0
  0
LINE
  5
3EC
330
1F
100
AcDbEntity
  8
0
  6
Continuous
 62
     7
100
AcDbLine
 10
-53.59116719058487
 20
-56.05727475248567
 30
0.0
 11
-112.679367190585
 21
-45.63837475248553
 31
0.0
  0
LINE
  5
3ED
330
1F
100
AcDbEntity
  8
0
  6
Continuous
 62
     7
100
AcDbLine
 10
-54.82436719058501
 20
-58.88607475248567
 30
0.0
 11
-112.488167190585
 21
-48.71837475248572
 31
0.0
  0
LINE
  5
3EE
330
1F
100
AcDbEntity
  8
0
  6
Continuous
 62
     7
100
AcDbLine
 10
-54.95006719058506
 20
-59.59847475248557
 30
0.0
 11
-112.613967190585
 21
-49.43077475248561
 31
0.0
  0
LINE
  5
3EF
330
1F
100
AcDbEntity
  8
0
  6
DASH_CENTER
 62
    30
100
AcDbLine
 10
-105.3289671905849
 20
-74.93627475248556
 30
0.0
 11
-69.44056719058494
 21
-81.2643747524855
 31
0.0
  0
LINE
  5
3F0
330
1F
100
AcDbEntity
  8
0
  6
Continuous
 62
     7
100
AcDbLine
 10
-58.67246719058494
 20
-61.83927475248559
 30
0.0
 11
-109.882267190585
 21
-52.80967475248553
 31
0.0
  0
ARC
  5
3F1
330
1F
100
AcDbEntity
  8
0
  6
Continuous
 62
     7
100
AcDbCircle
 10
-87.92377049295962
 20
-78.00529348116231
 30
0.0
 40
10.00002363247199
100
AcDbArc
 50
169.9999350454701
 51
222.1965257156841
  0
ARC
  5
3F2
330
1F
100
AcDbEntity
  8
0
  6
DASHED
 62
    30
100
AcDbCircle
 10
-87.92376719058506
 20
-78.00527475248554
 30
0.0
 40
11.50002116389354
100
AcDbArc
 50
349.9999420853109
 51
170.0000368354018
  0
ARC
  5
3F3
330
1F
100
AcDbEntity
  8
0
  6
Continuous
 62
     7
100
AcDbCircle
 10
-87.92376719058506
 20
-78.00527475248554
 30
0.0
 40
10.00002363247206
100
AcDbArc
 50
349.9999349790812
 51
170.0000439416295
  0
ARC
  5
3F4
330
1F
100
AcDbEntity
  8
0
  6
Continuous
 62
     7
100
AcDbCircle
 10
-87.92377049295962
 20
-78.00529348116231
 30
0.0
 40
14.99993052850573
100
AcDbArc
 50
169.9999532056409
 51
204.4375686973109
  0
ARC
  5
3F5
330
1F
100
AcDbEntity
  8
0
  6
DASHED
 62
    30
100
AcDbCircle
 10
-87.92377049295962
 20
-78.00529348116231
 30
0.0
 40
11.50002116389343
100
AcDbArc
 50
169.9999421516984
 51
214.4352503851319
  0
LINE
  5
3F7
330
1F
100
AcDbEntity
  8
0
  6
DASH_CENTER
 62
    30
100
AcDbLine
 10
-84.59125850180091
 20
-59.1070073087426
 30
0.0
 11
-90.97024944258636
 21
-95.2838705111074
 31
0.0
  0
ARC
  5
3F8
330
1F
100
AcDbEntity
  8
0
  6
DASHED
 62
    30
100
AcDbCircle
 10
-87.92377049295962
 20
-78.00529348116231
 30
0.0
 40
11.50002116389359
100
AcDbArc
 50
305.5647214822578
 51
350.0000369017891
  0
ARC
  5
3F9
330
1F
100
AcDbEntity
  8
0
  6
Continuous
 62
     7
100
AcDbCircle
 10
-87.92377049295962
 20
-78.00529348116231
 30
0.0
 40
10.00002363247213
100
AcDbArc
 50
297.8034461517061
 51
350.0000440080186
  0
ARC
  5
3FD
330
1F
100
AcDbEntity
  8
0
  6
Continuous
 62
     7
100
AcDbCircle
 10
-110.2165094045064
 20
-54.70397952078823
 30
0.0
 40
10.00003731934022
100
AcDbArc
 50
79.99968608209944
 51
112.8894502139415
  0
ARC
  5
3FF
330
1F
100
AcDbEntity
  8
0
  6
Continuous
 62
     7
100
AcDbCircle
 10
-55.32777423332484
 20
-65.90536469446758
 30
0.0
 40
10.00001661072869
100
AcDbArc
 50
350.0004340371325
 51
79.99986978452662
  0
ARC
  5
400
330
1F
100
AcDbEntity
  8
0
  6
Continuous
 62
     7
100
AcDbCircle
 10
-60.40887423332481
 20
-71.68736469446738
 30
0.0
 40
10.0000166107286
100
AcDbArc
 50
350.0004340371307
 51
79.99986978452581
  0
ARC
  5
401
330
1F
100
AcDbEntity
  8
0
  6
Continuous
 62
     7
100
AcDbCircle
 10
-56.6864742332882
 20
-69.44666469454634
 30
0.0
 40
10.72340386513767
100
AcDbArc
 50
350.0004854808077
 51
79.99995929185367
  0
ARC
  5
402
330
1F
100
AcDbEntity
  8
0
  6
Continuous
 62
     7
100
AcDbCircle
 10
-56.68647423332493
 20
-69.44666469446753
 30
0.0
 40
10.00001661072883
100
AcDbArc
 50
350.0004340371307
 51
79.99986978452581
  0
LINE
  5
403
330
1F
100
AcDbEntity
  8
0
  6
Continuous
 62
     7
100
AcDbLine
 10
-50.93749500385263
 20
-98.59366658145528
 30
0.0
 11
-48.53189490444696
 21
-84.95114178412789
 31
0.0
  0
LINE
  5
404
330
1F
100
AcDbEntity
  8
0
  6
Continuous
 62
     7
100
AcDbLine
 10
-51.64983651804607
 20
-98.46797541251243
 30
0.0
 11
-49.24437888620547
 21
-84.8255114996839
 31
0.0
  0
LINE
  5
405
330
1F
100
AcDbEntity
  8
0
  6
Continuous
 62
     7
100
AcDbLine
 10
-50.56096719058497
 20
-73.42377475248553
 30
0.0
 11
-52.47107138156502
 21
-84.25655794229323
 31
0.0
  0
ARC
  5
406
330
1F
100
AcDbEntity
  8
0
  6
Continuous
 62
     7
100
AcDbCircle
 10
-64.2290767112197
 20
-93.35283624896636
 30
0.0
 40
10.00000792849687
100
AcDbArc
 50
331.1695547815518
 51
349.9994951375842
  0
ARC
  5
407
330
1F
100
AcDbEntity
  8
0
  6
Continuous
 62
     7
100
AcDbCircle
 10
-61.49753067779193
 20
-96.73154229082079
 30
0.0
 40
10.7233951829633
100
AcDbArc
 50
338.5201022279578
 51
349.9994470500523
  0
ARC
  5
408
330
1F
100
AcDbEntity
  8
0
  6
Continuous
 62
     7
100
AcDbCircle
 10
-61.49753067779193
 20
-96.73154229082079
 30
0.0
 40
10.00000792849698
100
AcDbArc
 50
339.3877373905823
 51
349.9994951375842
  0
LINE
  5
409
330
1F
100
AcDbEntity
  8
0
  6
Continuous
 62
     7
100
AcDbLine
 10
-52.47107138156502
 20
-84.25655794229323
 30
0.0
 11
-54.38119461297493
 21
-95.08933777475583
 31
0.0
  0
ARC
  5
40A
330
1F
100
AcDbEntity
  8
0
  6
Continuous
 62
     7
100
AcDbCircle
 10
-59.00636207985686
 20
-63.73352577615813
 30
0.0
 40
9.999958808732523
100
AcDbArc
 50
48.21308269754556
 51
80.00046389481742
  0
LINE
  5
40B
330
1F
100
AcDbEntity
  8
0
  6
Continuous
 62
     7
100
AcDbLine
 10
-49.24437888620547
 20
-84.8255114996839
 30
0.0
 11
-46.83876719058503
 21
-71.1830747524857
 31
0.0
  0
LINE
  5
40C
330
1F
100
AcDbEntity
  8
0
  6
Continuous
 62
     7
100
AcDbLine
 10
-45.47986719058508
 20
-67.64187475248558
 30
0.0
 11
-48.53189490444696
 21
-84.95114178412789
 31
0.0
  0
LINE
  5
428
330
1F
100
AcDbEntity
  8
0
  6
Continuous
 62
     7
100
AcDbLine
 10
-186.5896671905849
 20
311.4856109114149
 30
0.0
 11
-186.5893671905849
 21
343.8222109114148
 31
0.0
  0
LINE
  5
429
330
1F
100
AcDbEntity
  8
0
  6
Continuous
 62
     7
100
AcDbLine
 10
-26.58866719058504
 20
311.4851109114147
 30
0.0
 11
-26.58876719058503
 21
343.8217109114147
 31
0.0
  0
ARC
  5
42C
330
1F
100
AcDbEntity
  8
0
  6
Continuous
 62
     7
100
AcDbCircle
 10
-111.412478173824
 20
233.5090210176373
 30
0.0
 40
8.000010106229803
100
AcDbArc
 50
184.7625308162145
 51
270.0000786615573
  0
ARC
  5
42D
330
1F
100
AcDbEntity
  8
0
  6
Continuous
 62
     7
100
AcDbCircle
 10
-109.8363594963813
 20
302.0088192534277
 30
0.0
 40
9.999991657990056
100
AcDbArc
 50
90.00004408457552
 51
184.6265553740618
  0
ARC
  5
42E
330
1F
100
AcDbEntity
  8
0
  6
Continuous
 62
     7
100
AcDbCircle
 10
-111.3290240224477
 20
232.5091711902741
 30
0.0
 40
7.999960279061244
100
AcDbArc
 50
184.762202447512
 51
270.0004070302552
  0
ARC
  5
42F
330
1F
100
AcDbEntity
  8
0
  6
Continuous
 62
     7
100
AcDbCircle
 10
-115.3219730856275
 20
304.5088045049224
 30
0.0
 40
10.00000640649417
100
AcDbArc
 50
89.99996622391547
 51
184.7615619104391
  0
LINE
  5
430
330
1F
100
AcDbEntity
  8
0
  6
Continuous
 62
     7
100
AcDbLine
 10
-34.29006719058497
 20
123.5093109114149
 30
0.0
 11
-178.8898671905849
 21
123.5093109114149
 31
0.0
  0
LINE
  5
431
330
1F
100
AcDbEntity
  8
0
  6
Continuous
 62
     7
100
AcDbLine
 10
-139.597067190585
 20
100.5093109114149
 30
0.0
 11
-73.58306719058488
 21
100.5095109114148
 31
0.0
  0
LINE
  5
432
330
1F
100
AcDbEntity
  8
0
  6
Continuous
 62
     7
100
AcDbLine
 10
-177.8884671905849
 20
112.509110911415
 30
0.0
 11
-35.33186719058493
 21
112.5097109114147
 31
0.0
  0
LINE
  5
434
330
1F
100
AcDbEntity
  8
0
  6
Continuous
 62
     7
100
AcDbLine
 10
-125.287267190585
 20
303.6784109114149
 30
0.0
 11
-119.384967190585
 21
232.8447109114148
 31
0.0
  0
LINE
  5
435
330
1F
100
AcDbEntity
  8
0
  6
Continuous
 62
     7
100
AcDbLine
 10
-114.417667190585
 20
234.6425109114148
 30
0.0
 11
-119.8038671905849
 21
301.2021109114149
 31
0.0
  0
LINE
  5
437
330
1F
100
AcDbEntity
  8
0
  6
Continuous
 62
     7
100
AcDbLine
 10
-171.2896671905851
 20
70.00921091141489
 30
0.0
 11
-41.89026719058506
 21
70.00921091141489
 31
0.0
  0
LINE
  5
438
330
1F
100
AcDbEntity
  8
0
  6
Continuous
 62
     7
100
AcDbLine
 10
-178.8898671905849
 20
123.5099109114148
 30
0.0
 11
-178.88902033441
 21
296.5088357929877
 31
0.0
  0
ARC
  5
439
330
1F
100
AcDbEntity
  8
0
  6
Continuous
 62
     7
100
AcDbCircle
 10
-169.0893671905849
 20
90.50921091141493
 30
0.0
 40
5.0
100
AcDbArc
 50
270.0
 51
0.0
  0
LINE
  5
43A
330
1F
100
AcDbEntity
  8
0
  6
Continuous
 62
     7
100
AcDbLine
 10
-152.203667190585
 20
100.5092109114149
 30
0.0
 11
-168.932367190585
 21
112.5102109114149
 31
0.0
  0
LINE
  5
43B
330
1F
100
AcDbEntity
  8
0
  6
Continuous
 62
     7
100
AcDbLine
 10
-165.835467190585
 20
102.0058109114149
 30
0.0
 11
-177.4328671905849
 21
111.9459109114149
 31
0.0
  0
LINE
  5
43C
330
1F
100
AcDbEntity
  8
0
  6
Continuous
 62
     7
100
AcDbLine
 10
-206.5902698966366
 20
85.50911091141495
 30
0.0
 11
-206.5902698966366
 21
73.50911091141495
 31
0.0
  0
LINE
  5
43D
330
1F
100
AcDbEntity
  8
0
  6
Continuous
 62
     7
100
AcDbLine
 10
-171.5895671905849
 20
70.30921091141488
 30
0.0
 11
-171.5895671905849
 21
73.50911091141495
 31
0.0
  0
LINE
  5
43E
330
1F
100
AcDbEntity
  8
0
  6
Continuous
 62
     7
100
AcDbLine
 10
-171.2895671905848
 20
70.009110911415
 30
0.0
 11
-171.5895671905849
 21
70.30921091141488
 31
0.0
  0
LINE
  5
43F
330
1F
100
AcDbEntity
  8
0
  6
Continuous
 62
     7
100
AcDbLine
 10
-178.5898671905848
 20
123.5092109114149
 30
0.0
 11
-178.1291671905848
 21
113.3737109114147
 31
0.0
  0
ARC
  5
440
330
1F
100
AcDbEntity
  8
0
  6
Continuous
 62
     7
100
AcDbCircle
 10
-176.131258928446
 20
113.4644939718945
 30
0.0
 40
2.0000696436986
100
AcDbArc
 50
182.6015463757831
 51
229.3994527213154
  0
LINE
  5
441
330
1F
100
AcDbEntity
  8
0
  6
Continuous
 62
     7
100
AcDbLine
 10
-152.203667190585
 20
100.5092109114149
 30
0.0
 11
-164.649667190585
 21
100.5092109114149
 31
0.0
  0
LINE
  5
442
330
1F
100
AcDbEntity
  8
0
  6
Continuous
 62
     7
100
AcDbLine
 10
-155.7597671905851
 20
112.2090109114145
 30
0.0
 11
-150.7597671905851
 21
112.2090109114145
 31
0.0
  0
LINE
  5
443
330
1F
100
AcDbEntity
  8
0
  6
Continuous
 62
     7
100
AcDbLine
 10
-155.2597671905851
 20
111.7090109114146
 30
0.0
 11
-151.2597671905851
 21
111.7090109114146
 31
0.0
  0
ARC
  5
444
330
1F
100
AcDbEntity
  8
0
  6
Continuous
 62
     7
100
AcDbCircle
 10
-169.089393098316
 20
98.20946724043984
 30
0.0
 40
5.000025908048423
100
AcDbArc
 50
359.9993545202655
 51
49.39942707974743
  0
LINE
  5
445
330
1F
100
AcDbEntity
  8
0
  6
Continuous
 62
     7
100
AcDbLine
 10
-164.0893671905849
 20
90.50921091141493
 30
0.0
 11
-164.0893671905849
 21
98.20941091141484
 31
0.0
  0
LINE
  5
446
330
1F
100
AcDbEntity
  8
0
  6
Continuous
 62
    40
100
AcDbLine
 10
-155.2597671905851
 20
111.7090109114146
 30
0.0
 11
-155.2597671905851
 21
112.5092109114149
 31
0.0
  0
LINE
  5
447
330
1F
100
AcDbEntity
  8
0
  6
Continuous
 62
     7
100
AcDbLine
 10
-155.2597671905851
 20
111.7090109114146
 30
0.0
 11
-155.7597671905851
 21
112.2090109114145
 31
0.0
  0
LINE
  5
448
330
1F
100
AcDbEntity
  8
0
  6
PHANTOM
 62
     7
100
AcDbLine
 10
-155.7597671905851
 20
112.2090109114145
 30
0.0
 11
-155.7597671905851
 21
112.5092109114149
 31
0.0
  0
LINE
  5
449
330
1F
100
AcDbEntity
  8
0
  6
DASH_CENTER
 62
    30
100
AcDbLine
 10
-153.2580671905851
 20
104.1549109114149
 30
0.0
 11
-153.2579671905851
 21
119.094210911415
 31
0.0
  0
LINE
  5
44A
330
1F
100
AcDbEntity
  8
0
  6
Continuous
 62
     7
100
AcDbLine
 10
-152.203667190585
 20
100.5092109114149
 30
0.0
 11
-152.203567190585
 21
111.7090109114146
 31
0.0
  0
LINE
  5
44B
330
1F
100
AcDbEntity
  8
0
  6
Continuous
 62
     7
100
AcDbLine
 10
-150.7597671905851
 20
112.2090109114145
 30
0.0
 11
-151.2597671905851
 21
111.7090109114146
 31
0.0
  0
LINE
  5
44C
330
1F
100
AcDbEntity
  8
0
  6
PHANTOM
 62
     7
100
AcDbLine
 10
-150.7597671905851
 20
112.2090109114145
 30
0.0
 11
-150.7598671905851
 21
112.5092109114149
 31
0.0
  0
LINE
  5
44D
330
1F
100
AcDbEntity
  8
0
  6
Continuous
 62
    40
100
AcDbLine
 10
-151.2597671905851
 20
111.7090109114146
 30
0.0
 11
-151.2598671905851
 21
112.5092109114149
 31
0.0
  0
LINE
  5
44E
330
1F
100
AcDbEntity
  8
0
  6
Continuous
 62
     7
100
AcDbLine
 10
-141.5970671905849
 20
102.5098109114147
 30
0.0
 11
-141.5969671905848
 21
112.510010911415
 31
0.0
  0
ARC
  5
44F
330
1F
100
AcDbEntity
  8
0
  6
Continuous
 62
     7
100
AcDbCircle
 10
-139.597067189335
 20
102.5098109101646
 30
0.0
 40
2.000000001250014
100
AcDbArc
 50
179.9999999641872
 51
269.9971351752143
  0
LINE
  5
450
330
1F
100
AcDbEntity
  8
0
  6
Continuous
 62
     7
100
AcDbLine
 10
-124.6898671905849
 20
296.5090109114149
 30
0.0
 11
-186.5898671905848
 21
296.5088109114146
 31
0.0
  0
LINE
  5
451
330
1F
100
AcDbEntity
  8
0
  6
DASH_CENTER
 62
    30
100
AcDbLine
 10
-193.3311671905849
 20
308.0097109114147
 30
0.0
 11
-181.1634671905848
 21
308.0095109114148
 31
0.0
  0
LINE
  5
452
330
1F
100
AcDbEntity
  8
0
  6
DASH_CENTER
 62
    40
100
AcDbLine
 10
-186.3139671905849
 20
299.1621109114149
 30
0.0
 11
-186.3137671905849
 21
315.7602109114146
 31
0.0
  0
LINE
  5
453
330
1F
100
AcDbEntity
  8
0
  6
Continuous
 62
     7
100
AcDbLine
 10
-186.5898671905848
 20
296.5095109114147
 30
0.0
 11
-186.5897671905848
 21
304.5337109114149
 31
0.0
  0
ARC
  5
454
330
1F
100
AcDbEntity
  8
0
  6
Continuous
 62
     7
100
AcDbCircle
 10
-187.613843941496
 20
310.0910362842092
 30
0.0
 40
1.300023249336729
100
AcDbArc
 50
95.00082984247946
 51
180.0011182523299
  0
ARC
  5
455
330
1F
100
AcDbEntity
  8
0
  6
Continuous
 62
     7
100
AcDbCircle
 10
-164.3505671944413
 20
308.0110911679975
 30
0.0
 40
24.65150962727352
100
AcDbArc
 50
175.1598006964965
 51
184.8457053365106
  0
ARC
  5
456
330
1F
100
AcDbEntity
  8
0
  6
Continuous
 62
     7
100
AcDbCircle
 10
-187.613993751389
 20
305.9284398961975
 30
0.0
 40
1.299973439518852
100
AcDbArc
 50
180.0012774920288
 51
265.0011817930967
  0
ARC
  5
457
330
1F
100
AcDbEntity
  8
0
  6
Continuous
 62
     7
100
AcDbCircle
 10
-202.9859671905849
 20
308.0095109114148
 30
0.0
 40
14.22477185511233
100
AcDbArc
 50
351.5869616222336
 51
8.413038377768039
  0
ARC
  5
458
330
1F
100
AcDbEntity
  8
0
  6
Continuous
 62
     7
100
AcDbCircle
 10
-207.3856671947392
 20
308.0104139821298
 30
0.0
 40
21.36034725222438
100
AcDbArc
 50
350.566818083879
 51
9.428270849304862
  0
ARC
  5
459
330
1F
100
AcDbEntity
  8
0
  6
Continuous
 62
     7
100
AcDbCircle
 10
-189.2186034364415
 20
313.2275998176472
 30
0.0
 40
3.89663288696564
100
AcDbArc
 50
356.7945069451481
 51
47.5655953164795
  0
LINE
  5
45A
330
1F
100
AcDbEntity
  8
0
  6
Continuous
 62
     7
100
AcDbLine
 10
-186.3138671905849
 20
304.5097109114146
 30
0.0
 11
-187.7272671905851
 21
304.6335109114149
 31
0.0
  0
LINE
  5
45B
330
1F
100
AcDbEntity
  8
0
  6
Continuous
 62
     7
100
AcDbLine
 10
-186.3138671905849
 20
311.5097109114148
 30
0.0
 11
-187.7271671905851
 21
311.386210911415
 31
0.0
  0
LINE
  5
45C
330
1F
100
AcDbEntity
  8
0
  6
Continuous
 62
     7
100
AcDbLine
 10
-186.5897671905848
 20
311.4856109114149
 30
0.0
 11
-186.5896671905849
 21
313.0095109114146
 31
0.0
  0
LINE
  5
45D
330
1F
100
AcDbEntity
  8
0
  6
Continuous
 62
     7
100
AcDbLine
 10
-186.5896671905849
 20
313.0095109114146
 30
0.0
 11
-185.3279671905849
 21
313.0097109114148
 31
0.0
  0
LINE
  5
461
330
1F
100
AcDbEntity
  8
0
  6
Continuous
 62
     7
100
AcDbLine
 10
-34.29006719058497
 20
123.5092109114149
 30
0.0
 11
-34.28922033604825
 21
296.5090109114149
 31
0.0
  0
ARC
  5
462
330
1F
100
AcDbEntity
  8
0
  6
Continuous
 62
     7
100
AcDbCircle
 10
-73.58316719183505
 20
102.5095109101645
 30
0.0
 40
2.000000001250004
100
AcDbArc
 50
270.0028648247904
 51
0.0000000358111119
  0
LINE
  5
463
330
1F
100
AcDbEntity
  8
0
  6
Continuous
 62
     7
100
AcDbLine
 10
-94.59006719058493
 20
65.5093109114149
 30
0.0
 11
-97.09026719058487
 21
65.5093109114149
 31
0.0
  0
LINE
  5
464
330
1F
100
AcDbEntity
  8
0
  6
Continuous
 62
     7
100
AcDbLine
 10
-98.09026719058486
 20
33.5093109114149
 30
0.0
 11
-94.59006719058493
 21
33.5093109114149
 31
0.0
  0
LINE
  5
465
330
1F
100
AcDbEntity
  8
0
  6
Continuous
 62
     7
100
AcDbLine
 10
-97.09026719058487
 20
34.5093109114149
 30
0.0
 11
-97.09026719058487
 21
70.00921091141489
 31
0.0
  0
LINE
  5
466
330
1F
100
AcDbEntity
  8
0
  6
Continuous
 62
     7
100
AcDbLine
 10
-116.0904671905851
 20
34.5093109114149
 30
0.0
 11
-116.0902671905849
 21
70.00921091141489
 31
0.0
  0
LINE
  5
467
330
1F
100
AcDbEntity
  8
0
  6
Continuous
 62
     7
100
AcDbLine
 10
-97.09026719058487
 20
34.5093109114149
 30
0.0
 11
-116.0904671905851
 21
34.5093109114149
 31
0.0
  0
LINE
  5
468
330
1F
100
AcDbEntity
  8
0
  6
Continuous
 62
     7
100
AcDbLine
 10
-98.09026719058486
 20
33.5093109114149
 30
0.0
 11
-115.0907671905849
 21
33.5093109114149
 31
0.0
  0
LINE
  5
469
330
1F
100
AcDbEntity
  8
0
  6
Continuous
 62
     7
100
AcDbLine
 10
-116.0904671905851
 20
34.5093109114149
 30
0.0
 11
-115.0907671905849
 21
33.5093109114149
 31
0.0
  0
LINE
  5
46A
330
1F
100
AcDbEntity
  8
0
  6
Continuous
 62
     7
100
AcDbLine
 10
-98.09026719058486
 20
33.5093109114149
 30
0.0
 11
-97.09026719058487
 21
34.5093109114149
 31
0.0
  0
LINE
  5
46B
330
1F
100
AcDbEntity
  8
0
  6
Continuous
 62
     7
100
AcDbLine
 10
-94.59006719058493
 20
65.5093109114149
 30
0.0
 11
-94.59006719058493
 21
33.5093109114149
 31
0.0
  0
ARC
  5
46C
330
1F
100
AcDbEntity
  8
0
  6
Continuous
 62
     7
100
AcDbCircle
 10
-44.09086719008501
 20
90.50861091091483
 30
0.0
 40
5.000000000499938
100
AcDbArc
 50
179.9999999942711
 51
269.9988540786811
  0
LINE
  5
46D
330
1F
100
AcDbEntity
  8
0
  6
Continuous
 62
     7
100
AcDbLine
 10
-41.59086719058495
 20
70.30861091141479
 30
0.0
 11
-41.59086719058495
 21
73.5086109114149
 31
0.0
  0
LINE
  5
46E
330
1F
100
AcDbEntity
  8
0
  6
Continuous
 62
     7
100
AcDbLine
 10
-41.89086719058489
 20
70.00861091141491
 30
0.0
 11
-41.59086719058495
 21
70.30861091141479
 31
0.0
  0
LINE
  5
46F
330
1F
100
AcDbEntity
  8
0
  6
Continuous
 62
     7
100
AcDbLine
 10
-60.97646719058503
 20
100.5087109114148
 30
0.0
 11
-48.5305671905851
 21
100.5086109114146
 31
0.0
  0
LINE
  5
470
330
1F
100
AcDbEntity
  8
0
  6
Continuous
 62
     7
100
AcDbLine
 10
-60.97646719058503
 20
100.5087109114148
 30
0.0
 11
-44.24776719058491
 21
112.5096109114148
 31
0.0
  0
LINE
  5
471
330
1F
100
AcDbEntity
  8
0
  6
Continuous
 62
     7
100
AcDbLine
 10
-57.42026719058504
 20
112.2086109114148
 30
0.0
 11
-62.42026719058504
 21
112.2086109114148
 31
0.0
  0
LINE
  5
472
330
1F
100
AcDbEntity
  8
0
  6
Continuous
 62
     7
100
AcDbLine
 10
-57.92026719058505
 20
111.7086109114149
 30
0.0
 11
-61.92026719058504
 21
111.7086109114149
 31
0.0
  0
LINE
  5
473
330
1F
100
AcDbEntity
  8
0
  6
Continuous
 62
     7
100
AcDbLine
 10
-71.58316719058506
 20
102.5095109114148
 30
0.0
 11
-71.58316719058506
 21
112.5097109114147
 31
0.0
  0
LINE
  5
474
330
1F
100
AcDbEntity
  8
0
  6
Continuous
 62
    40
100
AcDbLine
 10
-61.92026719058504
 20
111.7086109114149
 30
0.0
 11
-61.92026719058504
 21
112.5088109114148
 31
0.0
  0
LINE
  5
475
330
1F
100
AcDbEntity
  8
0
  6
PHANTOM
 62
     7
100
AcDbLine
 10
-62.42026719058504
 20
112.2086109114148
 30
0.0
 11
-62.42026719058504
 21
112.5088109114148
 31
0.0
  0
LINE
  5
476
330
1F
100
AcDbEntity
  8
0
  6
Continuous
 62
     7
100
AcDbLine
 10
-62.42026719058504
 20
112.2086109114148
 30
0.0
 11
-61.92026719058504
 21
111.7086109114149
 31
0.0
  0
LINE
  5
477
330
1F
100
AcDbEntity
  8
0
  6
DASH_CENTER
 62
    30
100
AcDbLine
 10
-59.92206719058504
 20
104.1545109114146
 30
0.0
 11
-59.92206719058504
 21
119.0938109114146
 31
0.0
  0
LINE
  5
478
330
1F
100
AcDbEntity
  8
0
  6
Continuous
 62
     7
100
AcDbLine
 10
-60.97646719058503
 20
100.5087109114148
 30
0.0
 11
-60.97646719058503
 21
111.7086109114149
 31
0.0
  0
LINE
  5
479
330
1F
100
AcDbEntity
  8
0
  6
Continuous
 62
     7
100
AcDbLine
 10
-57.92026719058505
 20
111.7086109114149
 30
0.0
 11
-57.42026719058504
 21
112.2086109114148
 31
0.0
  0
LINE
  5
47A
330
1F
100
AcDbEntity
  8
0
  6
PHANTOM
 62
     7
100
AcDbLine
 10
-57.42026719058504
 20
112.2086109114148
 30
0.0
 11
-57.42026719058504
 21
112.5088109114148
 31
0.0
  0
LINE
  5
47B
330
1F
100
AcDbEntity
  8
0
  6
Continuous
 62
    40
100
AcDbLine
 10
-57.92026719058505
 20
111.7086109114149
 30
0.0
 11
-57.92026719058505
 21
112.5088109114148
 31
0.0
  0
LINE
  5
47C
330
1F
100
AcDbEntity
  8
0
  6
Continuous
 62
     7
100
AcDbLine
 10
-34.59006719058493
 20
123.5086109114147
 30
0.0
 11
-35.05086719058498
 21
113.3730109114146
 31
0.0
  0
LINE
  5
47D
330
1F
100
AcDbEntity
  8
0
  6
Continuous
 62
     7
100
AcDbLine
 10
-47.34466719058491
 20
102.0052109114147
 30
0.0
 11
-35.74726719058503
 21
111.9453109114147
 31
0.0
  0
ARC
  5
47E
330
1F
100
AcDbEntity
  8
0
  6
Continuous
 62
     7
100
AcDbCircle
 10
-44.0909117863627
 20
98.20881395863104
 30
0.0
 40
4.999955405162252
100
AcDbArc
 50
130.5986920876449
 51
179.998888993026
  0
LINE
  5
47F
330
1F
100
AcDbEntity
  8
0
  6
Continuous
 62
     7
100
AcDbLine
 10
-49.09086719058496
 20
90.50861091141479
 30
0.0
 11
-49.09086719058496
 21
98.20891091141485
 31
0.0
  0
ARC
  5
480
330
1F
100
AcDbEntity
  8
0
  6
Continuous
 62
     7
100
AcDbCircle
 10
-37.04879216609801
 20
113.4638597087441
 30
0.0
 40
1.999989427910783
100
AcDbArc
 50
310.5993744621321
 51
357.3964640328437
  0
ARC
  5
481
330
1F
100
AcDbEntity
  8
0
  6
Continuous
 62
     7
100
AcDbCircle
 10
-77.07496719058497
 20
230.5908109114149
 30
0.0
 40
9.000014600682682
100
AcDbArc
 50
20.82678044713753
 51
159.1732195528624
  0
ARC
  5
482
330
1F
100
AcDbEntity
  8
0
  6
Continuous
 62
     7
100
AcDbCircle
 10
-77.07496719058497
 20
228.4028109114148
 30
0.0
 40
6.000009525200905
100
AcDbArc
 50
34.07648575043027
 51
145.9235142495695
  0
ARC
  5
483
330
1F
100
AcDbEntity
  8
0
  6
Continuous
 62
     7
100
AcDbCircle
 10
-74.30492065254643
 20
229.8353803432986
 30
0.0
 40
1.49993216648413
100
AcDbArc
 50
318.6281808714245
 51
28.44893056070916
  0
ARC
  5
484
330
1F
100
AcDbEntity
  8
0
  6
Continuous
 62
     7
100
AcDbCircle
 10
-77.07496301709092
 20
228.3347109127396
 30
0.0
 40
4.650351731543086
100
AcDbArc
 50
28.44735422175962
 51
151.5554482815775
  0
LINE
  5
485
330
1F
100
AcDbEntity
  8
0
  6
Continuous
 62
     7
100
AcDbLine
 10
-55.46016719058503
 20
310.0088109114147
 30
0.0
 11
-104.6898671905849
 21
310.0088109114147
 31
0.0
  0
LINE
  5
486
330
1F
100
AcDbEntity
  8
0
  6
Continuous
 62
     7
100
AcDbLine
 10
-109.836367190585
 20
312.0088109114148
 30
0.0
 11
-64.058967190585
 21
312.0088109114148
 31
0.0
  0
LINE
  5
487
330
1F
100
AcDbEntity
  8
0
  6
Continuous
 62
     7
100
AcDbLine
 10
-115.3219671905849
 20
314.5088109114147
 30
0.0
 11
-66.9769671905849
 21
314.5088109114147
 31
0.0
  0
LINE
  5
488
330
1F
100
AcDbEntity
  8
0
  6
Continuous
 62
     7
100
AcDbLine
 10
-111.4124671905849
 20
225.5092109114149
 30
0.0
 11
-54.7423671905849
 21
225.5100109114149
 31
0.0
  0
LINE
  5
489
330
1F
100
AcDbEntity
  8
0
  6
Continuous
 62
     7
100
AcDbLine
 10
-54.66716719058489
 20
224.5097109114146
 30
0.0
 11
-111.329067190585
 21
224.5092109114149
 31
0.0
  0
LINE
  5
48A
330
1F
100
AcDbEntity
  8
0
  6
DASH_CENTER
 62
    30
100
AcDbLine
 10
-68.85941719058497
 20
230.6779109114147
 30
0.0
 11
-85.05671719058502
 21
230.6779109114147
 31
0.0
  0
LINE
  5
48B
330
1F
100
AcDbEntity
  8
0
  6
Continuous
 62
     7
100
AcDbLine
 10
-114.690167190585
 20
237.2129109114149
 30
0.0
 11
-114.6898671905849
 21
300.0097109114147
 31
0.0
  0
LINE
  5
48C
330
1F
100
AcDbEntity
  8
0
  6
Continuous
 62
     7
100
AcDbLine
 10
-108.6901671905849
 20
231.2129109114149
 30
0.0
 11
-89.22581719058506
 21
231.2129109114149
 31
0.0
  0
LINE
  5
48D
330
1F
100
AcDbEntity
  8
0
  6
Continuous
 62
     7
100
AcDbLine
 10
-108.4372671905851
 20
229.1264109114148
 30
0.0
 11
-87.01491719058504
 21
229.1264109114148
 31
0.0
  0
ARC
  5
48F
330
1F
100
AcDbEntity
  8
0
  6
Continuous
 62
     7
100
AcDbCircle
 10
-108.6901671905849
 20
237.2129109114149
 30
0.0
 40
6.0
100
AcDbArc
 50
180.0
 51
270.0
  0
ARC
  5
490
330
1F
100
AcDbEntity
  8
0
  6
Continuous
 62
     7
100
AcDbCircle
 10
-108.4372375278024
 20
235.12618355156
 30
0.0
 40
5.999972640218527
100
AcDbArc
 50
184.6256877408981
 51
269.9997167399985
  0
ARC
  5
492
330
1F
100
AcDbEntity
  8
0
  6
Continuous
 62
     7
100
AcDbCircle
 10
-87.01497475286634
 20
235.1263803523736
 30
0.0
 40
5.999969441234897
100
AcDbArc
 50
270.0005496820959
 51
325.9259133972689
  0
ARC
  5
493
330
1F
100
AcDbEntity
  8
0
  6
Continuous
 62
     7
100
AcDbCircle
 10
-89.22586265975407
 20
235.2128795587774
 30
0.0
 40
3.999968647620896
100
AcDbArc
 50
270.0006513029753
 51
339.1746858224302
  0
ARC
  5
494
330
1F
100
AcDbEntity
  8
0
  6
Continuous
 62
     7
100
AcDbCircle
 10
-73.22703716179998
 20
222.6594569972859
 30
0.0
 40
9.617971255827455
100
AcDbArc
 50
119.2522871280033
 51
130.7087722732822
  0
ARC
  5
495
330
1F
100
AcDbEntity
  8
0
  6
Continuous
 62
     7
100
AcDbCircle
 10
-73.22660844046452
 20
222.6597485786683
 30
0.0
 40
9.117942245236617
100
AcDbArc
 50
116.5238959275129
 51
130.2844863283307
  0
ARC
  5
496
330
1F
100
AcDbEntity
  8
0
  6
Continuous
 62
     7
100
AcDbCircle
 10
-77.07500527457726
 20
232.2754109117208
 30
0.0
 40
5.191358718087121
100
AcDbArc
 50
221.3763579805607
 51
318.6265835832313
  0
ARC
  5
497
330
1F
100
AcDbEntity
  8
0
  6
Continuous
 62
     7
100
AcDbCircle
 10
-79.37771276990225
 20
229.8080863777833
 30
0.0
 40
0.1875040116332327
100
AcDbArc
 50
130.7134448965142
 51
249.7154443692876
  0
ARC
  5
498
330
1F
100
AcDbEntity
  8
0
  6
Continuous
 62
     7
100
AcDbCircle
 10
-79.24341396104601
 20
229.7583114803133
 30
0.0
 40
0.1875271446730778
100
AcDbArc
 50
249.7184446716331
 51
310.2624050728973
  0
ARC
  5
499
330
1F
100
AcDbEntity
  8
0
  6
Continuous
 62
     7
100
AcDbCircle
 10
-79.84501587418072
 20
229.8353992932792
 30
0.0
 40
1.500009178259735
100
AcDbArc
 50
151.5534864299718
 51
221.3752829224866
  0
LINE
  5
49A
330
1F
100
AcDbEntity
  8
0
  6
Continuous
 62
     7
100
AcDbLine
 10
-79.44261719058498
 20
229.6320109114146
 30
0.0
 11
-79.30841719058503
 21
229.5825109114149
 31
0.0
  0
ARC
  5
49B
330
1F
100
AcDbEntity
  8
0
  6
Continuous
 62
     7
100
AcDbCircle
 10
-75.63399869286813
 20
231.7776065179385
 30
0.0
 40
0.1874332271463791
100
AcDbArc
 50
48.46550691450191
 51
104.8124813898652
  0
ARC
  5
49C
330
1F
100
AcDbEntity
  8
0
  6
Continuous
 62
     7
100
AcDbCircle
 10
-75.52130690267086
 20
231.6777533408278
 30
0.0
 40
0.1875447895675426
100
AcDbArc
 50
284.2893863389281
 51
48.45153283848722
  0
ARC
  5
49D
330
1F
100
AcDbEntity
  8
0
  6
Continuous
 62
     7
100
AcDbCircle
 10
-78.51616201513966
 20
231.777600258746
 30
0.0
 40
0.1874204574673026
100
AcDbArc
 50
75.2097817474625
 51
131.5271997014825
  0
ARC
  5
49E
330
1F
100
AcDbEntity
  8
0
  6
Continuous
 62
     7
100
AcDbCircle
 10
-74.77252161126762
 20
229.8080863777833
 30
0.0
 40
0.1875040116332517
100
AcDbArc
 50
290.2845556307123
 51
49.28655510348569
  0
ARC
  5
49F
330
1F
100
AcDbEntity
  8
0
  6
Continuous
 62
     7
100
AcDbCircle
 10
-74.9067865514754
 20
229.7583055170897
 30
0.0
 40
0.1875444854751104
100
AcDbArc
 50
229.7285217702749
 51
290.3011376802831
  0
ARC
  5
4A0
330
1F
100
AcDbEntity
  8
0
  6
Continuous
 62
     7
100
AcDbCircle
 10
-78.62891863578687
 20
231.6777168793571
 30
0.0
 40
0.1875116395381956
100
AcDbArc
 50
131.5202320723396
 51
255.7052454457949
  0
ARC
  5
4A1
330
1F
100
AcDbEntity
  8
0
  6
Continuous
 62
     7
100
AcDbCircle
 10
-77.98811416220861
 20
231.1598768496773
 30
0.0
 40
0.1250128746594989
100
AcDbArc
 50
299.2568425321938
 51
70.90459723016504
  0
ARC
  5
4A2
330
1F
100
AcDbEntity
  8
0
  6
Continuous
 62
     7
100
AcDbCircle
 10
-80.92307952998067
 20
222.659509859024
 30
0.0
 40
9.117929367228844
100
AcDbArc
 50
70.95044778704604
 51
75.72760541292876
  0
ARC
  5
4A3
330
1F
100
AcDbEntity
  8
0
  6
Continuous
 62
     7
100
AcDbCircle
 10
-76.16242182745899
 20
231.1598590149735
 30
0.0
 40
0.1249965290928682
100
AcDbArc
 50
109.0487159556126
 51
240.7398053610416
  0
ARC
  5
4A4
330
1F
100
AcDbEntity
  8
0
  6
Continuous
 62
     7
100
AcDbCircle
 10
-73.22677967894171
 20
222.6596221391443
 30
0.0
 40
9.117913053076707
100
AcDbArc
 50
104.274853296144
 51
109.0514169483824
  0
ARC
  5
4A5
330
1F
100
AcDbEntity
  8
0
  6
Continuous
 62
     7
100
AcDbCircle
 10
-80.92350834228751
 20
222.6596746961671
 30
0.0
 40
9.617933358192104
100
AcDbArc
 50
49.2885883989626
 51
60.74546208591977
  0
ARC
  5
4A6
330
1F
100
AcDbEntity
  8
0
  6
Continuous
 62
     7
100
AcDbCircle
 10
-77.0752171905849
 20
232.017110911415
 30
0.0
 40
0.5000822832295561
100
AcDbArc
 50
247.6454158764233
 51
292.3545841235766
  0
ARC
  5
4A7
330
1F
100
AcDbEntity
  8
0
  6
Continuous
 62
     7
100
AcDbCircle
 10
-80.92314280432562
 20
222.6595187271193
 30
0.0
 40
9.617944883976733
100
AcDbArc
 50
67.6463087945557
 51
75.21255454685863
  0
ARC
  5
4A8
330
1F
100
AcDbEntity
  8
0
  6
Continuous
 62
     7
100
AcDbCircle
 10
-73.22681835580084
 20
222.65961051991
 30
0.0
 40
9.617925870997188
100
AcDbArc
 50
104.789158742485
 51
112.3548535421359
  0
ARC
  5
4A9
330
1F
100
AcDbEntity
  8
0
  6
Continuous
 62
     7
100
AcDbCircle
 10
-77.0752171905849
 20
230.3706109114149
 30
0.0
 40
0.5000296491208655
100
AcDbArc
 50
63.47594391799559
 51
116.5240560820275
  0
ARC
  5
4AA
330
1F
100
AcDbEntity
  8
0
  6
Continuous
 62
     7
100
AcDbCircle
 10
-80.9234006577733
 20
222.6596000088967
 30
0.0
 40
9.117974576878815
100
AcDbArc
 50
49.71671786659241
 51
63.47778762581741
  0
LINE
  5
4AB
330
1F
100
AcDbEntity
  8
0
  6
Continuous
 62
     7
100
AcDbLine
 10
-75.50981719058495
 20
231.9179109114147
 30
0.0
 11
-75.39701719058506
 21
231.8181109114149
 31
0.0
  0
LINE
  5
4AC
330
1F
100
AcDbEntity
  8
0
  6
Continuous
 62
     7
100
AcDbLine
 10
-74.7075171905849
 20
229.6320109114146
 30
0.0
 11
-74.84181719058506
 21
229.5825109114149
 31
0.0
  0
LINE
  5
4AD
330
1F
100
AcDbEntity
  8
0
  6
Continuous
 62
     7
100
AcDbLine
 10
-78.64041719058491
 20
231.9179109114147
 30
0.0
 11
-78.75321719058502
 21
231.8181109114149
 31
0.0
  0
ARC
  5
4AE
330
1F
100
AcDbEntity
  8
0
  6
Continuous
 62
     7
100
AcDbCircle
 10
-104.6898671993354
 20
300.0092109026649
 30
0.0
 40
10.00000000925
100
AcDbArc
 50
89.99942699206815
 51
179.9965622030977
  0
LINE
  5
4AF
330
1F
100
AcDbEntity
  8
0
  6
Continuous
 62
     7
100
AcDbLine
 10
-45.46016719058503
 20
274.0500109114149
 30
0.0
 11
-42.77656719058496
 21
238.4111109114149
 31
0.0
  0
LINE
  5
4B0
330
1F
100
AcDbEntity
  8
0
  6
Continuous
 62
     7
100
AcDbLine
 10
-45.46016719058503
 20
300.0088109114147
 30
0.0
 11
-45.46016719058503
 21
241.1262109114147
 31
0.0
  0
ARC
  5
4B1
330
1F
100
AcDbEntity
  8
0
  6
Continuous
 62
     7
100
AcDbCircle
 10
-56.96016719037672
 20
240.6262150782725
 30
0.0
 40
11.51086859613709
100
AcDbArc
 50
272.4895520200457
 51
2.490029484874055
  0
ARC
  5
4B2
330
1F
100
AcDbEntity
  8
0
  6
Continuous
 62
     7
100
AcDbCircle
 10
-56.96016719058503
 20
242.7129109114149
 30
0.0
 40
11.51086443322133
100
AcDbArc
 50
272.489552921999
 51
2.489552921999759
  0
ARC
  5
4B3
330
1F
100
AcDbEntity
  8
0
  6
Continuous
 62
     7
100
AcDbCircle
 10
-54.74283350276034
 20
237.5100472318443
 30
0.0
 40
12.00003632338447
100
AcDbArc
 50
270.001271543124
 51
4.305823487381179
  0
ARC
  5
4B4
330
1F
100
AcDbEntity
  8
0
  6
Continuous
 62
     7
100
AcDbCircle
 10
-54.66737626526559
 20
236.5097011274988
 30
0.0
 40
11.99999021790532
100
AcDbArc
 50
270.0009982588811
 51
4.306539634419371
  0
LINE
  5
4B5
330
1F
100
AcDbEntity
  8
0
  6
Continuous
 62
     7
100
AcDbLine
 10
-64.92461719058496
 20
231.2129109114149
 30
0.0
 11
-56.46016719058503
 21
231.2129109114149
 31
0.0
  0
LINE
  5
4B6
330
1F
100
AcDbEntity
  8
0
  6
Continuous
 62
     7
100
AcDbLine
 10
-67.135517190585
 20
229.1264109114148
 30
0.0
 11
-56.46016719058503
 21
229.1264109114148
 31
0.0
  0
ARC
  5
4B7
330
1F
100
AcDbEntity
  8
0
  6
Continuous
 62
     7
100
AcDbCircle
 10
-64.92459750246732
 20
235.212897336272
 30
0.0
 40
3.999986424905424
100
AcDbArc
 50
200.8270222939553
 51
269.9997179875309
  0
ARC
  5
4B8
330
1F
100
AcDbEntity
  8
0
  6
Continuous
 62
     7
100
AcDbCircle
 10
-67.13556516964725
 20
235.126436380923
 30
0.0
 40
6.00002546970005
100
AcDbArc
 50
214.0766763900422
 51
270.0004581643502
  0
ARC
  5
4B9
330
1F
100
AcDbEntity
  8
0
  6
Continuous
 62
     7
100
AcDbCircle
 10
-55.46036719058498
 20
300.0088109114147
 30
0.0
 40
10.0000000005
100
AcDbArc
 50
359.9994270422047
 51
89.99942704220469
  0
ARC
  5
4BA
330
1F
100
AcDbEntity
  8
0
  6
Continuous
 62
     7
100
AcDbCircle
 10
-66.97705825008426
 20
302.5088466180453
 30
0.0
 40
11.9999642937149
100
AcDbArc
 50
47.1777428965905
 51
89.99956522162326
  0
ARC
  5
4BB
330
1F
100
AcDbEntity
  8
0
  6
Continuous
 62
     7
100
AcDbCircle
 10
-64.05921810706114
 20
292.0088449153703
 30
0.0
 40
19.99996599761828
100
AcDbArc
 50
74.56541619449146
 51
89.99928117602316
  0
LINE
  5
4BC
330
1F
100
AcDbEntity
  8
0
  6
Continuous
 62
     7
100
AcDbLine
 10
-52.79896719058502
 20
309.6482109114148
 30
0.0
 11
-58.73646719058502
 21
311.2876109114148
 31
0.0
  0
LINE
  5
4BD
330
1F
100
AcDbEntity
  8
0
  6
Continuous
 62
     7
100
AcDbLine
 10
-26.58866719058504
 20
296.5090109114149
 30
0.0
 11
-45.46016719058503
 21
296.5090109114149
 31
0.0
  0
LINE
  5
4BE
330
1F
100
AcDbEntity
  8
0
  6
Continuous
 62
     7
100
AcDbLine
 10
-26.58866719058504
 20
296.5090109114149
 30
0.0
 11
-26.58866719058504
 21
304.5332109114148
 31
0.0
  0
LINE
  5
4BF
330
1F
100
AcDbEntity
  8
0
  6
DASH_CENTER
 62
    40
100
AcDbLine
 10
-26.86456719058492
 20
299.1616109114149
 30
0.0
 11
-26.86456719058492
 21
315.7597109114148
 31
0.0
  0
ARC
  5
4C0
330
1F
100
AcDbEntity
  8
0
  6
Continuous
 62
     7
100
AcDbCircle
 10
-5.792767199288022
 20
308.0102139821286
 30
0.0
 40
21.36034723954087
100
AcDbArc
 50
170.5717291450413
 51
189.4331819217697
  0
ARC
  5
4C1
330
1F
100
AcDbEntity
  8
0
  6
Continuous
 62
     7
100
AcDbCircle
 10
-23.95977490629646
 20
313.2269919873078
 30
0.0
 40
3.89668280972201
100
AcDbArc
 50
132.4328577934971
 51
183.2038639527741
  0
LINE
  5
4C2
330
1F
100
AcDbEntity
  8
0
  6
Continuous
 62
     7
100
AcDbLine
 10
-26.58866719058504
 20
313.0090109114148
 30
0.0
 11
-27.85036719058506
 21
313.0092109114147
 31
0.0
  0
LINE
  5
4C3
330
1F
100
AcDbEntity
  8
0
  6
Continuous
 62
     7
100
AcDbLine
 10
-26.58866719058504
 20
311.4851109114147
 30
0.0
 11
-26.58866719058504
 21
313.0090109114148
 31
0.0
  0
ARC
  5
4C4
330
1F
100
AcDbEntity
  8
0
  6
Continuous
 62
     7
100
AcDbCircle
 10
-106.589667190585
 20
-646.4904890885852
 30
0.0
 40
1000.00001477482
100
AcDbArc
 50
89.99996766650919
 51
94.21584499107851
  0
ARC
  5
4C6
330
1F
100
AcDbEntity
  8
0
  6
Continuous
 62
     7
100
AcDbCircle
 10
-179.5894930097591
 20
343.8219831191658
 30
0.0
 40
6.999974181992449
100
AcDbArc
 50
94.21648587380344
 51
179.9989540023537
  0
POINT
  5
4C7
330
1F
100
AcDbEntity
  8
0
 62
     2
100
AcDbPoint
 10
-186.5893671905849
 20
347.339710911415
 30
0.0
  0
ARC
  5
4CB
330
1F
100
AcDbEntity
  8
0
  6
Continuous
 62
     7
100
AcDbCircle
 10
-106.5897801970037
 20
-646.490484928989
 30
0.0
 40
1000.000010615294
100
AcDbArc
 50
85.78399912577829
 51
89.99996119171816
  0
POINT
  5
4CE
330
1F
100
AcDbEntity
  8
0
 62
     2
100
AcDbPoint
 10
-103.071567190585
 20
353.5092109114148
 30
0.0
  0
POINT
  5
4CF
330
1F
100
AcDbEntity
  8
0
 62
     2
100
AcDbPoint
 10
-26.58876719058503
 20
347.3392109114148
 30
0.0
  0
LINE
  5
4D4
330
1F
100
AcDbEntity
  8
0
  6
DASH_CENTER
 62
    30
100
AcDbLine
 10
126.7344328094148
 20
19.54411091141483
 30
0.0
 11
126.7344328094148
 21
103.7587109114147
 31
0.0
  0
LINE
  5
508
330
1F
100
AcDbEntity
  8
0
  6
DASH_CENTER
 62
    30
100
AcDbLine
 10
113.434432809415
 20
-41.82468908858512
 30
0.0
 11
140.0344328094149
 21
-41.82468908858512
 31
0.0
  0
ARC
  5
516
330
1F
100
AcDbEntity
  8
0
  6
Continuous
 62
     7
100
AcDbCircle
 10
126.7344328094148
 20
-41.82468908858512
 30
0.0
 40
9.500020695240463
100
AcDbArc
 50
180.0
 51
270.0
  0
ARC
  5
517
330
1F
100
AcDbEntity
  8
0
  6
Continuous
 62
     7
100
AcDbCircle
 10
126.734432809415
 20
-41.8246890885852
 30
0.0
 40
9.500020695240387
100
AcDbArc
 50
269.9999999999992
 51
341.5915613705225
  0
LINE
  5
518
330
1F
100
AcDbEntity
  8
0
  6
DASH_CENTER
 62
    30
100
AcDbLine
 10
126.7344328094148
 20
-55.12468908858512
 30
0.0
 11
126.7344328094148
 21
-28.5246890885852
 31
0.0
  0
LINE
  5
528
330
1F
100
AcDbEntity
  8
0
  6
Continuous
 62
     7
100
AcDbLine
 10
138.7344328094149
 20
-44.82468908858513
 30
0.0
 11
132.7344328094149
 21
-44.82468908858513
 31
0.0
  0
LINE
  5
529
330
1F
100
AcDbEntity
  8
0
  6
Continuous
 62
     7
100
AcDbLine
 10
132.7344328094149
 20
-38.82468908858516
 30
0.0
 11
138.7344328094149
 21
-38.82468908858516
 31
0.0
  0
ARC
  5
52E
330
1F
100
AcDbEntity
  8
0
  6
Continuous
 62
     7
100
AcDbCircle
 10
126.7344328094148
 20
-41.82468908858507
 30
0.0
 40
9.500020695240481
100
AcDbArc
 50
90.0
 51
180.0
  0
ARC
  5
52F
330
1F
100
AcDbEntity
  8
0
  6
Continuous
 62
     7
100
AcDbCircle
 10
126.7344328094148
 20
-41.8246890885852
 30
0.0
 40
9.500020695240595
100
AcDbArc
 50
18.40843862947775
 51
90.0
  0
ARC
  5
530
330
1F
100
AcDbEntity
  8
0
  6
Continuous
 62
    40
100
AcDbCircle
 10
126.7344224622245
 20
-41.82462523017514
 30
0.0
 40
9.500010347405119
100
AcDbArc
 50
359.9996148617487
 51
18.40805349206587
  0
LINE
  5
531
330
1F
100
AcDbEntity
  8
0
  6
Continuous
 62
     7
100
AcDbLine
 10
132.7344328094149
 20
-41.82468908858512
 30
0.0
 11
132.7344328094149
 21
-44.82468908858513
 31
0.0
  0
LINE
  5
532
330
1F
100
AcDbEntity
  8
0
  6
Continuous
 62
     7
100
AcDbLine
 10
132.7344328094149
 20
-38.82468908858516
 30
0.0
 11
132.7344328094149
 21
-41.82468908858512
 31
0.0
  0
POINT
  5
533
330
1F
100
AcDbEntity
  8
0
 62
    30
100
AcDbPoint
 10
136.780432809415
 20
-41.78788908858507
 30
0.0
  0
LINE
  5
537
330
1F
100
AcDbEntity
  8
0
  6
Continuous
 62
     7
100
AcDbLine
 10
138.7344328094149
 20
-38.82468908858516
 30
0.0
 11
138.7344328094149
 21
-44.82468908858513
 31
0.0
  0
SPLINE
  5
545
330
1F
100
AcDbEntity
  8
0
  6
Continuous
 62
    54
100
AcDbSpline
210
0.0
220
0.0
230
1.0
 70
  1064
 71
     3
 72
   145
 73
   141
 74
   139
 42
0.0000000001
 43
0.0000000001
 44
0.00000001
 40
0.0
 40
0.0
 40
0.0
 40
0.0
 40
0.3389731761731706
 40
0.6779490667634633
 40
1.040890522452118
 40
1.403807126540045
 40
1.779360818143979
 40
2.154918509685343
 40
2.632408590412167
 40
3.110058061619811
 40
3.629829870619913
 40
4.149530584187848
 40
4.625962160999746
 40
5.102379113197567
 40
5.598361469062855
 40
6.094362976302097
 40
6.575707717811749
 40
7.05704851822782
 40
7.501712986500464
 40
7.94639080081747
 40
8.45718107223589
 40
8.967955831046598
 40
9.519031812616212
 40
10.07010493117765
 40
10.62384239221712
 40
11.17755101202574
 40
11.84184800269097
 40
12.50629768188877
 40
13.1628234111225
 40
13.81926902610177
 40
14.33537356593556
 40
14.85151799558791
 40
15.27778056686454
 40
15.70400488985103
 40
16.08150080596679
 40
16.45893160873391
 40
16.87582226497504
 40
17.2928651879133
 40
17.91787287934114
 40
18.5427988118732
 40
19.2900804882479
 40
20.03739060541435
 40
20.75102510062462
 40
21.46461910066878
 40
22.20920962486549
 40
22.95383022382897
 40
23.62788976029696
 40
24.30198797946405
 40
24.83579438263909
 40
25.36952648338852
 40
25.85641351542907
 40
26.34328231907704
 40
26.76696066344082
 40
27.19068435295018
 40
27.56293827462259
 40
27.93515512136722
 40
28.35821402416255
 40
28.78130483468693
 40
29.20689330129233
 40
29.63246922782652
 40
30.00232652646195
 40
30.37219147033477
 40
30.73934549373151
 40
31.10649031274853
 40
31.43790993298801
 40
31.76935622254165
 40
32.04917341429167
 40
32.32888654629164
 40
32.62498103417783
 40
32.92124199841636
 40
33.24401328476097
 40
33.56636040666423
 40
33.93547626029837
 40
34.30536419866354
 40
34.8367913296923
 40
35.36839147918112
 40
35.9474698899182
 40
36.5265624885942
 40
36.9915652837883
 40
37.45680292368432
 40
37.83429215473671
 40
38.20949096526745
 40
38.52768944215279
 40
38.8475632306965
 40
39.15431318481175
 40
39.46025375407185
 40
39.84978917759654
 40
40.23988848867094
 40
40.69663512879577
 40
41.15318716241052
 40
41.63150090207017
 40
42.10985986440617
 40
42.69441682063361
 40
43.27898783825315
 40
43.88057763242165
 40
44.48226691059685
 40
44.99855281224758
 40
45.51455893047648
 40
46.0112895604013
 40
46.50826518974126
 40
46.9658313888027
 40
47.42335494298822
 40
47.84657339824485
 40
48.26951541470916
 40
48.77614451905794
 40
49.28335705175607
 40
49.81631265320208
 40
50.34908608071432
 40
50.82359356947345
 40
51.29801949005553
 40
51.77684442940302
 40
52.2557237943613
 40
52.69689484316534
 40
53.13805856238804
 40
53.5162027489537
 40
53.89426864077513
 40
54.29232904178255
 40
54.69053082252868
 40
55.10111422226171
 40
55.51154041614937
 40
55.92954183429801
 40
56.34752996846634
 40
56.88738856583526
 40
57.42768778784782
 40
58.04980339687041
 40
58.67169697097917
 40
59.29416546945462
 40
59.91664342532753
 40
60.6388867171631
 40
61.36117463168502
 40
62.10635100996718
 40
62.85151469810528
 40
63.53437626465089
 40
64.21722943907956
 40
64.95307938473345
 40
65.68894028665688
 40
66.41412434402444
 40
67.13930599494261
 40
67.79691062275862
 40
68.45451515505034
 40
68.45451515505034
 40
68.45451515505034
 40
68.45451515505034
 10
184.234632809415
 20
98.15711091141487
 30
0.0
 10
184.1217543767229
 20
98.16216168034522
 30
0.0
 10
183.8959966080442
 20
98.17226327319476
 30
0.0
 10
183.5491268610607
 20
98.18181777306513
 30
0.0
 10
183.1940951571031
 20
98.17931734579566
 30
0.0
 10
182.827291445434
 20
98.16045787936824
 30
0.0
 10
182.4578227521733
 20
98.12142852357032
 30
0.0
 10
182.0531151919372
 20
98.05765026766692
 30
0.0
 10
181.6191273902799
 20
97.96498451416466
 30
0.0
 10
181.142618396149
 20
97.84377653903398
 30
0.0
 10
180.6547915260669
 20
97.71044879243321
 30
0.0
 10
180.168437177156
 20
97.57337665136294
 30
0.0
 10
179.6956514132373
 20
97.44143337584167
 30
0.0
 10
179.2287925902627
 20
97.31771182774805
 30
0.0
 10
178.752706405761
 20
97.20382098463661
 30
0.0
 10
178.272457723673
 20
97.10089878540125
 30
0.0
 10
177.7948330123667
 20
97.00965192726497
 30
0.0
 10
177.3325152713828
 20
96.92995717527395
 30
0.0
 10
176.8812392635731
 20
96.85846351967692
 30
0.0
 10
176.4195995984558
 20
96.78982988967348
 30
0.0
 10
175.9357033719594
 20
96.72107461249758
 30
0.0
 10
175.4154564978691
 20
96.65634087263191
 30
0.0
 10
174.8801361011934
 20
96.60538215693014
 30
0.0
 10
174.3289777589748
 20
96.57299590198396
 30
0.0
 10
173.776038313922
 20
96.56410132117152
 30
0.0
 10
173.185481708509
 20
96.57967872185372
 30
0.0
 10
172.5594422209002
 20
96.62542916725044
 30
0.0
 10
171.9016149508536
 20
96.69826512721652
 30
0.0
 10
171.2483427843095
 20
96.78635181160727
 30
0.0
 10
170.6456659333417
 20
96.87873490720726
 30
0.0
 10
170.0902494618076
 20
96.97023314536336
 30
0.0
 10
169.6110306102796
 20
97.05216674064518
 30
0.0
 10
169.161510065688
 20
97.12999512344724
 30
0.0
 10
168.7561907467568
 20
97.19218026707032
 30
0.0
 10
168.3649429313571
 20
97.23708350338066
 30
0.0
 10
167.9752314247147
 20
97.26549385985526
 30
0.0
 10
167.5714015397288
 20
97.27468536321216
 30
0.0
 10
167.0850828348938
 20
97.26886403283543
 30
0.0
 10
166.529694774743
 20
97.25039827667567
 30
0.0
 10
165.8646772018139
 20
97.21937715436352
 30
0.0
 10
165.1589833684611
 20
97.18552885839949
 30
0.0
 10
164.4236444885508
 20
97.15253226198605
 30
0.0
 10
163.6992955090174
 20
97.12542127881137
 30
0.0
 10
162.9755366438002
 20
97.10773452504257
 30
0.0
 10
162.2412407899156
 20
97.10382404301046
 30
0.0
 10
161.5201627246922
 20
97.10939018756471
 30
0.0
 10
160.8226385226607
 20
97.11915070722829
 30
0.0
 10
160.1953528967178
 20
97.12617275094165
 30
0.0
 10
159.6147889337146
 20
97.12666575594926
 30
0.0
 10
159.0966934473308
 20
97.11420103657056
 30
0.0
 10
158.5950687106097
 20
97.08259109165009
 30
0.0
 10
158.1315259908567
 20
97.03537802650368
 30
0.0
 10
157.6909981806507
 20
96.97370809777076
 30
0.0
 10
157.289756171244
 20
96.90811011821777
 30
0.0
 10
156.9061288243896
 20
96.84132992418785
 30
0.0
 10
156.5224900254874
 20
96.7758625396639
 30
0.0
 10
156.1210038456945
 20
96.71452067449433
 30
0.0
 10
155.7010409144398
 20
96.65671258094228
 30
0.0
 10
155.2796284702353
 20
96.60349533366307
 30
0.0
 10
154.8753482435621
 20
96.55641259374174
 30
0.0
 10
154.4891893615665
 20
96.51441947556168
 30
0.0
 10
154.1221614451006
 20
96.4767097445851
 30
0.0
 10
153.7558561369267
 20
96.44083858536292
 30
0.0
 10
153.4019425865844
 20
96.41004379497879
 30
0.0
 10
153.0594451967585
 20
96.38578020502377
 30
0.0
 10
152.7455309242698
 20
96.37084171500168
 30
0.0
 10
152.4485554857581
 20
96.36522823734694
 30
0.0
 10
152.1632860888932
 20
96.36953943830334
 30
0.0
 10
151.8730804296003
 20
96.38647448998995
 30
0.0
 10
151.5682390632542
 20
96.39984588973398
 30
0.0
 10
151.2541717475427
 20
96.38973603009418
 30
0.0
 10
150.9183394101712
 20
96.3445011135996
 30
0.0
 10
150.5762945098049
 20
96.24995358467447
 30
0.0
 10
150.1826893720075
 20
96.0921107583155
 30
0.0
 10
149.7585226030038
 20
95.87094067065008
 30
0.0
 10
149.2899920068691
 20
95.58787488022502
 30
0.0
 10
148.8102356506101
 20
95.29276610983069
 30
0.0
 10
148.3470843405363
 20
95.01305847113725
 30
0.0
 10
147.9107044770917
 20
94.76242451953195
 30
0.0
 10
147.5144228821282
 20
94.57817268566984
 30
0.0
 10
147.1254400085722
 20
94.45779401291895
 30
0.0
 10
146.7693674429209
 20
94.40873044738811
 30
0.0
 10
146.4308276049805
 20
94.43037363263519
 30
0.0
 10
146.1207882770993
 20
94.48742684941478
 30
0.0
 10
145.8186328679239
 20
94.56050469729165
 30
0.0
 10
145.4939409605876
 20
94.63935279000406
 30
0.0
 10
145.1374836916343
 20
94.70326013302162
 30
0.0
 10
144.7283693980809
 20
94.75402732635622
 30
0.0
 10
144.2951255917335
 20
94.78852395876542
 30
0.0
 10
143.831465734029
 20
94.80592958366932
 30
0.0
 10
143.3602925724105
 20
94.80611634586137
 30
0.0
 10
142.846738856663
 20
94.78946874445851
 30
0.0
 10
142.2986031362788
 20
94.75479986568799
 30
0.0
 10
141.7103140218464
 20
94.70681210780181
 30
0.0
 10
141.1164685897256
 20
94.65678540230589
 30
0.0
 10
140.5449019283938
 20
94.61347303764901
 30
0.0
 10
140.0010996460982
 20
94.58214167409163
 30
0.0
 10
139.4913278868159
 20
94.57124705090405
 30
0.0
 10
138.9881739287959
 20
94.58805971606436
 30
0.0
 10
138.5055307091073
 20
94.62163064018335
 30
0.0
 10
138.0366444707616
 20
94.66263809626729
 30
0.0
 10
137.5915715366427
 20
94.69420214019981
 30
0.0
 10
137.1569230283014
 20
94.70414737227175
 30
0.0
 10
136.705924650078
 20
94.68717870186063
 30
0.0
 10
136.2299719588503
 20
94.6294537235232
 30
0.0
 10
135.7224206425868
 20
94.53816405591458
 30
0.0
 10
135.2088539071891
 20
94.43246752552466
 30
0.0
 10
134.7066801028151
 20
94.32564964749508
 30
0.0
 10
134.2223742227403
 20
94.22861966907621
 30
0.0
 10
133.7527007433429
 20
94.1507172374372
 30
0.0
 10
133.2778587493949
 20
94.09898256350452
 30
0.0
 10
132.8118777212298
 20
94.07553005108082
 30
0.0
 10
132.3579270409378
 20
94.07918248882317
 30
0.0
 10
131.938368823444
 20
94.10513685669091
 30
0.0
 10
131.5415320448415
 20
94.148870612857
 30
0.0
 10
131.1610284990802
 20
94.20666661308795
 30
0.0
 10
130.7765474700167
 20
94.28042292150809
 30
0.0
 10
130.382363317806
 20
94.36068365522269
 30
0.0
 10
129.9827358926688
 20
94.43485307596114
 30
0.0
 10
129.573686217302
 20
94.49338521925238
 30
0.0
 10
129.1591045138971
 20
94.52511704104601
 30
0.0
 10
128.7001582422025
 20
94.52970353872968
 30
0.0
 10
128.2014172841926
 20
94.49620689799944
 30
0.0
 10
127.6381316717591
 20
94.42695635630323
 30
0.0
 10
127.049827667966
 20
94.33926501490317
 30
0.0
 10
126.4357242640505
 20
94.23945747223005
 30
0.0
 10
125.8213747368388
 20
94.14042732875762
 30
0.0
 10
125.172928483044
 20
94.04276607607947
 30
0.0
 10
124.4895600784418
 20
93.95443867095227
 30
0.0
 10
123.764303386797
 20
93.87209725937514
 30
0.0
 10
123.0307741114899
 20
93.79521828020834
 30
0.0
 10
122.3100582942024
 20
93.72225015527368
 30
0.0
 10
121.6101270555878
 20
93.65022710339527
 30
0.0
 10
120.9137319995178
 20
93.57421483622315
 30
0.0
 10
120.2006875823339
 20
93.48828300287994
 30
0.0
 10
119.4745435724643
 20
93.39346989324479
 30
0.0
 10
118.7527180253363
 20
93.29326027750514
 30
0.0
 10
118.0573257347464
 20
93.19246339114092
 30
0.0
 10
117.3846011144056
 20
93.0923647009247
 30
0.0
 10
116.9510889006927
 20
93.02706217228223
 30
0.0
 10
116.7343328094149
 20
92.99441091141478
 30
0.0
 11
184.234632809415
 21
98.15711091141487
 31
0.0
 11
183.8959564645413
 21
98.17129358299609
 31
0.0
 11
183.5570850944371
 21
98.17971074018393
 31
0.0
 11
183.1941566635054
 21
98.17663599039896
 31
0.0
 11
182.8317459882301
 21
98.15747969081884
 31
0.0
 11
182.4582458420238
 21
98.11825959519493
 31
0.0
 11
182.087232809415
 21
98.0600109114149
 31
0.0
 11
181.6199096404094
 21
97.96200156138297
 31
0.0
 11
181.156576825135
 21
97.8459338248048
 31
0.0
 11
180.6549539896398
 21
97.70978220266544
 31
0.0
 11
180.154492130541
 21
97.56968666674396
 31
0.0
 11
179.6953691380989
 21
97.44243445595635
 31
0.0
 11
179.234632809415
 21
97.32121091141486
 31
0.0
 11
178.752280915297
 21
97.20573300197486
 31
0.0
 11
178.26730940228
 21
97.10171316368693
 31
0.0
 11
177.7945747680455
 21
97.01107803918931
 31
0.0
 11
177.3202838459448
 21
96.92899827688201
 31
0.0
 11
176.8811376049959
 21
96.85916226593477
 31
0.0
 11
176.4413328094148
 21
96.793510911415
 31
0.0
 11
175.9354974221829
 21
96.72253723723272
 31
0.0
 11
175.4285223879199
 21
96.66035067195696
 31
0.0
 11
174.8798724292555
 21
96.60869836943522
 31
0.0
 11
174.3297146190129
 21
96.57694989127577
 31
0.0
 11
173.7760491610794
 21
96.56802036265384
 31
0.0
 11
173.222532809415
 21
96.58261091141485
 31
0.0
 11
172.5598954311486
 21
96.62953848051744
 31
0.0
 11
171.8993194999319
 21
96.70118214923299
 31
0.0
 11
171.2486011823176
 21
96.78831253558815
 31
0.0
 11
170.5996425509719
 21
96.887173752256
 31
0.0
 11
170.0903492315019
 21
96.97074534266938
 31
0.0
 11
169.5815328094148
 21
97.05741091141494
 31
0.0
 11
169.1612657788233
 21
97.12865277141009
 31
0.0
 11
168.7397465640991
 21
97.19180912562293
 31
0.0
 11
168.3646708094396
 21
97.23448634356049
 31
0.0
 11
167.9882115481559
 21
97.26154988861583
 31
0.0
 11
167.5714587787962
 21
97.27227129314492
 31
0.0
 11
167.1544328094149
 21
97.26851091141487
 31
0.0
 11
166.5297295687255
 21
97.24900512993478
 31
0.0
 11
165.905424608938
 21
97.22115304857894
 31
0.0
 11
165.1589743086694
 21
97.18591311075636
 31
0.0
 11
164.412390417897
 21
97.15297520855292
 31
0.0
 11
163.6992301356085
 21
97.12696358323444
 31
0.0
 11
162.985832809415
 21
97.11021091141482
 31
0.0
 11
162.2412575514203
 21
97.10544288696986
 31
0.0
 11
161.4966533790988
 21
97.11038890804287
 31
0.0
 11
160.8226467750298
 21
97.11883618702177
 31
0.0
 11
160.1485805034461
 21
97.12539901899489
 31
0.0
 11
159.6147749441163
 21
97.12444980131486
 31
0.0
 11
159.0812328094149
 21
97.11021091141482
 31
0.0
 11
158.5953171728674
 21
97.0794704460409
 31
0.0
 11
158.1109676019259
 21
97.03000606341186
 31
0.0
 11
157.6912639649479
 21
96.97210790623024
 31
0.0
 11
157.272955903346
 21
96.90457916681902
 31
0.0
 11
156.9060800181583
 21
96.84153103393835
 31
0.0
 11
156.5390328094149
 21
96.77971091141479
 31
0.0
 11
156.1208664478701
 21
96.71555696132912
 31
0.0
 11
155.701763360048
 21
96.65760494891301
 31
0.0
 11
155.2795419267332
 21
96.60417645296593
 31
0.0
 11
154.8568355793699
 21
96.55483870705502
 31
0.0
 11
154.4891536346479
 21
96.51478363368056
 31
0.0
 11
154.1212328094148
 21
96.4769109114148
 31
0.0
 11
153.755790648864
 21
96.44149757753826
 31
0.0
 11
153.3899958327918
 21
96.41004172438092
 31
0.0
 11
153.059374100003
 21
96.38705837130396
 31
0.0
 11
152.728282017596
 21
96.37173923737291
 31
0.0
 11
152.4485081700684
 21
96.36681429358477
 31
0.0
 11
152.168832809415
 21
96.37141091141501
 31
0.0
 11
151.873086195944
 21
96.38575965446371
 31
0.0
 11
151.5769975956419
 21
96.39586409681392
 31
0.0
 11
151.2544348519091
 21
96.38426324802315
 31
0.0
 11
150.935154730329
 21
96.33990255633094
 31
0.0
 11
150.5788392236883
 21
96.24353984031008
 31
0.0
 11
150.2348328094148
 21
96.10761091141478
 31
0.0
 11
149.761414793634
 21
95.86617732327027
 31
0.0
 11
149.3038961596279
 21
95.59548299740994
 31
0.0
 11
148.8098288542943
 21
95.29344110762327
 31
0.0
 11
148.3133149062821
 21
94.99541067800889
 31
0.0
 11
147.9075392804163
 21
94.76831215124589
 31
0.0
 11
147.4836328094148
 21
94.57661091141478
 31
0.0
 11
147.1222244073778
 21
94.46760592761236
 31
0.0
 11
146.750089184701
 21
94.4197569622919
 31
0.0
 11
146.4323331134933
 21
94.43653045040184
 31
0.0
 11
146.1171578816478
 21
94.49115474725898
 31
0.0
 11
145.8183758671204
 21
94.56061583067956
 31
0.0
 11
145.5204328094149
 21
94.63011091141479
 31
0.0
 11
145.1371747739083
 21
94.69976092472462
 31
0.0
 11
144.7501533781019
 21
94.74866809863501
 31
0.0
 11
144.2948813419982
 21
94.78534051860753
 31
0.0
 11
143.838667040354
 21
94.80289814854193
 31
0.0
 11
143.3603536813405
 21
94.80350159386828
 31
0.0
 11
142.882232809415
 21
94.78841091141493
 31
0.0
 11
142.2987475825386
 21
94.75302977049938
 31
0.0
 11
141.7159900538229
 21
94.7070195823618
 31
0.0
 11
141.1164312246495
 21
94.6576283801267
 31
0.0
 11
140.516379359024
 21
94.61326909609885
 31
0.0
 11
140.000854449758
 21
94.58524767209944
 31
0.0
 11
139.484932809415
 21
94.57591091141479
 31
0.0
 11
138.9884324936475
 21
94.5910355652362
 31
0.0
 11
138.4925560685919
 21
94.62407110997693
 31
0.0
 11
138.036514353673
 21
94.66139108790594
 31
0.0
 11
137.579964126764
 21
94.69121880866293
 31
0.0
 11
137.1568342962412
 21
94.69987948969169
 31
0.0
 11
136.7342328094151
 21
94.68291091141498
 31
0.0
 11
136.2309581840339
 21
94.62470695217994
 31
0.0
 11
135.731270787823
 21
94.53766064592388
 31
0.0
 11
135.208918101518
 21
94.43188094914304
 31
0.0
 11
134.687452208078
 21
94.322698317446
 31
0.0
 11
134.2218488325201
 21
94.23120594848507
 31
0.0
 11
133.7535328094149
 21
94.15531091141486
 31
0.0
 11
133.2775062621665
 21
94.10361904655912
 31
0.0
 11
132.799222353341
 21
94.07974544658086
 31
0.0
 11
132.3580643081615
 21
94.0831327012599
 31
0.0
 11
131.917732921131
 21
94.11021953847296
 31
0.0
 11
131.5418415689235
 21
94.15143503484449
 31
0.0
 11
131.168032809415
 21
94.20801091141482
 31
0.0
 11
130.7767492948389
 21
94.28114977892192
 31
0.0
 11
130.3861816292499
 21
94.35874846822878
 31
0.0
 11
129.9821984010917
 21
94.43207158331007
 31
0.0
 11
129.57568344829
 21
94.48859815585578
 31
0.0
 11
129.1589006601008
 21
94.52049318082277
 31
0.0
 11
128.740932809415
 21
94.52461091141492
 31
0.0
 11
128.2021045553344
 21
94.49127298395685
 31
0.0
 11
127.6655042660099
 21
94.42815896918778
 31
0.0
 11
127.0499699236846
 21
94.33790762698263
 31
0.0
 11
126.435892299113
 21
94.23962085811679
 31
0.0
 11
125.8212080728833
 21
94.14148659312571
 31
0.0
 11
125.2055328094149
 21
94.04971091141501
 31
0.0
 11
124.4893566064575
 21
93.95629239544971
 31
0.0
 11
123.771774883407
 21
93.87397409671292
 31
0.0
 11
123.0307258197973
 21
93.79565347307726
 31
0.0
 11
122.289417897674
 21
93.71994689057499
 31
0.0
 11
121.6101970446133
 21
93.64952706619943
 31
0.0
 11
120.931432809415
 21
93.57491091141479
 31
0.0
 11
120.2008435529038
 21
93.48707879711998
 31
0.0
 11
119.471148843302
 21
93.39201620195892
 31
0.0
 11
118.7528196525572
 21
93.29254213774765
 31
0.0
 11
118.035102671067
 21
93.18875987422002
 31
0.0
 11
117.384630406498
 21
93.09216963832339
 31
0.0
 11
116.7343328094149
 21
92.99441091141478
 31
0.0
  0
ARC
  5
546
330
1F
100
AcDbEntity
  8
0
  6
Continuous
 62
     7
100
AcDbCircle
 10
160.5553019868867
 20
80.54434362315181
 30
0.0
 40
5.000000278414351
100
AcDbArc
 50
74.57800798008688
 51
156.0378264685825
  0
ARC
  5
547
330
1F
100
AcDbEntity
  8
0
  6
Continuous
 62
     7
100
AcDbCircle
 10
163.5145304259841
 20
97.36321378437622
 30
0.0
 40
7.000051153383559
100
AcDbArc
 50
184.7807280066649
 51
254.5779997808855
  0
LINE
  5
552
330
1F
100
AcDbEntity
  8
0
  6
Continuous
 62
     7
100
AcDbLine
 10
-6.590220434436602
 20
85.508210911415
 30
0.0
 11
-6.590320434436562
 21
73.50821091141502
 31
0.0
  0
ARC
  5
561
330
1F
100
AcDbEntity
  8
0
  6
Continuous
 62
     7
100
AcDbCircle
 10
-10.19246719058491
 20
308.0091609114146
 30
0.0
 40
14.22476453979113
100
AcDbArc
 50
171.5871608495139
 51
188.4128391504859
  0
ARC
  5
562
330
1F
100
AcDbEntity
  8
0
  6
Continuous
 62
     7
100
AcDbCircle
 10
-25.56444062978078
 20
305.9279398961975
 30
0.0
 40
1.299973439518856
100
AcDbArc
 50
274.9988182068999
 51
359.9987225079677
  0
ARC
  5
563
330
1F
100
AcDbEntity
  8
0
  6
Continuous
 62
     7
100
AcDbCircle
 10
-48.82796720114328
 20
308.0102911728025
 30
0.0
 40
24.65160928462302
100
AcDbArc
 50
355.1543142885162
 51
4.840179678477887
  0
ARC
  5
564
330
1F
100
AcDbEntity
  8
0
  6
Continuous
 62
     7
100
AcDbCircle
 10
-25.56449043967393
 20
310.0905362842094
 30
0.0
 40
1.300023249336487
100
AcDbArc
 50
359.9988817476666
 51
84.99917015752798
  0
ARC
  5
577
330
1F
100
AcDbEntity
  8
0
  6
Continuous
 62
     7
100
AcDbCircle
 10
148.734232809415
 20
89.00941091141488
 30
0.0
 40
1.5
100
AcDbArc
 50
270.0
 51
0.0
  0
ARC
  5
578
330
1F
100
AcDbEntity
  8
0
  6
Continuous
 62
     7
100
AcDbCircle
 10
138.234232809415
 20
89.00941091141488
 30
0.0
 40
1.5
100
AcDbArc
 50
180.0
 51
270.0
  0
LINE
  5
579
330
1F
100
AcDbEntity
  8
0
  6
Continuous
 62
     7
100
AcDbLine
 10
140.734232809415
 20
91.6046109114149
 30
0.0
 11
140.734232809415
 21
87.50941091141488
 31
0.0
  0
LINE
  5
57A
330
1F
100
AcDbEntity
  8
0
  6
Continuous
 62
     7
100
AcDbLine
 10
146.234232809415
 20
91.6046109114149
 30
0.0
 11
146.234232809415
 21
87.50941091141488
 31
0.0
  0
LINE
  5
57B
330
1F
100
AcDbEntity
  8
0
  6
Continuous
 62
     7
100
AcDbLine
 10
116.7344328094148
 20
92.99451091141495
 30
0.0
 11
116.7344328094148
 21
87.50941091141488
 31
0.0
  0
LINE
  5
57C
330
1F
100
AcDbEntity
  8
0
  6
Continuous
 62
     7
100
AcDbLine
 10
136.7342328094151
 20
94.68301091141501
 30
0.0
 11
136.7342328094151
 21
87.50941091141488
 31
0.0
  0
LINE
  5
57D
330
1F
100
AcDbEntity
  8
0
  6
Continuous
 62
     7
100
AcDbLine
 10
150.4847328094149
 20
90.50921091141493
 30
0.0
 11
150.4847328094149
 21
87.50921091141492
 31
0.0
  0
LINE
  5
57E
330
1F
100
AcDbEntity
  8
0
  6
Continuous
 62
     7
100
AcDbLine
 10
136.9847328094147
 20
84.50921091141493
 30
0.0
 11
143.7347328094149
 21
84.50921091141493
 31
0.0
  0
LINE
  5
57F
330
1F
100
AcDbEntity
  8
0
  6
Continuous
 62
     7
100
AcDbLine
 10
151.785032809415
 20
77.50921091141492
 30
0.0
 11
136.9847328094147
 21
77.50921091141492
 31
0.0
  0
LINE
  5
580
330
1F
100
AcDbEntity
  8
0
  6
Continuous
 62
     7
100
AcDbLine
 10
135.234232809415
 20
33.50941091141486
 30
0.0
 11
138.7344328094149
 21
33.50941091141486
 31
0.0
  0
LINE
  5
581
330
1F
100
AcDbEntity
  8
0
  6
Continuous
 62
     7
100
AcDbLine
 10
138.7344328094149
 20
65.5094109114149
 30
0.0
 11
136.234232809415
 21
65.5094109114149
 31
0.0
  0
LINE
  5
582
330
1F
100
AcDbEntity
  8
0
  6
Continuous
 62
     7
100
AcDbLine
 10
117.2344328094149
 20
73.20941091141492
 30
0.0
 11
117.2344328094149
 21
34.50941091141487
 31
0.0
  0
LINE
  5
583
330
1F
100
AcDbEntity
  8
0
  6
Continuous
 62
     7
100
AcDbLine
 10
136.234232809415
 20
34.50941091141487
 30
0.0
 11
136.234232809415
 21
73.20941091141492
 31
0.0
  0
LINE
  5
584
330
1F
100
AcDbEntity
  8
0
  6
Continuous
 62
     7
100
AcDbLine
 10
136.234232809415
 20
34.50941091141487
 30
0.0
 11
117.2342328094149
 21
34.50941091141487
 31
0.0
  0
LINE
  5
585
330
1F
100
AcDbEntity
  8
0
  6
Continuous
 62
     7
100
AcDbLine
 10
135.234232809415
 20
33.50941091141486
 30
0.0
 11
118.2344328094149
 21
33.50941091141486
 31
0.0
  0
LINE
  5
586
330
1F
100
AcDbEntity
  8
0
  6
Continuous
 62
     7
100
AcDbLine
 10
117.2344328094149
 20
34.50941091141487
 30
0.0
 11
118.2344328094149
 21
33.50941091141486
 31
0.0
  0
LINE
  5
588
330
1F
100
AcDbEntity
  8
0
  6
Continuous
 62
     7
100
AcDbLine
 10
135.234232809415
 20
33.50941091141486
 30
0.0
 11
136.234232809415
 21
34.50941091141487
 31
0.0
  0
LINE
  5
589
330
1F
100
AcDbEntity
  8
0
  6
Continuous
 62
     7
100
AcDbLine
 10
116.7344328094148
 20
87.50941091141488
 30
0.0
 11
136.7342328094151
 21
87.50941091141488
 31
0.0
  0
LINE
  5
58A
330
1F
100
AcDbEntity
  8
0
  6
Continuous
 62
     7
100
AcDbLine
 10
136.634132809415
 20
73.50941091141487
 30
0.0
 11
116.834532809415
 21
73.50941091141487
 31
0.0
  0
ARC
  5
58C
330
1F
100
AcDbEntity
  8
0
  6
Continuous
 62
     7
100
AcDbCircle
 10
116.934432809415
 20
73.20941091141492
 30
0.0
 40
0.2999999999998977
100
AcDbArc
 50
0.0
 51
90.0
  0
LINE
  5
58D
330
1F
100
AcDbEntity
  8
0
  6
Continuous
 62
     7
100
AcDbLine
 10
116.834532809415
 20
73.50941091141487
 30
0.0
 11
116.834532809415
 21
87.50941091141488
 31
0.0
  0
ARC
  5
58E
330
1F
100
AcDbEntity
  8
0
  6
Continuous
 62
     7
100
AcDbCircle
 10
136.5342328094149
 20
73.20941091141492
 30
0.0
 40
0.2999999999999972
100
AcDbArc
 50
90.0
 51
180.0
  0
LINE
  5
58F
330
1F
100
AcDbEntity
  8
0
  6
Continuous
 62
     7
100
AcDbLine
 10
136.634132809415
 20
73.50941091141487
 30
0.0
 11
136.634132809415
 21
87.50941091141488
 31
0.0
  0
LINE
  5
590
330
1F
100
AcDbEntity
  8
0
  6
Continuous
 62
     7
100
AcDbLine
 10
136.9847328094147
 20
84.50921091141493
 30
0.0
 11
136.9847328094147
 21
77.50921091141492
 31
0.0
  0
LINE
  5
591
330
1F
100
AcDbEntity
  8
0
  6
Continuous
 62
     7
100
AcDbLine
 10
138.7344328094149
 20
65.5094109114149
 30
0.0
 11
138.7344328094149
 21
33.50941091141486
 31
0.0
  0
LINE
  5
593
330
1F
100
AcDbEntity
  8
0
  6
Continuous
 62
     7
100
AcDbLine
 10
146.7342328094149
 20
87.50921091141492
 30
0.0
 11
150.4847328094149
 21
87.50921091141492
 31
0.0
  0
LINE
  5
594
330
1F
100
AcDbEntity
  8
0
  6
Continuous
 62
     7
100
AcDbLine
 10
148.734232809415
 20
87.50941091141488
 30
0.0
 11
138.234232809415
 21
87.50941091141488
 31
0.0
  0
ARC
  5
595
330
1F
100
AcDbEntity
  8
0
  6
Continuous
 62
     7
100
AcDbCircle
 10
143.734732810248
 20
87.50941091224822
 30
0.0
 40
3.000000000833339
100
AcDbArc
 50
269.9999999840851
 51
0.0019098434011082
  0
LINE
  5
596
330
1F
100
AcDbEntity
  8
0
  6
Continuous
 62
     7
100
AcDbLine
 10
155.986132809415
 20
82.57511091141498
 30
0.0
 11
154.5264328094148
 21
79.29091091141494
 31
0.0
  0
ARC
  5
597
330
1F
100
AcDbEntity
  8
0
  6
Continuous
 62
     7
100
AcDbCircle
 10
151.7850036396169
 20
80.50919195434472
 30
0.0
 40
2.99998104307166
100
AcDbArc
 50
270.0005571056249
 51
336.0380681380886
  0
ARC
  5
598
330
1F
100
AcDbEntity
  8
0
  6
Continuous
 62
     7
100
AcDbCircle
 10
143.4841886683459
 20
94.50941090755199
 30
0.0
 40
4.000010340993126
100
AcDbArc
 50
179.0459835996548
 51
0.9640445406011657
  0
LINE
  5
599
330
1F
100
AcDbEntity
  8
0
  6
Continuous
 62
     7
100
AcDbLine
 10
150.2347328094149
 20
96.10771091141501
 30
0.0
 11
150.2347328094149
 21
89.00941091141488
 31
0.0
  0
LINE
  5
59A
330
1F
100
AcDbEntity
  8
0
  6
Continuous
 62
     7
100
AcDbLine
 10
150.4847328094149
 20
90.50921091141493
 30
0.0
 11
150.2347328094149
 21
90.50921091141493
 31
0.0
  0
LINE
  5
5A1
330
1F
100
AcDbEntity
  8
0
  6
Continuous
 62
     7
100
AcDbLine
 10
189.2347328094149
 20
85.50921091141495
 30
0.0
 11
226.7347328094149
 21
85.50921091141495
 31
0.0
  0
LINE
  5
5A2
330
1F
100
AcDbEntity
  8
0
  6
Continuous
 62
     7
100
AcDbLine
 10
191.7347328094149
 20
73.50921091141493
 30
0.0
 11
226.7347328094149
 21
73.50921091141493
 31
0.0
  0
ARC
  5
5A3
330
1F
100
AcDbEntity
  8
0
  6
Continuous
 62
     7
100
AcDbCircle
 10
189.2347328094149
 20
90.50921091141493
 30
0.0
 40
5.0
100
AcDbArc
 50
180.0
 51
270.0
  0
ARC
  5
5A4
330
1F
100
AcDbEntity
  8
0
  6
Continuous
 62
     7
100
AcDbCircle
 10
174.2347559045834
 20
92.33092849777802
 30
0.0
 40
4.999976904862394
100
AcDbArc
 50
254.5768372242165
 51
359.9997984741912
  0
LINE
  5
5A5
330
1F
100
AcDbEntity
  8
0
  6
Continuous
 62
     7
100
AcDbLine
 10
172.9051328094148
 20
87.5111109114149
 30
0.0
 11
161.6529328094149
 21
90.61511091141488
 31
0.0
  0
ARC
  5
5A6
330
1F
100
AcDbEntity
  8
0
  6
Continuous
 62
     7
100
AcDbCircle
 10
182.1619865521464
 20
74.5838483064017
 30
0.0
 40
4.999999868319221
100
AcDbArc
 50
6.710487360665937
 51
74.57782320822478
  0
LINE
  5
5AC
330
1F
100
AcDbEntity
  8
0
  6
Continuous
 62
     7
100
AcDbLine
 10
183.491532809415
 20
79.40391091141498
 30
0.0
 11
161.8848328094149
 21
85.36441091141487
 31
0.0
  0
LINE
  5
5B8
330
1F
100
AcDbEntity
  8
0
  6
Continuous
 62
     7
100
AcDbLine
 10
187.7347328094149
 20
70.00921091141489
 30
0.0
 11
187.127732809415
 21
75.16811091141483
 31
0.0
  0
LINE
  5
5B9
330
1F
100
AcDbEntity
  8
0
  6
Continuous
 62
     7
100
AcDbLine
 10
191.7347328094149
 20
70.30921091141488
 30
0.0
 11
191.7347328094149
 21
73.50921091141493
 31
0.0
  0
LINE
  5
5BA
330
1F
100
AcDbEntity
  8
0
  6
Continuous
 62
     7
100
AcDbLine
 10
187.7347328094149
 20
70.00921091141489
 30
0.0
 11
191.4346328094149
 21
70.00921091141489
 31
0.0
  0
LINE
  5
5BB
330
1F
100
AcDbEntity
  8
0
  6
Continuous
 62
     7
100
AcDbLine
 10
191.7347328094149
 20
70.30921091141488
 30
0.0
 11
191.4346328094149
 21
70.00921091141489
 31
0.0
  0
LINE
  5
5BC
330
1F
100
AcDbEntity
  8
0
  6
Continuous
 62
     7
100
AcDbLine
 10
203.2347328094149
 20
85.50921091141495
 30
0.0
 11
203.2347328094149
 21
73.50921091141493
 31
0.0
  0
LINE
  5
5BD
330
1F
100
AcDbEntity
  8
0
  6
Continuous
 62
     7
100
AcDbLine
 10
179.2347328094149
 20
92.33091091141487
 30
0.0
 11
179.2347328094149
 21
97.3213109114148
 31
0.0
  0
LINE
  5
5BE
330
1F
100
AcDbEntity
  8
0
  6
DASHED
 62
     7
100
AcDbLine
 10
184.2347328094149
 20
97.63791091141493
 30
0.0
 11
184.2347328094149
 21
98.15711091141487
 31
0.0
  0
LINE
  5
5BF
330
1F
100
AcDbEntity
  8
0
  6
Continuous
 62
     7
100
AcDbLine
 10
184.2347328094149
 20
98.15711091141487
 30
0.0
 11
184.2347328094149
 21
90.50921091141493
 31
0.0
  0
LINE
  5
5C0
330
1F
100
AcDbEntity
  8
0
  6
DASH_CENTER
 62
    30
100
AcDbLine
 10
209.2347328094148
 20
92.69231091141485
 30
0.0
 11
209.2347328094148
 21
66.12341091141491
 31
0.0
  0
LINE
  5
5C1
330
1F
100
AcDbEntity
  8
0
  6
Continuous
 62
     7
100
AcDbLine
 10
215.2347328094148
 20
73.50921091141493
 30
0.0
 11
215.2347328094148
 21
85.50921091141495
 31
0.0
  0
LINE
  5
5C2
330
1F
100
AcDbEntity
  8
0
  6
Continuous
 62
     7
100
AcDbLine
 10
226.7347328094149
 20
85.50921091141495
 30
0.0
 11
226.7347328094149
 21
73.50921091141493
 31
0.0
  0
MTEXT
  5
5C9
330
1F
100
AcDbEntity
  8
0
100
AcDbMText
 10
106.150814582926
 20
-108.6707728857144
 30
0.0
 40
8.0
 41
145.2569628099198
 71
     1
 72
     1
  1
AFM-FLKH 2P 0.75kW
 73
     1
 44
1.0
1001
ACAD
1000
MTEXTBEGIN
1070
    73
1070
     1
1070
    44
1040
1.0
1070
    74
1070
     0
1000
MTEXTEND
  0
MTEXT
  5
5CB
330
1F
100
AcDbEntity
  8
0
100
AcDbMText
 10
106.0163428599157
 20
-124.6122193542493
 30
0.0
 40
8.0
 41
145.8
 71
     1
 72
     1
  1
AFM-FLKH 4P 0.75kW
 73
     1
 44
1.0
1001
ACAD
1000
MTEXTBEGIN
1070
    73
1070
     1
1070
    44
1040
1.0
1070
    74
1070
     0
1000
MTEXTEND
  0
ARC
  5
5E2
330
1F
100
AcDbEntity
  8
0
  6
DASHED
 62
    30
100
AcDbCircle
 10
-106.590968372543
 20
-183.8720747511324
 30
0.0
 40
72.29999902057395
100
AcDbArc
 50
227.3574959658374
 51
312.5113191614849
  0
ARC
  5
5E3
330
1F
100
AcDbEntity
  8
0
  6
DASHED
 62
    30
100
AcDbCircle
 10
-106.5910244158047
 20
-183.8720747525778
 30
0.0
 40
73.30000349745386
100
AcDbArc
 50
245.0000666591757
 51
295.0001182974773
  0
LINE
  5
5E4
330
1F
100
AcDbEntity
  8
0
  6
DASHED
 62
    30
100
AcDbLine
 10
-76.03566719058496
 20
-249.3980747524854
 30
0.0
 11
-75.61296719058486
 21
-250.3043747524856
 31
0.0
  0
LINE
  5
5E5
330
1F
100
AcDbEntity
  8
0
  6
DASHED
 62
    30
100
AcDbLine
 10
-137.1462671905848
 20
-249.3981747524855
 30
0.0
 11
-137.568967190585
 21
-250.3044747524856
 31
0.0
  0
LINE
  5
5EF
330
1F
100
AcDbEntity
  8
0
  6
DASHED
 62
    30
100
AcDbLine
 10
-76.03336719058503
 20
188.5093109114149
 30
0.0
 11
-137.1462671905848
 21
188.5093109114149
 31
0.0
  0
LINE
  5
5F0
330
1F
100
AcDbEntity
  8
0
  6
DASHED
 62
    30
100
AcDbLine
 10
-76.03336719058503
 20
188.5090109114149
 30
0.0
 11
-76.03296719058494
 21
228.5088109114148
 31
0.0
  0
LINE
  5
5F1
330
1F
100
AcDbEntity
  8
0
  6
DASHED
 62
    30
100
AcDbLine
 10
-76.03296719058494
 20
228.5090109114149
 30
0.0
 11
-137.1462671905848
 21
228.5090109114149
 31
0.0
  0
LINE
  5
5F2
330
1F
100
AcDbEntity
  8
0
  6
DASHED
 62
    30
100
AcDbLine
 10
-137.1462671905848
 20
188.5093109114149
 30
0.0
 11
-137.1462671905848
 21
228.5092109114149
 31
0.0
  0
VIEWPORT
  5
71
102
{ACAD_XDICTIONARY
360
6AE
102
}
330
55
100
AcDbEntity
 67
     1
  8
0
100
AcDbViewport
 10
133.3499908447265
 20
101.5999970436096
 30
0.0
 40
381.3957395593833
 41
218.2856291881582
 68
     1
 69
     1
 12
133.3499908447265
 22
101.5999970436096
 13
0.0
 23
0.0
 14
10.0
 24
10.0
 15
10.0
 25
10.0
 16
0.0
 26
0.0
 36
1.0
 17
0.0
 27
0.0
 37
0.0
 42
50.0
 43
0.0
 44
0.0
 45
218.2856291881582
 50
0.0
 51
0.0
 72
   100
 90
    32800
  1

281
     0
 71
     1
 74
     0
110
0.0
120
0.0
130
0.0
111
1.0
121
0.0
131
0.0
112
0.0
122
1.0
132
0.0
 79
     0
146
0.0
  0
VIEWPORT
  5
73
102
{ACAD_XDICTIONARY
360
6B0
102
}
330
55
100
AcDbEntity
 67
     1
  8
0
100
AcDbViewport
 10
133.3499939441679
 20
101.5999939441679
 30
0.0
 40
213.3599903106689
 41
162.5599903106689
 68
     2
 69
     2
 12
210.0
 22
148.5
 13
0.0
 23
0.0
 14
10.0
 24
10.0
 15
10.0
 25
10.0
 16
0.0
 26
0.0
 36
1.0
 17
0.0
 27
0.0
 37
0.0
 42
50.0
 43
0.0
 44
0.0
 45
324.0677920111345
 50
0.0
 51
0.0
 72
   100
 90
    32864
  1

281
     0
 71
     1
 74
     0
110
0.0
120
0.0
130
0.0
111
1.0
121
0.0
131
0.0
112
0.0
122
1.0
132
0.0
 79
     0
146
0.0
  0
ENDSEC
  0
SECTION
  2
OBJECTS
  0
DICTIONARY
  5
C
330
0
100
AcDbDictionary
281
     1
  3
ACAD_CIP_PREVIOUS_PRODUCT_INFO
350
646
  3
ACAD_COLOR
350
62B
  3
ACAD_GROUP
350
D
  3
ACAD_LAYOUT
350
1A
  3
ACAD_MATERIAL
350
5F9
  3
ACAD_MLEADERSTYLE
350
640
  3
ACAD_MLINESTYLE
350
17
  3
ACAD_PLOTSETTINGS
350
19
  3
ACAD_PLOTSTYLENAME
350
E
  3
ACAD_SCALELIST
350
62E
  3
ACAD_TABLESTYLE
350
62C
  3
ACAD_VISUALSTYLE
350
612
  3
ACDB_RECOMPOSE_DATA
350
6A2
  3
AcDbVariableDictionary
350
5E
  3
DWGPROPS
350
6A3
  0
DICTIONARY
  5
651
330
10
100
AcDbDictionary
280
     1
281
     1
  3
ADSK_XREC_LAYER_RECONCILED
360
652
  0
DICTIONARY
  5
6AA
330
6B
100
AcDbDictionary
280
     1
281
     1
  3
ACAD_XREC_ROUNDTRIP
360
6AB
  0
DICTIONARY
  5
6AC
330
6D
100
AcDbDictionary
280
     1
281
     1
  3
ACAD_XREC_ROUNDTRIP
360
6AD
  0
DICTIONARY
  5
6AE
330
71
100
AcDbDictionary
280
     1
281
     1
  3
ACAD_XREC_ROUNDTRIP
360
6AF
  0
DICTIONARY
  5
6B0
330
73
100
AcDbDictionary
280
     1
281
     1
  3
ACAD_XREC_ROUNDTRIP
360
6B1
  0
XRECORD
  5
646
102
{ACAD_REACTORS
330
C
102
}
330
C
100
AcDbXrecord
280
     1
300
ACDLT
300
2012
300
ACDLT_F_S
  0
DICTIONARY
  5
62B
102
{ACAD_REACTORS
330
C
102
}
330
C
100
AcDbDictionary
281
     1
  0
DICTIONARY
  5
D
102
{ACAD_REACTORS
330
C
102
}
330
C
100
AcDbDictionary
281
     1
  0
DICTIONARY
  5
1A
102
{ACAD_REACTORS
330
C
102
}
330
C
100
AcDbDictionary
281
     1
  3
Model
350
22
  3
ﾚｲｱｳﾄ1
350
51
  3
ﾚｲｱｳﾄ2
350
56
  0
DICTIONARY
  5
5F9
102
{ACAD_REACTORS
330
C
102
}
330
C
100
AcDbDictionary
281
     1
  3
ByBlock
350
602
  3
ByLayer
350
5FA
  3
Global
350
60A
  0
DICTIONARY
  5
640
102
{ACAD_REACTORS
330
C
102
}
330
C
100
AcDbDictionary
281
     1
  3
Standard
350
641
  0
DICTIONARY
  5
17
102
{ACAD_REACTORS
330
C
102
}
330
C
100
AcDbDictionary
281
     1
  3
Standard
350
18
  0
DICTIONARY
  5
19
102
{ACAD_REACTORS
330
C
102
}
330
C
100
AcDbDictionary
281
     1
  0
ACDBDICTIONARYWDFLT
  5
E
102
{ACAD_REACTORS
330
C
102
}
330
C
100
AcDbDictionary
281
     1
  3
Normal
350
F
100
AcDbDictionaryWithDefault
340
F
  0
DICTIONARY
  5
62E
102
{ACAD_REACTORS
330
C
102
}
330
C
100
AcDbDictionary
281
     1
  3
A0
350
62F
  3
A1
350
630
  3
A2
350
631
  3
A3
350
632
  3
A4
350
633
  3
A5
350
634
  3
A6
350
635
  3
A7
350
636
  3
A8
350
637
  3
A9
350
638
  3
B0
350
639
  3
B1
350
63A
  3
B2
350
63B
  3
B3
350
63C
  3
B4
350
63D
  3
B5
350
63E
  3
B6
350
63F
  0
DICTIONARY
  5
62C
102
{ACAD_REACTORS
330
C
102
}
330
C
100
AcDbDictionary
281
     1
  3
Standard
350
62D
  0
DICTIONARY
  5
612
102
{ACAD_REACTORS
330
C
102
}
330
C
100
AcDbDictionary
281
     1
  3
2dWireframe
350
618
  3
Basic
350
617
  3
Brighten
350
61E
  3
ColorChange
350
622
  3
Conceptual
350
61B
  3
Dim
350
61D
  3
EdgeColorOff
350
62A
  3
Facepattern
350
621
  3
Flat
350
613
  3
FlatWithEdges
350
614
  3
Gouraud
350
615
  3
GouraudWithEdges
350
616
  3
Hidden
350
61A
  3
JitterOff
350
628
  3
Linepattern
350
620
  3
OverhangOff
350
629
  3
Realistic
350
61C
  3
Shaded
350
627
  3
Shaded with edges
350
626
  3
Shades of Gray
350
623
  3
Sketchy
350
624
  3
Thicken
350
61F
  3
Wireframe
350
619
  3
X-Ray
350
625
  0
XRECORD
  5
6A2
102
{ACAD_REACTORS
330
C
102
}
330
C
100
AcDbXrecord
280
     1
 90
        1
330
62D
  0
DICTIONARY
  5
5E
102
{ACAD_REACTORS
330
C
102
}
330
C
100
AcDbDictionary
281
     1
  3
CANNOSCALE
350
655
  3
CMLEADERSTYLE
350
654
  3
CTABLESTYLE
350
653
  3
DIMASSOC
350
5F
  3
HIDETEXT
350
63
  3
INDEXCTL
350
657
  3
SORTENTS
350
656
  3
XCLIPFRAME
350
658
  0
XRECORD
  5
6A3
102
{ACAD_REACTORS
330
C
102
}
330
C
100
AcDbXrecord
280
     1
  1
DWGPROPS COOKIE
  2

  3

  4

  6

  7

  8
Ishizawa
  9

300
=
301
=
302
=
303
=
304
=
305
=
306
=
307
=
308
=
309
=
 40
0.0163915509259259
 41
2456042.41725478
 42
2457124.478046644
  1

 90
        0
  0
XRECORD
  5
652
102
{ACAD_REACTORS
330
651
102
}
330
651
100
AcDbXrecord
280
     1
290
     1
  0
XRECORD
  5
6AB
102
{ACAD_REACTORS
330
6AA
102
}
330
6AA
100
AcDbXrecord
280
     1
102
SHADEPLOT
 70
     0
  0
XRECORD
  5
6AD
102
{ACAD_REACTORS
330
6AC
102
}
330
6AC
100
AcDbXrecord
280
     1
102
SHADEPLOT
 70
     0
  0
XRECORD
  5
6AF
102
{ACAD_REACTORS
330
6AE
102
}
330
6AE
100
AcDbXrecord
280
     1
102
SHADEPLOT
 70
     0
  0
XRECORD
  5
6B1
102
{ACAD_REACTORS
330
6B0
102
}
330
6B0
100
AcDbXrecord
280
     1
102
SHADEPLOT
 70
     0
  0
LAYOUT
  5
22
102
{ACAD_XDICTIONARY
360
6A4
102
}
102
{ACAD_REACTORS
330
1A
102
}
330
1A
100
AcDbPlotSettings
  1

  2
none_device
  4
ANSI_A_(8.50_x_11.00_Inches)
  6

 40
6.349999904632567
 41
19.04999923706053
 42
6.350006103515625
 43
19.04998779296875
 44
215.8999938964842
 45
279.3999938964843
 46
0.0
 47
0.0
 48
0.0
 49
0.0
140
0.0
141
0.0
142
1.0
143
78.436453180766
 70
 11952
 72
     0
 73
     1
 74
     0
  7

 75
     0
147
0.0127491741332998
148
0.0
149
0.0
100
AcDbLayout
  1
Model
 70
     1
 71
     0
 10
0.0
 20
0.0
 11
12.0
 21
9.0
 12
0.0
 22
0.0
 32
0.0
 14
0.0
 24
0.0
 34
0.0
 15
0.0
 25
0.0
 35
0.0
146
0.0
 13
0.0
 23
0.0
 33
0.0
 16
1.0
 26
0.0
 36
0.0
 17
0.0
 27
1.0
 37
0.0
 76
     0
330
1F
331
5F3
  0
LAYOUT
  5
51
102
{ACAD_XDICTIONARY
360
6A6
102
}
102
{ACAD_REACTORS
330
1A
102
}
330
1A
100
AcDbPlotSettings
  1

  2
none_device
  4
Letter_(8.50_x_11.00_Inches)
  6

 40
6.349999904632567
 41
6.349999904632567
 42
6.350006103515625
 43
6.350006103515625
 44
215.8999938964842
 45
279.3999938964843
 46
0.0
 47
0.0
 48
0.0
 49
0.0
140
0.0
141
0.0
142
1.0
143
1.0
 70
   688
 72
     1
 73
     1
 74
     5
  7

 75
    16
147
1.0
148
0.0
149
0.0
100
AcDbLayout
  1
ﾚｲｱｳﾄ1
 70
     1
 71
     1
 10
-6.350006103515625
 20
-6.349999904632567
 11
273.0499877929687
 21
209.5499939918517
 12
0.0
 22
0.0
 32
0.0
 14
26.66076962115562
 24
20.31135699206657
 34
-0.0015258207003583
 15
240.039213369355
 25
182.8886381005154
 35
0.0000000349246037
146
0.0
 13
0.0
 23
0.0
 33
0.0
 16
1.0
 26
0.0
 36
0.0
 17
0.0
 27
1.0
 37
0.0
 76
     0
330
50
331
6B
  0
LAYOUT
  5
56
102
{ACAD_XDICTIONARY
360
6A8
102
}
102
{ACAD_REACTORS
330
1A
102
}
330
1A
100
AcDbPlotSettings
  1

  2
none_device
  4
Letter_(8.50_x_11.00_Inches)
  6

 40
6.349999904632567
 41
6.349999904632567
 42
6.350006103515625
 43
6.350006103515625
 44
215.8999938964842
 45
279.3999938964843
 46
0.0
 47
0.0
 48
0.0
 49
0.0
140
0.0
141
0.0
142
1.0
143
1.0
 70
   688
 72
     1
 73
     1
 74
     5
  7

 75
    16
147
1.0
148
0.0
149
0.0
100
AcDbLayout
  1
ﾚｲｱｳﾄ2
 70
     1
 71
     2
 10
-6.350006103515625
 20
-6.349999904632567
 11
273.0499877929687
 21
209.5499939918517
 12
0.0
 22
0.0
 32
0.0
 14
26.66076962115562
 24
20.31135699206657
 34
-0.0015258207003583
 15
240.039213369355
 25
182.8886381005154
 35
0.0000000349246037
146
0.0
 13
0.0
 23
0.0
 33
0.0
 16
1.0
 26
0.0
 36
0.0
 17
0.0
 27
1.0
 37
0.0
 76
     0
330
55
331
71
  0
MATERIAL
  5
602
102
{ACAD_XDICTIONARY
360
603
102
}
102
{ACAD_REACTORS
330
5F9
102
}
330
5F9
100
AcDbMaterial
  1
ByBlock
 72
     0
 43
0.0008202099737533
 43
0.0
 43
0.0
 43
0.0
 43
0.0
 43
0.0008202099737533
 43
0.0
 43
0.0
 43
0.0
 43
0.0
 43
1.0
 43
0.0
 43
0.0
 43
0.0
 43
0.0
 43
1.0
 77
     0
 47
0.0008202099737533
 47
0.0
 47
0.0
 47
0.0
 47
0.0
 47
0.0008202099737533
 47
0.0
 47
0.0
 47
0.0
 47
0.0
 47
1.0
 47
0.0
 47
0.0
 47
0.0
 47
0.0
 47
1.0
171
     0
 49
0.0008202099737533
 49
0.0
 49
0.0
 49
0.0
 49
0.0
 49
0.0008202099737533
 49
0.0
 49
0.0
 49
0.0
 49
0.0
 49
1.0
 49
0.0
 49
0.0
 49
0.0
 49
0.0
 49
1.0
175
     0
142
0.0008202099737533
142
0.0
142
0.0
142
0.0
142
0.0
142
0.0008202099737533
142
0.0
142
0.0
142
0.0
142
0.0
142
1.0
142
0.0
142
0.0
142
0.0
142
0.0
142
1.0
179
     0
144
0.0008202099737533
144
0.0
144
0.0
144
0.0
144
0.0
144
0.0008202099737533
144
0.0
144
0.0
144
0.0
144
0.0
144
1.0
144
0.0
144
0.0
144
0.0
144
0.0
144
1.0
147
0.0008202099737533
147
0.0
147
0.0
147
0.0
147
0.0
147
0.0008202099737533
147
0.0
147
0.0
147
0.0
147
0.0
147
1.0
147
0.0
147
0.0
147
0.0
147
0.0
147
1.0
  0
MATERIAL
  5
5FA
102
{ACAD_XDICTIONARY
360
5FB
102
}
102
{ACAD_REACTORS
330
5F9
102
}
330
5F9
100
AcDbMaterial
  1
ByLayer
 72
     0
 43
0.0008202099737533
 43
0.0
 43
0.0
 43
0.0
 43
0.0
 43
0.0008202099737533
 43
0.0
 43
0.0
 43
0.0
 43
0.0
 43
1.0
 43
0.0
 43
0.0
 43
0.0
 43
0.0
 43
1.0
 77
     0
 47
0.0008202099737533
 47
0.0
 47
0.0
 47
0.0
 47
0.0
 47
0.0008202099737533
 47
0.0
 47
0.0
 47
0.0
 47
0.0
 47
1.0
 47
0.0
 47
0.0
 47
0.0
 47
0.0
 47
1.0
171
     0
 49
0.0008202099737533
 49
0.0
 49
0.0
 49
0.0
 49
0.0
 49
0.0008202099737533
 49
0.0
 49
0.0
 49
0.0
 49
0.0
 49
1.0
 49
0.0
 49
0.0
 49
0.0
 49
0.0
 49
1.0
175
     0
142
0.0008202099737533
142
0.0
142
0.0
142
0.0
142
0.0
142
0.0008202099737533
142
0.0
142
0.0
142
0.0
142
0.0
142
1.0
142
0.0
142
0.0
142
0.0
142
0.0
142
1.0
179
     0
144
0.0008202099737533
144
0.0
144
0.0
144
0.0
144
0.0
144
0.0008202099737533
144
0.0
144
0.0
144
0.0
144
0.0
144
1.0
144
0.0
144
0.0
144
0.0
144
0.0
144
1.0
147
0.0008202099737533
147
0.0
147
0.0
147
0.0
147
0.0
147
0.0008202099737533
147
0.0
147
0.0
147
0.0
147
0.0
147
1.0
147
0.0
147
0.0
147
0.0
147
0.0
147
1.0
  0
MATERIAL
  5
60A
102
{ACAD_XDICTIONARY
360
60B
102
}
102
{ACAD_REACTORS
330
5F9
102
}
330
5F9
100
AcDbMaterial
  1
Global
 72
     0
 43
0.0008202099737533
 43
0.0
 43
0.0
 43
0.0
 43
0.0
 43
0.0008202099737533
 43
0.0
 43
0.0
 43
0.0
 43
0.0
 43
1.0
 43
0.0
 43
0.0
 43
0.0
 43
0.0
 43
1.0
 77
     0
 47
0.0008202099737533
 47
0.0
 47
0.0
 47
0.0
 47
0.0
 47
0.0008202099737533
 47
0.0
 47
0.0
 47
0.0
 47
0.0
 47
1.0
 47
0.0
 47
0.0
 47
0.0
 47
0.0
 47
1.0
171
     0
 49
0.0008202099737533
 49
0.0
 49
0.0
 49
0.0
 49
0.0
 49
0.0008202099737533
 49
0.0
 49
0.0
 49
0.0
 49
0.0
 49
1.0
 49
0.0
 49
0.0
 49
0.0
 49
0.0
 49
1.0
175
     0
142
0.0008202099737533
142
0.0
142
0.0
142
0.0
142
0.0
142
0.0008202099737533
142
0.0
142
0.0
142
0.0
142
0.0
142
1.0
142
0.0
142
0.0
142
0.0
142
0.0
142
1.0
179
     0
144
0.0008202099737533
144
0.0
144
0.0
144
0.0
144
0.0
144
0.0008202099737533
144
0.0
144
0.0
144
0.0
144
0.0
144
1.0
144
0.0
144
0.0
144
0.0
144
0.0
144
1.0
147
0.0008202099737533
147
0.0
147
0.0
147
0.0
147
0.0
147
0.0008202099737533
147
0.0
147
0.0
147
0.0
147
0.0
147
1.0
147
0.0
147
0.0
147
0.0
147
0.0
147
1.0
  0
MLEADERSTYLE
  5
641
102
{ACAD_REACTORS
330
640
102
}
330
640
100
AcDbMLeaderStyle
170
     2
171
     1
172
     0
 90
        2
 40
0.0
 41
0.0
173
     1
 91
-1056964608
340
14
 92
       -2
290
     1
 42
2.0
291
     1
 43
0.36
  3
Standard
 44
4.0
300

342
11
174
     1
178
     6
175
     1
176
     0
 93
-1056964608
 45
4.0
292
     0
297
     0
 46
4.0
 94
-1056964608
 47
1.0
 49
1.0
140
1.0
293
     1
141
0.0
294
     1
177
     0
142
1.0
295
     0
296
     0
143
0.125
1001
ACAD_MLEADERVER
1070
     2
  0
MLINESTYLE
  5
18
102
{ACAD_REACTORS
330
17
102
}
330
17
100
AcDbMlineStyle
  2
STANDARD
 70
     0
  3

 62
   256
 51
90.0
 52
90.0
 71
     2
 49
0.5
 62
   256
  6
BYLAYER
 49
-0.5
 62
   256
  6
BYLAYER
  0
ACDBPLACEHOLDER
  5
F
102
{ACAD_REACTORS
330
E
102
}
330
E
  0
SCALE
  5
62F
102
{ACAD_REACTORS
330
62E
102
}
330
62E
100
AcDbScale
 70
     0
300
1:1
140
1.0
141
1.0
290
     1
  0
SCALE
  5
630
102
{ACAD_REACTORS
330
62E
102
}
330
62E
100
AcDbScale
 70
     0
300
1:2
140
1.0
141
2.0
290
     0
  0
SCALE
  5
631
102
{ACAD_REACTORS
330
62E
102
}
330
62E
100
AcDbScale
 70
     0
300
1:4
140
1.0
141
4.0
290
     0
  0
SCALE
  5
632
102
{ACAD_REACTORS
330
62E
102
}
330
62E
100
AcDbScale
 70
     0
300
1:5
140
1.0
141
5.0
290
     0
  0
SCALE
  5
633
102
{ACAD_REACTORS
330
62E
102
}
330
62E
100
AcDbScale
 70
     0
300
1:8
140
1.0
141
8.0
290
     0
  0
SCALE
  5
634
102
{ACAD_REACTORS
330
62E
102
}
330
62E
100
AcDbScale
 70
     0
300
1:10
140
1.0
141
10.0
290
     0
  0
SCALE
  5
635
102
{ACAD_REACTORS
330
62E
102
}
330
62E
100
AcDbScale
 70
     0
300
1:16
140
1.0
141
16.0
290
     0
  0
SCALE
  5
636
102
{ACAD_REACTORS
330
62E
102
}
330
62E
100
AcDbScale
 70
     0
300
1:20
140
1.0
141
20.0
290
     0
  0
SCALE
  5
637
102
{ACAD_REACTORS
330
62E
102
}
330
62E
100
AcDbScale
 70
     0
300
1:30
140
1.0
141
30.0
290
     0
  0
SCALE
  5
638
102
{ACAD_REACTORS
330
62E
102
}
330
62E
100
AcDbScale
 70
     0
300
1:40
140
1.0
141
40.0
290
     0
  0
SCALE
  5
639
102
{ACAD_REACTORS
330
62E
102
}
330
62E
100
AcDbScale
 70
     0
300
1:50
140
1.0
141
50.0
290
     0
  0
SCALE
  5
63A
102
{ACAD_REACTORS
330
62E
102
}
330
62E
100
AcDbScale
 70
     0
300
1:100
140
1.0
141
100.0
290
     0
  0
SCALE
  5
63B
102
{ACAD_REACTORS
330
62E
102
}
330
62E
100
AcDbScale
 70
     0
300
2:1
140
2.0
141
1.0
290
     0
  0
SCALE
  5
63C
102
{ACAD_REACTORS
330
62E
102
}
330
62E
100
AcDbScale
 70
     0
300
4:1
140
4.0
141
1.0
290
     0
  0
SCALE
  5
63D
102
{ACAD_REACTORS
330
62E
102
}
330
62E
100
AcDbScale
 70
     0
300
8:1
140
8.0
141
1.0
290
     0
  0
SCALE
  5
63E
102
{ACAD_REACTORS
330
62E
102
}
330
62E
100
AcDbScale
 70
     0
300
10:1
140
10.0
141
1.0
290
     0
  0
SCALE
  5
63F
102
{ACAD_REACTORS
330
62E
102
}
330
62E
100
AcDbScale
 70
     0
300
100:1
140
100.0
141
1.0
290
     0
  0
TABLESTYLE
  5
62D
102
{ACAD_XDICTIONARY
360
6A0
102
}
102
{ACAD_REACTORS
330
62C
102
}
330
62C
100
AcDbTableStyle
  3
Standard
 70
     0
 71
     0
 40
1.5
 41
1.5
280
     0
281
     0
  7
Standard
140
4.5
170
     2
 62
     0
 63
     7
283
     0
274
    -2
284
     1
 64
     0
275
    -2
285
     1
 65
     0
276
    -2
286
     1
 66
     0
277
    -2
287
     1
 67
     0
278
    -2
288
     1
 68
     0
279
    -2
289
     1
 69
     0
  7
Standard
140
6.0
170
     5
 62
     0
 63
     7
283
     0
274
    -2
284
     1
 64
     0
275
    -2
285
     1
 65
     0
276
    -2
286
     1
 66
     0
277
    -2
287
     1
 67
     0
278
    -2
288
     1
 68
     0
279
    -2
289
     1
 69
     0
  7
Standard
140
4.5
170
     5
 62
     0
 63
     7
283
     0
274
    -2
284
     1
 64
     0
275
    -2
285
     1
 65
     0
276
    -2
286
     1
 66
     0
277
    -2
287
     1
 67
     0
278
    -2
288
     1
 68
     0
279
    -2
289
     1
 69
     0
  0
VISUALSTYLE
  5
618
102
{ACAD_XDICTIONARY
360
6BF
102
}
102
{ACAD_REACTORS
330
612
102
}
330
612
100
AcDbVisualStyle
  2
2dWireframe
 70
     4
 71
     0
 72
     2
 73
     0
 90
        0
 40
-0.6
 41
-30.0
 62
     5
 63
     7
 74
     1
 91
        4
 64
     7
 65
   257
 75
     1
175
     1
 42
1.0
 92
        0
 66
   257
 43
1.0
 76
     1
 77
     6
 78
     2
 67
     7
 79
     5
170
     0
171
     0
290
     0
174
     0
 93
        1
 44
0.0
173
     0
291
     0
 45
0.0
1001
ACAD
1000
AcDbSavedByObjectVersion
1070
     0
  0
VISUALSTYLE
  5
617
102
{ACAD_XDICTIONARY
360
6BD
102
}
102
{ACAD_REACTORS
330
612
102
}
330
612
100
AcDbVisualStyle
  2
Basic
 70
     7
 71
     1
 72
     0
 73
     1
 90
        0
 40
-0.6
 41
-30.0
 62
     5
 63
     7
 74
     0
 91
        4
 64
     7
 65
   257
 75
     1
175
     1
 42
1.0
 92
        8
 66
     7
 43
1.0
 76
     1
 77
     6
 78
     2
 67
     7
 79
     5
170
     0
171
     0
290
     0
174
     0
 93
        1
 44
0.0
173
     0
291
     1
 45
0.0
1001
ACAD
1000
AcDbSavedByObjectVersion
1070
     0
  0
VISUALSTYLE
  5
61E
102
{ACAD_XDICTIONARY
360
6CB
102
}
102
{ACAD_REACTORS
330
612
102
}
330
612
100
AcDbVisualStyle
  2
Brighten
 70
    12
 71
     2
 72
     2
 73
     0
 90
        0
 40
-0.6
 41
-30.0
 62
     5
 63
     7
 74
     1
 91
        4
 64
     7
 65
   257
 75
     1
175
     1
 42
1.0
 92
        8
 66
     7
 43
1.0
 76
     1
 77
     6
 78
     2
 67
     7
 79
     5
170
     0
171
     0
290
     0
174
     0
 93
        1
 44
50.0
173
     0
291
     1
 45
0.0
1001
ACAD
1000
AcDbSavedByObjectVersion
1070
     0
  0
VISUALSTYLE
  5
622
102
{ACAD_XDICTIONARY
360
6D3
102
}
102
{ACAD_REACTORS
330
612
102
}
330
612
100
AcDbVisualStyle
  2
ColorChange
 70
    16
 71
     2
 72
     2
 73
     3
 90
        0
 40
-0.6
 41
-30.0
 62
     5
 63
     8
 74
     1
 91
        4
 64
     7
 65
   257
 75
     1
175
     1
 42
1.0
 92
        8
 66
     8
 43
1.0
 76
     1
 77
     6
 78
     2
 67
     7
 79
     5
170
     0
171
     0
290
     0
174
     0
 93
        1
 44
0.0
173
     0
291
     1
 45
0.0
1001
ACAD
1000
AcDbSavedByObjectVersion
1070
     0
  0
VISUALSTYLE
  5
61B
102
{ACAD_XDICTIONARY
360
6C5
102
}
102
{ACAD_REACTORS
330
612
102
}
330
612
100
AcDbVisualStyle
  2
Conceptual
 70
     9
 71
     3
 72
     2
 73
     0
 90
        0
 40
-0.6
 41
-30.0
 62
     5
 63
     7
 74
     2
 91
        2
 64
     7
 65
   257
 75
     1
175
     1
 42
179.0
 92
        8
 66
     7
 43
1.0
 76
     1
 77
     6
 78
     2
 67
     7
 79
     3
170
     0
171
     0
290
     0
174
     0
 93
        1
 44
0.0
173
     0
291
     0
 45
0.0
1001
ACAD
1000
AcDbSavedByObjectVersion
1070
     0
  0
VISUALSTYLE
  5
61D
102
{ACAD_XDICTIONARY
360
6C9
102
}
102
{ACAD_REACTORS
330
612
102
}
330
612
100
AcDbVisualStyle
  2
Dim
 70
    11
 71
     2
 72
     2
 73
     0
 90
        0
 40
-0.6
 41
-30.0
 62
     5
 63
     7
 74
     1
 91
        4
 64
     7
 65
   257
 75
     1
175
     1
 42
1.0
 92
        8
 66
     7
 43
1.0
 76
     1
 77
     6
 78
     2
 67
     7
 79
     5
170
     0
171
     0
290
     0
174
     0
 93
        1
 44
-50.0
173
     0
291
     1
 45
0.0
1001
ACAD
1000
AcDbSavedByObjectVersion
1070
     0
  0
VISUALSTYLE
  5
62A
102
{ACAD_XDICTIONARY
360
6E3
102
}
102
{ACAD_REACTORS
330
612
102
}
330
612
100
AcDbVisualStyle
  2
EdgeColorOff
 70
    22
 71
     2
 72
     2
 73
     0
 90
        0
 40
-0.6
 41
-30.0
 62
     5
 63
     7
 74
     1
 91
        4
 64
     7
 65
   257
 75
     1
175
     1
 42
1.0
 92
        8
 66
     7
 43
1.0
 76
     1
 77
     6
 78
     2
 67
     7
 79
     5
170
     0
171
     0
290
     0
174
     0
 93
        1
 44
0.0
173
     0
291
     1
 45
0.0
1001
ACAD
1000
AcDbSavedByObjectVersion
1070
     0
  0
VISUALSTYLE
  5
621
102
{ACAD_XDICTIONARY
360
6D1
102
}
102
{ACAD_REACTORS
330
612
102
}
330
612
100
AcDbVisualStyle
  2
Facepattern
 70
    15
 71
     2
 72
     2
 73
     0
 90
        0
 40
-0.6
 41
-30.0
 62
     5
 63
     7
 74
     1
 91
        4
 64
     7
 65
   257
 75
     1
175
     1
 42
1.0
 92
        8
 66
     7
 43
1.0
 76
     1
 77
     6
 78
     2
 67
     7
 79
     5
170
     0
171
     0
290
     0
174
     0
 93
        1
 44
0.0
173
     0
291
     1
 45
0.0
1001
ACAD
1000
AcDbSavedByObjectVersion
1070
     0
  0
VISUALSTYLE
  5
613
102
{ACAD_XDICTIONARY
360
6B5
102
}
102
{ACAD_REACTORS
330
612
102
}
330
612
100
AcDbVisualStyle
  2
Flat
 70
     0
 71
     2
 72
     1
 73
     1
 90
        2
 40
-0.6
 41
30.0
 62
     5
 63
     7
 74
     0
 91
        0
 64
     7
 65
   257
 75
     1
175
     1
 42
1.0
 92
        8
 66
     7
 43
1.0
 76
     1
 77
     6
 78
     2
 67
     7
 79
     5
170
     0
171
     0
290
     0
174
     0
 93
       13
 44
0.0
173
     0
291
     1
 45
0.0
1001
ACAD
1000
AcDbSavedByObjectVersion
1070
     0
  0
VISUALSTYLE
  5
614
102
{ACAD_XDICTIONARY
360
6B7
102
}
102
{ACAD_REACTORS
330
612
102
}
330
612
100
AcDbVisualStyle
  2
FlatWithEdges
 70
     1
 71
     2
 72
     1
 73
     1
 90
        2
 40
-0.6
 41
30.0
 62
     5
 63
     7
 74
     1
 91
        0
 64
     7
 65
   257
 75
     1
175
     1
 42
1.0
 92
        0
 66
   257
 43
1.0
 76
     1
 77
     6
 78
     2
 67
     7
 79
     5
170
     0
171
     0
290
     0
174
     0
 93
       13
 44
0.0
173
     0
291
     1
 45
0.0
1001
ACAD
1000
AcDbSavedByObjectVersion
1070
     0
  0
VISUALSTYLE
  5
615
102
{ACAD_XDICTIONARY
360
6B9
102
}
102
{ACAD_REACTORS
330
612
102
}
330
612
100
AcDbVisualStyle
  2
Gouraud
 70
     2
 71
     2
 72
     2
 73
     1
 90
        2
 40
-0.6
 41
30.0
 62
     5
 63
     7
 74
     0
 91
        0
 64
     7
 65
   257
 75
     1
175
     1
 42
1.0
 92
        0
 66
     7
 43
1.0
 76
     1
 77
     6
 78
     2
 67
     7
 79
     5
170
     0
171
     0
290
     0
174
     0
 93
       13
 44
0.0
173
     0
291
     1
 45
0.0
1001
ACAD
1000
AcDbSavedByObjectVersion
1070
     0
  0
VISUALSTYLE
  5
616
102
{ACAD_XDICTIONARY
360
6BB
102
}
102
{ACAD_REACTORS
330
612
102
}
330
612
100
AcDbVisualStyle
  2
GouraudWithEdges
 70
     3
 71
     2
 72
     2
 73
     1
 90
        2
 40
-0.6
 41
30.0
 62
     5
 63
     7
 74
     1
 91
        0
 64
     7
 65
   257
 75
     1
175
     1
 42
1.0
 92
        0
 66
   257
 43
1.0
 76
     1
 77
     6
 78
     2
 67
     7
 79
     5
170
     0
171
     0
290
     0
174
     0
 93
       13
 44
0.0
173
     0
291
     1
 45
0.0
1001
ACAD
1000
AcDbSavedByObjectVersion
1070
     0
  0
VISUALSTYLE
  5
61A
102
{ACAD_XDICTIONARY
360
6C3
102
}
102
{ACAD_REACTORS
330
612
102
}
330
612
100
AcDbVisualStyle
  2
Hidden
 70
     6
 71
     1
 72
     2
 73
     2
 90
        0
 40
-0.6
 41
-30.0
 62
     5
 63
     7
 74
     2
 91
        2
 64
     7
 65
   257
 75
     2
175
     1
 42
40.0
 92
        0
 66
   257
 43
1.0
 76
     1
 77
     6
 78
     2
 67
     7
 79
     3
170
     0
171
     0
290
     0
174
     0
 93
        1
 44
0.0
173
     0
291
     0
 45
0.0
1001
ACAD
1000
AcDbSavedByObjectVersion
1070
     0
  0
VISUALSTYLE
  5
628
102
{ACAD_XDICTIONARY
360
6DF
102
}
102
{ACAD_REACTORS
330
612
102
}
330
612
100
AcDbVisualStyle
  2
JitterOff
 70
    20
 71
     2
 72
     2
 73
     0
 90
        0
 40
-0.6
 41
-30.0
 62
     5
 63
     7
 74
     1
 91
        4
 64
     7
 65
   257
 75
     1
175
     1
 42
1.0
 92
       10
 66
     7
 43
1.0
 76
     1
 77
     6
 78
     2
 67
     7
 79
     5
170
     0
171
     0
290
     0
174
     0
 93
        1
 44
0.0
173
     0
291
     1
 45
0.0
1001
ACAD
1000
AcDbSavedByObjectVersion
1070
     0
  0
VISUALSTYLE
  5
620
102
{ACAD_XDICTIONARY
360
6CF
102
}
102
{ACAD_REACTORS
330
612
102
}
330
612
100
AcDbVisualStyle
  2
Linepattern
 70
    14
 71
     2
 72
     2
 73
     0
 90
        0
 40
-0.6
 41
-30.0
 62
     5
 63
     7
 74
     1
 91
        4
 64
     7
 65
   257
 75
     7
175
     7
 42
1.0
 92
        8
 66
     7
 43
1.0
 76
     1
 77
     6
 78
     2
 67
     7
 79
     5
170
     0
171
     0
290
     0
174
     0
 93
        1
 44
0.0
173
     0
291
     1
 45
0.0
1001
ACAD
1000
AcDbSavedByObjectVersion
1070
     0
  0
VISUALSTYLE
  5
629
102
{ACAD_XDICTIONARY
360
6E1
102
}
102
{ACAD_REACTORS
330
612
102
}
330
612
100
AcDbVisualStyle
  2
OverhangOff
 70
    21
 71
     2
 72
     2
 73
     0
 90
        0
 40
-0.6
 41
-30.0
 62
     5
 63
     7
 74
     1
 91
        4
 64
     7
 65
   257
 75
     1
175
     1
 42
1.0
 92
        9
 66
     7
 43
1.0
 76
     1
 77
     6
 78
     2
 67
     7
 79
     5
170
     0
171
     0
290
     0
174
     0
 93
        1
 44
0.0
173
     0
291
     1
 45
0.0
1001
ACAD
1000
AcDbSavedByObjectVersion
1070
     0
  0
VISUALSTYLE
  5
61C
102
{ACAD_XDICTIONARY
360
6C7
102
}
102
{ACAD_REACTORS
330
612
102
}
330
612
100
AcDbVisualStyle
  2
Realistic
 70
     8
 71
     2
 72
     3
 73
     0
 90
        2
 40
-0.6
 41
30.0
 62
     5
 63
     7
 74
     0
 91
        0
 64
     7
 65
   257
 75
     1
175
     1
 42
1.0
 92
        8
 66
   257
 43
1.0
 76
     1
 77
     6
 78
     2
 67
     7
 79
     3
170
     0
171
     0
290
     0
174
     0
 93
       13
 44
0.0
173
     0
291
     0
 45
0.0
1001
ACAD
1000
AcDbSavedByObjectVersion
1070
     0
  0
VISUALSTYLE
  5
627
102
{ACAD_XDICTIONARY
360
6DD
102
}
102
{ACAD_REACTORS
330
612
102
}
330
612
100
AcDbVisualStyle
  2
Shaded
 70
    27
 71
     2
 72
     2
 73
     1
 90
        2
 40
-0.6
 41
30.0
 62
     5
 63
     7
 74
     0
 91
        4
 64
     7
 65
   257
 75
     1
175
     1
 42
1.0
 92
        8
 66
   257
 43
1.0
 76
     1
 77
     6
 78
     2
 67
     8
 79
     3
170
     0
171
     0
290
     0
174
     0
 93
        5
 44
0.0
173
     0
291
     0
 45
0.0
1001
ACAD
1000
AcDbSavedByObjectVersion
1070
     0
  0
VISUALSTYLE
  5
626
102
{ACAD_XDICTIONARY
360
6DB
102
}
102
{ACAD_REACTORS
330
612
102
}
330
612
100
AcDbVisualStyle
  2
Shaded with edges
 70
    26
 71
     2
 72
     2
 73
     1
 90
        2
 40
-0.6
 41
30.0
 62
     5
 63
     7
 74
     1
 91
       10
 64
     7
 65
   257
 75
     2
175
     1
 42
1.0
 92
        8
 66
   257
 43
1.0
 76
     1
 77
     6
 78
     2
 67
     7
 79
     3
170
     0
171
     0
290
     0
174
     0
 93
        5
 44
0.0
173
     0
291
     0
 45
0.0
1001
ACAD
1000
AcDbSavedByObjectVersion
1070
     0
  0
VISUALSTYLE
  5
623
102
{ACAD_XDICTIONARY
360
6D5
102
}
102
{ACAD_REACTORS
330
612
102
}
330
612
100
AcDbVisualStyle
  2
Shades of Gray
 70
    23
 71
     2
 72
     2
 73
     3
 90
        0
 40
-0.6
 41
-30.0
 62
     5
 63
     7
 74
     2
 91
        2
 64
     7
 65
     7
 75
     1
175
     1
 42
40.0
 92
        8
 66
     7
 43
1.0
 76
     1
 77
     6
 78
     2
 67
     7
 79
     3
170
     0
171
     0
290
     0
174
     0
 93
        1
 44
0.0
173
     0
291
     0
 45
0.0
1001
ACAD
1000
AcDbSavedByObjectVersion
1070
     0
  0
VISUALSTYLE
  5
624
102
{ACAD_XDICTIONARY
360
6D7
102
}
102
{ACAD_REACTORS
330
612
102
}
330
612
100
AcDbVisualStyle
  2
Sketchy
 70
    24
 71
     1
 72
     2
 73
     2
 90
        0
 40
-0.6
 41
-30.0
 62
     5
 63
     7
 74
     2
 91
        2
 64
     7
 65
     7
 75
     1
175
     1
 42
40.0
 92
       11
 66
     7
 43
1.0
 76
     1
 77
     6
 78
     2
 67
     7
 79
     6
170
     0
171
     0
290
     0
174
     0
 93
        1
 44
0.0
173
     0
291
     0
 45
0.0
1001
ACAD
1000
AcDbSavedByObjectVersion
1070
     0
  0
VISUALSTYLE
  5
61F
102
{ACAD_XDICTIONARY
360
6CD
102
}
102
{ACAD_REACTORS
330
612
102
}
330
612
100
AcDbVisualStyle
  2
Thicken
 70
    13
 71
     2
 72
     2
 73
     0
 90
        0
 40
-0.6
 41
-30.0
 62
     5
 63
     7
 74
     1
 91
        4
 64
     7
 65
   257
 75
     1
175
     1
 42
1.0
 92
       12
 66
     7
 43
1.0
 76
     1
 77
     6
 78
     2
 67
     7
 79
     5
170
     0
171
     0
290
     0
174
     0
 93
        1
 44
0.0
173
     0
291
     1
 45
0.0
1001
ACAD
1000
AcDbSavedByObjectVersion
1070
     0
  0
VISUALSTYLE
  5
619
102
{ACAD_XDICTIONARY
360
6C1
102
}
102
{ACAD_REACTORS
330
612
102
}
330
612
100
AcDbVisualStyle
  2
Wireframe
 70
     5
 71
     0
 72
     2
 73
     0
 90
        0
 40
-0.6
 41
-30.0
 62
     5
 63
     7
 74
     1
 91
        4
 64
     7
 65
   257
 75
     1
175
     1
 42
1.0
 92
        0
 66
   257
 43
1.0
 76
     1
 77
     6
 78
     2
 67
     7
 79
     3
170
     0
171
     0
290
     0
174
     0
 93
        1
 44
0.0
173
     0
291
     0
 45
0.0
1001
ACAD
1000
AcDbSavedByObjectVersion
1070
     0
  0
VISUALSTYLE
  5
625
102
{ACAD_XDICTIONARY
360
6D9
102
}
102
{ACAD_REACTORS
330
612
102
}
330
612
100
AcDbVisualStyle
  2
X-Ray
 70
    25
 71
     2
 72
     2
 73
     1
 90
        1
 40
0.5
 41
-30.0
 62
     5
 63
     7
 74
     1
 91
        0
 64
     7
 65
   257
 75
     1
175
     1
 42
1.0
 92
        8
 66
     7
 43
1.0
 76
     1
 77
     6
 78
     2
 67
     7
 79
     3
170
     0
171
     0
290
     0
174
     0
 93
       13
 44
0.0
173
     0
291
     0
 45
0.0
1001
ACAD
1000
AcDbSavedByObjectVersion
1070
     0
  0
DICTIONARYVAR
  5
655
102
{ACAD_REACTORS
330
5E
102
}
330
5E
100
DictionaryVariables
280
     0
  1
1:1
  0
DICTIONARYVAR
  5
654
102
{ACAD_REACTORS
330
5E
102
}
330
5E
100
DictionaryVariables
280
     0
  1
STANDARD
  0
DICTIONARYVAR
  5
653
102
{ACAD_REACTORS
330
5E
102
}
330
5E
100
DictionaryVariables
280
     0
  1
STANDARD
  0
DICTIONARYVAR
  5
5F
102
{ACAD_REACTORS
330
5E
102
}
330
5E
100
DictionaryVariables
280
     0
  1
2
  0
DICTIONARYVAR
  5
63
102
{ACAD_REACTORS
330
5E
102
}
330
5E
100
DictionaryVariables
280
     0
  1
1
  0
DICTIONARYVAR
  5
657
102
{ACAD_REACTORS
330
5E
102
}
330
5E
100
DictionaryVariables
280
     0
  1
0
  0
DICTIONARYVAR
  5
656
102
{ACAD_REACTORS
330
5E
102
}
330
5E
100
DictionaryVariables
280
     0
  1
127
  0
DICTIONARYVAR
  5
658
102
{ACAD_REACTORS
330
5E
102
}
330
5E
100
DictionaryVariables
280
     0
  1
2
  0
DICTIONARY
  5
6A4
330
22
100
AcDbDictionary
280
     1
281
     1
  3
ACAD_XREC_ROUNDTRIP
360
6A5
  0
DICTIONARY
  5
6A6
330
51
100
AcDbDictionary
280
     1
281
     1
  3
ACAD_XREC_ROUNDTRIP
360
6A7
  0
DICTIONARY
  5
6A8
330
56
100
AcDbDictionary
280
     1
281
     1
  3
ACAD_XREC_ROUNDTRIP
360
6A9
  0
DICTIONARY
  5
603
330
602
100
AcDbDictionary
280
     1
281
     1
  3
ACAD_XREC_ROUNDTRIP
360
6B3
  3
BUMPTILE
360
605
  3
DIFFUSETILE
360
604
  3
OPACITYTILE
360
608
  3
REFLECTIONTILE
360
607
  3
REFRACTIONTILE
360
609
  3
SPECULARTILE
360
606
  0
DICTIONARY
  5
5FB
330
5FA
100
AcDbDictionary
280
     1
281
     1
  3
ACAD_XREC_ROUNDTRIP
360
6B2
  3
BUMPTILE
360
5FD
  3
DIFFUSETILE
360
5FC
  3
OPACITYTILE
360
600
  3
REFLECTIONTILE
360
5FF
  3
REFRACTIONTILE
360
601
  3
SPECULARTILE
360
5FE
  0
DICTIONARY
  5
60B
330
60A
100
AcDbDictionary
280
     1
281
     1
  3
ACAD_XREC_ROUNDTRIP
360
6B4
  3
BUMPTILE
360
60D
  3
DIFFUSETILE
360
60C
  3
OPACITYTILE
360
610
  3
REFLECTIONTILE
360
60F
  3
REFRACTIONTILE
360
611
  3
SPECULARTILE
360
60E
  0
DICTIONARY
  5
6A0
330
62D
100
AcDbDictionary
280
     1
281
     1
  3
ACAD_ROUNDTRIP_2008_TABLESTYLE_CELLSTYLEMAP
360
6A1
  3
ACAD_XREC_ROUNDTRIP
360
6E5
  0
DICTIONARY
  5
6BF
330
618
100
AcDbDictionary
280
     1
281
     1
  3
ACAD_XREC_ROUNDTRIP
360
6C0
  0
DICTIONARY
  5
6BD
330
617
100
AcDbDictionary
280
     1
281
     1
  3
ACAD_XREC_ROUNDTRIP
360
6BE
  0
DICTIONARY
  5
6CB
330
61E
100
AcDbDictionary
280
     1
281
     1
  3
ACAD_XREC_ROUNDTRIP
360
6CC
  0
DICTIONARY
  5
6D3
330
622
100
AcDbDictionary
280
     1
281
     1
  3
ACAD_XREC_ROUNDTRIP
360
6D4
  0
DICTIONARY
  5
6C5
330
61B
100
AcDbDictionary
280
     1
281
     1
  3
ACAD_XREC_ROUNDTRIP
360
6C6
  0
DICTIONARY
  5
6C9
330
61D
100
AcDbDictionary
280
     1
281
     1
  3
ACAD_XREC_ROUNDTRIP
360
6CA
  0
DICTIONARY
  5
6E3
330
62A
100
AcDbDictionary
280
     1
281
     1
  3
ACAD_XREC_ROUNDTRIP
360
6E4
  0
DICTIONARY
  5
6D1
330
621
100
AcDbDictionary
280
     1
281
     1
  3
ACAD_XREC_ROUNDTRIP
360
6D2
  0
DICTIONARY
  5
6B5
330
613
100
AcDbDictionary
280
     1
281
     1
  3
ACAD_XREC_ROUNDTRIP
360
6B6
  0
DICTIONARY
  5
6B7
330
614
100
AcDbDictionary
280
     1
281
     1
  3
ACAD_XREC_ROUNDTRIP
360
6B8
  0
DICTIONARY
  5
6B9
330
615
100
AcDbDictionary
280
     1
281
     1
  3
ACAD_XREC_ROUNDTRIP
360
6BA
  0
DICTIONARY
  5
6BB
330
616
100
AcDbDictionary
280
     1
281
     1
  3
ACAD_XREC_ROUNDTRIP
360
6BC
  0
DICTIONARY
  5
6C3
330
61A
100
AcDbDictionary
280
     1
281
     1
  3
ACAD_XREC_ROUNDTRIP
360
6C4
  0
DICTIONARY
  5
6DF
330
628
100
AcDbDictionary
280
     1
281
     1
  3
ACAD_XREC_ROUNDTRIP
360
6E0
  0
DICTIONARY
  5
6CF
330
620
100
AcDbDictionary
280
     1
281
     1
  3
ACAD_XREC_ROUNDTRIP
360
6D0
  0
DICTIONARY
  5
6E1
330
629
100
AcDbDictionary
280
     1
281
     1
  3
ACAD_XREC_ROUNDTRIP
360
6E2
  0
DICTIONARY
  5
6C7
330
61C
100
AcDbDictionary
280
     1
281
     1
  3
ACAD_XREC_ROUNDTRIP
360
6C8
  0
DICTIONARY
  5
6DD
330
627
100
AcDbDictionary
280
     1
281
     1
  3
ACAD_XREC_ROUNDTRIP
360
6DE
  0
DICTIONARY
  5
6DB
330
626
100
AcDbDictionary
280
     1
281
     1
  3
ACAD_XREC_ROUNDTRIP
360
6DC
  0
DICTIONARY
  5
6D5
330
623
100
AcDbDictionary
280
     1
281
     1
  3
ACAD_XREC_ROUNDTRIP
360
6D6
  0
DICTIONARY
  5
6D7
330
624
100
AcDbDictionary
280
     1
281
     1
  3
ACAD_XREC_ROUNDTRIP
360
6D8
  0
DICTIONARY
  5
6CD
330
61F
100
AcDbDictionary
280
     1
281
     1
  3
ACAD_XREC_ROUNDTRIP
360
6CE
  0
DICTIONARY
  5
6C1
330
619
100
AcDbDictionary
280
     1
281
     1
  3
ACAD_XREC_ROUNDTRIP
360
6C2
  0
DICTIONARY
  5
6D9
330
625
100
AcDbDictionary
280
     1
281
     1
  3
ACAD_XREC_ROUNDTRIP
360
6DA
  0
XRECORD
  5
6A5
102
{ACAD_REACTORS
330
6A4
102
}
330
6A4
100
AcDbXrecord
280
     1
102
SHADEPLOT
 70
     0
102
SHADEPLOTRESLEVEL
 70
     2
102
SHADEPLOTCUSTOMDPI
 70
   300
  0
XRECORD
  5
6A7
102
{ACAD_REACTORS
330
6A6
102
}
330
6A6
100
AcDbXrecord
280
     1
102
SHADEPLOT
 70
     0
102
SHADEPLOTRESLEVEL
 70
     2
102
SHADEPLOTCUSTOMDPI
 70
   300
  0
XRECORD
  5
6A9
102
{ACAD_REACTORS
330
6A8
102
}
330
6A8
100
AcDbXrecord
280
     1
102
SHADEPLOT
 70
     0
102
SHADEPLOTRESLEVEL
 70
     2
102
SHADEPLOTCUSTOMDPI
 70
   300
  0
XRECORD
  5
6B3
102
{ACAD_REACTORS
330
603
102
}
330
603
100
AcDbXrecord
280
     1
102
MATERIAL
148
0.0
149
0.0
149
0.0
 93
        0
 94
      127
282
     0
 72
     0
 77
     0
171
     0
175
     0
179
     0
273
     0
  0
XRECORD
  5
605
102
{ACAD_REACTORS
330
603
102
}
330
603
100
AcDbXrecord
280
     1
270
     1
271
     1
  0
XRECORD
  5
604
102
{ACAD_REACTORS
330
603
102
}
330
603
100
AcDbXrecord
280
     1
270
     1
271
     1
  0
XRECORD
  5
608
102
{ACAD_REACTORS
330
603
102
}
330
603
100
AcDbXrecord
280
     1
270
     1
271
     1
  0
XRECORD
  5
607
102
{ACAD_REACTORS
330
603
102
}
330
603
100
AcDbXrecord
280
     1
270
     1
271
     1
  0
XRECORD
  5
609
102
{ACAD_REACTORS
330
603
102
}
330
603
100
AcDbXrecord
280
     1
270
     1
271
     1
  0
XRECORD
  5
606
102
{ACAD_REACTORS
330
603
102
}
330
603
100
AcDbXrecord
280
     1
270
     1
271
     1
  0
XRECORD
  5
6B2
102
{ACAD_REACTORS
330
5FB
102
}
330
5FB
100
AcDbXrecord
280
     1
102
MATERIAL
148
0.0
149
0.0
149
0.0
 93
        0
 94
      127
282
     0
 72
     0
 77
     0
171
     0
175
     0
179
     0
273
     0
  0
XRECORD
  5
5FD
102
{ACAD_REACTORS
330
5FB
102
}
330
5FB
100
AcDbXrecord
280
     1
270
     1
271
     1
  0
XRECORD
  5
5FC
102
{ACAD_REACTORS
330
5FB
102
}
330
5FB
100
AcDbXrecord
280
     1
270
     1
271
     1
  0
XRECORD
  5
600
102
{ACAD_REACTORS
330
5FB
102
}
330
5FB
100
AcDbXrecord
280
     1
270
     1
271
     1
  0
XRECORD
  5
5FF
102
{ACAD_REACTORS
330
5FB
102
}
330
5FB
100
AcDbXrecord
280
     1
270
     1
271
     1
  0
XRECORD
  5
601
102
{ACAD_REACTORS
330
5FB
102
}
330
5FB
100
AcDbXrecord
280
     1
270
     1
271
     1
  0
XRECORD
  5
5FE
102
{ACAD_REACTORS
330
5FB
102
}
330
5FB
100
AcDbXrecord
280
     1
270
     1
271
     1
  0
XRECORD
  5
6B4
102
{ACAD_REACTORS
330
60B
102
}
330
60B
100
AcDbXrecord
280
     1
102
MATERIAL
148
0.0
149
0.0
149
0.0
 93
        0
 94
      127
282
     0
 72
     0
 77
     0
171
     0
175
     0
179
     0
273
     0
  0
XRECORD
  5
60D
102
{ACAD_REACTORS
330
60B
102
}
330
60B
100
AcDbXrecord
280
     1
270
     1
271
     1
  0
XRECORD
  5
60C
102
{ACAD_REACTORS
330
60B
102
}
330
60B
100
AcDbXrecord
280
     1
270
     1
271
     1
  0
XRECORD
  5
610
102
{ACAD_REACTORS
330
60B
102
}
330
60B
100
AcDbXrecord
280
     1
270
     1
271
     1
  0
XRECORD
  5
60F
102
{ACAD_REACTORS
330
60B
102
}
330
60B
100
AcDbXrecord
280
     1
270
     1
271
     1
  0
XRECORD
  5
611
102
{ACAD_REACTORS
330
60B
102
}
330
60B
100
AcDbXrecord
280
     1
270
     1
271
     1
  0
XRECORD
  5
60E
102
{ACAD_REACTORS
330
60B
102
}
330
60B
100
AcDbXrecord
280
     1
270
     1
271
     1
  0
CELLSTYLEMAP
  5
6A1
102
{ACAD_REACTORS
330
6A0
102
}
330
6A0
100
AcDbCellStyleMap
 90
        3
300
CELLSTYLE
  1
TABLEFORMAT_BEGIN
 90
        5
170
     1
 91
        0
 92
    32768
 62
   257
 93
        1
300
CONTENTFORMAT
  1
CONTENTFORMAT_BEGIN
 90
        0
 91
        0
 92
      512
 93
        0
300

 40
0.0
140
1.0
 94
        5
 62
     0
340
11
144
6.0
309
CONTENTFORMAT_END
171
     1
301
MARGIN
  1
CELLMARGIN_BEGIN
 40
1.5
 40
1.5
 40
1.5
 40
1.5
 40
4.5
 40
4.5
309
CELLMARGIN_END
 94
        6
 95
        1
302
GRIDFORMAT
  1
GRIDFORMAT_BEGIN
 90
        0
 91
        1
 62
     0
 92
       -2
340
0
 93
        0
 40
1.125
309
GRIDFORMAT_END
 95
        2
302
GRIDFORMAT
  1
GRIDFORMAT_BEGIN
 90
        0
 91
        1
 62
     0
 92
       -2
340
0
 93
        0
 40
1.125
309
GRIDFORMAT_END
 95
        4
302
GRIDFORMAT
  1
GRIDFORMAT_BEGIN
 90
        0
 91
        1
 62
     0
 92
       -2
340
0
 93
        0
 40
1.125
309
GRIDFORMAT_END
 95
        8
302
GRIDFORMAT
  1
GRIDFORMAT_BEGIN
 90
        0
 91
        1
 62
     0
 92
       -2
340
0
 93
        0
 40
1.125
309
GRIDFORMAT_END
 95
       16
302
GRIDFORMAT
  1
GRIDFORMAT_BEGIN
 90
        0
 91
        1
 62
     0
 92
       -2
340
0
 93
        0
 40
1.125
309
GRIDFORMAT_END
 95
       32
302
GRIDFORMAT
  1
GRIDFORMAT_BEGIN
 90
        0
 91
        1
 62
     0
 92
       -2
340
0
 93
        0
 40
1.125
309
GRIDFORMAT_END
309
TABLEFORMAT_END
  1
CELLSTYLE_BEGIN
 90
        1
 91
        1
300
_TITLE
309
CELLSTYLE_END
300
CELLSTYLE
  1
TABLEFORMAT_BEGIN
 90
        5
170
     1
 91
        0
 92
        0
 62
   257
 93
        1
300
CONTENTFORMAT
  1
CONTENTFORMAT_BEGIN
 90
        0
 91
        0
 92
      512
 93
        0
300

 40
0.0
140
1.0
 94
        5
 62
     0
340
11
144
4.5
309
CONTENTFORMAT_END
171
     1
301
MARGIN
  1
CELLMARGIN_BEGIN
 40
1.5
 40
1.5
 40
1.5
 40
1.5
 40
4.5
 40
4.5
309
CELLMARGIN_END
 94
        6
 95
        1
302
GRIDFORMAT
  1
GRIDFORMAT_BEGIN
 90
        0
 91
        1
 62
     0
 92
       -2
340
0
 93
        0
 40
1.125
309
GRIDFORMAT_END
 95
        2
302
GRIDFORMAT
  1
GRIDFORMAT_BEGIN
 90
        0
 91
        1
 62
     0
 92
       -2
340
0
 93
        0
 40
1.125
309
GRIDFORMAT_END
 95
        4
302
GRIDFORMAT
  1
GRIDFORMAT_BEGIN
 90
        0
 91
        1
 62
     0
 92
       -2
340
0
 93
        0
 40
1.125
309
GRIDFORMAT_END
 95
        8
302
GRIDFORMAT
  1
GRIDFORMAT_BEGIN
 90
        0
 91
        1
 62
     0
 92
       -2
340
0
 93
        0
 40
1.125
309
GRIDFORMAT_END
 95
       16
302
GRIDFORMAT
  1
GRIDFORMAT_BEGIN
 90
        0
 91
        1
 62
     0
 92
       -2
340
0
 93
        0
 40
1.125
309
GRIDFORMAT_END
 95
       32
302
GRIDFORMAT
  1
GRIDFORMAT_BEGIN
 90
        0
 91
        1
 62
     0
 92
       -2
340
0
 93
        0
 40
1.125
309
GRIDFORMAT_END
309
TABLEFORMAT_END
  1
CELLSTYLE_BEGIN
 90
        2
 91
        1
300
_HEADER
309
CELLSTYLE_END
300
CELLSTYLE
  1
TABLEFORMAT_BEGIN
 90
        5
170
     1
 91
        0
 92
        0
 62
   257
 93
        1
300
CONTENTFORMAT
  1
CONTENTFORMAT_BEGIN
 90
        0
 91
        0
 92
      512
 93
        0
300

 40
0.0
140
1.0
 94
        2
 62
     0
340
11
144
4.5
309
CONTENTFORMAT_END
171
     1
301
MARGIN
  1
CELLMARGIN_BEGIN
 40
1.5
 40
1.5
 40
1.5
 40
1.5
 40
4.5
 40
4.5
309
CELLMARGIN_END
 94
        6
 95
        1
302
GRIDFORMAT
  1
GRIDFORMAT_BEGIN
 90
        0
 91
        1
 62
     0
 92
       -2
340
0
 93
        0
 40
1.125
309
GRIDFORMAT_END
 95
        2
302
GRIDFORMAT
  1
GRIDFORMAT_BEGIN
 90
        0
 91
        1
 62
     0
 92
       -2
340
0
 93
        0
 40
1.125
309
GRIDFORMAT_END
 95
        4
302
GRIDFORMAT
  1
GRIDFORMAT_BEGIN
 90
        0
 91
        1
 62
     0
 92
       -2
340
0
 93
        0
 40
1.125
309
GRIDFORMAT_END
 95
        8
302
GRIDFORMAT
  1
GRIDFORMAT_BEGIN
 90
        0
 91
        1
 62
     0
 92
       -2
340
0
 93
        0
 40
1.125
309
GRIDFORMAT_END
 95
       16
302
GRIDFORMAT
  1
GRIDFORMAT_BEGIN
 90
        0
 91
        1
 62
     0
 92
       -2
340
0
 93
        0
 40
1.125
309
GRIDFORMAT_END
 95
       32
302
GRIDFORMAT
  1
GRIDFORMAT_BEGIN
 90
        0
 91
        1
 62
     0
 92
       -2
340
0
 93
        0
 40
1.125
309
GRIDFORMAT_END
309
TABLEFORMAT_END
  1
CELLSTYLE_BEGIN
 90
        3
 91
        2
300
_DATA
309
CELLSTYLE_END
  0
XRECORD
  5
6E5
102
{ACAD_REACTORS
330
6A0
102
}
330
6A0
100
AcDbXrecord
280
     1
102
ACAD_ROUNDTRIP_PRE2007_TABLESTYLE
 90
      512
 91
        0
  1

 92
      512
 93
        0
  2

 94
      512
 95
        0
  3

  0
XRECORD
  5
6C0
102
{ACAD_REACTORS
330
6BF
102
}
330
6BF
100
AcDbXrecord
280
     1
102
RTVSPropertyOp0
 70
     1
102
RTVSPropertyOp1
 70
     1
102
RTVSPropertyOp2
 70
     1
102
RTVSPropertyOp3
 70
     1
102
RTVSPropertyOp4
 70
     1
102
RTVSPropertyOp5
 70
     1
102
RTVSPropertyOp6
 70
     1
102
RTVSPropertyOp7
 70
     1
102
RTVSPropertyOp8
 70
     1
102
RTVSPropertyOp9
 70
     1
102
RTVSPropertyOp10
 70
     1
102
RTVSPropertyOp11
 70
     1
102
RTVSPropertyOp12
 70
     1
102
RTVSPropertyOp13
 70
     1
102
RTVSPropertyOp14
 70
     1
102
RTVSPropertyOp15
 70
     1
102
RTVSPropertyOp16
 70
     1
102
RTVSPropertyOp17
 70
     1
102
RTVSPropertyOp18
 70
     1
102
RTVSPropertyOp19
 70
     1
102
RTVSPropertyOp20
 70
     1
102
RTVSPropertyOp21
 70
     1
102
RTVSPropertyOp22
 70
     1
102
RTVSPropertyOp23
 70
     1
102
RTVSPropertyOp24
 70
     1
102
RTVSPropertyOp25
 70
     1
102
RTVSPropertyOp26
 70
     1
102
RTVSPropertyOp27
 70
     1
102
RTVSPropertyOp28
 70
     1
102
RTVSPropertyOp29
 70
     1
102
RTVSPropertyOp30
 70
     1
102
RTVSPropertyOp31
 70
     1
102
RTVSPropertyOp32
 70
     1
  0
XRECORD
  5
6BE
102
{ACAD_REACTORS
330
6BD
102
}
330
6BD
100
AcDbXrecord
280
     1
102
RTVSPropertyOp0
 70
     1
102
RTVSPropertyOp1
 70
     1
102
RTVSPropertyOp2
 70
     1
102
RTVSPropertyOp3
 70
     1
102
RTVSPropertyOp4
 70
     1
102
RTVSPropertyOp5
 70
     1
102
RTVSPropertyOp6
 70
     1
102
RTVSPropertyOp7
 70
     1
102
RTVSPropertyOp8
 70
     1
102
RTVSPropertyOp9
 70
     1
102
RTVSPropertyOp10
 70
     1
102
RTVSPropertyOp11
 70
     1
102
RTVSPropertyOp12
 70
     1
102
RTVSPropertyOp13
 70
     1
102
RTVSPropertyOp14
 70
     1
102
RTVSPropertyOp15
 70
     1
102
RTVSPropertyOp16
 70
     1
102
RTVSPropertyOp17
 70
     1
102
RTVSPropertyOp18
 70
     1
102
RTVSPropertyOp19
 70
     1
102
RTVSPropertyOp20
 70
     1
102
RTVSPropertyOp21
 70
     1
102
RTVSPropertyOp22
 70
     1
102
RTVSPropertyOp23
 70
     1
102
RTVSPropertyOp24
 70
     1
102
RTVSPropertyOp25
 70
     1
102
RTVSPropertyOp26
 70
     1
102
RTVSPropertyOp27
 70
     1
102
RTVSPropertyOp28
 70
     1
102
RTVSPropertyOp29
 70
     1
102
RTVSPropertyOp30
 70
     1
102
RTVSPropertyOp31
 70
     1
102
RTVSPropertyOp32
 70
     1
  0
XRECORD
  5
6CC
102
{ACAD_REACTORS
330
6CB
102
}
330
6CB
100
AcDbXrecord
280
     1
102
RTVSPropertyOp0
 70
     1
102
RTVSPropertyOp1
 70
     1
102
RTVSPropertyOp2
 70
     1
102
RTVSPropertyOp3
 70
     1
102
RTVSPropertyOp4
 70
     1
102
RTVSPropertyOp5
 70
     1
102
RTVSPropertyOp6
 70
     1
102
RTVSPropertyOp7
 70
     1
102
RTVSPropertyOp8
 70
     1
102
RTVSPropertyOp9
 70
     1
102
RTVSPropertyOp10
 70
     1
102
RTVSPropertyOp11
 70
     1
102
RTVSPropertyOp12
 70
     1
102
RTVSPropertyOp13
 70
     1
102
RTVSPropertyOp14
 70
     1
102
RTVSPropertyOp15
 70
     1
102
RTVSPropertyOp16
 70
     1
102
RTVSPropertyOp17
 70
     1
102
RTVSPropertyOp18
 70
     1
102
RTVSPropertyOp19
 70
     1
102
RTVSPropertyOp20
 70
     1
102
RTVSPropertyOp21
 70
     1
102
RTVSPropertyOp22
 70
     1
102
RTVSPropertyOp23
 70
     1
102
RTVSPropertyOp24
 70
     1
102
RTVSPropertyOp25
 70
     1
102
RTVSPropertyOp26
 70
     1
102
RTVSPropertyOp27
 70
     1
102
RTVSPropertyOp28
 70
     1
102
RTVSPropertyOp29
 70
     1
102
RTVSPropertyOp30
 70
     1
102
RTVSPropertyOp31
 70
     1
102
RTVSPropertyOp32
 70
     1
  0
XRECORD
  5
6D4
102
{ACAD_REACTORS
330
6D3
102
}
330
6D3
100
AcDbXrecord
280
     1
102
RTVSPropertyOp0
 70
     1
102
RTVSPropertyOp1
 70
     1
102
RTVSPropertyOp2
 70
     1
102
RTVSPropertyOp3
 70
     1
102
RTVSPropertyOp4
 70
     1
102
RTVSPropertyOp5
 70
     1
102
RTVSPropertyOp6
 70
     1
102
RTVSPropertyOp7
 70
     1
102
RTVSPropertyOp8
 70
     1
102
RTVSPropertyOp9
 70
     1
102
RTVSPropertyOp10
 70
     1
102
RTVSPropertyOp11
 70
     1
102
RTVSPropertyOp12
 70
     1
102
RTVSPropertyOp13
 70
     1
102
RTVSPropertyOp14
 70
     1
102
RTVSPropertyOp15
 70
     1
102
RTVSPropertyOp16
 70
     1
102
RTVSPropertyOp17
 70
     1
102
RTVSPropertyOp18
 70
     1
102
RTVSPropertyOp19
 70
     1
102
RTVSPropertyOp20
 70
     1
102
RTVSPropertyOp21
 70
     1
102
RTVSPropertyOp22
 70
     1
102
RTVSPropertyOp23
 70
     1
102
RTVSPropertyOp24
 70
     1
102
RTVSPropertyOp25
 70
     1
102
RTVSPropertyOp26
 70
     1
102
RTVSPropertyOp27
 70
     1
102
RTVSPropertyOp28
 70
     1
102
RTVSPropertyOp29
 70
     1
102
RTVSPropertyOp30
 70
     1
102
RTVSPropertyOp31
 70
     1
102
RTVSPropertyOp32
 70
     1
  0
XRECORD
  5
6C6
102
{ACAD_REACTORS
330
6C5
102
}
330
6C5
100
AcDbXrecord
280
     1
102
RTVSPropertyOp0
 70
     1
102
RTVSPropertyOp1
 70
     1
102
RTVSPropertyOp2
 70
     1
102
RTVSPropertyOp3
 70
     1
102
RTVSPropertyOp4
 70
     1
102
RTVSPropertyOp5
 70
     1
102
RTVSPropertyOp6
 70
     1
102
RTVSPropertyOp7
 70
     1
102
RTVSPropertyOp8
 70
     1
102
RTVSPropertyOp9
 70
     1
102
RTVSPropertyOp10
 70
     1
102
RTVSPropertyOp11
 70
     1
102
RTVSPropertyOp12
 70
     1
102
RTVSPropertyOp13
 70
     1
102
RTVSPropertyOp14
 70
     1
102
RTVSPropertyOp15
 70
     1
102
RTVSPropertyOp16
 70
     1
102
RTVSPropertyOp17
 70
     1
102
RTVSPropertyOp18
 70
     1
102
RTVSPropertyOp19
 70
     1
102
RTVSPropertyOp20
 70
     1
102
RTVSPropertyOp21
 70
     1
102
RTVSPropertyOp22
 70
     1
102
RTVSPropertyOp23
 70
     1
102
RTVSPropertyOp24
 70
     1
102
RTVSPropertyOp25
 70
     1
102
RTVSPropertyOp26
 70
     1
102
RTVSPropertyOp27
 70
     1
102
RTVSPropertyOp28
 70
     1
102
RTVSPropertyOp29
 70
     1
102
RTVSPropertyOp30
 70
     1
102
RTVSPropertyOp31
 70
     1
102
RTVSPropertyOp32
 70
     1
  0
XRECORD
  5
6CA
102
{ACAD_REACTORS
330
6C9
102
}
330
6C9
100
AcDbXrecord
280
     1
102
RTVSPropertyOp0
 70
     1
102
RTVSPropertyOp1
 70
     1
102
RTVSPropertyOp2
 70
     1
102
RTVSPropertyOp3
 70
     1
102
RTVSPropertyOp4
 70
     1
102
RTVSPropertyOp5
 70
     1
102
RTVSPropertyOp6
 70
     1
102
RTVSPropertyOp7
 70
     1
102
RTVSPropertyOp8
 70
     1
102
RTVSPropertyOp9
 70
     1
102
RTVSPropertyOp10
 70
     1
102
RTVSPropertyOp11
 70
     1
102
RTVSPropertyOp12
 70
     1
102
RTVSPropertyOp13
 70
     1
102
RTVSPropertyOp14
 70
     1
102
RTVSPropertyOp15
 70
     1
102
RTVSPropertyOp16
 70
     1
102
RTVSPropertyOp17
 70
     1
102
RTVSPropertyOp18
 70
     1
102
RTVSPropertyOp19
 70
     1
102
RTVSPropertyOp20
 70
     1
102
RTVSPropertyOp21
 70
     1
102
RTVSPropertyOp22
 70
     1
102
RTVSPropertyOp23
 70
     1
102
RTVSPropertyOp24
 70
     1
102
RTVSPropertyOp25
 70
     1
102
RTVSPropertyOp26
 70
     1
102
RTVSPropertyOp27
 70
     1
102
RTVSPropertyOp28
 70
     1
102
RTVSPropertyOp29
 70
     1
102
RTVSPropertyOp30
 70
     1
102
RTVSPropertyOp31
 70
     1
102
RTVSPropertyOp32
 70
     1
  0
XRECORD
  5
6E4
102
{ACAD_REACTORS
330
6E3
102
}
330
6E3
100
AcDbXrecord
280
     1
102
RTVSPropertyOp0
 70
     0
102
RTVSPropertyOp1
 70
     0
102
RTVSPropertyOp2
 70
     0
102
RTVSPropertyOp3
 70
     0
102
RTVSPropertyOp4
 70
     0
102
RTVSPropertyOp5
 70
     0
102
RTVSPropertyOp6
 70
     0
102
RTVSPropertyOp7
 70
     0
102
RTVSPropertyOp8
 70
     0
102
RTVSPropertyOp9
 70
     0
102
RTVSPropertyOp10
 70
     0
102
RTVSPropertyOp11
 70
     0
102
RTVSPropertyOp12
 70
     0
102
RTVSPropertyOp13
 70
     0
102
RTVSPropertyOp14
 70
     2
102
RTVSPropertyOp15
 70
     0
102
RTVSPropertyOp16
 70
     0
102
RTVSPropertyOp17
 70
     0
102
RTVSPropertyOp18
 70
     0
102
RTVSPropertyOp19
 70
     0
102
RTVSPropertyOp20
 70
     0
102
RTVSPropertyOp21
 70
     0
102
RTVSPropertyOp22
 70
     0
102
RTVSPropertyOp23
 70
     0
102
RTVSPropertyOp24
 70
     0
102
RTVSPropertyOp25
 70
     0
102
RTVSPropertyOp26
 70
     0
102
RTVSPropertyOp27
 70
     0
102
RTVSPropertyOp28
 70
     0
102
RTVSPropertyOp29
 70
     0
102
RTVSPropertyOp30
 70
     0
102
RTVSPropertyOp31
 70
     0
102
RTVSPropertyOp32
 70
     0
  0
XRECORD
  5
6D2
102
{ACAD_REACTORS
330
6D1
102
}
330
6D1
100
AcDbXrecord
280
     1
102
RTVSPropertyOp0
 70
     1
102
RTVSPropertyOp1
 70
     1
102
RTVSPropertyOp2
 70
     1
102
RTVSPropertyOp3
 70
     1
102
RTVSPropertyOp4
 70
     1
102
RTVSPropertyOp5
 70
     1
102
RTVSPropertyOp6
 70
     1
102
RTVSPropertyOp7
 70
     1
102
RTVSPropertyOp8
 70
     1
102
RTVSPropertyOp9
 70
     1
102
RTVSPropertyOp10
 70
     1
102
RTVSPropertyOp11
 70
     1
102
RTVSPropertyOp12
 70
     1
102
RTVSPropertyOp13
 70
     1
102
RTVSPropertyOp14
 70
     1
102
RTVSPropertyOp15
 70
     1
102
RTVSPropertyOp16
 70
     1
102
RTVSPropertyOp17
 70
     1
102
RTVSPropertyOp18
 70
     1
102
RTVSPropertyOp19
 70
     1
102
RTVSPropertyOp20
 70
     1
102
RTVSPropertyOp21
 70
     1
102
RTVSPropertyOp22
 70
     1
102
RTVSPropertyOp23
 70
     1
102
RTVSPropertyOp24
 70
     1
102
RTVSPropertyOp25
 70
     1
102
RTVSPropertyOp26
 70
     1
102
RTVSPropertyOp27
 70
     1
102
RTVSPropertyOp28
 70
     1
102
RTVSPropertyOp29
 70
     1
102
RTVSPropertyOp30
 70
     1
102
RTVSPropertyOp31
 70
     1
102
RTVSPropertyOp32
 70
     1
  0
XRECORD
  5
6B6
102
{ACAD_REACTORS
330
6B5
102
}
330
6B5
100
AcDbXrecord
280
     1
102
RTVSPropertyOp0
 70
     1
102
RTVSPropertyOp1
 70
     1
102
RTVSPropertyOp2
 70
     1
102
RTVSPropertyOp3
 70
     1
102
RTVSPropertyOp4
 70
     1
102
RTVSPropertyOp5
 70
     1
102
RTVSPropertyOp6
 70
     1
102
RTVSPropertyOp7
 70
     1
102
RTVSPropertyOp8
 70
     1
102
RTVSPropertyOp9
 70
     1
102
RTVSPropertyOp10
 70
     1
102
RTVSPropertyOp11
 70
     1
102
RTVSPropertyOp12
 70
     1
102
RTVSPropertyOp13
 70
     1
102
RTVSPropertyOp14
 70
     1
102
RTVSPropertyOp15
 70
     1
102
RTVSPropertyOp16
 70
     1
102
RTVSPropertyOp17
 70
     1
102
RTVSPropertyOp18
 70
     1
102
RTVSPropertyOp19
 70
     1
102
RTVSPropertyOp20
 70
     1
102
RTVSPropertyOp21
 70
     1
102
RTVSPropertyOp22
 70
     1
102
RTVSPropertyOp23
 70
     1
102
RTVSPropertyOp24
 70
     1
102
RTVSPropertyOp25
 70
     1
102
RTVSPropertyOp26
 70
     1
102
RTVSPropertyOp27
 70
     1
102
RTVSPropertyOp28
 70
     1
102
RTVSPropertyOp29
 70
     1
102
RTVSPropertyOp30
 70
     1
102
RTVSPropertyOp31
 70
     1
102
RTVSPropertyOp32
 70
     1
  0
XRECORD
  5
6B8
102
{ACAD_REACTORS
330
6B7
102
}
330
6B7
100
AcDbXrecord
280
     1
102
RTVSPropertyOp0
 70
     1
102
RTVSPropertyOp1
 70
     1
102
RTVSPropertyOp2
 70
     1
102
RTVSPropertyOp3
 70
     1
102
RTVSPropertyOp4
 70
     1
102
RTVSPropertyOp5
 70
     1
102
RTVSPropertyOp6
 70
     1
102
RTVSPropertyOp7
 70
     1
102
RTVSPropertyOp8
 70
     1
102
RTVSPropertyOp9
 70
     1
102
RTVSPropertyOp10
 70
     1
102
RTVSPropertyOp11
 70
     1
102
RTVSPropertyOp12
 70
     1
102
RTVSPropertyOp13
 70
     1
102
RTVSPropertyOp14
 70
     1
102
RTVSPropertyOp15
 70
     1
102
RTVSPropertyOp16
 70
     1
102
RTVSPropertyOp17
 70
     1
102
RTVSPropertyOp18
 70
     1
102
RTVSPropertyOp19
 70
     1
102
RTVSPropertyOp20
 70
     1
102
RTVSPropertyOp21
 70
     1
102
RTVSPropertyOp22
 70
     1
102
RTVSPropertyOp23
 70
     1
102
RTVSPropertyOp24
 70
     1
102
RTVSPropertyOp25
 70
     1
102
RTVSPropertyOp26
 70
     1
102
RTVSPropertyOp27
 70
     1
102
RTVSPropertyOp28
 70
     1
102
RTVSPropertyOp29
 70
     1
102
RTVSPropertyOp30
 70
     1
102
RTVSPropertyOp31
 70
     1
102
RTVSPropertyOp32
 70
     1
  0
XRECORD
  5
6BA
102
{ACAD_REACTORS
330
6B9
102
}
330
6B9
100
AcDbXrecord
280
     1
102
RTVSPropertyOp0
 70
     1
102
RTVSPropertyOp1
 70
     1
102
RTVSPropertyOp2
 70
     1
102
RTVSPropertyOp3
 70
     1
102
RTVSPropertyOp4
 70
     1
102
RTVSPropertyOp5
 70
     1
102
RTVSPropertyOp6
 70
     1
102
RTVSPropertyOp7
 70
     1
102
RTVSPropertyOp8
 70
     1
102
RTVSPropertyOp9
 70
     1
102
RTVSPropertyOp10
 70
     1
102
RTVSPropertyOp11
 70
     1
102
RTVSPropertyOp12
 70
     1
102
RTVSPropertyOp13
 70
     1
102
RTVSPropertyOp14
 70
     1
102
RTVSPropertyOp15
 70
     1
102
RTVSPropertyOp16
 70
     1
102
RTVSPropertyOp17
 70
     1
102
RTVSPropertyOp18
 70
     1
102
RTVSPropertyOp19
 70
     1
102
RTVSPropertyOp20
 70
     1
102
RTVSPropertyOp21
 70
     1
102
RTVSPropertyOp22
 70
     1
102
RTVSPropertyOp23
 70
     1
102
RTVSPropertyOp24
 70
     1
102
RTVSPropertyOp25
 70
     1
102
RTVSPropertyOp26
 70
     1
102
RTVSPropertyOp27
 70
     1
102
RTVSPropertyOp28
 70
     1
102
RTVSPropertyOp29
 70
     1
102
RTVSPropertyOp30
 70
     1
102
RTVSPropertyOp31
 70
     1
102
RTVSPropertyOp32
 70
     1
  0
XRECORD
  5
6BC
102
{ACAD_REACTORS
330
6BB
102
}
330
6BB
100
AcDbXrecord
280
     1
102
RTVSPropertyOp0
 70
     1
102
RTVSPropertyOp1
 70
     1
102
RTVSPropertyOp2
 70
     1
102
RTVSPropertyOp3
 70
     1
102
RTVSPropertyOp4
 70
     1
102
RTVSPropertyOp5
 70
     1
102
RTVSPropertyOp6
 70
     1
102
RTVSPropertyOp7
 70
     1
102
RTVSPropertyOp8
 70
     1
102
RTVSPropertyOp9
 70
     1
102
RTVSPropertyOp10
 70
     1
102
RTVSPropertyOp11
 70
     1
102
RTVSPropertyOp12
 70
     1
102
RTVSPropertyOp13
 70
     1
102
RTVSPropertyOp14
 70
     1
102
RTVSPropertyOp15
 70
     1
102
RTVSPropertyOp16
 70
     1
102
RTVSPropertyOp17
 70
     1
102
RTVSPropertyOp18
 70
     1
102
RTVSPropertyOp19
 70
     1
102
RTVSPropertyOp20
 70
     1
102
RTVSPropertyOp21
 70
     1
102
RTVSPropertyOp22
 70
     1
102
RTVSPropertyOp23
 70
     1
102
RTVSPropertyOp24
 70
     1
102
RTVSPropertyOp25
 70
     1
102
RTVSPropertyOp26
 70
     1
102
RTVSPropertyOp27
 70
     1
102
RTVSPropertyOp28
 70
     1
102
RTVSPropertyOp29
 70
     1
102
RTVSPropertyOp30
 70
     1
102
RTVSPropertyOp31
 70
     1
102
RTVSPropertyOp32
 70
     1
  0
XRECORD
  5
6C4
102
{ACAD_REACTORS
330
6C3
102
}
330
6C3
100
AcDbXrecord
280
     1
102
RTVSPropertyOp0
 70
     1
102
RTVSPropertyOp1
 70
     1
102
RTVSPropertyOp2
 70
     1
102
RTVSPropertyOp3
 70
     1
102
RTVSPropertyOp4
 70
     1
102
RTVSPropertyOp5
 70
     1
102
RTVSPropertyOp6
 70
     1
102
RTVSPropertyOp7
 70
     1
102
RTVSPropertyOp8
 70
     1
102
RTVSPropertyOp9
 70
     1
102
RTVSPropertyOp10
 70
     1
102
RTVSPropertyOp11
 70
     1
102
RTVSPropertyOp12
 70
     1
102
RTVSPropertyOp13
 70
     1
102
RTVSPropertyOp14
 70
     1
102
RTVSPropertyOp15
 70
     1
102
RTVSPropertyOp16
 70
     1
102
RTVSPropertyOp17
 70
     1
102
RTVSPropertyOp18
 70
     1
102
RTVSPropertyOp19
 70
     1
102
RTVSPropertyOp20
 70
     1
102
RTVSPropertyOp21
 70
     1
102
RTVSPropertyOp22
 70
     1
102
RTVSPropertyOp23
 70
     1
102
RTVSPropertyOp24
 70
     1
102
RTVSPropertyOp25
 70
     1
102
RTVSPropertyOp26
 70
     1
102
RTVSPropertyOp27
 70
     1
102
RTVSPropertyOp28
 70
     1
102
RTVSPropertyOp29
 70
     1
102
RTVSPropertyOp30
 70
     1
102
RTVSPropertyOp31
 70
     1
102
RTVSPropertyOp32
 70
     1
  0
XRECORD
  5
6E0
102
{ACAD_REACTORS
330
6DF
102
}
330
6DF
100
AcDbXrecord
280
     1
102
RTVSPropertyOp0
 70
     0
102
RTVSPropertyOp1
 70
     0
102
RTVSPropertyOp2
 70
     0
102
RTVSPropertyOp3
 70
     0
102
RTVSPropertyOp4
 70
     0
102
RTVSPropertyOp5
 70
     0
102
RTVSPropertyOp6
 70
     0
102
RTVSPropertyOp7
 70
     0
102
RTVSPropertyOp8
 70
     0
102
RTVSPropertyOp9
 70
     0
102
RTVSPropertyOp10
 70
     0
102
RTVSPropertyOp11
 70
     0
102
RTVSPropertyOp12
 70
     0
102
RTVSPropertyOp13
 70
     0
102
RTVSPropertyOp14
 70
     2
102
RTVSPropertyOp15
 70
     0
102
RTVSPropertyOp16
 70
     0
102
RTVSPropertyOp17
 70
     0
102
RTVSPropertyOp18
 70
     0
102
RTVSPropertyOp19
 70
     0
102
RTVSPropertyOp20
 70
     0
102
RTVSPropertyOp21
 70
     0
102
RTVSPropertyOp22
 70
     0
102
RTVSPropertyOp23
 70
     0
102
RTVSPropertyOp24
 70
     0
102
RTVSPropertyOp25
 70
     0
102
RTVSPropertyOp26
 70
     0
102
RTVSPropertyOp27
 70
     0
102
RTVSPropertyOp28
 70
     0
102
RTVSPropertyOp29
 70
     0
102
RTVSPropertyOp30
 70
     0
102
RTVSPropertyOp31
 70
     0
102
RTVSPropertyOp32
 70
     0
  0
XRECORD
  5
6D0
102
{ACAD_REACTORS
330
6CF
102
}
330
6CF
100
AcDbXrecord
280
     1
102
RTVSPropertyOp0
 70
     1
102
RTVSPropertyOp1
 70
     1
102
RTVSPropertyOp2
 70
     1
102
RTVSPropertyOp3
 70
     1
102
RTVSPropertyOp4
 70
     1
102
RTVSPropertyOp5
 70
     1
102
RTVSPropertyOp6
 70
     1
102
RTVSPropertyOp7
 70
     1
102
RTVSPropertyOp8
 70
     1
102
RTVSPropertyOp9
 70
     1
102
RTVSPropertyOp10
 70
     1
102
RTVSPropertyOp11
 70
     1
102
RTVSPropertyOp12
 70
     1
102
RTVSPropertyOp13
 70
     1
102
RTVSPropertyOp14
 70
     1
102
RTVSPropertyOp15
 70
     1
102
RTVSPropertyOp16
 70
     1
102
RTVSPropertyOp17
 70
     1
102
RTVSPropertyOp18
 70
     1
102
RTVSPropertyOp19
 70
     1
102
RTVSPropertyOp20
 70
     1
102
RTVSPropertyOp21
 70
     1
102
RTVSPropertyOp22
 70
     1
102
RTVSPropertyOp23
 70
     1
102
RTVSPropertyOp24
 70
     1
102
RTVSPropertyOp25
 70
     1
102
RTVSPropertyOp26
 70
     1
102
RTVSPropertyOp27
 70
     1
102
RTVSPropertyOp28
 70
     1
102
RTVSPropertyOp29
 70
     1
102
RTVSPropertyOp30
 70
     1
102
RTVSPropertyOp31
 70
     1
102
RTVSPropertyOp32
 70
     1
  0
XRECORD
  5
6E2
102
{ACAD_REACTORS
330
6E1
102
}
330
6E1
100
AcDbXrecord
280
     1
102
RTVSPropertyOp0
 70
     0
102
RTVSPropertyOp1
 70
     0
102
RTVSPropertyOp2
 70
     0
102
RTVSPropertyOp3
 70
     0
102
RTVSPropertyOp4
 70
     0
102
RTVSPropertyOp5
 70
     0
102
RTVSPropertyOp6
 70
     0
102
RTVSPropertyOp7
 70
     0
102
RTVSPropertyOp8
 70
     0
102
RTVSPropertyOp9
 70
     0
102
RTVSPropertyOp10
 70
     0
102
RTVSPropertyOp11
 70
     0
102
RTVSPropertyOp12
 70
     0
102
RTVSPropertyOp13
 70
     0
102
RTVSPropertyOp14
 70
     2
102
RTVSPropertyOp15
 70
     0
102
RTVSPropertyOp16
 70
     0
102
RTVSPropertyOp17
 70
     0
102
RTVSPropertyOp18
 70
     0
102
RTVSPropertyOp19
 70
     0
102
RTVSPropertyOp20
 70
     0
102
RTVSPropertyOp21
 70
     0
102
RTVSPropertyOp22
 70
     0
102
RTVSPropertyOp23
 70
     0
102
RTVSPropertyOp24
 70
     0
102
RTVSPropertyOp25
 70
     0
102
RTVSPropertyOp26
 70
     0
102
RTVSPropertyOp27
 70
     0
102
RTVSPropertyOp28
 70
     0
102
RTVSPropertyOp29
 70
     0
102
RTVSPropertyOp30
 70
     0
102
RTVSPropertyOp31
 70
     0
102
RTVSPropertyOp32
 70
     0
  0
XRECORD
  5
6C8
102
{ACAD_REACTORS
330
6C7
102
}
330
6C7
100
AcDbXrecord
280
     1
102
RTVSPropertyOp0
 70
     1
102
RTVSPropertyOp1
 70
     1
102
RTVSPropertyOp2
 70
     1
102
RTVSPropertyOp3
 70
     1
102
RTVSPropertyOp4
 70
     1
102
RTVSPropertyOp5
 70
     1
102
RTVSPropertyOp6
 70
     1
102
RTVSPropertyOp7
 70
     1
102
RTVSPropertyOp8
 70
     1
102
RTVSPropertyOp9
 70
     1
102
RTVSPropertyOp10
 70
     1
102
RTVSPropertyOp11
 70
     1
102
RTVSPropertyOp12
 70
     1
102
RTVSPropertyOp13
 70
     1
102
RTVSPropertyOp14
 70
     1
102
RTVSPropertyOp15
 70
     1
102
RTVSPropertyOp16
 70
     1
102
RTVSPropertyOp17
 70
     1
102
RTVSPropertyOp18
 70
     1
102
RTVSPropertyOp19
 70
     1
102
RTVSPropertyOp20
 70
     1
102
RTVSPropertyOp21
 70
     1
102
RTVSPropertyOp22
 70
     1
102
RTVSPropertyOp23
 70
     1
102
RTVSPropertyOp24
 70
     1
102
RTVSPropertyOp25
 70
     1
102
RTVSPropertyOp26
 70
     1
102
RTVSPropertyOp27
 70
     1
102
RTVSPropertyOp28
 70
     1
102
RTVSPropertyOp29
 70
     1
102
RTVSPropertyOp30
 70
     1
102
RTVSPropertyOp31
 70
     1
102
RTVSPropertyOp32
 70
     1
  0
XRECORD
  5
6DE
102
{ACAD_REACTORS
330
6DD
102
}
330
6DD
100
AcDbXrecord
280
     1
102
RTVSPropertyOp0
 70
     1
102
RTVSPropertyOp1
 70
     1
102
RTVSPropertyOp2
 70
     1
102
RTVSPropertyOp3
 70
     1
102
RTVSPropertyOp4
 70
     1
102
RTVSPropertyOp5
 70
     1
102
RTVSPropertyOp6
 70
     1
102
RTVSPropertyOp7
 70
     1
102
RTVSPropertyOp8
 70
     1
102
RTVSPropertyOp9
 70
     1
102
RTVSPropertyOp10
 70
     1
102
RTVSPropertyOp11
 70
     1
102
RTVSPropertyOp12
 70
     1
102
RTVSPropertyOp13
 70
     1
102
RTVSPropertyOp14
 70
     1
102
RTVSPropertyOp15
 70
     1
102
RTVSPropertyOp16
 70
     1
102
RTVSPropertyOp17
 70
     1
102
RTVSPropertyOp18
 70
     1
102
RTVSPropertyOp19
 70
     1
102
RTVSPropertyOp20
 70
     1
102
RTVSPropertyOp21
 70
     1
102
RTVSPropertyOp22
 70
     1
102
RTVSPropertyOp23
 70
     1
102
RTVSPropertyOp24
 70
     1
102
RTVSPropertyOp25
 70
     1
102
RTVSPropertyOp26
 70
     1
102
RTVSPropertyOp27
 70
     1
102
RTVSPropertyOp28
 70
     1
102
RTVSPropertyOp29
 70
     1
102
RTVSPropertyOp30
 70
     1
102
RTVSPropertyOp31
 70
     1
102
RTVSPropertyOp32
 70
     1
  0
XRECORD
  5
6DC
102
{ACAD_REACTORS
330
6DB
102
}
330
6DB
100
AcDbXrecord
280
     1
102
RTVSPropertyOp0
 70
     1
102
RTVSPropertyOp1
 70
     1
102
RTVSPropertyOp2
 70
     1
102
RTVSPropertyOp3
 70
     1
102
RTVSPropertyOp4
 70
     1
102
RTVSPropertyOp5
 70
     1
102
RTVSPropertyOp6
 70
     1
102
RTVSPropertyOp7
 70
     1
102
RTVSPropertyOp8
 70
     1
102
RTVSPropertyOp9
 70
     1
102
RTVSPropertyOp10
 70
     1
102
RTVSPropertyOp11
 70
     1
102
RTVSPropertyOp12
 70
     1
102
RTVSPropertyOp13
 70
     1
102
RTVSPropertyOp14
 70
     1
102
RTVSPropertyOp15
 70
     1
102
RTVSPropertyOp16
 70
     1
102
RTVSPropertyOp17
 70
     1
102
RTVSPropertyOp18
 70
     1
102
RTVSPropertyOp19
 70
     1
102
RTVSPropertyOp20
 70
     1
102
RTVSPropertyOp21
 70
     1
102
RTVSPropertyOp22
 70
     1
102
RTVSPropertyOp23
 70
     1
102
RTVSPropertyOp24
 70
     1
102
RTVSPropertyOp25
 70
     1
102
RTVSPropertyOp26
 70
     1
102
RTVSPropertyOp27
 70
     1
102
RTVSPropertyOp28
 70
     1
102
RTVSPropertyOp29
 70
     1
102
RTVSPropertyOp30
 70
     1
102
RTVSPropertyOp31
 70
     1
102
RTVSPropertyOp32
 70
     1
  0
XRECORD
  5
6D6
102
{ACAD_REACTORS
330
6D5
102
}
330
6D5
100
AcDbXrecord
280
     1
102
RTVSPropertyOp0
 70
     1
102
RTVSPropertyOp1
 70
     1
102
RTVSPropertyOp2
 70
     1
102
RTVSPropertyOp3
 70
     1
102
RTVSPropertyOp4
 70
     1
102
RTVSPropertyOp5
 70
     1
102
RTVSPropertyOp6
 70
     1
102
RTVSPropertyOp7
 70
     1
102
RTVSPropertyOp8
 70
     1
102
RTVSPropertyOp9
 70
     1
102
RTVSPropertyOp10
 70
     1
102
RTVSPropertyOp11
 70
     1
102
RTVSPropertyOp12
 70
     1
102
RTVSPropertyOp13
 70
     1
102
RTVSPropertyOp14
 70
     1
102
RTVSPropertyOp15
 70
     1
102
RTVSPropertyOp16
 70
     1
102
RTVSPropertyOp17
 70
     1
102
RTVSPropertyOp18
 70
     1
102
RTVSPropertyOp19
 70
     1
102
RTVSPropertyOp20
 70
     1
102
RTVSPropertyOp21
 70
     1
102
RTVSPropertyOp22
 70
     1
102
RTVSPropertyOp23
 70
     1
102
RTVSPropertyOp24
 70
     1
102
RTVSPropertyOp25
 70
     1
102
RTVSPropertyOp26
 70
     1
102
RTVSPropertyOp27
 70
     1
102
RTVSPropertyOp28
 70
     1
102
RTVSPropertyOp29
 70
     1
102
RTVSPropertyOp30
 70
     1
102
RTVSPropertyOp31
 70
     1
102
RTVSPropertyOp32
 70
     1
  0
XRECORD
  5
6D8
102
{ACAD_REACTORS
330
6D7
102
}
330
6D7
100
AcDbXrecord
280
     1
102
RTVSPropertyOp0
 70
     1
102
RTVSPropertyOp1
 70
     1
102
RTVSPropertyOp2
 70
     1
102
RTVSPropertyOp3
 70
     1
102
RTVSPropertyOp4
 70
     1
102
RTVSPropertyOp5
 70
     1
102
RTVSPropertyOp6
 70
     1
102
RTVSPropertyOp7
 70
     1
102
RTVSPropertyOp8
 70
     1
102
RTVSPropertyOp9
 70
     1
102
RTVSPropertyOp10
 70
     1
102
RTVSPropertyOp11
 70
     1
102
RTVSPropertyOp12
 70
     1
102
RTVSPropertyOp13
 70
     1
102
RTVSPropertyOp14
 70
     1
102
RTVSPropertyOp15
 70
     1
102
RTVSPropertyOp16
 70
     1
102
RTVSPropertyOp17
 70
     1
102
RTVSPropertyOp18
 70
     1
102
RTVSPropertyOp19
 70
     1
102
RTVSPropertyOp20
 70
     1
102
RTVSPropertyOp21
 70
     1
102
RTVSPropertyOp22
 70
     1
102
RTVSPropertyOp23
 70
     1
102
RTVSPropertyOp24
 70
     1
102
RTVSPropertyOp25
 70
     1
102
RTVSPropertyOp26
 70
     1
102
RTVSPropertyOp27
 70
     1
102
RTVSPropertyOp28
 70
     1
102
RTVSPropertyOp29
 70
     1
102
RTVSPropertyOp30
 70
     1
102
RTVSPropertyOp31
 70
     1
102
RTVSPropertyOp32
 70
     1
  0
XRECORD
  5
6CE
102
{ACAD_REACTORS
330
6CD
102
}
330
6CD
100
AcDbXrecord
280
     1
102
RTVSPropertyOp0
 70
     1
102
RTVSPropertyOp1
 70
     1
102
RTVSPropertyOp2
 70
     1
102
RTVSPropertyOp3
 70
     1
102
RTVSPropertyOp4
 70
     1
102
RTVSPropertyOp5
 70
     1
102
RTVSPropertyOp6
 70
     1
102
RTVSPropertyOp7
 70
     1
102
RTVSPropertyOp8
 70
     1
102
RTVSPropertyOp9
 70
     1
102
RTVSPropertyOp10
 70
     1
102
RTVSPropertyOp11
 70
     1
102
RTVSPropertyOp12
 70
     1
102
RTVSPropertyOp13
 70
     1
102
RTVSPropertyOp14
 70
     1
102
RTVSPropertyOp15
 70
     1
102
RTVSPropertyOp16
 70
     1
102
RTVSPropertyOp17
 70
     1
102
RTVSPropertyOp18
 70
     1
102
RTVSPropertyOp19
 70
     1
102
RTVSPropertyOp20
 70
     1
102
RTVSPropertyOp21
 70
     1
102
RTVSPropertyOp22
 70
     1
102
RTVSPropertyOp23
 70
     1
102
RTVSPropertyOp24
 70
     1
102
RTVSPropertyOp25
 70
     1
102
RTVSPropertyOp26
 70
     1
102
RTVSPropertyOp27
 70
     1
102
RTVSPropertyOp28
 70
     1
102
RTVSPropertyOp29
 70
     1
102
RTVSPropertyOp30
 70
     1
102
RTVSPropertyOp31
 70
     1
102
RTVSPropertyOp32
 70
     1
  0
XRECORD
  5
6C2
102
{ACAD_REACTORS
330
6C1
102
}
330
6C1
100
AcDbXrecord
280
     1
102
RTVSPropertyOp0
 70
     1
102
RTVSPropertyOp1
 70
     1
102
RTVSPropertyOp2
 70
     1
102
RTVSPropertyOp3
 70
     1
102
RTVSPropertyOp4
 70
     1
102
RTVSPropertyOp5
 70
     1
102
RTVSPropertyOp6
 70
     1
102
RTVSPropertyOp7
 70
     1
102
RTVSPropertyOp8
 70
     1
102
RTVSPropertyOp9
 70
     1
102
RTVSPropertyOp10
 70
     1
102
RTVSPropertyOp11
 70
     1
102
RTVSPropertyOp12
 70
     1
102
RTVSPropertyOp13
 70
     1
102
RTVSPropertyOp14
 70
     1
102
RTVSPropertyOp15
 70
     1
102
RTVSPropertyOp16
 70
     1
102
RTVSPropertyOp17
 70
     1
102
RTVSPropertyOp18
 70
     1
102
RTVSPropertyOp19
 70
     1
102
RTVSPropertyOp20
 70
     1
102
RTVSPropertyOp21
 70
     1
102
RTVSPropertyOp22
 70
     1
102
RTVSPropertyOp23
 70
     1
102
RTVSPropertyOp24
 70
     1
102
RTVSPropertyOp25
 70
     1
102
RTVSPropertyOp26
 70
     1
102
RTVSPropertyOp27
 70
     1
102
RTVSPropertyOp28
 70
     1
102
RTVSPropertyOp29
 70
     1
102
RTVSPropertyOp30
 70
     1
102
RTVSPropertyOp31
 70
     1
102
RTVSPropertyOp32
 70
     1
  0
XRECORD
  5
6DA
102
{ACAD_REACTORS
330
6D9
102
}
330
6D9
100
AcDbXrecord
280
     1
102
RTVSPropertyOp0
 70
     1
102
RTVSPropertyOp1
 70
     1
102
RTVSPropertyOp2
 70
     1
102
RTVSPropertyOp3
 70
     1
102
RTVSPropertyOp4
 70
     1
102
RTVSPropertyOp5
 70
     1
102
RTVSPropertyOp6
 70
     1
102
RTVSPropertyOp7
 70
     1
102
RTVSPropertyOp8
 70
     1
102
RTVSPropertyOp9
 70
     1
102
RTVSPropertyOp10
 70
     1
102
RTVSPropertyOp11
 70
     1
102
RTVSPropertyOp12
 70
     1
102
RTVSPropertyOp13
 70
     1
102
RTVSPropertyOp14
 70
     1
102
RTVSPropertyOp15
 70
     1
102
RTVSPropertyOp16
 70
     1
102
RTVSPropertyOp17
 70
     1
102
RTVSPropertyOp18
 70
     1
102
RTVSPropertyOp19
 70
     1
102
RTVSPropertyOp20
 70
     1
102
RTVSPropertyOp21
 70
     1
102
RTVSPropertyOp22
 70
     1
102
RTVSPropertyOp23
 70
     1
102
RTVSPropertyOp24
 70
     1
102
RTVSPropertyOp25
 70
     1
102
RTVSPropertyOp26
 70
     1
102
RTVSPropertyOp27
 70
     1
102
RTVSPropertyOp28
 70
     1
102
RTVSPropertyOp29
 70
     1
102
RTVSPropertyOp30
 70
     1
102
RTVSPropertyOp31
 70
     1
102
RTVSPropertyOp32
 70
     1
  0
ENDSEC
  0
EOF
