  0
SECTION
  2
HEADER
  9
$ACADVER
  1
AC1015
  9
$ACADMAINTVER
 70
    20
  9
$DWGCODEPAGE
  3
ANSI_932
  9
$INSBASE
 10
0.0
 20
0.0
 30
0.0
  9
$EXTMIN
 10
-263.6580542567474
 20
-199.6867529870776
 30
-0.0000000349181948
  9
$EXTMAX
 10
316.749254778181
 20
586.446841957048
 30
0.0000000814935747
  9
$LIMMIN
 10
0.0
 20
0.0
  9
$LIMMAX
 10
420.0
 20
297.0
  9
$ORTHOMODE
 70
     0
  9
$REGENMODE
 70
     1
  9
$FILLMODE
 70
     1
  9
$QTEXTMODE
 70
     0
  9
$MIRRTEXT
 70
     1
  9
$LTSCALE
 40
1.0
  9
$ATTMODE
 70
     1
  9
$TEXTSIZE
 40
2.5
  9
$TRACEWID
 40
1.0
  9
$TEXTSTYLE
  7
Standard
  9
$CLAYER
  8
0
  9
$CELTYPE
  6
Continuous
  9
$CECOLOR
 62
     7
  9
$CELTSCALE
 40
1.0
  9
$DISPSILH
 70
     0
  9
$DIMSCALE
 40
1.0
  9
$DIMASZ
 40
8.0
  9
$DIMEXO
 40
0.625
  9
$DIMDLI
 40
8.0
  9
$DIMRND
 40
0.0
  9
$DIMDLE
 40
0.0
  9
$DIMEXE
 40
1.25
  9
$DIMTP
 40
0.0
  9
$DIMTM
 40
0.0
  9
$DIMTXT
 40
8.0
  9
$DIMCEN
 40
8.0
  9
$DIMTSZ
 40
0.0
  9
$DIMTOL
 70
     0
  9
$DIMLIM
 70
     0
  9
$DIMTIH
 70
     0
  9
$DIMTOH
 70
     0
  9
$DIMSE1
 70
     0
  9
$DIMSE2
 70
     0
  9
$DIMTAD
 70
     1
  9
$DIMZIN
 70
     8
  9
$DIMBLK
  1

  9
$DIMASO
 70
     1
  9
$DIMSHO
 70
     1
  9
$DIMPOST
  1

  9
$DIMAPOST
  1

  9
$DIMALT
 70
     0
  9
$DIMALTD
 70
     3
  9
$DIMALTF
 40
0.03937007874016
  9
$DIMLFAC
 40
1.0
  9
$DIMTOFL
 70
     1
  9
$DIMTVP
 40
0.0
  9
$DIMTIX
 70
     0
  9
$DIMSOXD
 70
     0
  9
$DIMSAH
 70
     0
  9
$DIMBLK1
  1

  9
$DIMBLK2
  1

  9
$DIMSTYLE
  2
ISO-25
  9
$DIMCLRD
 70
     3
  9
$DIMCLRE
 70
     3
  9
$DIMCLRT
 70
     3
  9
$DIMTFAC
 40
1.0
  9
$DIMGAP
 40
0.625
  9
$DIMJUST
 70
     0
  9
$DIMSD1
 70
     0
  9
$DIMSD2
 70
     0
  9
$DIMTOLJ
 70
     0
  9
$DIMTZIN
 70
     8
  9
$DIMALTZ
 70
     0
  9
$DIMALTTZ
 70
     0
  9
$DIMUPT
 70
     0
  9
$DIMDEC
 70
     2
  9
$DIMTDEC
 70
     2
  9
$DIMALTU
 70
     2
  9
$DIMALTTD
 70
     3
  9
$DIMTXSTY
  7
Standard
  9
$DIMAUNIT
 70
     0
  9
$DIMADEC
 70
     0
  9
$DIMALTRND
 40
0.0
  9
$DIMAZIN
 70
     0
  9
$DIMDSEP
 70
    44
  9
$DIMATFIT
 70
     3
  9
$DIMFRAC
 70
     0
  9
$DIMLDRBLK
  1

  9
$DIMLUNIT
 70
     2
  9
$DIMLWD
 70
    -2
  9
$DIMLWE
 70
    -2
  9
$DIMTMOVE
 70
     0
  9
$LUNITS
 70
     2
  9
$LUPREC
 70
     4
  9
$SKETCHINC
 40
1.0
  9
$FILLETRAD
 40
7.0
  9
$AUNITS
 70
     0
  9
$AUPREC
 70
     0
  9
$MENU
  1
.
  9
$ELEVATION
 40
0.0
  9
$PELEVATION
 40
0.0
  9
$THICKNESS
 40
0.0
  9
$LIMCHECK
 70
     0
  9
$CHAMFERA
 40
10.0
  9
$CHAMFERB
 40
10.0
  9
$CHAMFERC
 40
20.0
  9
$CHAMFERD
 40
0.0
  9
$SKPOLY
 70
     0
  9
$TDCREATE
 40
2456042.712353704
  9
$TDUCREATE
 40
2456042.337353704
  9
$TDUPDATE
 40
2457124.601947303
  9
$TDUUPDATE
 40
2457124.226947303
  9
$TDINDWG
 40
0.1672162731
  9
$TDUSRTIMER
 40
0.1672161574
  9
$USRTIMER
 70
     1
  9
$ANGBASE
 50
0.0
  9
$ANGDIR
 70
     0
  9
$PDMODE
 70
     0
  9
$PDSIZE
 40
0.0
  9
$PLINEWID
 40
0.0
  9
$SPLFRAME
 70
     0
  9
$SPLINETYPE
 70
     6
  9
$SPLINESEGS
 70
     8
  9
$HANDSEED
  5
1ADB
  9
$SURFTAB1
 70
     6
  9
$SURFTAB2
 70
     6
  9
$SURFTYPE
 70
     6
  9
$SURFU
 70
     6
  9
$SURFV
 70
     6
  9
$UCSBASE
  2

  9
$UCSNAME
  2

  9
$UCSORG
 10
0.0
 20
0.0
 30
0.0
  9
$UCSXDIR
 10
1.0
 20
0.0
 30
0.0
  9
$UCSYDIR
 10
0.0
 20
1.0
 30
0.0
  9
$UCSORTHOREF
  2

  9
$UCSORTHOVIEW
 70
     0
  9
$UCSORGTOP
 10
0.0
 20
0.0
 30
0.0
  9
$UCSORGBOTTOM
 10
0.0
 20
0.0
 30
0.0
  9
$UCSORGLEFT
 10
0.0
 20
0.0
 30
0.0
  9
$UCSORGRIGHT
 10
0.0
 20
0.0
 30
0.0
  9
$UCSORGFRONT
 10
0.0
 20
0.0
 30
0.0
  9
$UCSORGBACK
 10
0.0
 20
0.0
 30
0.0
  9
$PUCSBASE
  2

  9
$PUCSNAME
  2

  9
$PUCSORG
 10
0.0
 20
0.0
 30
0.0
  9
$PUCSXDIR
 10
1.0
 20
0.0
 30
0.0
  9
$PUCSYDIR
 10
0.0
 20
1.0
 30
0.0
  9
$PUCSORTHOREF
  2

  9
$PUCSORTHOVIEW
 70
     0
  9
$PUCSORGTOP
 10
0.0
 20
0.0
 30
0.0
  9
$PUCSORGBOTTOM
 10
0.0
 20
0.0
 30
0.0
  9
$PUCSORGLEFT
 10
0.0
 20
0.0
 30
0.0
  9
$PUCSORGRIGHT
 10
0.0
 20
0.0
 30
0.0
  9
$PUCSORGFRONT
 10
0.0
 20
0.0
 30
0.0
  9
$PUCSORGBACK
 10
0.0
 20
0.0
 30
0.0
  9
$USERI1
 70
     0
  9
$USERI2
 70
     0
  9
$USERI3
 70
     0
  9
$USERI4
 70
     0
  9
$USERI5
 70
     0
  9
$USERR1
 40
0.0
  9
$USERR2
 40
0.0
  9
$USERR3
 40
0.0
  9
$USERR4
 40
0.0
  9
$USERR5
 40
0.0
  9
$WORLDVIEW
 70
     1
  9
$SHADEDGE
 70
     3
  9
$SHADEDIF
 70
    70
  9
$TILEMODE
 70
     1
  9
$MAXACTVP
 70
    64
  9
$PINSBASE
 10
0.0
 20
0.0
 30
0.0
  9
$PLIMCHECK
 70
     0
  9
$PEXTMIN
 10
26.66076962115562
 20
20.31135699206657
 30
-0.0015258207003583
  9
$PEXTMAX
 10
240.039213369355
 20
182.8886381005154
 30
0.0000000349246037
  9
$PLIMMIN
 10
-6.350006103515625
 20
-6.349999904632567
  9
$PLIMMAX
 10
273.0499877929687
 20
209.5499939918517
  9
$UNITMODE
 70
     0
  9
$VISRETAIN
 70
     1
  9
$PLINEGEN
 70
     0
  9
$PSLTSCALE
 70
     1
  9
$TREEDEPTH
 70
  3020
  9
$CMLSTYLE
  2
Standard
  9
$CMLJUST
 70
     0
  9
$CMLSCALE
 40
20.0
  9
$PROXYGRAPHICS
 70
     1
  9
$MEASUREMENT
 70
     1
  9
$CELWEIGHT
370
    -1
  9
$ENDCAPS
280
     0
  9
$JOINSTYLE
280
     0
  9
$LWDISPLAY
290
     0
  9
$INSUNITS
 70
     4
  9
$HYPERLINKBASE
  1

  9
$STYLESHEET
  1

  9
$XEDIT
290
     1
  9
$CEPSNTYPE
380
     0
  9
$PSTYLEMODE
290
     1
  9
$FINGERPRINTGUID
  2
{FDEAD578-A652-11D2-9A35-0060089B3A3F}
  9
$VERSIONGUID
  2
{F962D410-F8B2-4CFE-AFAF-078FD5014008}
  9
$EXTNAMES
290
     1
  9
$PSVPSCALE
 40
0.0
  9
$OLESTARTUP
290
     0
  0
ENDSEC
  0
SECTION
  2
CLASSES
  0
CLASS
  1
ACDBDICTIONARYWDFLT
  2
AcDbDictionaryWithDefault
  3
ObjectDBX Classes
 90
        0
280
     0
281
     0
  0
CLASS
  1
ACDBPLACEHOLDER
  2
AcDbPlaceHolder
  3
ObjectDBX Classes
 90
        0
280
     0
281
     0
  0
CLASS
  1
LAYOUT
  2
AcDbLayout
  3
ObjectDBX Classes
 90
        0
280
     0
281
     0
  0
CLASS
  1
DICTIONARYVAR
  2
AcDbDictionaryVar
  3
ObjectDBX Classes
 90
        0
280
     0
281
     0
  0
CLASS
  1
DIMASSOC
  2
AcDbDimAssoc
  3
"AcDbDimAssoc|Product Desc:     AcDim ARX App For Dimension|Company:          Autodesk, Inc.|WEB Address:      www.autodesk.com"
 90
    32768
280
     0
281
     0
  0
CLASS
  1
MATERIAL
  2
AcDbMaterial
  3
ObjectDBX Classes
 90
     1153
280
     0
281
     0
  0
CLASS
  1
VISUALSTYLE
  2
AcDbVisualStyle
  3
ObjectDBX Classes
 90
     4095
280
     0
281
     0
  0
CLASS
  1
TABLESTYLE
  2
AcDbTableStyle
  3
ObjectDBX Classes
 90
     4095
280
     0
281
     0
  0
CLASS
  1
SCALE
  2
AcDbScale
  3
ObjectDBX Classes
 90
     1153
280
     0
281
     0
  0
CLASS
  1
MLEADERSTYLE
  2
AcDbMLeaderStyle
  3
ACDB_MLEADERSTYLE_CLASS
 90
     4095
280
     0
281
     0
  0
CLASS
  1
SORTENTSTABLE
  2
AcDbSortentsTable
  3
ObjectDBX Classes
 90
        0
280
     0
281
     0
  0
CLASS
  1
CELLSTYLEMAP
  2
AcDbCellStyleMap
  3
ObjectDBX Classes
 90
     1152
280
     0
281
     0
  0
ENDSEC
  0
SECTION
  2
TABLES
  0
TABLE
  2
VPORT
  5
8
330
0
100
AcDbSymbolTable
 70
     1
  0
VPORT
  5
CC8
330
8
100
AcDbSymbolTableRecord
100
AcDbViewportTableRecord
  2
*Active
 70
     0
 10
0.0
 20
0.0
 11
1.0
 21
1.0
 12
26.54560026071675
 22
193.3800444849851
 13
0.0
 23
0.0
 14
10.0
 24
10.0
 15
10.0
 25
10.0
 16
0.0
 26
0.0
 36
1.0
 17
0.0
 27
0.0
 37
0.0
 40
792.5685220514444
 41
1.80327868852459
 42
50.0
 43
0.0
 44
0.0
 50
0.0
 51
0.0
 71
     0
 72
   100
 73
     1
 74
     3
 75
     0
 76
     0
 77
     0
 78
     0
281
     0
 65
     1
110
0.0
120
0.0
130
0.0
111
1.0
121
0.0
131
0.0
112
0.0
122
1.0
132
0.0
 79
     0
146
0.0
1001
ACAD_NAV_VCDISPLAY
1070
     3
  0
ENDTAB
  0
TABLE
  2
LTYPE
  5
5
330
0
100
AcDbSymbolTable
 70
     4
  0
LTYPE
  5
14
330
5
100
AcDbSymbolTableRecord
100
AcDbLinetypeTableRecord
  2
ByBlock
 70
     0
  3

 72
    65
 73
     0
 40
0.0
  0
LTYPE
  5
15
330
5
100
AcDbSymbolTableRecord
100
AcDbLinetypeTableRecord
  2
ByLayer
 70
     0
  3

 72
    65
 73
     0
 40
0.0
  0
LTYPE
  5
16
330
5
100
AcDbSymbolTableRecord
100
AcDbLinetypeTableRecord
  2
Continuous
 70
     0
  3
Solid line
 72
    65
 73
     0
 40
0.0
  0
LTYPE
  5
86
330
5
100
AcDbSymbolTableRecord
100
AcDbLinetypeTableRecord
  2
DASHED
 70
     0
  3
Dashed
 72
    65
 73
     2
 40
15.0
 49
7.0
 74
     0
 49
-8.0
 74
     0
  0
LTYPE
  5
87
330
5
100
AcDbSymbolTableRecord
100
AcDbLinetypeTableRecord
  2
DASH_CENTER
 70
     0
  3
Dash_Center
 72
    65
 73
     4
 40
14.0
 49
11.0
 74
     0
 49
-1.0
 74
     0
 49
1.0
 74
     0
 49
-1.0
 74
     0
  0
LTYPE
  5
F41
330
5
100
AcDbSymbolTableRecord
100
AcDbLinetypeTableRecord
  2
CENTER_DASH_DASH
 70
     0
  3
Center_Dash_Dash
 72
    65
 73
     6
 40
14.0
 49
9.0
 74
     0
 49
-1.0
 74
     0
 49
1.0
 74
     0
 49
-1.0
 74
     0
 49
1.0
 74
     0
 49
-1.0
 74
     0
  0
ENDTAB
  0
TABLE
  2
LAYER
  5
2
330
0
100
AcDbSymbolTable
 70
     2
  0
LAYER
  5
10
102
{ACAD_XDICTIONARY
360
1A40
102
}
330
2
100
AcDbSymbolTableRecord
100
AcDbLayerTableRecord
  2
0
 70
     0
 62
     7
  6
Continuous
370
    -3
390
F
  0
LAYER
  5
712
330
2
100
AcDbSymbolTableRecord
100
AcDbLayerTableRecord
  2
Defpoints
 70
     0
 62
     7
  6
Continuous
290
     0
370
    -3
390
F
  0
ENDTAB
  0
TABLE
  2
STYLE
  5
3
330
0
100
AcDbSymbolTable
 70
     1
  0
STYLE
  5
11
330
3
100
AcDbSymbolTableRecord
100
AcDbTextStyleTableRecord
  2
Standard
 70
     0
 40
0.0
 41
1.0
 50
0.0
 71
     0
 42
2.5
  3
txt
  4

  0
ENDTAB
  0
TABLE
  2
VIEW
  5
6
330
0
100
AcDbSymbolTable
 70
     0
  0
ENDTAB
  0
TABLE
  2
UCS
  5
7
330
0
100
AcDbSymbolTable
 70
     0
  0
ENDTAB
  0
TABLE
  2
APPID
  5
9
330
0
100
AcDbSymbolTable
 70
     5
  0
APPID
  5
12
330
9
100
AcDbSymbolTableRecord
100
AcDbRegAppTableRecord
  2
ACAD
 70
     0
  0
APPID
  5
D1E
330
9
100
AcDbSymbolTableRecord
100
AcDbRegAppTableRecord
  2
ACAD_NAV_VCDISPLAY
 70
     0
  0
APPID
  5
1554
330
9
100
AcDbSymbolTableRecord
100
AcDbRegAppTableRecord
  2
ACAD_DSTYLE_DIMRADIAL_EXTENSION
 70
     0
  0
APPID
  5
19E7
330
9
100
AcDbSymbolTableRecord
100
AcDbRegAppTableRecord
  2
ACAD_EXEMPT_FROM_CAD_STANDARDS
 70
     0
  0
APPID
  5
1A8E
330
9
100
AcDbSymbolTableRecord
100
AcDbRegAppTableRecord
  2
ACAD_MLEADERVER
 70
     0
  0
ENDTAB
  0
TABLE
  2
DIMSTYLE
  5
A
330
0
100
AcDbSymbolTable
 70
     2
100
AcDbDimStyleTable
 71
     1
340
27
  0
DIMSTYLE
105
27
330
A
100
AcDbSymbolTableRecord
100
AcDbDimStyleTableRecord
  2
ISO-25
 70
     0
 41
8.0
 42
0.625
 43
8.0
 44
1.25
 73
     0
 74
     0
 77
     1
 78
     8
140
8.0
141
8.0
143
0.03937007874016
147
0.625
171
     3
172
     1
176
     3
177
     3
178
     3
271
     2
272
     2
274
     3
278
    44
283
     0
284
     8
340
11
  0
DIMSTYLE
105
AB
330
A
100
AcDbSymbolTableRecord
100
AcDbDimStyleTableRecord
  2
Standard
 70
     0
340
11
  0
ENDTAB
  0
TABLE
  2
BLOCK_RECORD
  5
1
330
0
100
AcDbSymbolTable
 70
     1
  0
BLOCK_RECORD
  5
1F
102
{ACAD_XDICTIONARY
360
1546
102
}
330
1
100
AcDbSymbolTableRecord
100
AcDbBlockTableRecord
  2
*Model_Space
340
22
  0
BLOCK_RECORD
  5
55
330
1
100
AcDbSymbolTableRecord
100
AcDbBlockTableRecord
  2
*Paper_Space
340
56
  0
BLOCK_RECORD
  5
50
330
1
100
AcDbSymbolTableRecord
100
AcDbBlockTableRecord
  2
*Paper_Space0
340
51
  0
ENDTAB
  0
ENDSEC
  0
SECTION
  2
BLOCKS
  0
BLOCK
  5
20
330
1F
100
AcDbEntity
  8
0
100
AcDbBlockBegin
  2
*Model_Space
 70
     0
 10
0.0
 20
0.0
 30
0.0
  3
*Model_Space
  1

  0
ENDBLK
  5
21
330
1F
100
AcDbEntity
  8
0
100
AcDbBlockEnd
  0
BLOCK
  5
57
330
55
100
AcDbEntity
 67
     1
  8
0
100
AcDbBlockBegin
  2
*Paper_Space
 70
     0
 10
0.0
 20
0.0
 30
0.0
  3
*Paper_Space
  1

  0
ENDBLK
  5
58
330
55
100
AcDbEntity
 67
     1
  8
0
100
AcDbBlockEnd
  0
BLOCK
  5
52
330
50
100
AcDbEntity
 67
     1
  8
0
100
AcDbBlockBegin
  2
*Paper_Space0
 70
     0
 10
0.0
 20
0.0
 30
0.0
  3
*Paper_Space0
  1

  0
VIEWPORT
  5
6B
102
{ACAD_XDICTIONARY
360
1AA2
102
}
330
50
100
AcDbEntity
 67
     1
  8
0
100
AcDbViewport
 10
133.3499908447265
 20
101.5999970436096
 30
0.0
 40
381.3957395593833
 41
218.2856291881582
 68
     0
 69
     0
 12
133.3499908447265
 22
101.5999970436096
 13
0.0
 23
0.0
 14
10.0
 24
10.0
 15
10.0
 25
10.0
 16
0.0
 26
0.0
 36
1.0
 17
0.0
 27
0.0
 37
0.0
 42
50.0
 43
0.0
 44
0.0
 45
218.2856291881582
 50
0.0
 51
0.0
 72
   100
 90
    32800
  1

281
     0
 71
     1
 74
     0
110
0.0
120
0.0
130
0.0
111
1.0
121
0.0
131
0.0
112
0.0
122
1.0
132
0.0
 79
     0
146
0.0
  0
VIEWPORT
  5
6D
102
{ACAD_XDICTIONARY
360
1AA4
102
}
330
50
100
AcDbEntity
 67
     1
  8
0
100
AcDbViewport
 10
133.3499939441679
 20
101.5999939441679
 30
0.0
 40
213.3599903106689
 41
162.5599903106689
 68
     0
 69
     0
 12
210.0
 22
148.5
 13
0.0
 23
0.0
 14
10.0
 24
10.0
 15
10.0
 25
10.0
 16
0.0
 26
0.0
 36
1.0
 17
0.0
 27
0.0
 37
0.0
 42
50.0
 43
0.0
 44
0.0
 45
324.0677920111345
 50
0.0
 51
0.0
 72
   100
 90
    32864
  1

281
     0
 71
     1
 74
     0
110
0.0
120
0.0
130
0.0
111
1.0
121
0.0
131
0.0
112
0.0
122
1.0
132
0.0
 79
     0
146
0.0
  0
ENDBLK
  5
53
330
50
100
AcDbEntity
 67
     1
  8
0
100
AcDbBlockEnd
  0
ENDSEC
  0
SECTION
  2
ENTITIES
  0
LINE
  5
3E9
330
1F
100
AcDbEntity
  8
0
  6
DASH_CENTER
 62
    30
100
AcDbLine
 10
-32.9554855290456
 20
-90.01557925311201
 30
0.0
 11
-263.6246855290456
 21
-90.01587925311199
 31
0.0
  0
LINE
  5
41E
330
1F
100
AcDbEntity
  8
0
  6
DASH_CENTER
 62
    30
100
AcDbLine
 10
-146.6038855290456
 20
-199.638779253112
 30
0.0
 11
-146.6042855290456
 21
76.06843530153945
 31
0.0
  0
LINE
  5
424
330
1F
100
AcDbEntity
  8
0
  6
Continuous
 62
    30
100
AcDbLine
 10
-128.4620466448857
 20
12.8690005722657
 30
0.0
 11
-122.1298466448857
 21
48.7805005722657
 31
0.0
  0
LINE
  5
4DE
330
1F
100
AcDbEntity
  8
0
  6
DASH_CENTER
 62
    30
100
AcDbLine
 10
-146.6049855290455
 20
586.3988609023131
 30
0.0
 11
-146.6064855290456
 21
202.3908207468879
 31
0.0
  0
ARC
  5
54C
330
1F
100
AcDbEntity
  8
0
  6
Continuous
 62
     7
100
AcDbCircle
 10
-129.1653687341952
 20
447.2820450714657
 30
0.0
 40
3.999997605622043
100
AcDbArc
 50
270.0000497386024
 51
339.1759323186484
  0
ARC
  5
54D
330
1F
100
AcDbEntity
  8
0
  6
Continuous
 62
     7
100
AcDbCircle
 10
-128.9544700550617
 20
447.1956449212568
 30
0.0
 40
5.999997455413657
100
AcDbArc
 50
270.0000457724146
 51
325.9246185050626
  0
LINE
  5
54E
330
1F
100
AcDbEntity
  8
0
  6
DASH_CENTER
 62
    30
100
AcDbLine
 10
-108.7989652617878
 20
442.747147465845
 30
0.0
 11
-125.9961652617878
 21
442.747147465845
 31
0.0
  0
LINE
  5
54F
330
1F
100
AcDbEntity
  8
0
  6
Continuous
 62
     7
100
AcDbLine
 10
-159.2590652617877
 20
526.5779474658447
 30
0.0
 11
-110.9140652617878
 21
526.5779474658447
 31
0.0
  0
LINE
  5
550
330
1F
100
AcDbEntity
  8
0
  6
Continuous
 62
     7
100
AcDbLine
 10
-153.7734652617876
 20
524.0779474658451
 30
0.0
 11
-107.9960652617879
 21
524.0779474658451
 31
0.0
  0
LINE
  5
552
330
1F
100
AcDbEntity
  8
0
  6
Continuous
 62
     7
100
AcDbLine
 10
-99.39716526178788
 20
522.0779474658447
 30
0.0
 11
-148.6269652617879
 21
522.0779474658447
 31
0.0
  0
LINE
  5
553
330
1F
100
AcDbEntity
  8
0
  6
Continuous
 62
     7
100
AcDbLine
 10
-147.9051329118763
 20
436.5785124208268
 30
0.0
 11
-94.2918866509755
 21
436.5789855195128
 31
0.0
  0
LINE
  5
554
330
1F
100
AcDbEntity
  8
0
  6
Continuous
 62
     7
100
AcDbLine
 10
-147.9883776351249
 20
437.5785513821979
 30
0.0
 11
-94.3671655551976
 21
437.5793083416819
 31
0.0
  0
ARC
  5
561
330
1F
100
AcDbEntity
  8
0
  6
Continuous
 62
     7
100
AcDbCircle
 10
-147.9052741004724
 20
452.5785124202037
 30
0.0
 40
15.99999999999996
100
AcDbArc
 50
184.7632333468548
 51
270.0005055944166
  0
ARC
  5
562
330
1F
100
AcDbEntity
  8
0
  6
Continuous
 62
     7
100
AcDbCircle
 10
-147.9886035037926
 20
453.5785513806038
 30
0.0
 40
15.99999999999996
100
AcDbArc
 50
184.7632333468548
 51
270.0008088325865
  0
ARC
  5
563
330
1F
100
AcDbEntity
  8
0
  6
Continuous
 62
     7
100
AcDbCircle
 10
-159.2590673379328
 20
516.577945209596
 30
0.0
 40
10.00000225624932
100
AcDbArc
 50
89.99998810456835
 51
184.7610128109526
  0
ARC
  5
564
330
1F
100
AcDbEntity
  8
0
  6
Continuous
 62
     7
100
AcDbCircle
 10
-153.7734538478827
 20
514.0779598406233
 30
0.0
 40
9.99998762522822
100
AcDbArc
 50
90.00006539693975
 51
184.6260055941971
  0
LINE
  5
565
330
1F
100
AcDbEntity
  8
0
  6
Continuous
 62
     7
100
AcDbLine
 10
-163.9333451050748
 20
452.249937340207
 30
0.0
 11
-169.2243652617879
 21
515.747647465845
 31
0.0
  0
LINE
  5
566
330
1F
100
AcDbEntity
  8
0
  6
Continuous
 62
     7
100
AcDbLine
 10
-158.8011353893152
 20
452.2277359438417
 30
0.0
 11
-163.7409652617877
 21
513.271347465845
 31
0.0
  0
LINE
  5
567
330
1F
100
AcDbEntity
  8
0
  6
Continuous
 62
     7
100
AcDbLine
 10
-158.6272465650497
 20
453.1957047935158
 30
0.0
 11
-158.6269652617879
 21
512.0789474658448
 31
0.0
  0
LINE
  5
568
330
1F
100
AcDbEntity
  8
0
  6
Continuous
 62
     7
100
AcDbLine
 10
-146.6272365978156
 20
443.282047465845
 30
0.0
 11
-129.1653652617878
 21
443.282047465845
 31
0.0
  0
LINE
  5
569
330
1F
100
AcDbEntity
  8
0
  6
Continuous
 62
     7
100
AcDbLine
 10
-146.6272465651865
 20
441.1956474658451
 30
0.0
 11
-128.9544652617879
 21
441.1956474658451
 31
0.0
  0
ARC
  5
56A
330
1F
100
AcDbEntity
  8
0
  6
Continuous
 62
     7
100
AcDbCircle
 10
-146.6272365978156
 20
455.282047465845
 30
0.0
 40
11.99999999999991
100
AcDbArc
 50
179.999726280535
 51
270.0
  0
ARC
  5
56B
330
1F
100
AcDbEntity
  8
0
  6
Continuous
 62
     7
100
AcDbCircle
 10
-146.6272465651865
 20
453.1956474658449
 30
0.0
 40
11.99999999999993
100
AcDbArc
 50
179.999726280535
 51
270.0
  0
ARC
  5
56C
330
1F
100
AcDbEntity
  8
0
  6
Continuous
 62
     7
100
AcDbCircle
 10
-148.6269652705384
 20
512.078447457095
 30
0.0
 40
10.00000000925
100
AcDbArc
 50
89.99942699206815
 51
179.9965622030977
  0
ARC
  5
582
330
1F
100
AcDbEntity
  8
0
  6
Continuous
 62
     7
100
AcDbCircle
 10
-94.29195724527358
 20
444.5789855192011
 30
0.0
 40
7.999999999999968
100
AcDbArc
 50
270.0005055944166
 51
4.306071013527308
  0
ARC
  5
583
330
1F
100
AcDbEntity
  8
0
  6
Continuous
 62
     7
100
AcDbCircle
 10
-94.36727848953156
 20
445.5793083408848
 30
0.0
 40
8.000000000000019
100
AcDbArc
 50
270.0008088325881
 51
4.306071013527308
  0
LINE
  5
585
330
1F
100
AcDbEntity
  8
0
  6
Continuous
 62
     7
100
AcDbLine
 10
-86.38986102358575
 20
446.1799834394391
 30
0.0
 11
-89.39716526178788
 21
486.1192474658451
 31
0.0
  0
LINE
  5
586
330
1F
100
AcDbEntity
  8
0
  6
Continuous
 62
     7
100
AcDbLine
 10
-89.39716526178788
 20
447.1956474658451
 30
0.0
 11
-89.39716526178788
 21
486.1192474658451
 31
0.0
  0
ARC
  5
587
330
1F
100
AcDbEntity
  8
0
  6
Continuous
 62
     7
100
AcDbCircle
 10
-104.8641197926187
 20
447.2820161132075
 30
0.0
 40
3.999968647620828
100
AcDbArc
 50
200.8253141775684
 51
269.999348697023
  0
LINE
  5
588
330
1F
100
AcDbEntity
  8
0
  6
Continuous
 62
     7
100
AcDbLine
 10
-95.39716526178787
 20
441.1956474658451
 30
0.0
 11
-107.0750652617879
 21
441.1956474658451
 31
0.0
  0
ARC
  5
589
330
1F
100
AcDbEntity
  8
0
  6
Continuous
 62
     7
100
AcDbCircle
 10
-118.0145110882937
 20
440.40394746717
 30
0.0
 40
4.65035173154303
100
AcDbArc
 50
28.4473542217575
 51
151.5554482815786
  0
ARC
  5
58A
330
1F
100
AcDbEntity
  8
0
  6
Continuous
 62
     7
100
AcDbCircle
 10
-118.0145093031422
 20
444.3445474665633
 30
0.0
 40
5.191325668060962
100
AcDbArc
 50
221.3752084906911
 51
318.6262622912031
  0
ARC
  5
58B
330
1F
100
AcDbEntity
  8
0
  6
Continuous
 62
     7
100
AcDbCircle
 10
-121.8630235424176
 20
434.7289582250576
 30
0.0
 40
9.617876311207153
100
AcDbArc
 50
49.28855430792985
 51
60.74549617694423
  0
ARC
  5
58C
330
1F
100
AcDbEntity
  8
0
  6
Continuous
 62
     7
100
AcDbCircle
 10
-115.8463316161552
 20
441.8275591482029
 30
0.0
 40
0.1875594584674785
100
AcDbArc
 50
229.7311930735978
 51
290.298466376911
  0
ARC
  5
58D
330
1F
100
AcDbEntity
  8
0
  6
Continuous
 62
     7
100
AcDbCircle
 10
-118.0145152617878
 20
439.795594927991
 30
0.0
 40
7.207315632188196
100
AcDbArc
 50
34.0764857504309
 51
145.9235142495694
  0
ARC
  5
58E
330
1F
100
AcDbEntity
  8
0
  6
Continuous
 62
     7
100
AcDbCircle
 10
-117.0145152617878
 20
442.660047465845
 30
0.0
 40
9.000014600682597
100
AcDbArc
 50
20.82678044713653
 51
159.1732195528634
  0
ARC
  5
58F
330
1F
100
AcDbEntity
  8
0
  6
Continuous
 62
     7
100
AcDbCircle
 10
-120.7845639453836
 20
441.9046358477096
 30
0.0
 40
1.500009178259696
100
AcDbArc
 50
151.5534864299752
 51
221.3752829224864
  0
ARC
  5
590
330
1F
100
AcDbEntity
  8
0
  6
Continuous
 62
     7
100
AcDbCircle
 10
-114.1661565116676
 20
434.7289851330983
 30
0.0
 40
9.117942245236635
100
AcDbArc
 50
116.523895927511
 51
130.2844863283309
  0
ARC
  5
591
330
1F
100
AcDbEntity
  8
0
  6
Continuous
 62
     7
100
AcDbCircle
 10
-121.8629184216645
 20
434.7288825219826
 30
0.0
 40
9.117919921283839
100
AcDbArc
 50
49.71667642315207
 51
63.47782906925555
  0
ARC
  5
592
330
1F
100
AcDbEntity
  8
0
  6
Continuous
 62
     7
100
AcDbCircle
 10
-118.0147652617878
 20
442.439847465845
 30
0.0
 40
0.499940176421123
100
AcDbArc
 50
63.4708259500504
 51
116.5291740499514
  0
ARC
  5
593
330
1F
100
AcDbEntity
  8
0
  6
Continuous
 62
     7
100
AcDbCircle
 10
-114.166366427003
 20
434.7288470743405
 30
0.0
 40
9.617925870997293
100
AcDbArc
 50
104.7891587424902
 51
112.3548535421414
  0
ARC
  5
594
330
1F
100
AcDbEntity
  8
0
  6
Continuous
 62
     7
100
AcDbCircle
 10
-121.8626807330609
 20
434.7287854705733
 30
0.0
 40
9.617913106132004
100
AcDbArc
 50
67.64629627681469
 51
75.21256706459175
  0
ARC
  5
595
330
1F
100
AcDbEntity
  8
0
  6
Continuous
 62
     7
100
AcDbCircle
 10
-118.0147652617878
 20
444.0862474658451
 30
0.0
 40
0.4999897998959617
100
AcDbArc
 50
247.6410574418349
 51
292.3589425581651
  0
ARC
  5
596
330
1F
100
AcDbEntity
  8
0
  6
Continuous
 62
     7
100
AcDbCircle
 10
-114.166327750143
 20
434.7288586935751
 30
0.0
 40
9.117913053076676
100
AcDbArc
 50
104.2748532961552
 51
109.0514169483947
  0
ARC
  5
597
330
1F
100
AcDbEntity
  8
0
  6
Continuous
 62
     7
100
AcDbCircle
 10
-117.1019675058923
 20
443.2291222252241
 30
0.0
 40
0.1249721143210644
100
AcDbArc
 50
109.0537414386512
 51
240.7848187989551
  0
ARC
  5
598
330
1F
100
AcDbEntity
  8
0
  6
Continuous
 62
     7
100
AcDbCircle
 10
-121.8629027734327
 20
434.7288586935751
 30
0.0
 40
9.11791305307668
100
AcDbArc
 50
70.94858305160524
 51
75.7251467038448
  0
ARC
  5
599
330
1F
100
AcDbEntity
  8
0
  6
Continuous
 62
     7
100
AcDbCircle
 10
-114.1662741100847
 20
434.7289112505978
 30
0.0
 40
9.617933358192015
100
AcDbArc
 50
119.2545379140852
 51
130.7114116010418
  0
ARC
  5
59A
330
1F
100
AcDbEntity
  8
0
  6
Continuous
 62
     7
100
AcDbCircle
 10
-118.9275630176833
 20
443.2291222252241
 30
0.0
 40
0.1249721143210863
100
AcDbArc
 50
299.2151812010448
 51
70.94625856134881
  0
ARC
  5
59B
330
1F
100
AcDbEntity
  8
0
  6
Continuous
 62
     7
100
AcDbCircle
 10
-119.5684600152168
 20
443.7469258346562
 30
0.0
 40
0.1874618748027525
100
AcDbArc
 50
131.5364321003711
 51
255.7307983690533
  0
ARC
  5
59C
330
1F
100
AcDbEntity
  8
0
  6
Continuous
 62
     7
100
AcDbCircle
 10
-119.4556875915659
 20
443.8467421591169
 30
0.0
 40
0.1875062384914447
100
AcDbArc
 50
75.22381120235704
 51
131.5131702466404
  0
ARC
  5
59D
330
1F
100
AcDbEntity
  8
0
  6
Continuous
 62
     7
100
AcDbCircle
 10
-116.4607705083586
 20
443.7469258346562
 30
0.0
 40
0.1874618748027672
100
AcDbArc
 50
284.2692016309467
 51
48.46356789962888
  0
ARC
  5
59E
330
1F
100
AcDbEntity
  8
0
  6
Continuous
 62
     7
100
AcDbCircle
 10
-120.1829620322488
 20
441.8275480347433
 30
0.0
 40
0.1875271446731253
100
AcDbArc
 50
249.7184446716937
 51
310.2624050729148
  0
ARC
  5
59F
330
1F
100
AcDbEntity
  8
0
  6
Continuous
 62
     7
100
AcDbCircle
 10
-120.3172608411052
 20
441.8773229322133
 30
0.0
 40
0.1875040116332513
100
AcDbArc
 50
130.7134448965197
 51
249.7154443692922
  0
ARC
  5
5A0
330
1F
100
AcDbEntity
  8
0
  6
Continuous
 62
     7
100
AcDbCircle
 10
-116.5735692471799
 20
443.8467484124335
 30
0.0
 40
0.1875189989926685
100
AcDbArc
 50
48.47954260970368
 51
104.7984456946068
  0
LINE
  5
5A1
330
1F
100
AcDbEntity
  8
0
  6
Continuous
 62
     7
100
AcDbLine
 10
-119.5799652617878
 20
443.987147465845
 30
0.0
 11
-119.6927652617878
 21
443.887347465845
 31
0.0
  0
LINE
  5
5A2
330
1F
100
AcDbEntity
  8
0
  6
Continuous
 62
     7
100
AcDbLine
 10
-116.4493652617878
 20
443.987147465845
 30
0.0
 11
-116.3365652617878
 21
443.887347465845
 31
0.0
  0
LINE
  5
5A3
330
1F
100
AcDbEntity
  8
0
  6
Continuous
 62
     7
100
AcDbLine
 10
-120.3821652617879
 20
441.701247465845
 30
0.0
 11
-120.2479652617878
 21
441.6517474658451
 31
0.0
  0
ARC
  5
5A4
330
1F
100
AcDbEntity
  8
0
  6
Continuous
 62
     7
100
AcDbCircle
 10
-115.2444687237493
 20
441.904616897729
 30
0.0
 40
1.499932166484058
100
AcDbArc
 50
318.6281808714245
 51
28.44893056070539
  0
ARC
  5
5A5
330
1F
100
AcDbEntity
  8
0
  6
Continuous
 62
     7
100
AcDbCircle
 10
-115.7120732394237
 20
441.8773031146525
 30
0.0
 40
0.187521353368948
100
AcDbArc
 50
290.3163336031208
 51
49.28968093388222
  0
ARC
  5
5A6
330
1F
100
AcDbEntity
  8
0
  6
Continuous
 62
     7
100
AcDbCircle
 10
-107.0750352258718
 20
447.195631521069
 30
0.0
 40
5.99998405529912
100
AcDbArc
 50
214.0764664508143
 51
269.9997131773679
  0
LINE
  5
5A7
330
1F
100
AcDbEntity
  8
0
  6
Continuous
 62
     7
100
AcDbLine
 10
-115.6470652617879
 20
441.701247465845
 30
0.0
 11
-115.7813652617878
 21
441.6517474658451
 31
0.0
  0
LINE
  5
5A8
330
1F
100
AcDbEntity
  8
0
  6
Continuous
 62
     7
100
AcDbLine
 10
-95.39716526178787
 20
443.282047465845
 30
0.0
 11
-104.8641652617877
 21
443.282047465845
 31
0.0
  0
ARC
  5
5A9
330
1F
100
AcDbEntity
  8
0
  6
Continuous
 62
     7
100
AcDbCircle
 10
-95.39716526178787
 20
447.1956474658451
 30
0.0
 40
6.0
100
AcDbArc
 50
270.0
 51
0.0
  0
ARC
  5
5AA
330
1F
100
AcDbEntity
  8
0
  6
Continuous
 62
     7
100
AcDbCircle
 10
-95.39716526178787
 20
449.282047465845
 30
0.0
 40
6.0
100
AcDbArc
 50
270.0
 51
0.0
  0
ARC
  5
5AB
330
1F
100
AcDbEntity
  8
0
  6
Continuous
 62
     7
100
AcDbCircle
 10
-107.9959604976432
 20
504.0779332702787
 30
0.0
 40
20.00001419584055
100
AcDbArc
 50
74.56651138678686
 51
90.00030012695274
  0
ARC
  5
5AC
330
1F
100
AcDbEntity
  8
0
  6
Continuous
 62
     7
100
AcDbCircle
 10
-110.9140627938502
 20
514.5779464981371
 30
0.0
 40
12.00000096770803
100
AcDbArc
 50
47.17851400376869
 51
90.00001178353313
  0
LINE
  5
5AD
330
1F
100
AcDbEntity
  8
0
  6
Continuous
 62
     7
100
AcDbLine
 10
-89.39716526178788
 20
512.0779474658449
 30
0.0
 11
-89.39716526178788
 21
486.1192474658451
 31
0.0
  0
ARC
  5
5AE
330
1F
100
AcDbEntity
  8
0
  6
Continuous
 62
     7
100
AcDbCircle
 10
-99.39746526203785
 20
512.0779474660951
 30
0.0
 40
10.00000000025
100
AcDbArc
 50
359.9999999985678
 51
89.99942704077328
  0
LINE
  5
5AF
330
1F
100
AcDbEntity
  8
0
  6
Continuous
 62
     7
100
AcDbLine
 10
-96.73606526178787
 20
521.717347465845
 30
0.0
 11
-102.6735652617878
 21
523.356747465845
 31
0.0
  0
LINE
  5
67C
330
1F
100
AcDbEntity
  8
0
  6
DASH_CENTER
 62
    30
100
AcDbLine
 10
216.7185144709544
 20
203.6150207468879
 30
0.0
 11
216.7185144709544
 21
287.829520746888
 31
0.0
  0
LINE
  5
69C
330
1F
100
AcDbEntity
  8
0
  6
DASH_CENTER
 62
    30
100
AcDbLine
 10
203.4215144709544
 20
58.79272074688799
 30
0.0
 11
230.0215144709544
 21
58.79272074688799
 31
0.0
  0
ARC
  5
69E
330
1F
100
AcDbEntity
  8
0
  6
Continuous
 62
     7
100
AcDbCircle
 10
216.7215144709544
 20
58.79272074688799
 30
0.0
 40
12.0
100
AcDbArc
 50
19.47122063449061
 51
340.5287793655093
  0
LINE
  5
69F
330
1F
100
AcDbEntity
  8
0
  6
DASH_CENTER
 62
    30
100
AcDbLine
 10
216.7215144709544
 20
45.49272074688798
 30
0.0
 11
216.7215144709544
 21
72.09272074688802
 31
0.0
  0
ARC
  5
6A1
330
1F
100
AcDbEntity
  8
0
  6
Continuous
 62
    30
100
AcDbCircle
 10
216.7215515702995
 20
58.79249183278854
 30
0.0
 40
12.0
100
AcDbArc
 50
0.0013806171564512
 51
19.47237992356767
  0
LINE
  5
6A2
330
1F
100
AcDbEntity
  8
0
  6
Continuous
 62
     7
100
AcDbLine
 10
224.7215144709544
 20
62.79272074688797
 30
0.0
 11
231.7215144709543
 21
62.79272074688797
 31
0.0
  0
LINE
  5
6A3
330
1F
100
AcDbEntity
  8
0
  6
Continuous
 62
     7
100
AcDbLine
 10
231.7215144709543
 20
54.79272074688799
 30
0.0
 11
224.7215144709544
 21
54.79272074688799
 31
0.0
  0
LINE
  5
6A4
330
1F
100
AcDbEntity
  8
0
  6
Continuous
 62
     7
100
AcDbLine
 10
231.7215144709543
 20
62.79272074688797
 30
0.0
 11
231.7215144709543
 21
54.79272074688799
 31
0.0
  0
LINE
  5
6A5
330
1F
100
AcDbEntity
  8
0
  6
Continuous
 62
     7
100
AcDbLine
 10
224.7215144709544
 20
62.79272074688797
 30
0.0
 11
224.7215144709544
 21
54.79272074688799
 31
0.0
  0
MTEXT
  5
C92
330
1F
100
AcDbEntity
  8
0
  6
Continuous
 62
     7
100
AcDbMText
 10
142.7237645478899
 20
-32.51483537058482
 30
0.0
 40
10.0
 41
162.1684324014958
 71
     1
 72
     1
  1
AFM-FLKH 2P 1.5kW
 73
     1
 44
1.0
1001
ACAD
1000
MTEXTBEGIN
1070
    73
1070
     1
1070
    44
1040
1.0
1070
    74
1070
     0
1000
MTEXTEND
  0
MTEXT
  5
C96
330
1F
100
AcDbEntity
  8
0
  6
Continuous
 62
     7
100
AcDbMText
 10
142.7237579871099
 20
-51.3842216460697
 30
0.0
 40
10.0
 41
167.5
 71
     1
 72
     1
  1
AFM-FLKH 4P 1.5kW
 73
     1
 44
1.0
1001
ACAD
1000
MTEXTBEGIN
1070
    73
1070
     1
1070
    44
1040
1.0
1070
    74
1070
     0
1000
MTEXTEND
  0
MTEXT
  5
C98
330
1F
100
AcDbEntity
  8
0
  6
Continuous
 62
     7
100
AcDbMText
 10
142.5217646676811
 20
-69.93958417169405
 30
0.0
 40
10.0
 41
179.7499999999999
 71
     1
 72
     1
  1
AFM-FLKH 6P 0.75kW
 73
     1
 44
1.0
1001
ACAD
1000
MTEXTBEGIN
1070
    73
1070
     1
1070
    44
1040
1.0
1070
    74
1070
     0
1000
MTEXTEND
  0
POINT
  5
1186
330
1F
100
AcDbEntity
  8
0
 62
     2
100
AcDbPoint
 10
263.9015144709544
 20
272.208920746888
 30
0.0
 50
270.0
  0
POINT
  5
1187
330
1F
100
AcDbEntity
  8
0
 62
     2
100
AcDbPoint
 10
262.6017144709544
 20
267.380820746888
 30
0.0
 50
270.0
  0
POINT
  5
1188
330
1F
100
AcDbEntity
  8
0
 62
     2
100
AcDbPoint
 10
280.2455144709544
 20
254.080320746888
 30
0.0
 50
270.0
  0
POINT
  5
118A
330
1F
100
AcDbEntity
  8
0
 62
     1
100
AcDbPoint
 10
242.7180144709545
 20
271.580320746888
 30
0.0
 50
270.0
  0
POINT
  5
118B
330
1F
100
AcDbEntity
  8
0
 62
     1
100
AcDbPoint
 10
242.7180144709545
 20
271.580320746888
 30
0.0
 50
270.0
  0
LINE
  5
11C6
330
1F
100
AcDbEntity
  8
0
  6
Continuous
 62
     7
100
AcDbLine
 10
231.7180144709544
 20
207.580120746888
 30
0.0
 11
227.7178144709544
 21
207.580120746888
 31
0.0
  0
LINE
  5
11C7
330
1F
100
AcDbEntity
  8
0
  6
Continuous
 62
     7
100
AcDbLine
 10
231.7180144709544
 20
207.580120746888
 30
0.0
 11
231.7180144709544
 21
243.580020746888
 31
0.0
  0
LINE
  5
1229
330
1F
100
AcDbEntity
  8
0
  6
Continuous
 62
     7
100
AcDbLine
 10
229.2183144709545
 20
273.080320746888
 30
0.0
 11
229.2183144709546
 21
279.271779375941
 31
0.0
  0
LINE
  5
122C
330
1F
100
AcDbEntity
  8
0
  6
Continuous
 62
     7
100
AcDbLine
 10
238.2183144709545
 20
275.183220746888
 30
0.0
 11
238.2183144709545
 21
271.580320746888
 31
0.0
  0
LINE
  5
122E
330
1F
100
AcDbEntity
  8
0
  6
Continuous
 62
     7
100
AcDbLine
 10
233.7183144709545
 20
275.183220746888
 30
0.0
 11
233.7183144709545
 21
271.580320746888
 31
0.0
  0
LINE
  5
124A
330
1F
100
AcDbEntity
  8
0
  6
Continuous
 62
     7
100
AcDbLine
 10
229.2185144709545
 20
271.580320746888
 30
0.0
 11
229.2185144709545
 21
279.2717603090661
 31
0.0
  0
LINE
  5
124C
330
1F
100
AcDbEntity
  8
0
  6
Continuous
 62
     7
100
AcDbLine
 10
229.1184144709544
 20
257.580320746888
 30
0.0
 11
229.1184144709545
 21
271.580320746888
 31
0.0
  0
LINE
  5
124D
330
1F
100
AcDbEntity
  8
0
  6
Continuous
 62
     7
100
AcDbLine
 10
229.2185144709545
 20
271.580320746888
 30
0.0
 11
216.7185144709545
 21
271.580320746888
 31
0.0
  0
LINE
  5
124E
330
1F
100
AcDbEntity
  8
0
  6
Continuous
 62
     7
100
AcDbLine
 10
205.7185144709544
 20
207.580320746888
 30
0.0
 11
227.7185144709544
 21
207.580320746888
 31
0.0
  0
LINE
  5
1250
330
1F
100
AcDbEntity
  8
0
  6
Continuous
 62
     7
100
AcDbLine
 10
228.7185144709544
 20
208.580320746888
 30
0.0
 11
228.7185144709544
 21
257.2506058634354
 31
0.0
  0
LINE
  5
1251
330
1F
100
AcDbEntity
  8
0
  6
Continuous
 62
     7
100
AcDbLine
 10
204.3679144709544
 20
257.580320746888
 30
0.0
 11
229.1184144709544
 21
257.580320746888
 31
0.0
  0
LINE
  5
1253
330
1F
100
AcDbEntity
  8
0
  6
Continuous
 62
     7
100
AcDbLine
 10
227.7185144709544
 20
207.580320746888
 30
0.0
 11
228.7185144709544
 21
208.580320746888
 31
0.0
  0
LINE
  5
1258
330
1F
100
AcDbEntity
  8
0
  6
Continuous
 62
     7
100
AcDbLine
 10
228.7185144709544
 20
208.580320746888
 30
0.0
 11
204.7185144709544
 21
208.580320746888
 31
0.0
  0
LINE
  5
125A
330
1F
100
AcDbEntity
  8
0
  6
Continuous
 62
     7
100
AcDbLine
 10
205.7185144709544
 20
207.580320746888
 30
0.0
 11
204.7185144709544
 21
208.580320746888
 31
0.0
  0
LINE
  5
126A
330
1F
100
AcDbEntity
  8
0
  6
Continuous
 62
     7
100
AcDbLine
 10
228.7180144709544
 20
243.580020746888
 30
0.0
 11
231.7180144709544
 21
243.580020746888
 31
0.0
  0
LINE
  5
127C
330
1F
100
AcDbEntity
  8
0
  6
Continuous
 62
     7
100
AcDbLine
 10
316.718014470955
 20
257.580320746888
 30
0.0
 11
281.7180144709544
 21
257.580320746888
 31
0.0
  0
LINE
  5
127E
330
1F
100
AcDbEntity
  8
0
  6
Continuous
 62
     7
100
AcDbLine
 10
316.7180144709545
 20
269.580320746888
 30
0.0
 11
316.718014470955
 21
257.580320746888
 31
0.0
  0
LINE
  5
1281
330
1F
100
AcDbEntity
  8
0
  6
Continuous
 62
     7
100
AcDbLine
 10
316.7180144709545
 20
269.580320746888
 30
0.0
 11
287.2180144709545
 21
269.580320746888
 31
0.0
  0
LINE
  5
1282
330
1F
100
AcDbEntity
  8
0
  6
Continuous
 62
     7
100
AcDbLine
 10
249.3904144709544
 20
265.8008207468881
 30
0.0
 11
249.2351144709545
 21
265.2421207468881
 31
0.0
  0
LINE
  5
1284
330
1F
100
AcDbEntity
  8
0
  6
Continuous
 62
     7
100
AcDbLine
 10
282.2180144709545
 20
274.5804207468882
 30
0.0
 11
282.2180144709544
 21
278.7210891415904
 31
0.0
  0
LINE
  5
1285
330
1F
100
AcDbEntity
  8
0
  6
Continuous
 62
     7
100
AcDbLine
 10
229.4680144709545
 20
268.580320746888
 30
0.0
 11
229.4680144709549
 21
261.580320746888
 31
0.0
  0
LINE
  5
1288
330
1F
100
AcDbEntity
  8
0
  6
Continuous
 62
     7
100
AcDbLine
 10
254.5764144709545
 20
274.7195207468881
 30
0.0
 11
269.9182144709545
 21
270.5891207468881
 31
0.0
  0
LINE
  5
128E
330
1F
100
AcDbEntity
  8
0
  6
Continuous
 62
     7
100
AcDbLine
 10
249.6506144709544
 20
279.6090207468881
 30
0.0
 11
249.313251220174
 21
280.8259609532214
 31
0.0
  0
LINE
  5
1290
330
1F
100
AcDbEntity
  8
0
  6
Continuous
 62
     7
100
AcDbLine
 10
281.4180144709549
 20
254.080320746888
 30
0.0
 11
281.7180144709544
 21
254.3803207468882
 31
0.0
  0
LINE
  5
1291
330
1F
100
AcDbEntity
  8
0
  6
CENTER_DASH_DASH
 62
    30
100
AcDbLine
 10
293.2180144709544
 20
269.580320746888
 30
0.0
 11
293.2180144709544
 21
257.580320746888
 31
0.0
  0
LINE
  5
1292
330
1F
100
AcDbEntity
  8
0
  6
CENTER_DASH_DASH
 62
    30
100
AcDbLine
 10
305.218014470955
 20
269.580320746888
 30
0.0
 11
305.2180144709544
 21
257.580320746888
 31
0.0
  0
LINE
  5
1293
330
1F
100
AcDbEntity
  8
0
  6
DASH_CENTER
 62
    30
100
AcDbLine
 10
299.2180144709545
 20
274.2474207468881
 30
0.0
 11
299.2180144709544
 21
251.389220746888
 31
0.0
  0
LINE
  5
1295
330
1F
100
AcDbEntity
  8
0
  6
Continuous
 62
     7
100
AcDbLine
 10
273.404514470955
 20
264.472420746888
 30
0.0
 11
255.5078144709545
 21
269.2907207468882
 31
0.0
  0
LINE
  5
1296
330
1F
100
AcDbEntity
  8
0
  6
Continuous
 62
     7
100
AcDbLine
 10
277.0772144709543
 20
260.1677207468881
 30
0.0
 11
277.7180144709544
 21
254.080320746888
 31
0.0
  0
LINE
  5
1299
330
1F
100
AcDbEntity
  8
0
  6
Continuous
 62
     7
100
AcDbLine
 10
242.9680144709545
 20
274.580220746888
 30
0.0
 11
242.9680144709545
 21
271.580320746888
 31
0.0
  0
LINE
  5
129A
330
1F
100
AcDbEntity
  8
0
  6
Continuous
 62
     7
100
AcDbLine
 10
242.7180144709545
 20
274.580220746888
 30
0.0
 11
242.7180144709545
 21
280.0044612496204
 31
0.0
  0
LINE
  5
129B
330
1F
100
AcDbEntity
  8
0
  6
Continuous
 62
     7
100
AcDbLine
 10
281.7180144709544
 20
257.580320746888
 30
0.0
 11
281.7180144709544
 21
254.3803207468882
 31
0.0
  0
LINE
  5
12A1
330
1F
100
AcDbEntity
  8
0
  6
Continuous
 62
     7
100
AcDbLine
 10
242.7180144709545
 20
274.580220746888
 30
0.0
 11
242.9680144709545
 21
274.580220746888
 31
0.0
  0
LINE
  5
12A2
330
1F
100
AcDbEntity
  8
0
  6
Continuous
 62
     7
100
AcDbLine
 10
242.9680144709545
 20
271.580320746888
 30
0.0
 11
242.7180144709545
 21
271.580320746888
 31
0.0
  0
LINE
  5
12A3
330
1F
100
AcDbEntity
  8
0
  6
Continuous
 62
     7
100
AcDbLine
 10
234.7180144709549
 20
268.580320746888
 30
0.0
 11
229.4680144709545
 21
268.580320746888
 31
0.0
  0
LINE
  5
12A4
330
1F
100
AcDbEntity
  8
0
  6
Continuous
 62
     7
100
AcDbLine
 10
229.4680144709549
 20
261.580320746888
 30
0.0
 11
244.4175144709545
 21
261.580320746888
 31
0.0
  0
LINE
  5
12B0
330
1F
100
AcDbEntity
  8
0
  6
Continuous
 62
     7
100
AcDbLine
 10
281.4180144709549
 20
254.080320746888
 30
0.0
 11
277.7180144709544
 21
254.080320746888
 31
0.0
  0
LINE
  5
12B2
330
1F
100
AcDbEntity
  8
0
  6
Continuous
 62
     7
100
AcDbLine
 10
242.7180144709545
 20
273.080320746888
 30
0.0
 11
242.7180144709545
 21
280.0044612496204
 31
0.0
  0
LINE
  5
12B3
330
1F
100
AcDbEntity
  8
0
  6
Continuous
 62
     7
100
AcDbLine
 10
241.2180144709545
 20
271.580320746888
 30
0.0
 11
230.7183144709545
 21
271.580320746888
 31
0.0
  0
LINE
  5
12B4
330
1F
100
AcDbEntity
  8
0
  6
Continuous
 62
     7
100
AcDbLine
 10
242.7180144709545
 20
271.580320746888
 30
0.0
 11
237.7180144709551
 21
271.580320746888
 31
0.0
  0
LINE
  5
12B7
330
1F
100
AcDbEntity
  8
0
  6
Continuous
 62
     7
100
AcDbLine
 10
204.7185144709545
 20
257.2506058634343
 30
0.0
 11
204.7185144709544
 21
208.580320746888
 31
0.0
  0
ARC
  5
1308
330
1F
100
AcDbEntity
  8
0
  6
Continuous
 62
     7
100
AcDbCircle
 10
229.0679144709545
 20
257.230120746888
 30
0.0
 40
0.3499999999999872
100
AcDbArc
 50
90.0
 51
176.644623219734
  0
ARC
  5
1346
330
1F
100
AcDbEntity
  8
0
  6
Continuous
 62
     7
100
AcDbCircle
 10
241.2180144709545
 20
273.080320746888
 30
0.0
 40
1.5
100
AcDbArc
 50
270.0
 51
0.0
  0
ARC
  5
1349
330
1F
100
AcDbEntity
  8
0
  6
Continuous
 62
     7
100
AcDbCircle
 10
230.7183144709545
 20
273.080320746888
 30
0.0
 40
1.5
100
AcDbArc
 50
180.0
 51
270.0
  0
ARC
  5
135C
330
1F
100
AcDbEntity
  8
0
  6
Continuous
 62
     7
100
AcDbCircle
 10
234.7180144709549
 20
271.580320746888
 30
0.0
 40
3.0
100
AcDbArc
 50
270.0
 51
0.0
  0
ARC
  5
1360
330
1F
100
AcDbEntity
  8
0
  6
Continuous
 62
     7
100
AcDbCircle
 10
271.2180129884554
 20
275.417219610716
 30
0.0
 40
5.000001482499217
100
AcDbArc
 50
254.9323334660788
 51
0.0000130195660859
  0
ARC
  5
1364
330
1F
100
AcDbEntity
  8
0
  6
Continuous
 62
     7
100
AcDbCircle
 10
254.2079293086326
 20
264.4626292114586
 30
0.0
 40
5.000016930942433
100
AcDbArc
 50
74.93135289779473
 51
164.4762733247026
  0
ARC
  5
1365
330
1F
100
AcDbEntity
  8
0
  6
Continuous
 62
     7
100
AcDbCircle
 10
244.4175176942612
 20
266.5803231968847
 30
0.0
 40
5.000002449997746
100
AcDbArc
 50
269.9999630636463
 51
344.4760974245124
  0
ARC
  5
1366
330
1F
100
AcDbEntity
  8
0
  6
Continuous
 62
     7
100
AcDbCircle
 10
272.104695783514
 20
259.6443426500725
 30
0.0
 40
4.999986672899313
100
AcDbArc
 50
6.008494005917095
 51
74.93204841798953
  0
ARC
  5
1369
330
1F
100
AcDbEntity
  8
0
  6
Continuous
 62
     7
100
AcDbCircle
 10
287.2180144704545
 20
274.5804207473882
 30
0.0
 40
5.000000000499987
100
AcDbArc
 50
180.001145921326
 51
270.0000000057321
  0
ARC
  5
136C
330
1F
100
AcDbEntity
  8
0
  6
Continuous
 62
     7
100
AcDbCircle
 10
256.396253689697
 20
281.4789818187552
 30
0.0
 40
7.000055491347636
100
AcDbArc
 50
195.4947135058922
 51
254.9314230208827
  0
ARC
  5
1378
330
1F
100
AcDbEntity
  8
0
  6
Continuous
 62
     7
100
AcDbCircle
 10
235.9683144709545
 20
279.080320746888
 30
0.0
 40
4.5
100
AcDbArc
 50
179.2540574913581
 51
8.016085337662513
  0
LINE
  5
14AE
330
1F
100
AcDbEntity
  8
0
  6
Continuous
 62
     7
100
AcDbLine
 10
-135.2903445717494
 20
-86.01567706030818
 30
0.0
 11
-138.6040445717494
 21
-86.01567706030818
 31
0.0
  0
LINE
  5
14AF
330
1F
100
AcDbEntity
  8
0
  6
Continuous
 62
     7
100
AcDbLine
 10
-138.6040445717494
 20
-94.01547706030816
 30
0.0
 11
-138.6040445717494
 21
-86.01567706030818
 31
0.0
  0
LINE
  5
14B0
330
1F
100
AcDbEntity
  8
0
  6
Continuous
 62
     7
100
AcDbLine
 10
-138.3540445717494
 20
-86.01567706030818
 30
0.0
 11
-138.6040445717494
 21
-86.26567706030817
 31
0.0
  0
LINE
  5
14B1
330
1F
100
AcDbEntity
  8
0
  6
Continuous
 62
     7
100
AcDbLine
 10
-131.6040445717494
 20
-86.26567706030817
 30
0.0
 11
-131.8540445717494
 21
-86.01567706030818
 31
0.0
  0
LINE
  5
14B2
330
1F
100
AcDbEntity
  8
0
  6
Continuous
 62
     7
100
AcDbLine
 10
-131.8540445717494
 20
-94.01547706030816
 30
0.0
 11
-131.6040445717494
 21
-93.76547706030818
 31
0.0
  0
LINE
  5
14B3
330
1F
100
AcDbEntity
  8
0
  6
Continuous
 62
     7
100
AcDbLine
 10
-138.6040445717494
 20
-93.76547706030818
 30
0.0
 11
-138.3540445717494
 21
-94.01547706030816
 31
0.0
  0
LINE
  5
14B4
330
1F
100
AcDbEntity
  8
0
  6
Continuous
 62
     7
100
AcDbLine
 10
-138.3540445717494
 20
-86.01567706030818
 30
0.0
 11
-131.8540445717494
 21
-86.01567706030818
 31
0.0
  0
LINE
  5
14B5
330
1F
100
AcDbEntity
  8
0
  6
Continuous
 62
     7
100
AcDbLine
 10
-138.6040445717494
 20
-86.26567706030817
 30
0.0
 11
-138.6040445717494
 21
-93.76547706030818
 31
0.0
  0
LINE
  5
14B6
330
1F
100
AcDbEntity
  8
0
  6
Continuous
 62
     7
100
AcDbLine
 10
-131.8540445717494
 20
-94.01547706030816
 30
0.0
 11
-138.3540445717494
 21
-94.01547706030816
 31
0.0
  0
LINE
  5
14B7
330
1F
100
AcDbEntity
  8
0
  6
Continuous
 62
     7
100
AcDbLine
 10
-131.6040445717494
 20
-86.26567706030817
 30
0.0
 11
-131.6040445717494
 21
-93.76547706030818
 31
0.0
  0
LINE
  5
14B8
330
1F
100
AcDbEntity
  8
0
  6
Continuous
 62
     7
100
AcDbLine
 10
-138.6040445717494
 20
-94.01547706030816
 30
0.0
 11
-135.2903445717494
 21
-94.01547706030816
 31
0.0
  0
LINE
  5
14B9
330
1F
100
AcDbEntity
  8
0
  6
Continuous
 62
     7
100
AcDbLine
 10
-95.28572625069465
 20
51.29613840212225
 30
0.0
 11
-146.4956262506945
 21
60.32593840212218
 31
0.0
  0
LINE
  5
14BA
330
1F
100
AcDbEntity
  8
0
  6
Continuous
 62
     7
100
AcDbLine
 10
-91.6070262506945
 20
49.12433840212208
 30
0.0
 11
-150.6954262506946
 21
59.5432384021222
 31
0.0
  0
LINE
  5
14BB
330
1F
100
AcDbEntity
  8
0
  6
Continuous
 62
     7
100
AcDbLine
 10
-92.84012625069463
 20
46.29563840212215
 30
0.0
 11
-150.5039262506944
 21
56.46313840212219
 31
0.0
  0
LINE
  5
14BC
330
1F
100
AcDbEntity
  8
0
  6
Continuous
 62
     7
100
AcDbLine
 10
-92.9659262506947
 20
45.58323840212227
 30
0.0
 11
-150.6297262506945
 21
55.75103840212211
 31
0.0
  0
LINE
  5
14BD
330
1F
100
AcDbEntity
  8
0
  6
DASH_CENTER
 62
    30
100
AcDbLine
 10
-143.3448262506946
 20
30.24543840212226
 30
0.0
 11
-107.4563262506946
 21
23.91723840212234
 31
0.0
  0
LINE
  5
14BE
330
1F
100
AcDbEntity
  8
0
  6
Continuous
 62
     7
100
AcDbLine
 10
-96.68832625069455
 20
43.34253840212209
 30
0.0
 11
-147.8980262506946
 21
52.37213840212217
 31
0.0
  0
LINE
  5
14BF
330
1F
100
AcDbEntity
  8
0
  6
Continuous
 62
     7
100
AcDbLine
 10
-162.2798262506945
 20
51.43163840212237
 30
0.0
 11
-166.6324262506945
 21
26.74783840212234
 31
0.0
  0
LINE
  5
14C0
330
1F
100
AcDbEntity
  8
0
  6
DASH_CENTER
 62
    30
100
AcDbLine
 10
-96.60724457174943
 20
-40.01897706030813
 30
0.0
 11
-79.87364457174942
 21
-23.28537706030818
 31
0.0
  0
LINE
  5
14C1
330
1F
100
AcDbEntity
  8
0
  6
DASH_CENTER
 62
    30
100
AcDbLine
 10
-196.5249445717494
 20
-40.09437706030803
 30
0.0
 11
-213.3339445717494
 21
-23.28537706030812
 31
0.0
  0
LINE
  5
14C2
330
1F
100
AcDbEntity
  8
0
  6
DASH_CENTER
 62
    30
100
AcDbLine
 10
-79.87364457174954
 20
-156.7459770603083
 30
0.0
 11
-96.60724457174943
 21
-140.0123770603084
 31
0.0
  0
LINE
  5
14C3
330
1F
100
AcDbEntity
  8
0
  6
DASH_CENTER
 62
    30
100
AcDbLine
 10
-213.3339445717495
 20
-156.7459770603083
 30
0.0
 11
-196.5249445717495
 21
-139.9369770603084
 31
0.0
  0
LINE
  5
14C4
330
1F
100
AcDbEntity
  8
0
  6
Continuous
 62
     7
100
AcDbLine
 10
-84.85452625069481
 20
33.99853840212216
 30
0.0
 11
-88.5469009929975
 21
13.05937325304865
 31
0.0
  0
LINE
  5
14C5
330
1F
100
AcDbEntity
  8
0
  6
Continuous
 62
     7
100
AcDbLine
 10
-87.84822625069464
 20
12.85593840212226
 30
0.0
 11
-87.83694586969124
 21
12.91991023428034
 31
0.0
  0
LINE
  5
14C6
330
1F
100
AcDbEntity
  8
0
  6
Continuous
 62
     7
100
AcDbLine
 10
-165.926034228797
 20
26.58806487527858
 30
0.0
 11
-162.2142262506946
 21
47.63913840212234
 31
0.0
  0
LINE
  5
14C7
330
1F
100
AcDbEntity
  8
0
  6
Continuous
 62
     7
100
AcDbLine
 10
-92.91796608065828
 20
7.137777287717937
 30
0.0
 11
-88.5767262506946
 21
31.75783840212233
 31
0.0
  0
LINE
  5
14C8
330
1F
100
AcDbEntity
  8
0
  6
Continuous
 62
     7
100
AcDbLine
 10
-163.8239454312515
 20
19.64037907250576
 30
0.0
 11
-159.4827262506945
 21
44.26053840212232
 31
0.0
  0
LINE
  5
14C9
330
1F
100
AcDbEntity
  8
0
  6
Continuous
 62
     7
100
AcDbLine
 10
-87.83694586969124
 20
12.91991023428034
 30
0.0
 11
-83.49562625069451
 21
37.53983840212226
 31
0.0
  0
LINE
  5
14CA
330
1F
100
AcDbEntity
  8
0
  6
Continuous
 62
     7
100
AcDbLine
 10
-88.5469009929975
 20
13.05937325304865
 30
0.0
 11
-88.56062625069453
 21
12.98153840212234
 31
0.0
  0
LINE
  5
14CB
330
1F
100
AcDbEntity
  8
0
  6
Continuous
 62
     7
100
AcDbLine
 10
-100.0420653120582
 20
1.285979369338007
 30
0.0
 11
-100.2157138409601
 21
0.3011716782572193
 31
0.0
  0
LINE
  5
14CC
330
1F
100
AcDbEntity
  8
0
  6
Continuous
 62
     7
100
AcDbLine
 10
-100.2157138409601
 20
0.3011716782572193
 30
0.0
 11
-105.8184264117285
 21
1.289075404094545
 31
0.0
  0
LINE
  5
14CD
330
1F
100
AcDbEntity
  8
0
  6
Continuous
 62
     7
100
AcDbLine
 10
-100.2157138409601
 20
0.3011716782572193
 30
0.0
 11
-100.3893623698622
 21
-0.6836360128235697
 31
0.0
  0
LINE
  5
14CE
330
1F
100
AcDbEntity
  8
0
  6
Continuous
 62
     7
100
AcDbLine
 10
-100.3893623698622
 20
-0.6836360128235697
 30
0.0
 11
-102.3586715279257
 21
-0.3363956662945497
 31
0.0
  0
LINE
  5
14CF
330
1F
100
AcDbEntity
  8
0
  6
Continuous
 62
     7
100
AcDbLine
 10
-100.0420653120582
 20
1.285979369338007
 30
0.0
 11
-109.9884220459328
 21
3.039780363372243
 31
0.0
  0
LINE
  5
14D0
330
1F
100
AcDbEntity
  8
0
  6
Continuous
 62
     7
100
AcDbLine
 10
-149.1842481509058
 20
9.951022401452293
 30
0.0
 11
-159.1305407108574
 21
11.70481207995738
 31
0.0
  0
LINE
  5
14D1
330
1F
100
AcDbEntity
  8
0
  6
Continuous
 62
     7
100
AcDbLine
 10
-159.3041892397594
 20
10.72000438887659
 30
0.0
 11
-153.7015382087971
 21
9.732111514105213
 31
0.0
  0
LINE
  5
14D2
330
1F
100
AcDbEntity
  8
0
  6
Continuous
 62
     7
100
AcDbLine
 10
-157.5085875162869
 20
9.387966737869419
 30
0.0
 11
-159.4778377686614
 21
9.735196697795686
 31
0.0
  0
LINE
  5
14D3
330
1F
100
AcDbEntity
  8
0
  6
Continuous
 62
     7
100
AcDbLine
 10
-159.4778377686614
 20
9.735196697795686
 30
0.0
 11
-159.1305407108574
 21
11.70481207995738
 31
0.0
  0
LINE
  5
14D4
330
1F
100
AcDbEntity
  8
0
  6
DASHED
 62
    30
100
AcDbLine
 10
-126.7942217146064
 20
-170.8229715469928
 30
0.0
 11
-126.6037445717495
 21
-171.5999647632103
 31
0.0
  0
LINE
  5
14D5
330
1F
100
AcDbEntity
  8
0
  6
DASHED
 62
    30
100
AcDbLine
 10
-166.4132693336544
 20
-170.8230201090834
 30
0.0
 11
-166.6037445717495
 21
-171.600013792244
 31
0.0
  0
ARC
  5
14D6
330
1F
100
AcDbEntity
  8
0
  6
Continuous
 62
     7
100
AcDbCircle
 10
-146.6040445717494
 20
-90.01572706030822
 30
0.0
 40
12.00000865385106
100
AcDbArc
 50
19.4714592399537
 51
340.5285407600463
  0
ARC
  5
14D9
330
1F
100
AcDbEntity
  8
0
  6
DASH_CENTER
 62
    30
100
AcDbCircle
 10
-146.6038438016665
 20
-90.01557726263358
 30
0.0
 40
82.50002293948298
100
AcDbArc
 50
37.03996604507128
 51
52.63314443420579
  0
ARC
  5
14DA
330
1F
100
AcDbEntity
  8
0
  6
Continuous
 62
     7
100
AcDbCircle
 10
-146.6037445717494
 20
-90.01567706030817
 30
0.0
 40
65.0
100
AcDbArc
 50
0.0
 51
180.0
  0
ARC
  5
14DB
330
1F
100
AcDbEntity
  8
0
  6
Continuous
 62
     7
100
AcDbCircle
 10
-146.6037445717494
 20
-90.01567706030817
 30
0.0
 40
61.0
100
AcDbArc
 50
0.0
 51
180.0
  0
ARC
  5
14DC
330
1F
100
AcDbEntity
  8
0
  6
DASH_CENTER
 62
    30
100
AcDbCircle
 10
-146.6036366443164
 20
-90.01526974620729
 30
0.0
 40
82.49998320113055
100
AcDbArc
 50
127.0401676052314
 51
142.6333038444509
  0
ARC
  5
14DD
330
1F
100
AcDbEntity
  8
0
  6
Continuous
 62
     7
100
AcDbCircle
 10
-97.022260425499
 20
41.44820644874045
 30
0.0
 40
10.00004533062954
100
AcDbArc
 50
48.21322385137445
 51
80.00032274099703
  0
ARC
  5
14DE
330
1F
100
AcDbEntity
  8
0
  6
Continuous
 62
     7
100
AcDbCircle
 10
-148.2322796178804
 20
50.47783237399511
 30
0.0
 40
9.999942016187524
100
AcDbArc
 50
79.99952490587003
 51
112.8896113901683
  0
ARC
  5
14DF
330
1F
100
AcDbEntity
  8
0
  6
Continuous
 62
     7
100
AcDbCircle
 10
-152.4316792658342
 20
49.69517130174523
 30
0.0
 40
9.999967370282327
100
AcDbArc
 50
80.00071616661573
 51
170.0000524212141
  0
ARC
  5
14E0
330
1F
100
AcDbEntity
  8
0
  6
Continuous
 62
     7
100
AcDbCircle
 10
-93.34352625069447
 20
39.27643840212211
 30
0.0
 40
9.999909447589995
100
AcDbArc
 50
350.0003842939158
 51
80.00038429391549
  0
ARC
  5
14E1
330
1F
100
AcDbEntity
  8
0
  6
Continuous
 62
     7
100
AcDbCircle
 10
-149.6346262506946
 20
42.52423840212219
 30
0.0
 40
9.99994417784417
100
AcDbArc
 50
79.99925577972397
 51
169.9992557797236
  0
ARC
  5
14E2
330
1F
100
AcDbEntity
  8
0
  6
Continuous
 62
     7
100
AcDbCircle
 10
-98.42463329343443
 20
33.49444846014041
 30
0.0
 40
10.00001661072861
100
AcDbArc
 50
350.0004340371341
 51
79.99986978452691
  0
ARC
  5
14E3
330
1F
100
AcDbEntity
  8
0
  6
Continuous
 62
     7
100
AcDbCircle
 10
-152.3660564248238
 20
45.90261727386763
 30
0.0
 40
10.72340386601398
100
AcDbArc
 50
80.0009188890532
 51
169.9993403226424
  0
ARC
  5
14E4
330
1F
100
AcDbEntity
  8
0
  6
Continuous
 62
     7
100
AcDbCircle
 10
-94.70222625069448
 20
35.73513840212235
 30
0.0
 40
10.72339518296317
100
AcDbArc
 50
350.0005318706599
 51
80.0005318706602
  0
ARC
  5
14E5
330
1F
100
AcDbEntity
  8
0
  6
Continuous
 62
     7
100
AcDbCircle
 10
-152.366046366211
 20
45.90262431688467
 30
0.0
 40
10.00000792896684
100
AcDbArc
 50
80.00094854741568
 51
169.9998200404151
  0
ARC
  5
14E6
330
1F
100
AcDbEntity
  8
0
  6
Continuous
 62
     7
100
AcDbCircle
 10
-94.70222625069448
 20
35.73513840212235
 30
0.0
 40
10.00000792849685
100
AcDbArc
 50
350.0004837831294
 51
80.00048378312966
  0
ARC
  5
14E7
330
1F
100
AcDbEntity
  8
0
  6
Continuous
 62
     7
100
AcDbCircle
 10
-146.6037445717494
 20
-90.01567706030817
 30
0.0
 40
100.0
100
AcDbArc
 50
180.0
 51
0.0
  0
ARC
  5
14E8
330
1F
100
AcDbEntity
  8
0
  6
DASH_CENTER
 62
    30
100
AcDbCircle
 10
-146.6038438016666
 20
-90.01577685798286
 30
0.0
 40
82.50002293948304
100
AcDbArc
 50
307.3668555657942
 51
322.9600339549287
  0
ARC
  5
14E9
330
1F
100
AcDbEntity
  8
0
  6
Continuous
 62
     7
100
AcDbCircle
 10
-146.6037445717494
 20
-90.01567706030817
 30
0.0
 40
65.0
100
AcDbArc
 50
180.0
 51
0.0
  0
ARC
  5
14EA
330
1F
100
AcDbEntity
  8
0
  6
Continuous
 62
     7
100
AcDbCircle
 10
-146.6037445717494
 20
-90.01567706030817
 30
0.0
 40
61.0
100
AcDbArc
 50
180.0
 51
0.0
  0
ARC
  5
14EB
330
1F
100
AcDbEntity
  8
0
  6
DASH_CENTER
 62
    30
100
AcDbCircle
 10
-146.6036366443162
 20
-90.01608437440934
 30
0.0
 40
82.49998320113055
100
AcDbArc
 50
217.3666961555491
 51
232.9598323947685
  0
ARC
  5
14EC
330
1F
100
AcDbEntity
  8
0
  6
Continuous
 62
     7
100
AcDbCircle
 10
-156.0711262506946
 20
24.88553840212234
 30
0.0
 40
10.72339322136413
100
AcDbArc
 50
166.942431287369
 51
223.3207421627716
  0
ARC
  5
14ED
330
1F
100
AcDbEntity
  8
0
  6
Continuous
 62
     7
100
AcDbCircle
 10
-156.0711262506946
 20
24.88553840212234
 30
0.0
 40
10.00004135991435
100
AcDbArc
 50
169.2602515506047
 51
218.2432487986302
  0
ARC
  5
14EE
330
1F
100
AcDbEntity
  8
0
  6
Continuous
 62
     7
100
AcDbCircle
 10
-98.40852625069452
 20
14.7180384021222
 30
0.0
 40
10.72341254731906
100
AcDbArc
 50
296.672119182424
 51
350.3469005190345
  0
ARC
  5
14EF
330
1F
100
AcDbEntity
  8
0
  6
Continuous
 62
     7
100
AcDbCircle
 10
-98.40852625069452
 20
14.7180384021222
 30
0.0
 40
10.00014113900385
100
AcDbArc
 50
301.7491623426266
 51
350.452560242137
  0
ARC
  5
14F0
330
1F
100
AcDbEntity
  8
0
  6
Continuous
 62
     7
100
AcDbCircle
 10
-146.6037445717494
 20
-90.01567706030817
 30
0.0
 40
100.0
100
AcDbArc
 50
96.26046461417487
 51
180.0
  0
ARC
  5
14F1
330
1F
100
AcDbEntity
  8
0
  6
Continuous
 62
     7
100
AcDbCircle
 10
-146.6037445717494
 20
-90.01567706030817
 30
0.0
 40
99.99999999999992
100
AcDbArc
 50
63.73964776836757
 51
65.92995381262753
  0
ARC
  5
14F2
330
1F
100
AcDbEntity
  8
0
  6
Continuous
 62
     7
100
AcDbCircle
 10
-146.6037445717494
 20
-90.01567706030817
 30
0.0
 40
100.0
100
AcDbArc
 50
0.0
 51
63.73964776836757
  0
ARC
  5
14F3
330
1F
100
AcDbEntity
  8
0
  6
Continuous
 62
     7
100
AcDbCircle
 10
-146.6037445717494
 20
-90.01567706030817
 30
0.0
 40
100.0
100
AcDbArc
 50
65.92995381262753
 51
68.52142860130896
  0
ARC
  5
14F4
330
1F
100
AcDbEntity
  8
0
  6
Continuous
 62
     7
100
AcDbCircle
 10
-146.6037445717494
 20
-90.01567706030817
 30
0.0
 40
99.99999999999992
100
AcDbArc
 50
68.52142860130896
 51
91.47868378123749
  0
ARC
  5
14F5
330
1F
100
AcDbEntity
  8
0
  6
Continuous
 62
     7
100
AcDbCircle
 10
-146.6037445717494
 20
-90.01567706030817
 30
0.0
 40
99.99999999999987
100
AcDbArc
 50
91.47868378123749
 51
94.07015856991751
  0
ARC
  5
14F6
330
1F
100
AcDbEntity
  8
0
  6
Continuous
 62
     7
100
AcDbCircle
 10
-146.6037445717494
 20
-90.01567706030817
 30
0.0
 40
99.99999999999994
100
AcDbArc
 50
94.07015856991751
 51
96.26046461417487
  0
ARC
  5
14F7
330
1F
100
AcDbEntity
  8
0
  6
DASHED
 62
    30
100
AcDbCircle
 10
-146.6038445717494
 20
-90.01567706030817
 30
0.0
 40
83.99999999999947
100
AcDbArc
 50
256.2259232308815
 51
283.7742172269564
  0
ARC
  5
14F8
330
1F
100
AcDbEntity
  8
0
  6
DASHED
 62
    30
100
AcDbCircle
 10
-146.6038445717494
 20
-90.01567706030817
 30
0.0
 40
83.20000000000002
100
AcDbArc
 50
246.5963110540127
 51
293.4036889459873
  0
CIRCLE
  5
14F9
330
1F
100
AcDbEntity
  8
0
  6
Continuous
 62
     7
100
AcDbCircle
 10
-88.26754457174946
 20
-31.67927706030815
 30
0.0
 40
6.0
  0
CIRCLE
  5
14FA
330
1F
100
AcDbEntity
  8
0
  6
Continuous
 62
     7
100
AcDbCircle
 10
-204.9401445717493
 20
-31.67917706030813
 30
0.0
 40
5.999999999999997
  0
CIRCLE
  5
14FB
330
1F
100
AcDbEntity
  8
0
  6
Continuous
 62
     7
100
AcDbCircle
 10
-88.26754457174954
 20
-148.3520770603084
 30
0.0
 40
6.0
  0
CIRCLE
  5
14FC
330
1F
100
AcDbEntity
  8
0
  6
Continuous
 62
     7
100
AcDbCircle
 10
-204.9401445717494
 20
-148.3521770603084
 30
0.0
 40
6.0
  0
CIRCLE
  5
14FD
330
1F
100
AcDbEntity
  8
0
  6
Continuous
 62
     7
100
AcDbCircle
 10
-146.6038445717494
 20
-90.01567706030817
 30
0.0
 40
31.50000000000007
  0
CIRCLE
  5
14FE
330
1F
100
AcDbEntity
  8
0
  6
Continuous
 62
     7
100
AcDbCircle
 10
-146.6038445717494
 20
-90.01567706030817
 30
0.0
 40
34.00000000000001
  0
CIRCLE
  5
14FF
330
1F
100
AcDbEntity
  8
0
  6
Continuous
 62
     7
100
AcDbCircle
 10
-125.9397262506946
 20
27.17653840212228
 30
0.0
 40
10.00002042847899
  0
CIRCLE
  5
1500
330
1F
100
AcDbEntity
  8
0
  6
DASHED
 62
    30
100
AcDbCircle
 10
-125.9397262506946
 20
27.17653840212228
 30
0.0
 40
11.5000596872363
  0
CIRCLE
  5
1501
330
1F
100
AcDbEntity
  8
0
  6
Continuous
 62
     7
100
AcDbCircle
 10
-125.9397262506946
 20
27.17653840212228
 30
0.0
 40
15.0000509345802
  0
ARC
  5
1502
330
1F
100
AcDbEntity
  8
0
  6
Continuous
 62
     7
100
AcDbCircle
 10
-99.81161753673758
 20
8.353330495971761
 30
0.0
 40
6.999999999999996
100
AcDbArc
 50
342.2073572037636
 51
349.9998673122405
  0
ARC
  5
1503
330
1F
100
AcDbEntity
  8
0
  6
Continuous
 62
     7
100
AcDbCircle
 10
-156.9302921571573
 20
18.42483617463324
 30
0.0
 40
6.999999999999992
100
AcDbArc
 50
187.3575215713398
 51
260.0000561912766
  0
ARC
  5
1504
330
1F
100
AcDbEntity
  8
0
  6
Continuous
 62
     7
100
AcDbCircle
 10
-156.9302921571573
 20
18.42483617463324
 30
0.0
 40
6.999999999999985
100
AcDbArc
 50
177.7840447335453
 51
187.3575215713398
  0
ARC
  5
1505
330
1F
100
AcDbEntity
  8
0
  6
Continuous
 62
     7
100
AcDbCircle
 10
-156.9302921571573
 20
18.42483617463324
 30
0.0
 40
6.999999999999972
100
AcDbArc
 50
169.9999530057563
 51
177.7840447335453
  0
ARC
  5
1506
330
1F
100
AcDbEntity
  8
0
  6
Continuous
 62
     7
100
AcDbCircle
 10
-99.81161753673758
 20
8.353330495971761
 30
0.0
 40
6.999999999999943
100
AcDbArc
 50
260.0000561912696
 51
332.6347789791325
  0
ARC
  5
1507
330
1F
100
AcDbEntity
  8
0
  6
Continuous
 62
     7
100
AcDbCircle
 10
-99.81161753673758
 20
8.353330495971761
 30
0.0
 40
6.999999999999952
100
AcDbArc
 50
332.6347789791325
 51
342.2073572037636
  0
SOLID
  5
1508
330
1F
100
AcDbEntity
  8
0
 62
     1
100
AcDbTrace
 10
-212.7027394065766
 20
-30.47512921278406
 30
0.0
 11
-212.6006852012035
 21
-29.99209553423032
 31
0.0
 12
-210.8172097786601
 22
-30.62120169859861
 32
0.0
 13
-210.8172097786601
 23
-30.62120169859861
 33
0.0
  0
ARC
  5
1509
330
1F
100
AcDbEntity
  8
0
  6
Continuous
 62
     7
100
AcDbCircle
 10
204.3691144709543
 20
257.230120746888
 30
0.0
 40
0.3499999999999872
100
AcDbArc
 50
3.355376780265973
 51
90.0
  0
LINE
  5
1541
330
1F
100
AcDbEntity
  8
0
  6
Continuous
 62
     7
100
AcDbLine
 10
204.2678144709543
 20
271.580320746888
 30
0.0
 11
204.2678144709543
 21
279.580320746888
 31
0.0
  0
LINE
  5
1542
330
1F
100
AcDbEntity
  8
0
  6
Continuous
 62
     7
100
AcDbLine
 10
204.3679144709544
 20
257.580320746888
 30
0.0
 11
204.3679144709543
 21
271.580320746888
 31
0.0
  0
LINE
  5
1543
330
1F
100
AcDbEntity
  8
0
  6
Continuous
 62
     7
100
AcDbLine
 10
204.2678144709543
 20
271.580320746888
 30
0.0
 11
216.7678144709544
 21
271.580320746888
 31
0.0
  0
SPLINE
  5
1544
330
1F
100
AcDbEntity
  8
0
  6
Continuous
 62
    30
100
AcDbSpline
210
0.0
220
0.0
230
1.0
 70
     8
 71
     3
 72
    11
 73
     7
 74
     0
 42
0.0000000001
 43
0.0000000001
 40
0.0
 40
0.0
 40
0.0
 40
0.0
 40
1.0
 40
2.0
 40
3.0
 40
4.0
 40
4.0
 40
4.0
 40
4.0
 10
204.2678144709543
 20
279.580320746888
 30
0.0
 10
214.1489606899676
 20
284.0801507247326
 30
0.0
 10
228.2368684793035
 20
275.9464933702408
 30
0.0
 10
255.766440723646
 20
283.6499358290786
 30
0.0
 10
267.7447209116652
 20
275.5784109547804
 30
0.0
 10
282.2180144709545
 20
278.7210891415904
 30
0.0
 10
282.2180144709545
 20
278.7210891415904
 30
0.0
  0
LINE
  5
1549
330
1F
100
AcDbEntity
  8
0
  6
Continuous
 62
     7
100
AcDbLine
 10
276.2180144709545
 20
277.8139745464016
 30
0.0
 11
276.2180144709545
 21
275.417220746888
 31
0.0
  0
POINT
  5
17C2
330
1F
100
AcDbEntity
  8
0
 62
     7
100
AcDbPoint
 10
-226.4647701781169
 20
524.5789474658448
 30
0.0
 50
270.0
  0
POINT
  5
17D5
330
1F
100
AcDbEntity
  8
0
 62
     2
100
AcDbPoint
 10
-218.4429652617879
 20
296.2973474658452
 30
0.0
 50
270.0
  0
LINE
  5
186D
330
1F
100
AcDbEntity
  8
0
  6
DASH_CENTER
 62
    30
100
AcDbLine
 10
-219.8741701781169
 20
524.5789474658448
 30
0.0
 11
-233.1595701781169
 21
524.5789474658448
 31
0.0
  0
LINE
  5
186E
330
1F
100
AcDbEntity
  8
0
  6
DASH_CENTER
 62
    30
100
AcDbLine
 10
-226.4647701781169
 20
516.363147465845
 30
0.0
 11
-226.4647701781169
 21
532.560447465845
 31
0.0
  0
LINE
  5
186F
330
1F
100
AcDbEntity
  8
0
  6
Continuous
 62
     7
100
AcDbLine
 10
-225.4188701781169
 20
526.946347465845
 30
0.0
 11
-225.3692701781169
 21
526.8121474658451
 31
0.0
  0
LINE
  5
1870
330
1F
100
AcDbEntity
  8
0
  6
Continuous
 62
     7
100
AcDbLine
 10
-227.7047701781169
 20
523.013547465845
 30
0.0
 11
-227.6048701781169
 21
522.9007474658451
 31
0.0
  0
LINE
  5
1871
330
1F
100
AcDbEntity
  8
0
  6
Continuous
 62
     7
100
AcDbLine
 10
-225.4188701781169
 20
522.2112474658451
 30
0.0
 11
-225.3692701781169
 21
522.3455474658451
 31
0.0
  0
LINE
  5
1872
330
1F
100
AcDbEntity
  8
0
  6
Continuous
 62
     7
100
AcDbLine
 10
-227.7047701781169
 20
526.1441474658449
 30
0.0
 11
-227.6048701781169
 21
526.2569474658451
 31
0.0
  0
LINE
  5
18BD
330
1F
100
AcDbEntity
  8
0
  6
Continuous
 62
     7
100
AcDbLine
 10
-229.8068652617879
 20
316.579147465845
 30
0.0
 11
-229.8068652617879
 21
514.578947465845
 31
0.0
  0
LINE
  5
18BE
330
1F
100
AcDbEntity
  8
0
  6
Continuous
 62
     7
100
AcDbLine
 10
-229.8068652617879
 20
514.578947465845
 30
0.0
 11
-232.6279652617879
 21
514.578947465845
 31
0.0
  0
LINE
  5
18BF
330
1F
100
AcDbEntity
  8
0
  6
Continuous
 62
     7
100
AcDbLine
 10
-146.6064652617878
 20
316.5792474664461
 30
0.0
 11
-229.8068652617879
 21
316.579147465845
 31
0.0
  0
LINE
  5
18C9
330
1F
100
AcDbEntity
  8
0
  6
Continuous
 62
     7
100
AcDbLine
 10
-246.6068652617875
 20
269.5793474658451
 30
0.0
 11
-246.6068652617879
 21
257.579347465845
 31
0.0
  0
LINE
  5
18CF
330
1F
100
AcDbEntity
  8
0
  6
Continuous
 62
     7
100
AcDbLine
 10
-213.928365261788
 20
292.5793474658451
 30
0.0
 11
-228.074865261788
 21
304.2295474658451
 31
0.0
  0
LINE
  5
18D6
330
1F
100
AcDbEntity
  8
0
  6
Continuous
 62
     7
100
AcDbLine
 10
-212.1068652617879
 20
288.7197474658451
 30
0.0
 11
-212.1068652617879
 21
274.5793474658451
 31
0.0
  0
LINE
  5
18DB
330
1F
100
AcDbEntity
  8
0
  6
Continuous
 62
     7
100
AcDbLine
 10
-211.6068652617879
 20
254.3793474658452
 30
0.0
 11
-211.3068652617875
 21
254.0793474658451
 31
0.0
  0
LINE
  5
18E8
330
1F
100
AcDbEntity
  8
0
  6
Continuous
 62
     7
100
AcDbLine
 10
-211.6068652617879
 20
257.579347465845
 30
0.0
 11
-211.6068652617879
 21
254.3793474658452
 31
0.0
  0
LINE
  5
18F1
330
1F
100
AcDbEntity
  8
0
  6
Continuous
 62
     7
100
AcDbLine
 10
-146.6069652617879
 20
257.579347465845
 30
0.0
 11
-246.6068652617879
 21
257.579347465845
 31
0.0
  0
LINE
  5
18F2
330
1F
100
AcDbEntity
  8
0
  6
Continuous
 62
     7
100
AcDbLine
 10
-146.6069652617879
 20
269.5793474658451
 30
0.0
 11
-246.6068652617875
 21
269.5793474658451
 31
0.0
  0
LINE
  5
18F3
330
1F
100
AcDbEntity
  8
0
  6
Continuous
 62
     7
100
AcDbLine
 10
-146.6069652617879
 20
316.5792474658451
 30
0.0
 11
-229.6068652617879
 21
316.5792474658451
 31
0.0
  0
LINE
  5
18F4
330
1F
100
AcDbEntity
  8
0
  6
Continuous
 62
     7
100
AcDbLine
 10
-228.1494213395724
 20
305.0792474658451
 30
0.0
 11
-225.9210309376832
 21
305.0792474658451
 31
0.0
  0
LINE
  5
18F5
330
1F
100
AcDbEntity
  8
0
  6
Continuous
 62
     7
100
AcDbLine
 10
-229.148477590653
 20
306.0358123743128
 30
0.0
 11
-229.6068652617879
 21
316.5792474658451
 31
0.0
  0
LINE
  5
18F6
330
1F
100
AcDbEntity
  8
0
  6
Continuous
 62
     7
100
AcDbLine
 10
-212.6986758193976
 20
291.0792474658451
 30
0.0
 11
-198.8785652617879
 21
291.0792474658451
 31
0.0
  0
LINE
  5
18F7
330
1F
100
AcDbEntity
  8
0
  6
Continuous
 62
     7
100
AcDbLine
 10
-214.2621003385135
 20
305.0792474658451
 30
0.0
 11
-198.8785652617879
 21
291.0792474658451
 31
0.0
  0
LINE
  5
18F8
330
1F
100
AcDbEntity
  8
0
  6
Continuous
 62
     7
100
AcDbLine
 10
-187.3145652617878
 20
305.0792474658451
 30
0.0
 11
-214.2621003385135
 21
305.0792474658451
 31
0.0
  0
LINE
  5
18F9
330
1F
100
AcDbEntity
  8
0
  6
Continuous
 62
     7
100
AcDbLine
 10
-187.3145652617878
 20
305.0792474658451
 30
0.0
 11
-187.3145652617878
 21
294.0792474658451
 31
0.0
  0
LINE
  5
18FA
330
1F
100
AcDbEntity
  8
0
  6
Continuous
 62
     7
100
AcDbLine
 10
-187.3145652617878
 20
305.0792474658451
 30
0.0
 11
-146.6069652617879
 21
305.0792474658451
 31
0.0
  0
LINE
  5
18FB
330
1F
100
AcDbEntity
  8
0
  6
Continuous
 62
     7
100
AcDbLine
 10
-184.3145652617878
 20
291.0792474658451
 30
0.0
 11
-146.6069652617879
 21
291.0792474658451
 31
0.0
  0
LINE
  5
1906
330
1F
100
AcDbEntity
  8
0
  6
Continuous
 62
     7
100
AcDbLine
 10
-146.6064652617875
 20
254.079347465845
 30
0.0
 11
-211.3068652617875
 21
254.0793474658451
 31
0.0
  0
LINE
  5
1927
330
1F
100
AcDbEntity
  8
0
  6
Continuous
 62
     7
100
AcDbLine
 10
-197.4935507323268
 20
302.078947465845
 30
0.0
 11
-198.8785652617879
 21
302.078947465845
 31
0.0
  0
LINE
  5
1928
330
1F
100
AcDbEntity
  8
0
  6
Continuous
 62
     7
100
AcDbLine
 10
-202.99374184649
 20
302.578947465845
 30
0.0
 11
-202.49374184649
 21
302.078947465845
 31
0.0
  0
LINE
  5
192A
330
1F
100
AcDbEntity
  8
0
  6
Continuous
 62
     7
100
AcDbLine
 10
-196.993548194238
 20
302.578947465845
 30
0.0
 11
-202.99374184649
 21
302.578947465845
 31
0.0
  0
LINE
  5
192B
330
1F
100
AcDbEntity
  8
0
  6
Continuous
 62
     7
100
AcDbLine
 10
-197.4935507323268
 20
302.078947465845
 30
0.0
 11
-197.4935494632783
 21
302.078948734887
 31
0.0
  0
LINE
  5
192C
330
1F
100
AcDbEntity
  8
0
  6
Continuous
 62
     7
100
AcDbLine
 10
-196.9935418482667
 20
305.0792474658451
 30
0.0
 11
-196.993548194238
 21
302.578947465845
 31
0.0
  0
LINE
  5
192D
330
1F
100
AcDbEntity
  8
0
  6
Continuous
 62
     7
100
AcDbLine
 10
-196.9935418482667
 20
305.0792474658451
 30
0.0
 11
-196.993548194238
 21
302.578947465845
 31
0.0
  0
LINE
  5
192E
330
1F
100
AcDbEntity
  8
0
  6
Continuous
 62
     7
100
AcDbLine
 10
-196.9935418482667
 20
305.0792474658451
 30
0.0
 11
-196.993548194238
 21
302.578947465845
 31
0.0
  0
LINE
  5
192F
330
1F
100
AcDbEntity
  8
0
  6
Continuous
 62
    30
100
AcDbLine
 10
-197.4935418482683
 20
305.0792474658451
 30
0.0
 11
-197.4935494632783
 21
302.078948734887
 31
0.0
  0
LINE
  5
1930
330
1F
100
AcDbEntity
  8
0
  6
Continuous
 62
     7
100
AcDbLine
 10
-197.4935418482683
 20
305.0792474658451
 30
0.0
 11
-196.9935418482667
 21
305.0792474658451
 31
0.0
  0
LINE
  5
1931
330
1F
100
AcDbEntity
  8
0
  6
Continuous
 62
     7
100
AcDbLine
 10
-197.4935494632783
 20
302.078948734887
 30
0.0
 11
-196.993548194238
 21
302.578947465845
 31
0.0
  0
LINE
  5
1932
330
1F
100
AcDbEntity
  8
0
  6
Continuous
 62
    30
100
AcDbLine
 10
-202.49374184649
 20
305.0792474658451
 30
0.0
 11
-202.49374184649
 21
302.078947465845
 31
0.0
  0
LINE
  5
1933
330
1F
100
AcDbEntity
  8
0
  6
Continuous
 62
     7
100
AcDbLine
 10
-202.49374184649
 20
305.0792474658451
 30
0.0
 11
-197.4935418482683
 21
305.0792474658451
 31
0.0
  0
LINE
  5
1934
330
1F
100
AcDbEntity
  8
0
  6
Continuous
 62
     7
100
AcDbLine
 10
-202.99374184649
 20
305.0792474658451
 30
0.0
 11
-202.99374184649
 21
302.578947465845
 31
0.0
  0
LINE
  5
1935
330
1F
100
AcDbEntity
  8
0
  6
Continuous
 62
     7
100
AcDbLine
 10
-202.99374184649
 20
305.0792474658451
 30
0.0
 11
-202.49374184649
 21
305.0792474658451
 31
0.0
  0
LINE
  5
1936
330
1F
100
AcDbEntity
  8
0
  6
Continuous
 62
     7
100
AcDbLine
 10
-225.9210309376832
 20
305.0792474658451
 30
0.0
 11
-214.2621003385135
 21
305.0792474658451
 31
0.0
  0
LINE
  5
1937
330
1F
100
AcDbEntity
  8
0
  6
Continuous
 62
     7
100
AcDbLine
 10
-225.9210309376832
 20
305.0792474658451
 30
0.0
 11
-225.1059652617878
 21
305.0792474658451
 31
0.0
  0
LINE
  5
1938
330
1F
100
AcDbEntity
  8
0
  6
Continuous
 62
     7
100
AcDbLine
 10
-198.8785652617879
 20
302.078947465845
 30
0.0
 11
-198.8785652617879
 21
291.0792474658451
 31
0.0
  0
LINE
  5
1939
330
1F
100
AcDbEntity
  8
0
  6
Continuous
 62
     7
100
AcDbLine
 10
-198.8785652617879
 20
302.078947465845
 30
0.0
 11
-202.49374184649
 21
302.078947465845
 31
0.0
  0
LINE
  5
193A
330
1F
100
AcDbEntity
  8
0
  6
DASH_CENTER
 62
    30
100
AcDbLine
 10
-199.9935418482763
 20
310.9075003421037
 30
0.0
 11
-199.9935418482763
 21
298.6571275197591
 31
0.0
  0
LINE
  5
193B
330
1F
100
AcDbEntity
  8
0
  6
Continuous
 62
     7
100
AcDbLine
 10
-238.7085652617876
 20
566.361947465845
 30
0.0
 11
-238.8347652617878
 21
530.578947465845
 31
0.0
  0
LINE
  5
193C
330
1F
100
AcDbEntity
  8
0
  6
Continuous
 62
     7
100
AcDbLine
 10
-238.7085652617876
 20
566.361947465845
 30
0.0
 11
-238.8347652617878
 21
530.578947465845
 31
0.0
  0
LINE
  5
193D
330
1F
100
AcDbEntity
  8
0
  6
Continuous
 62
     7
100
AcDbLine
 10
-238.8349652617879
 20
530.578947465845
 30
0.0
 11
-238.8349652617879
 21
514.578947465845
 31
0.0
  0
LINE
  5
1944
330
1F
100
AcDbEntity
  8
0
  6
Continuous
 62
     7
100
AcDbLine
 10
-169.1269821197004
 20
514.578947465845
 30
0.0
 11
-238.8349652617879
 21
514.578947465845
 31
0.0
  0
ARC
  5
197A
330
1F
100
AcDbEntity
  8
0
  6
Continuous
 62
     7
100
AcDbCircle
 10
-227.5643711247053
 20
523.1377514512371
 30
0.0
 40
0.1875189989927083
100
AcDbArc
 50
165.2015543053948
 51
221.5204573903005
  0
ARC
  5
197B
330
1F
100
AcDbEntity
  8
0
  6
Continuous
 62
     7
100
AcDbCircle
 10
-225.5948456444852
 20
526.8814430451623
 30
0.0
 40
0.1875040116332256
100
AcDbArc
 50
20.2845556307007
 51
139.2865551034837
  0
ARC
  5
197C
330
1F
100
AcDbEntity
  8
0
  6
Continuous
 62
     7
100
AcDbCircle
 10
-225.5450575850928
 20
526.7472187370024
 30
0.0
 40
0.1874889857080655
100
AcDbArc
 50
319.6978717163132
 51
20.26159403845062
  0
ARC
  5
197D
330
1F
100
AcDbEntity
  8
0
  6
Continuous
 62
     7
100
AcDbCircle
 10
-227.4645126075298
 20
523.0250371779309
 30
0.0
 40
0.1875447895674408
100
AcDbArc
 50
221.5484671614702
 51
345.710613661065
  0
ARC
  5
197E
330
1F
100
AcDbEntity
  8
0
  6
Continuous
 62
     7
100
AcDbCircle
 10
-227.5643648713887
 20
526.0198697956232
 30
0.0
 40
0.1875062384914803
100
AcDbArc
 50
138.4868297533504
 51
194.7761887976213
  0
ARC
  5
197F
330
1F
100
AcDbEntity
  8
0
  6
Continuous
 62
     7
100
AcDbCircle
 10
-225.5948456444852
 20
522.2762518865277
 30
0.0
 40
0.1875040116332271
100
AcDbArc
 50
220.7134448965161
 51
339.7154443692993
  0
ARC
  5
1980
330
1F
100
AcDbEntity
  8
0
  6
Continuous
 62
     7
100
AcDbCircle
 10
-225.5450516184873
 20
522.4104423698268
 30
0.0
 40
0.1875063161879485
100
AcDbArc
 50
339.7188048696039
 51
40.31119007632994
  0
ARC
  5
1981
330
1F
100
AcDbEntity
  8
0
  6
Continuous
 62
     7
100
AcDbCircle
 10
-227.4644761460593
 20
526.1326489110468
 30
0.0
 40
0.1875116395381739
100
AcDbArc
 50
14.29475455419472
 51
138.479767927638
  0
ARC
  5
1982
330
1F
100
AcDbEntity
  8
0
  6
Continuous
 62
     7
100
AcDbCircle
 10
-226.9467174896811
 20
525.4918516930667
 30
0.0
 40
0.1250001709748614
100
AcDbArc
 50
199.0524379876972
 51
330.7360833288961
  0
ARC
  5
1983
330
1F
100
AcDbEntity
  8
0
  6
Continuous
 62
     7
100
AcDbCircle
 10
-218.4465339628698
 20
520.7304563141418
 30
0.0
 40
9.617933358192015
100
AcDbArc
 50
139.2885883989573
 51
150.7454620859087
  0
ARC
  5
1984
330
1F
100
AcDbEntity
  8
0
  6
Continuous
 62
     7
100
AcDbCircle
 10
-218.4463691257269
 20
528.4268098052432
 30
0.0
 40
9.117929367228823
100
AcDbArc
 50
194.272394587087
 51
199.0495522129686
  0
ARC
  5
1985
330
1F
100
AcDbEntity
  8
0
  6
Continuous
 62
     7
100
AcDbCircle
 10
-226.9467174896811
 20
523.6661432386234
 30
0.0
 40
0.1250001709748411
100
AcDbArc
 50
29.26391667108161
 51
160.9475620122955
  0
ARC
  5
1986
330
1F
100
AcDbEntity
  8
0
  6
Continuous
 62
     7
100
AcDbCircle
 10
-218.4464814058469
 20
520.7305099542
 30
0.0
 40
9.117913053076716
100
AcDbArc
 50
160.948583051605
 51
165.7251467038431
  0
ARC
  5
1987
330
1F
100
AcDbEntity
  8
0
  6
Continuous
 62
     7
100
AcDbCircle
 10
-218.4462833969238
 20
528.4268805216323
 30
0.0
 40
9.617889730281461
100
AcDbArc
 50
209.2522384104209
 51
220.7088209908623
  0
ARC
  5
1988
330
1F
100
AcDbEntity
  8
0
  6
Continuous
 62
     7
100
AcDbCircle
 10
-227.8038701781169
 20
524.5789474658448
 30
0.0
 40
0.4999897998959371
100
AcDbArc
 50
337.6410574418419
 51
22.35894255816551
  0
ARC
  5
1989
330
1F
100
AcDbEntity
  8
0
  6
Continuous
 62
     7
100
AcDbCircle
 10
-218.446601220452
 20
528.4275374164593
 30
0.0
 40
9.617898637476194
100
AcDbArc
 50
194.7916113767955
 51
202.3580837194032
  0
ARC
  5
198A
330
1F
100
AcDbEntity
  8
0
  6
Continuous
 62
     7
100
AcDbCircle
 10
-218.4466930646939
 20
520.7298842638858
 30
0.0
 40
9.61787960339932
100
AcDbArc
 50
157.6407536460978
 51
165.2066750646052
  0
ARC
  5
198B
330
1F
100
AcDbEntity
  8
0
  6
Continuous
 62
     7
100
AcDbCircle
 10
-226.1573701781169
 20
524.5789474658448
 30
0.0
 40
0.5000296491209543
100
AcDbArc
 50
153.4759439179761
 51
206.524056082017
  0
ARC
  5
198C
330
1F
100
AcDbEntity
  8
0
  6
Continuous
 62
     7
100
AcDbCircle
 10
-218.4462536972092
 20
528.4268191622699
 30
0.0
 40
9.117929830578475
100
AcDbArc
 50
206.5201631709578
 51
220.2809523504277
  0
ARC
  5
198D
330
1F
100
AcDbEntity
  8
0
  6
Continuous
 62
     7
100
AcDbCircle
 10
-218.446402246402
 20
520.7306504818673
 30
0.0
 40
9.117897509830475
100
AcDbArc
 50
139.7178435184572
 51
153.4781533064853
  0
ARC
  5
198E
330
1F
100
AcDbEntity
  8
0
  6
Continuous
 62
     7
100
AcDbCircle
 10
-225.6224585599814
 20
527.3487461494408
 30
0.0
 40
1.500009178259688
100
AcDbArc
 50
48.62471707751092
 51
118.4465135700262
  0
ARC
  5
198F
330
1F
100
AcDbEntity
  8
0
  6
Continuous
 62
     7
100
AcDbCircle
 10
-225.6223822321637
 20
521.8086574254921
 30
0.0
 40
1.499965213652093
100
AcDbArc
 50
241.5492606203269
 51
311.3728768567602
  0
ARC
  5
1990
330
1F
100
AcDbEntity
  8
0
  6
Continuous
 62
     7
100
AcDbCircle
 10
-228.0623701788351
 20
524.5786915071994
 30
0.0
 40
5.191325668060986
100
AcDbArc
 50
311.3737377087991
 51
48.6247915093087
  0
ARC
  5
1991
330
1F
100
AcDbEntity
  8
0
  6
Continuous
 62
     7
100
AcDbCircle
 10
-224.1217701794418
 20
524.5786932923508
 30
0.0
 40
4.650351731543039
100
AcDbArc
 50
118.4445517184206
 51
241.5526457782388
  0
ARC
  5
19AE
330
1F
100
AcDbEntity
  8
0
  6
Continuous
 62
     7
100
AcDbCircle
 10
-217.1068652617878
 20
288.7197474658451
 30
0.0
 40
4.999937440608646
100
AcDbArc
 50
28.15808419952641
 51
50.52748811765532
  0
ARC
  5
19B6
330
1F
100
AcDbEntity
  8
0
  6
Continuous
 62
     7
100
AcDbCircle
 10
-226.1677311291027
 20
306.5452790282458
 30
0.0
 40
2.9999622112873
100
AcDbArc
 50
182.4880528407861
 51
230.5266396321058
  0
ARC
  5
19BC
330
1F
100
AcDbEntity
  8
0
  6
Continuous
 62
     7
100
AcDbCircle
 10
-217.1068339789811
 20
288.7196227438681
 30
0.0
 40
4.999968718748733
100
AcDbArc
 50
0.0014292175203964
 51
28.15951343492456
  0
ARC
  5
19BE
330
1F
100
AcDbEntity
  8
0
  6
Continuous
 62
     7
100
AcDbCircle
 10
-230.7092652617877
 20
566.3338474658451
 30
0.0
 40
7.999966804931136
100
AcDbArc
 50
94.41760129221121
 51
179.7987468864716
  0
ARC
  5
19BF
330
1F
100
AcDbEntity
  8
0
  6
Continuous
 62
     7
100
AcDbCircle
 10
-146.627965261788
 20
-522.4205525341549
 30
0.0
 40
1099.999951635658
100
AcDbArc
 50
89.99888012789595
 51
94.4085103229623
  0
ARC
  5
19C7
330
1F
100
AcDbEntity
  8
0
  6
Continuous
 62
     7
100
AcDbCircle
 10
-217.1068652617878
 20
274.5793474658451
 30
0.0
 40
5.0
100
AcDbArc
 50
270.0
 51
0.0
  0
ARC
  5
19C8
330
1F
100
AcDbEntity
  8
0
  6
Continuous
 62
     7
100
AcDbCircle
 10
-228.1494213395724
 20
306.0792474658451
 30
0.0
 40
1.000000000000009
100
AcDbArc
 50
182.4894306093291
 51
270.0
  0
ARC
  5
19C9
330
1F
100
AcDbEntity
  8
0
  6
Continuous
 62
     7
100
AcDbCircle
 10
-184.3145652617878
 20
294.0792474658451
 30
0.0
 40
3.0
100
AcDbArc
 50
180.0
 51
270.0
  0
LINE
  5
19E0
330
1F
100
AcDbEntity
  8
0
  6
Continuous
 62
     7
100
AcDbLine
 10
-54.50436526178814
 20
566.3619474658454
 30
0.0
 11
-54.37816526178786
 21
530.5789474658455
 31
0.0
  0
LINE
  5
19E1
330
1F
100
AcDbEntity
  8
0
  6
Continuous
 62
     7
100
AcDbLine
 10
-54.50436526178814
 20
566.3619474658454
 30
0.0
 11
-54.37816526178786
 21
530.5789474658455
 31
0.0
  0
LINE
  5
19E2
330
1F
100
AcDbEntity
  8
0
  6
Continuous
 62
     7
100
AcDbLine
 10
-54.37796526178781
 20
530.5789474658455
 30
0.0
 11
-54.37796526178769
 21
514.5789474658455
 31
0.0
  0
LINE
  5
19E3
330
1F
100
AcDbEntity
  8
0
  6
Continuous
 62
     7
100
AcDbLine
 10
-89.71526515017021
 20
514.5789474658453
 30
0.0
 11
-54.37796526178769
 21
514.5789474658455
 31
0.0
  0
ARC
  5
19E4
330
1F
100
AcDbEntity
  8
0
  6
Continuous
 62
     7
100
AcDbCircle
 10
-62.50366526178813
 20
566.3338474658456
 30
0.0
 40
7.999966804931136
100
AcDbArc
 50
0.2012531135286655
 51
85.58239870778878
  0
ARC
  5
19E5
330
1F
100
AcDbEntity
  8
0
  6
Continuous
 62
     7
100
AcDbCircle
 10
-146.5849652617814
 20
-522.4205525341549
 30
0.0
 40
1099.999951635658
100
AcDbArc
 50
85.59148967703768
 51
90.00111987210406
  0
LINE
  5
19EE
330
1F
100
AcDbEntity
  8
0
  6
Continuous
 62
     7
100
AcDbLine
 10
-63.40606526178729
 20
316.5791474658454
 30
0.0
 11
-63.40606526178826
 21
514.5789474658455
 31
0.0
  0
POINT
  5
19EF
330
1F
100
AcDbEntity
  8
0
 62
     2
100
AcDbPoint
 10
-74.76996526178701
 20
296.2973474658458
 30
0.0
 50
270.0000000000005
  0
LINE
  5
19F0
330
1F
100
AcDbEntity
  8
0
  6
Continuous
 62
     7
100
AcDbLine
 10
-46.60606526178721
 20
269.579347465846
 30
0.0
 11
-46.60606526178669
 21
257.5793474658459
 31
0.0
  0
LINE
  5
19F1
330
1F
100
AcDbEntity
  8
0
  6
Continuous
 62
     7
100
AcDbLine
 10
-79.28456526178698
 20
292.5793474658457
 30
0.0
 11
-65.13806526178703
 21
304.2295474658458
 31
0.0
  0
LINE
  5
19F2
330
1F
100
AcDbEntity
  8
0
  6
Continuous
 62
     7
100
AcDbLine
 10
-81.10606526178694
 20
288.7197474658456
 30
0.0
 11
-81.10606526178683
 21
274.5793474658457
 31
0.0
  0
LINE
  5
19F3
330
1F
100
AcDbEntity
  8
0
  6
Continuous
 62
     7
100
AcDbLine
 10
-81.60606526178666
 20
254.3793474658458
 30
0.0
 11
-81.90606526178706
 21
254.0793474658456
 31
0.0
  0
LINE
  5
19F4
330
1F
100
AcDbEntity
  8
0
  6
Continuous
 62
     7
100
AcDbLine
 10
-81.60606526178669
 20
257.5793474658456
 30
0.0
 11
-81.60606526178666
 21
254.3793474658458
 31
0.0
  0
LINE
  5
19F5
330
1F
100
AcDbEntity
  8
0
  6
Continuous
 62
     7
100
AcDbLine
 10
-146.6059652617867
 20
257.579347465845
 30
0.0
 11
-46.60606526178669
 21
257.5793474658459
 31
0.0
  0
LINE
  5
19F6
330
1F
100
AcDbEntity
  8
0
  6
Continuous
 62
     7
100
AcDbLine
 10
-146.6059652617868
 20
269.5793474658451
 30
0.0
 11
-46.60606526178721
 21
269.579347465846
 31
0.0
  0
LINE
  5
19F7
330
1F
100
AcDbEntity
  8
0
  6
Continuous
 62
     7
100
AcDbLine
 10
-65.06350918400269
 20
305.0792474658458
 30
0.0
 11
-67.2918995858918
 21
305.0792474658458
 31
0.0
  0
LINE
  5
19F8
330
1F
100
AcDbEntity
  8
0
  6
Continuous
 62
     7
100
AcDbLine
 10
-64.06445293292202
 20
306.0358123743135
 30
0.0
 11
-63.60606526178718
 21
316.5792474658459
 31
0.0
  0
LINE
  5
19F9
330
1F
100
AcDbEntity
  8
0
  6
Continuous
 62
     7
100
AcDbLine
 10
-80.51425470417726
 20
291.0792474658457
 30
0.0
 11
-94.334365261787
 21
291.0792474658456
 31
0.0
  0
LINE
  5
19FA
330
1F
100
AcDbEntity
  8
0
  6
Continuous
 62
     7
100
AcDbLine
 10
-78.9508301850615
 20
305.0792474658457
 30
0.0
 11
-94.334365261787
 21
291.0792474658456
 31
0.0
  0
LINE
  5
19FB
330
1F
100
AcDbEntity
  8
0
  6
Continuous
 62
     7
100
AcDbLine
 10
-105.8983652617871
 20
305.0792474658455
 30
0.0
 11
-78.9508301850615
 21
305.0792474658457
 31
0.0
  0
LINE
  5
19FC
330
1F
100
AcDbEntity
  8
0
  6
Continuous
 62
     7
100
AcDbLine
 10
-105.8983652617871
 20
305.0792474658455
 30
0.0
 11
-105.898365261787
 21
294.0792474658455
 31
0.0
  0
LINE
  5
19FD
330
1F
100
AcDbEntity
  8
0
  6
Continuous
 62
     7
100
AcDbLine
 10
-105.8983652617871
 20
305.0792474658455
 30
0.0
 11
-146.6059652617871
 21
305.0792474658451
 31
0.0
  0
LINE
  5
19FE
330
1F
100
AcDbEntity
  8
0
  6
Continuous
 62
     7
100
AcDbLine
 10
-108.898365261787
 20
291.0792474658455
 30
0.0
 11
-146.605965261787
 21
291.0792474658451
 31
0.0
  0
LINE
  5
19FF
330
1F
100
AcDbEntity
  8
0
  6
Continuous
 62
     7
100
AcDbLine
 10
-146.6064652617875
 20
254.0793474658451
 30
0.0
 11
-81.90606526178706
 21
254.0793474658456
 31
0.0
  0
LINE
  5
1A01
330
1F
100
AcDbEntity
  8
0
  6
Continuous
 62
     7
100
AcDbLine
 10
-95.7193797912482
 20
302.0789474658454
 30
0.0
 11
-94.33436526178706
 21
302.0789474658454
 31
0.0
  0
LINE
  5
1A02
330
1F
100
AcDbEntity
  8
0
  6
Continuous
 62
     7
100
AcDbLine
 10
-90.21918867708492
 20
302.5789474658455
 30
0.0
 11
-90.71918867708493
 21
302.0789474658455
 31
0.0
  0
LINE
  5
1A04
330
1F
100
AcDbEntity
  8
0
  6
Continuous
 62
     7
100
AcDbLine
 10
-96.219382329337
 20
302.5789474658454
 30
0.0
 11
-90.21918867708492
 21
302.5789474658455
 31
0.0
  0
LINE
  5
1A05
330
1F
100
AcDbEntity
  8
0
  6
Continuous
 62
     7
100
AcDbLine
 10
-95.7193797912482
 20
302.0789474658454
 30
0.0
 11
-95.71938106029662
 21
302.0789487348875
 31
0.0
  0
LINE
  5
1A06
330
1F
100
AcDbEntity
  8
0
  6
Continuous
 62
     7
100
AcDbLine
 10
-96.21938867530836
 20
305.0792474658456
 30
0.0
 11
-96.219382329337
 21
302.5789474658454
 31
0.0
  0
LINE
  5
1A07
330
1F
100
AcDbEntity
  8
0
  6
Continuous
 62
     7
100
AcDbLine
 10
-96.21938867530836
 20
305.0792474658456
 30
0.0
 11
-96.219382329337
 21
302.5789474658454
 31
0.0
  0
LINE
  5
1A08
330
1F
100
AcDbEntity
  8
0
  6
Continuous
 62
     7
100
AcDbLine
 10
-96.21938867530836
 20
305.0792474658456
 30
0.0
 11
-96.219382329337
 21
302.5789474658454
 31
0.0
  0
LINE
  5
1A09
330
1F
100
AcDbEntity
  8
0
  6
Continuous
 62
    30
100
AcDbLine
 10
-95.71938867530676
 20
305.0792474658456
 30
0.0
 11
-95.71938106029662
 21
302.0789487348875
 31
0.0
  0
LINE
  5
1A0A
330
1F
100
AcDbEntity
  8
0
  6
Continuous
 62
     7
100
AcDbLine
 10
-95.71938867530676
 20
305.0792474658456
 30
0.0
 11
-96.21938867530836
 21
305.0792474658456
 31
0.0
  0
LINE
  5
1A0B
330
1F
100
AcDbEntity
  8
0
  6
Continuous
 62
     7
100
AcDbLine
 10
-95.71938106029662
 20
302.0789487348875
 30
0.0
 11
-96.219382329337
 21
302.5789474658454
 31
0.0
  0
LINE
  5
1A0C
330
1F
100
AcDbEntity
  8
0
  6
Continuous
 62
    30
100
AcDbLine
 10
-90.71918867708498
 20
305.0792474658456
 30
0.0
 11
-90.71918867708493
 21
302.0789474658455
 31
0.0
  0
LINE
  5
1A0D
330
1F
100
AcDbEntity
  8
0
  6
Continuous
 62
     7
100
AcDbLine
 10
-90.71918867708498
 20
305.0792474658456
 30
0.0
 11
-95.71938867530676
 21
305.0792474658456
 31
0.0
  0
LINE
  5
1A0E
330
1F
100
AcDbEntity
  8
0
  6
Continuous
 62
     7
100
AcDbLine
 10
-90.21918867708498
 20
305.0792474658456
 30
0.0
 11
-90.21918867708492
 21
302.5789474658455
 31
0.0
  0
LINE
  5
1A0F
330
1F
100
AcDbEntity
  8
0
  6
Continuous
 62
     7
100
AcDbLine
 10
-90.21918867708498
 20
305.0792474658456
 30
0.0
 11
-90.71918867708498
 21
305.0792474658456
 31
0.0
  0
LINE
  5
1A10
330
1F
100
AcDbEntity
  8
0
  6
Continuous
 62
     7
100
AcDbLine
 10
-67.2918995858918
 20
305.0792474658458
 30
0.0
 11
-78.9508301850615
 21
305.0792474658457
 31
0.0
  0
LINE
  5
1A11
330
1F
100
AcDbEntity
  8
0
  6
Continuous
 62
     7
100
AcDbLine
 10
-67.2918995858918
 20
305.0792474658458
 30
0.0
 11
-68.10696526178721
 21
305.0792474658458
 31
0.0
  0
LINE
  5
1A12
330
1F
100
AcDbEntity
  8
0
  6
Continuous
 62
     7
100
AcDbLine
 10
-94.33436526178706
 20
302.0789474658454
 30
0.0
 11
-94.334365261787
 21
291.0792474658456
 31
0.0
  0
LINE
  5
1A13
330
1F
100
AcDbEntity
  8
0
  6
Continuous
 62
     7
100
AcDbLine
 10
-94.33436526178706
 20
302.0789474658454
 30
0.0
 11
-90.71918867708493
 21
302.0789474658455
 31
0.0
  0
LINE
  5
1A14
330
1F
100
AcDbEntity
  8
0
  6
DASH_CENTER
 62
    30
100
AcDbLine
 10
-93.21938867529873
 20
310.9075003421042
 30
0.0
 11
-93.21938867529864
 21
298.6571275197596
 31
0.0
  0
ARC
  5
1A15
330
1F
100
AcDbEntity
  8
0
  6
Continuous
 62
     7
100
AcDbCircle
 10
-76.10606526178703
 20
288.7197474658456
 30
0.0
 40
4.999937440608646
100
AcDbArc
 50
129.4725118823446
 51
151.841915800473
  0
ARC
  5
1A16
330
1F
100
AcDbEntity
  8
0
  6
Continuous
 62
     7
100
AcDbCircle
 10
-67.04519939447235
 20
306.5452790282464
 30
0.0
 40
2.9999622112873
100
AcDbArc
 50
309.4733603678938
 51
357.5119471592145
  0
ARC
  5
1A17
330
1F
100
AcDbEntity
  8
0
  6
Continuous
 62
     7
100
AcDbCircle
 10
-76.10609654459378
 20
288.7196227438687
 30
0.0
 40
4.999968718748733
100
AcDbArc
 50
151.840486565074
 51
179.99857078248
  0
ARC
  5
1A18
330
1F
100
AcDbEntity
  8
0
  6
Continuous
 62
     7
100
AcDbCircle
 10
-76.10606526178694
 20
274.5793474658457
 30
0.0
 40
5.0
100
AcDbArc
 50
180.0000000000005
 51
270.0
  0
ARC
  5
1A19
330
1F
100
AcDbEntity
  8
0
  6
Continuous
 62
     7
100
AcDbCircle
 10
-65.06350918400269
 20
306.0792474658458
 30
0.0
 40
1.000000000000009
100
AcDbArc
 50
270.0
 51
357.5105693906714
  0
ARC
  5
1A1A
330
1F
100
AcDbEntity
  8
0
  6
Continuous
 62
     7
100
AcDbCircle
 10
-108.898365261787
 20
294.0792474658455
 30
0.0
 40
3.0
100
AcDbArc
 50
270.0
 51
0.0000000000004942
  0
LINE
  5
1A22
330
1F
100
AcDbEntity
  8
0
  6
Continuous
 62
     7
100
AcDbLine
 10
-131.6069652617874
 20
207.5791474658451
 30
0.0
 11
-135.6071652617874
 21
207.5791474658451
 31
0.0
  0
LINE
  5
1A23
330
1F
100
AcDbEntity
  8
0
  6
Continuous
 62
     7
100
AcDbLine
 10
-131.6069652617874
 20
207.5791474658451
 30
0.0
 11
-131.6069652617874
 21
243.5790474658451
 31
0.0
  0
LINE
  5
1A25
330
1F
100
AcDbEntity
  8
0
  6
Continuous
 62
     7
100
AcDbLine
 10
-157.6064652617874
 20
207.5793474658451
 30
0.0
 11
-135.6064652617874
 21
207.5793474658451
 31
0.0
  0
LINE
  5
1A26
330
1F
100
AcDbEntity
  8
0
  6
Continuous
 62
     7
100
AcDbLine
 10
-134.6064652617874
 20
208.5793474658451
 30
0.0
 11
-134.6064652617874
 21
254.0793474658451
 31
0.0
  0
LINE
  5
1A28
330
1F
100
AcDbEntity
  8
0
  6
Continuous
 62
     7
100
AcDbLine
 10
-135.6064652617874
 20
207.5793474658451
 30
0.0
 11
-134.6064652617874
 21
208.5793474658451
 31
0.0
  0
LINE
  5
1A29
330
1F
100
AcDbEntity
  8
0
  6
Continuous
 62
     7
100
AcDbLine
 10
-134.6064652617874
 20
208.5793474658451
 30
0.0
 11
-158.6064652617874
 21
208.5793474658451
 31
0.0
  0
LINE
  5
1A2A
330
1F
100
AcDbEntity
  8
0
  6
Continuous
 62
     7
100
AcDbLine
 10
-157.6064652617874
 20
207.5793474658451
 30
0.0
 11
-158.6064652617874
 21
208.5793474658451
 31
0.0
  0
LINE
  5
1A2B
330
1F
100
AcDbEntity
  8
0
  6
Continuous
 62
     7
100
AcDbLine
 10
-134.6069652617874
 20
243.5790474658451
 30
0.0
 11
-131.6069652617874
 21
243.5790474658451
 31
0.0
  0
LINE
  5
1A2C
330
1F
100
AcDbEntity
  8
0
  6
Continuous
 62
     7
100
AcDbLine
 10
-158.6064652617874
 20
254.079347465845
 30
0.0
 11
-158.6064652617874
 21
208.5793474658451
 31
0.0
  0
LINE
  5
1A31
330
1F
100
AcDbEntity
  8
0
  6
Continuous
 62
     7
100
AcDbLine
 10
-146.6064652617874
 20
316.5792474664461
 30
0.0
 11
-63.40606526178739
 21
316.579147465845
 31
0.0
  0
LINE
  5
1A32
330
1F
100
AcDbEntity
  8
0
  6
Continuous
 62
     7
100
AcDbLine
 10
-146.6059652617873
 20
316.5792474658451
 30
0.0
 11
-63.60606526178735
 21
316.5792474658451
 31
0.0
  0
LINE
  5
1A3B
330
1F
100
AcDbEntity
  8
0
  6
DASHED
 62
    30
100
AcDbLine
 10
-116.0503652617879
 20
381.5792474658451
 30
0.0
 11
-177.1632652617876
 21
381.5792474658451
 31
0.0
  0
LINE
  5
1A3C
330
1F
100
AcDbEntity
  8
0
  6
DASHED
 62
    30
100
AcDbLine
 10
-116.0503652617879
 20
381.5789474658452
 30
0.0
 11
-116.0499652617879
 21
421.578747465845
 31
0.0
  0
LINE
  5
1A3D
330
1F
100
AcDbEntity
  8
0
  6
DASHED
 62
    30
100
AcDbLine
 10
-116.0499652617879
 20
421.5789474658451
 30
0.0
 11
-177.1632652617876
 21
421.5789474658451
 31
0.0
  0
LINE
  5
1A3E
330
1F
100
AcDbEntity
  8
0
  6
DASHED
 62
    30
100
AcDbLine
 10
-177.1632652617876
 20
381.5792474658451
 30
0.0
 11
-177.1632652617876
 21
421.579147465845
 31
0.0
  0
ARC
  5
1A96
330
1F
100
AcDbEntity
  8
0
  6
Continuous
 62
     7
100
AcDbCircle
 10
-146.6040445717494
 20
-90.01572706030822
 30
0.0
 40
12.39990000000006
100
AcDbArc
 50
18.81946492263341
 51
341.1819995625034
  0
ARC
  5
1A97
330
1F
100
AcDbEntity
  8
0
  6
Continuous
 62
     7
100
AcDbCircle
 10
-146.6040445717494
 20
-90.01572706030822
 30
0.0
 40
12.74950000000032
100
AcDbArc
 50
18.28486900589335
 51
341.7165508692636
  0
VIEWPORT
  5
71
102
{ACAD_XDICTIONARY
360
1AA6
102
}
330
55
100
AcDbEntity
 67
     1
  8
0
100
AcDbViewport
 10
133.3499908447265
 20
101.5999970436096
 30
0.0
 40
381.3957395593833
 41
218.2856291881582
 68
     1
 69
     1
 12
133.3499908447265
 22
101.5999970436096
 13
0.0
 23
0.0
 14
10.0
 24
10.0
 15
10.0
 25
10.0
 16
0.0
 26
0.0
 36
1.0
 17
0.0
 27
0.0
 37
0.0
 42
50.0
 43
0.0
 44
0.0
 45
218.2856291881582
 50
0.0
 51
0.0
 72
   100
 90
    32800
  1

281
     0
 71
     1
 74
     0
110
0.0
120
0.0
130
0.0
111
1.0
121
0.0
131
0.0
112
0.0
122
1.0
132
0.0
 79
     0
146
0.0
  0
VIEWPORT
  5
73
102
{ACAD_XDICTIONARY
360
1AA8
102
}
330
55
100
AcDbEntity
 67
     1
  8
0
100
AcDbViewport
 10
133.3499939441679
 20
101.5999939441679
 30
0.0
 40
213.3599903106689
 41
162.5599903106689
 68
     2
 69
     2
 12
210.0
 22
148.5
 13
0.0
 23
0.0
 14
10.0
 24
10.0
 15
10.0
 25
10.0
 16
0.0
 26
0.0
 36
1.0
 17
0.0
 27
0.0
 37
0.0
 42
50.0
 43
0.0
 44
0.0
 45
324.0677920111345
 50
0.0
 51
0.0
 72
   100
 90
    32864
  1

281
     0
 71
     1
 74
     0
110
0.0
120
0.0
130
0.0
111
1.0
121
0.0
131
0.0
112
0.0
122
1.0
132
0.0
 79
     0
146
0.0
  0
ENDSEC
  0
SECTION
  2
OBJECTS
  0
DICTIONARY
  5
C
330
0
100
AcDbDictionary
281
     1
  3
ACAD_CIP_PREVIOUS_PRODUCT_INFO
350
D1B
  3
ACAD_COLOR
350
D00
  3
ACAD_GROUP
350
D
  3
ACAD_LAYOUT
350
1A
  3
ACAD_MATERIAL
350
CCE
  3
ACAD_MLEADERSTYLE
350
D15
  3
ACAD_MLINESTYLE
350
17
  3
ACAD_PLOTSETTINGS
350
19
  3
ACAD_PLOTSTYLENAME
350
E
  3
ACAD_SCALELIST
350
D03
  3
ACAD_TABLESTYLE
350
D01
  3
ACAD_VISUALSTYLE
350
CE7
  3
ACDB_RECOMPOSE_DATA
350
1A9A
  3
AcDbVariableDictionary
350
5E
  3
DWGPROPS
350
1A9B
  0
DICTIONARY
  5
1A40
330
10
100
AcDbDictionary
280
     1
281
     1
  3
ADSK_XREC_LAYER_RECONCILED
360
1A41
  0
DICTIONARY
  5
1546
330
1F
100
AcDbDictionary
280
     1
281
     1
  3
ACAD_SORTENTS
360
1547
  0
DICTIONARY
  5
1AA2
330
6B
100
AcDbDictionary
280
     1
281
     1
  3
ACAD_XREC_ROUNDTRIP
360
1AA3
  0
DICTIONARY
  5
1AA4
330
6D
100
AcDbDictionary
280
     1
281
     1
  3
ACAD_XREC_ROUNDTRIP
360
1AA5
  0
DICTIONARY
  5
1AA6
330
71
100
AcDbDictionary
280
     1
281
     1
  3
ACAD_XREC_ROUNDTRIP
360
1AA7
  0
DICTIONARY
  5
1AA8
330
73
100
AcDbDictionary
280
     1
281
     1
  3
ACAD_XREC_ROUNDTRIP
360
1AA9
  0
XRECORD
  5
D1B
102
{ACAD_REACTORS
330
C
102
}
330
C
100
AcDbXrecord
280
     1
300
ACDLT
300
2012
300
ACDLT_F_S
  0
DICTIONARY
  5
D00
102
{ACAD_REACTORS
330
C
102
}
330
C
100
AcDbDictionary
281
     1
  0
DICTIONARY
  5
D
102
{ACAD_REACTORS
330
C
102
}
330
C
100
AcDbDictionary
281
     1
  0
DICTIONARY
  5
1A
102
{ACAD_REACTORS
330
C
102
}
330
C
100
AcDbDictionary
281
     1
  3
Model
350
22
  3
ﾚｲｱｳﾄ1
350
51
  3
ﾚｲｱｳﾄ2
350
56
  0
DICTIONARY
  5
CCE
102
{ACAD_REACTORS
330
C
102
}
330
C
100
AcDbDictionary
281
     1
  3
ByBlock
350
CD7
  3
ByLayer
350
CCF
  3
Global
350
CDF
  0
DICTIONARY
  5
D15
102
{ACAD_REACTORS
330
C
102
}
330
C
100
AcDbDictionary
281
     1
  3
Standard
350
D16
  0
DICTIONARY
  5
17
102
{ACAD_REACTORS
330
C
102
}
330
C
100
AcDbDictionary
281
     1
  3
Standard
350
18
  0
DICTIONARY
  5
19
102
{ACAD_REACTORS
330
C
102
}
330
C
100
AcDbDictionary
281
     1
  0
ACDBDICTIONARYWDFLT
  5
E
102
{ACAD_REACTORS
330
C
102
}
330
C
100
AcDbDictionary
281
     1
  3
Normal
350
F
100
AcDbDictionaryWithDefault
340
F
  0
DICTIONARY
  5
D03
102
{ACAD_REACTORS
330
C
102
}
330
C
100
AcDbDictionary
281
     1
  3
A0
350
D04
  3
A1
350
D05
  3
A2
350
D06
  3
A3
350
D07
  3
A4
350
D08
  3
A5
350
D09
  3
A6
350
D0A
  3
A7
350
D0B
  3
A8
350
D0C
  3
A9
350
D0D
  3
B0
350
D0E
  3
B1
350
D0F
  3
B2
350
D10
  3
B3
350
D11
  3
B4
350
D12
  3
B5
350
D13
  3
B6
350
D14
  0
DICTIONARY
  5
D01
102
{ACAD_REACTORS
330
C
102
}
330
C
100
AcDbDictionary
281
     1
  3
Standard
350
D02
  0
DICTIONARY
  5
CE7
102
{ACAD_REACTORS
330
C
102
}
330
C
100
AcDbDictionary
281
     1
  3
2dWireframe
350
CED
  3
Basic
350
CEC
  3
Brighten
350
CF3
  3
ColorChange
350
CF7
  3
Conceptual
350
CF0
  3
Dim
350
CF2
  3
EdgeColorOff
350
CFF
  3
Facepattern
350
CF6
  3
Flat
350
CE8
  3
FlatWithEdges
350
CE9
  3
Gouraud
350
CEA
  3
GouraudWithEdges
350
CEB
  3
Hidden
350
CEF
  3
JitterOff
350
CFD
  3
Linepattern
350
CF5
  3
OverhangOff
350
CFE
  3
Realistic
350
CF1
  3
Shaded
350
CFC
  3
Shaded with edges
350
CFB
  3
Shades of Gray
350
CF8
  3
Sketchy
350
CF9
  3
Thicken
350
CF4
  3
Wireframe
350
CEE
  3
X-Ray
350
CFA
  0
XRECORD
  5
1A9A
102
{ACAD_REACTORS
330
C
102
}
330
C
100
AcDbXrecord
280
     1
 90
        1
330
D02
  0
DICTIONARY
  5
5E
102
{ACAD_REACTORS
330
C
102
}
330
C
100
AcDbDictionary
281
     1
  3
CANNOSCALE
350
1A44
  3
CMLEADERSTYLE
350
1A43
  3
CTABLESTYLE
350
1A42
  3
DIMASSOC
350
5F
  3
HIDETEXT
350
63
  3
INDEXCTL
350
1A46
  3
SORTENTS
350
1A45
  3
XCLIPFRAME
350
1A98
  0
XRECORD
  5
1A9B
102
{ACAD_REACTORS
330
C
102
}
330
C
100
AcDbXrecord
280
     1
  1
DWGPROPS COOKIE
  2

  3

  4

  6

  7

  8
Ishizawa
  9

300
=
301
=
302
=
303
=
304
=
305
=
306
=
307
=
308
=
309
=
 40
0.1672161574074074
 41
2456042.712353704
 42
2457124.601947303
  1

 90
        0
  0
XRECORD
  5
1A41
102
{ACAD_REACTORS
330
1A40
102
}
330
1A40
100
AcDbXrecord
280
     1
290
     1
  0
SORTENTSTABLE
  5
1547
102
{ACAD_REACTORS
330
1546
102
}
330
1546
100
AcDbSortentsTable
330
1F
331
14DD
  5
14E0
331
14D9
  5
14DC
331
6A4
  5
6A4
331
1253
  5
1254
331
58E
  5
58E
331
129A
  5
129B
331
58A
  5
58A
331
1369
  5
136C
331
586
  5
586
331
1365
  5
1368
331
69C
  5
69C
331
1296
  5
1297
331
1292
  5
1293
331
582
  5
582
331
1544
  5
1549
331
14D5
  5
14D8
331
14D1
  5
14D4
331
14CD
  5
14D0
331
14C9
  5
14CC
331
1508
  5
150B
331
128E
  5
128F
331
67C
  5
67C
331
11C7
  5
11C7
331
56A
  5
56A
331
566
  5
566
331
5AC
  5
5AC
331
1282
  5
1283
331
562
  5
562
331
1349
  5
134C
331
5A8
  5
5A8
331
14C5
  5
14C8
331
1504
  5
1507
331
14C1
  5
14C4
331
1500
  5
1503
331
14FC
  5
14FF
331
14BD
  5
14C0
331
14F8
  5
14FB
331
14B9
  5
14BC
331
118B
  5
118B
331
127E
  5
127F
331
5A4
  5
5A4
331
5A0
  5
5A0
331
1187
  5
1187
331
552
  5
552
331
54E
  5
54E
331
59C
  5
59C
331
126A
  5
126B
331
598
  5
598
331
14B5
  5
14B8
331
14F4
  5
14F7
331
14B1
  5
14B4
331
14F0
  5
14F3
331
14EC
  5
14EF
331
14E8
  5
14EB
331
4DE
  5
4DE
331
595
  5
595
331
125A
  5
125B
331
12A1
  5
12A4
331
591
  5
591
331
1378
  5
137B
331
14E4
  5
14E7
331
14E0
  5
14E3
331
14DC
  5
14DF
331
6A3
  5
6A3
331
41E
  5
41E
331
58D
  5
58D
331
136C
  5
136F
331
69F
  5
69F
331
124E
  5
124F
331
1299
  5
129A
331
589
  5
589
331
585
  5
585
331
1364
  5
1367
331
124A
  5
124A
331
1295
  5
1296
331
1291
  5
1292
331
1360
  5
1363
331
1543
  5
1548
331
14D4
  5
14D7
331
14D0
  5
14D3
331
14CC
  5
14CF
331
14C8
  5
14CB
331
122E
  5
122E
331
135C
  5
135F
331
5AF
  5
5AF
331
11C6
  5
11C6
331
569
  5
569
331
565
  5
565
331
5AB
  5
5AB
331
1285
  5
1286
331
1281
  5
1282
331
561
  5
561
331
1507
  5
150A
331
14C4
  5
14C7
331
1503
  5
1506
331
14C0
  5
14C3
331
14FF
  5
1502
331
14FB
  5
14FE
331
14BC
  5
14BF
331
14B8
  5
14BB
331
5A7
  5
5A7
331
118A
  5
118A
331
5A3
  5
5A3
331
59F
  5
59F
331
1186
  5
1186
331
54D
  5
54D
331
59B
  5
59B
331
1308
  5
130B
331
14F7
  5
14FA
331
14B4
  5
14B7
331
14F3
  5
14F6
331
14B0
  5
14B3
331
14EF
  5
14F2
331
14EB
  5
14EE
331
12B4
  5
12B7
331
C96
  5
C96
331
12B0
  5
12B4
331
12A4
  5
12A9
331
594
  5
594
331
C92
  5
C92
331
590
  5
590
331
14E7
  5
14EA
331
14E3
  5
14E6
331
14DF
  5
14E2
331
14DB
  5
14DE
331
6A2
  5
6A2
331
1251
  5
1252
331
58C
  5
58C
331
588
  5
588
331
69E
  5
69E
331
124D
  5
124E
331
3E9
  5
3E9
331
1290
  5
1291
331
1542
  5
1545
331
14D3
  5
14D6
331
14CF
  5
14D2
331
14CB
  5
14CE
331
1229
  5
1229
331
56C
  5
56C
331
5AE
  5
5AE
331
1288
  5
1289
331
568
  5
568
331
564
  5
564
331
5AA
  5
5AA
331
1284
  5
1285
331
14C7
  5
14CA
331
1506
  5
1509
331
14C3
  5
14C6
331
1502
  5
1505
331
14BF
  5
14C2
331
14FE
  5
1501
331
14FA
  5
14FD
331
14BB
  5
14BE
331
5A6
  5
5A6
331
5A2
  5
5A2
331
127C
  5
127D
331
554
  5
554
331
59E
  5
59E
331
550
  5
550
331
54C
  5
54C
331
59A
  5
59A
331
14B7
  5
14BA
331
14F6
  5
14F9
331
14B3
  5
14B6
331
14F2
  5
14F5
331
14AF
  5
14B2
331
14EE
  5
14F1
331
14EA
  5
14ED
331
12B7
  5
12BD
331
12B3
  5
12B6
331
597
  5
597
331
1258
  5
1259
331
424
  5
424
331
12A3
  5
12A8
331
593
  5
593
331
14E6
  5
14E9
331
14E2
  5
14E5
331
14DE
  5
14E1
331
14DA
  5
14DD
331
58F
  5
58F
331
6A5
  5
6A5
331
6A1
  5
6A1
331
1250
  5
1251
331
129B
  5
129D
331
58B
  5
58B
331
587
  5
587
331
1366
  5
1369
331
124C
  5
124D
331
1293
  5
1294
331
583
  5
583
331
1541
  5
1544
331
14D6
  5
14D9
331
14D2
  5
14D5
331
1549
  5
12A2
331
14CE
  5
14D1
331
1509
  5
150C
331
14CA
  5
14CD
331
122C
  5
122C
331
56B
  5
56B
331
567
  5
567
331
5AD
  5
5AD
331
563
  5
563
331
5A9
  5
5A9
331
14C6
  5
14C9
331
1505
  5
1508
331
14C2
  5
14C5
331
1501
  5
1504
331
14BE
  5
14C1
331
14FD
  5
1500
331
14F9
  5
14FC
331
14BA
  5
14BD
331
1346
  5
1349
331
5A5
  5
5A5
331
5A1
  5
5A1
331
1188
  5
1188
331
553
  5
553
331
59D
  5
59D
331
54F
  5
54F
331
599
  5
599
331
14B6
  5
14B9
331
14F5
  5
14F8
331
14B2
  5
14B5
331
14F1
  5
14F4
331
14AE
  5
14B1
331
14ED
  5
14F0
331
14E9
  5
14EC
331
C98
  5
C98
331
12B2
  5
12B5
331
596
  5
596
331
12A2
  5
12A7
331
592
  5
592
331
14E5
  5
14E8
331
14E1
  5
14E4
  0
XRECORD
  5
1AA3
102
{ACAD_REACTORS
330
1AA2
102
}
330
1AA2
100
AcDbXrecord
280
     1
102
SHADEPLOT
 70
     0
  0
XRECORD
  5
1AA5
102
{ACAD_REACTORS
330
1AA4
102
}
330
1AA4
100
AcDbXrecord
280
     1
102
SHADEPLOT
 70
     0
  0
XRECORD
  5
1AA7
102
{ACAD_REACTORS
330
1AA6
102
}
330
1AA6
100
AcDbXrecord
280
     1
102
SHADEPLOT
 70
     0
  0
XRECORD
  5
1AA9
102
{ACAD_REACTORS
330
1AA8
102
}
330
1AA8
100
AcDbXrecord
280
     1
102
SHADEPLOT
 70
     0
  0
LAYOUT
  5
22
102
{ACAD_XDICTIONARY
360
1A9C
102
}
102
{ACAD_REACTORS
330
1A
102
}
330
1A
100
AcDbPlotSettings
  1

  2
none_device
  4
ANSI_A_(8.50_x_11.00_Inches)
  6

 40
6.349999904632567
 41
19.04999923706053
 42
6.350006103515625
 43
19.04998779296875
 44
215.8999938964842
 45
279.3999938964843
 46
0.0
 47
0.0
 48
0.0
 49
0.0
140
0.0
141
0.0
142
1.0
143
78.436453180766
 70
 11952
 72
     0
 73
     1
 74
     0
  7

 75
     0
147
0.0127491741332998
148
0.0
149
0.0
100
AcDbLayout
  1
Model
 70
     1
 71
     0
 10
0.0
 20
0.0
 11
12.0
 21
9.0
 12
0.0
 22
0.0
 32
0.0
 14
0.0
 24
0.0
 34
0.0
 15
0.0
 25
0.0
 35
0.0
146
0.0
 13
0.0
 23
0.0
 33
0.0
 16
1.0
 26
0.0
 36
0.0
 17
0.0
 27
1.0
 37
0.0
 76
     0
330
1F
331
CC8
  0
LAYOUT
  5
51
102
{ACAD_XDICTIONARY
360
1A9E
102
}
102
{ACAD_REACTORS
330
1A
102
}
330
1A
100
AcDbPlotSettings
  1

  2
none_device
  4
Letter_(8.50_x_11.00_Inches)
  6

 40
6.349999904632567
 41
6.349999904632567
 42
6.350006103515625
 43
6.350006103515625
 44
215.8999938964842
 45
279.3999938964843
 46
0.0
 47
0.0
 48
0.0
 49
0.0
140
0.0
141
0.0
142
1.0
143
1.0
 70
   688
 72
     1
 73
     1
 74
     5
  7

 75
    16
147
1.0
148
0.0
149
0.0
100
AcDbLayout
  1
ﾚｲｱｳﾄ1
 70
     1
 71
     1
 10
-6.350006103515625
 20
-6.349999904632567
 11
273.0499877929687
 21
209.5499939918517
 12
0.0
 22
0.0
 32
0.0
 14
26.66076962115562
 24
20.31135699206657
 34
-0.0015258207003583
 15
240.039213369355
 25
182.8886381005154
 35
0.0000000349246037
146
0.0
 13
0.0
 23
0.0
 33
0.0
 16
1.0
 26
0.0
 36
0.0
 17
0.0
 27
1.0
 37
0.0
 76
     0
330
50
331
6B
  0
LAYOUT
  5
56
102
{ACAD_XDICTIONARY
360
1AA0
102
}
102
{ACAD_REACTORS
330
1A
102
}
330
1A
100
AcDbPlotSettings
  1

  2
none_device
  4
Letter_(8.50_x_11.00_Inches)
  6

 40
6.349999904632567
 41
6.349999904632567
 42
6.350006103515625
 43
6.350006103515625
 44
215.8999938964842
 45
279.3999938964843
 46
0.0
 47
0.0
 48
0.0
 49
0.0
140
0.0
141
0.0
142
1.0
143
1.0
 70
   688
 72
     1
 73
     1
 74
     5
  7

 75
    16
147
1.0
148
0.0
149
0.0
100
AcDbLayout
  1
ﾚｲｱｳﾄ2
 70
     1
 71
     2
 10
-6.350006103515625
 20
-6.349999904632567
 11
273.0499877929687
 21
209.5499939918517
 12
0.0
 22
0.0
 32
0.0
 14
26.66076962115562
 24
20.31135699206657
 34
-0.0015258207003583
 15
240.039213369355
 25
182.8886381005154
 35
0.0000000349246037
146
0.0
 13
0.0
 23
0.0
 33
0.0
 16
1.0
 26
0.0
 36
0.0
 17
0.0
 27
1.0
 37
0.0
 76
     0
330
55
331
71
  0
MATERIAL
  5
CD7
102
{ACAD_XDICTIONARY
360
CD8
102
}
102
{ACAD_REACTORS
330
CCE
102
}
330
CCE
100
AcDbMaterial
  1
ByBlock
 72
     0
 43
0.0008202099737533
 43
0.0
 43
0.0
 43
0.0
 43
0.0
 43
0.0008202099737533
 43
0.0
 43
0.0
 43
0.0
 43
0.0
 43
1.0
 43
0.0
 43
0.0
 43
0.0
 43
0.0
 43
1.0
 77
     0
 47
0.0008202099737533
 47
0.0
 47
0.0
 47
0.0
 47
0.0
 47
0.0008202099737533
 47
0.0
 47
0.0
 47
0.0
 47
0.0
 47
1.0
 47
0.0
 47
0.0
 47
0.0
 47
0.0
 47
1.0
171
     0
 49
0.0008202099737533
 49
0.0
 49
0.0
 49
0.0
 49
0.0
 49
0.0008202099737533
 49
0.0
 49
0.0
 49
0.0
 49
0.0
 49
1.0
 49
0.0
 49
0.0
 49
0.0
 49
0.0
 49
1.0
175
     0
142
0.0008202099737533
142
0.0
142
0.0
142
0.0
142
0.0
142
0.0008202099737533
142
0.0
142
0.0
142
0.0
142
0.0
142
1.0
142
0.0
142
0.0
142
0.0
142
0.0
142
1.0
179
     0
144
0.0008202099737533
144
0.0
144
0.0
144
0.0
144
0.0
144
0.0008202099737533
144
0.0
144
0.0
144
0.0
144
0.0
144
1.0
144
0.0
144
0.0
144
0.0
144
0.0
144
1.0
147
0.0008202099737533
147
0.0
147
0.0
147
0.0
147
0.0
147
0.0008202099737533
147
0.0
147
0.0
147
0.0
147
0.0
147
1.0
147
0.0
147
0.0
147
0.0
147
0.0
147
1.0
  0
MATERIAL
  5
CCF
102
{ACAD_XDICTIONARY
360
CD0
102
}
102
{ACAD_REACTORS
330
CCE
102
}
330
CCE
100
AcDbMaterial
  1
ByLayer
 72
     0
 43
0.0008202099737533
 43
0.0
 43
0.0
 43
0.0
 43
0.0
 43
0.0008202099737533
 43
0.0
 43
0.0
 43
0.0
 43
0.0
 43
1.0
 43
0.0
 43
0.0
 43
0.0
 43
0.0
 43
1.0
 77
     0
 47
0.0008202099737533
 47
0.0
 47
0.0
 47
0.0
 47
0.0
 47
0.0008202099737533
 47
0.0
 47
0.0
 47
0.0
 47
0.0
 47
1.0
 47
0.0
 47
0.0
 47
0.0
 47
0.0
 47
1.0
171
     0
 49
0.0008202099737533
 49
0.0
 49
0.0
 49
0.0
 49
0.0
 49
0.0008202099737533
 49
0.0
 49
0.0
 49
0.0
 49
0.0
 49
1.0
 49
0.0
 49
0.0
 49
0.0
 49
0.0
 49
1.0
175
     0
142
0.0008202099737533
142
0.0
142
0.0
142
0.0
142
0.0
142
0.0008202099737533
142
0.0
142
0.0
142
0.0
142
0.0
142
1.0
142
0.0
142
0.0
142
0.0
142
0.0
142
1.0
179
     0
144
0.0008202099737533
144
0.0
144
0.0
144
0.0
144
0.0
144
0.0008202099737533
144
0.0
144
0.0
144
0.0
144
0.0
144
1.0
144
0.0
144
0.0
144
0.0
144
0.0
144
1.0
147
0.0008202099737533
147
0.0
147
0.0
147
0.0
147
0.0
147
0.0008202099737533
147
0.0
147
0.0
147
0.0
147
0.0
147
1.0
147
0.0
147
0.0
147
0.0
147
0.0
147
1.0
  0
MATERIAL
  5
CDF
102
{ACAD_XDICTIONARY
360
CE0
102
}
102
{ACAD_REACTORS
330
CCE
102
}
330
CCE
100
AcDbMaterial
  1
Global
 72
     0
 43
0.0008202099737533
 43
0.0
 43
0.0
 43
0.0
 43
0.0
 43
0.0008202099737533
 43
0.0
 43
0.0
 43
0.0
 43
0.0
 43
1.0
 43
0.0
 43
0.0
 43
0.0
 43
0.0
 43
1.0
 77
     0
 47
0.0008202099737533
 47
0.0
 47
0.0
 47
0.0
 47
0.0
 47
0.0008202099737533
 47
0.0
 47
0.0
 47
0.0
 47
0.0
 47
1.0
 47
0.0
 47
0.0
 47
0.0
 47
0.0
 47
1.0
171
     0
 49
0.0008202099737533
 49
0.0
 49
0.0
 49
0.0
 49
0.0
 49
0.0008202099737533
 49
0.0
 49
0.0
 49
0.0
 49
0.0
 49
1.0
 49
0.0
 49
0.0
 49
0.0
 49
0.0
 49
1.0
175
     0
142
0.0008202099737533
142
0.0
142
0.0
142
0.0
142
0.0
142
0.0008202099737533
142
0.0
142
0.0
142
0.0
142
0.0
142
1.0
142
0.0
142
0.0
142
0.0
142
0.0
142
1.0
179
     0
144
0.0008202099737533
144
0.0
144
0.0
144
0.0
144
0.0
144
0.0008202099737533
144
0.0
144
0.0
144
0.0
144
0.0
144
1.0
144
0.0
144
0.0
144
0.0
144
0.0
144
1.0
147
0.0008202099737533
147
0.0
147
0.0
147
0.0
147
0.0
147
0.0008202099737533
147
0.0
147
0.0
147
0.0
147
0.0
147
1.0
147
0.0
147
0.0
147
0.0
147
0.0
147
1.0
  0
MLEADERSTYLE
  5
D16
102
{ACAD_REACTORS
330
D15
102
}
330
D15
100
AcDbMLeaderStyle
170
     2
171
     1
172
     0
 90
        2
 40
0.0
 41
0.0
173
     1
 91
-1056964608
340
14
 92
       -2
290
     1
 42
2.0
291
     1
 43
0.36
  3
Standard
 44
4.0
300

342
11
174
     1
178
     6
175
     1
176
     0
 93
-1056964608
 45
4.0
292
     0
297
     0
 46
4.0
 94
-1056964608
 47
1.0
 49
1.0
140
1.0
293
     1
141
0.0
294
     1
177
     0
142
1.0
295
     0
296
     0
143
0.125
1001
ACAD_MLEADERVER
1070
     2
  0
MLINESTYLE
  5
18
102
{ACAD_REACTORS
330
17
102
}
330
17
100
AcDbMlineStyle
  2
STANDARD
 70
     0
  3

 62
   256
 51
90.0
 52
90.0
 71
     2
 49
0.5
 62
   256
  6
BYLAYER
 49
-0.5
 62
   256
  6
BYLAYER
  0
ACDBPLACEHOLDER
  5
F
102
{ACAD_REACTORS
330
E
102
}
330
E
  0
SCALE
  5
D04
102
{ACAD_REACTORS
330
D03
102
}
330
D03
100
AcDbScale
 70
     0
300
1:1
140
1.0
141
1.0
290
     1
  0
SCALE
  5
D05
102
{ACAD_REACTORS
330
D03
102
}
330
D03
100
AcDbScale
 70
     0
300
1:2
140
1.0
141
2.0
290
     0
  0
SCALE
  5
D06
102
{ACAD_REACTORS
330
D03
102
}
330
D03
100
AcDbScale
 70
     0
300
1:4
140
1.0
141
4.0
290
     0
  0
SCALE
  5
D07
102
{ACAD_REACTORS
330
D03
102
}
330
D03
100
AcDbScale
 70
     0
300
1:5
140
1.0
141
5.0
290
     0
  0
SCALE
  5
D08
102
{ACAD_REACTORS
330
D03
102
}
330
D03
100
AcDbScale
 70
     0
300
1:8
140
1.0
141
8.0
290
     0
  0
SCALE
  5
D09
102
{ACAD_REACTORS
330
D03
102
}
330
D03
100
AcDbScale
 70
     0
300
1:10
140
1.0
141
10.0
290
     0
  0
SCALE
  5
D0A
102
{ACAD_REACTORS
330
D03
102
}
330
D03
100
AcDbScale
 70
     0
300
1:16
140
1.0
141
16.0
290
     0
  0
SCALE
  5
D0B
102
{ACAD_REACTORS
330
D03
102
}
330
D03
100
AcDbScale
 70
     0
300
1:20
140
1.0
141
20.0
290
     0
  0
SCALE
  5
D0C
102
{ACAD_REACTORS
330
D03
102
}
330
D03
100
AcDbScale
 70
     0
300
1:30
140
1.0
141
30.0
290
     0
  0
SCALE
  5
D0D
102
{ACAD_REACTORS
330
D03
102
}
330
D03
100
AcDbScale
 70
     0
300
1:40
140
1.0
141
40.0
290
     0
  0
SCALE
  5
D0E
102
{ACAD_REACTORS
330
D03
102
}
330
D03
100
AcDbScale
 70
     0
300
1:50
140
1.0
141
50.0
290
     0
  0
SCALE
  5
D0F
102
{ACAD_REACTORS
330
D03
102
}
330
D03
100
AcDbScale
 70
     0
300
1:100
140
1.0
141
100.0
290
     0
  0
SCALE
  5
D10
102
{ACAD_REACTORS
330
D03
102
}
330
D03
100
AcDbScale
 70
     0
300
2:1
140
2.0
141
1.0
290
     0
  0
SCALE
  5
D11
102
{ACAD_REACTORS
330
D03
102
}
330
D03
100
AcDbScale
 70
     0
300
4:1
140
4.0
141
1.0
290
     0
  0
SCALE
  5
D12
102
{ACAD_REACTORS
330
D03
102
}
330
D03
100
AcDbScale
 70
     0
300
8:1
140
8.0
141
1.0
290
     0
  0
SCALE
  5
D13
102
{ACAD_REACTORS
330
D03
102
}
330
D03
100
AcDbScale
 70
     0
300
10:1
140
10.0
141
1.0
290
     0
  0
SCALE
  5
D14
102
{ACAD_REACTORS
330
D03
102
}
330
D03
100
AcDbScale
 70
     0
300
100:1
140
100.0
141
1.0
290
     0
  0
TABLESTYLE
  5
D02
102
{ACAD_XDICTIONARY
360
1A48
102
}
102
{ACAD_REACTORS
330
D01
102
}
330
D01
100
AcDbTableStyle
  3
Standard
 70
     0
 71
     0
 40
1.5
 41
1.5
280
     0
281
     0
  7
Standard
140
4.5
170
     2
 62
     0
 63
     7
283
     0
274
    -2
284
     1
 64
     0
275
    -2
285
     1
 65
     0
276
    -2
286
     1
 66
     0
277
    -2
287
     1
 67
     0
278
    -2
288
     1
 68
     0
279
    -2
289
     1
 69
     0
  7
Standard
140
6.0
170
     5
 62
     0
 63
     7
283
     0
274
    -2
284
     1
 64
     0
275
    -2
285
     1
 65
     0
276
    -2
286
     1
 66
     0
277
    -2
287
     1
 67
     0
278
    -2
288
     1
 68
     0
279
    -2
289
     1
 69
     0
  7
Standard
140
4.5
170
     5
 62
     0
 63
     7
283
     0
274
    -2
284
     1
 64
     0
275
    -2
285
     1
 65
     0
276
    -2
286
     1
 66
     0
277
    -2
287
     1
 67
     0
278
    -2
288
     1
 68
     0
279
    -2
289
     1
 69
     0
  0
VISUALSTYLE
  5
CED
102
{ACAD_XDICTIONARY
360
1AB4
102
}
102
{ACAD_REACTORS
330
CE7
102
}
330
CE7
100
AcDbVisualStyle
  2

 70
     4
 71
     0
 72
     2
 73
     0
 90
        0
 40
-0.6
 41
-30.0
 62
     5
 63
     7
 74
     1
 91
        4
 64
     7
 65
   257
 75
     1
175
     1
 42
1.0
 92
        0
 66
   257
 43
1.0
 76
     1
 77
     6
 78
     2
 67
     7
 79
     5
170
     0
171
     0
290
     0
174
     0
 93
        1
 44
0.0
173
     0
291
     0
 45
0.0
1001
ACAD
1000
AcDbSavedByObjectVersion
1070
     0
  0
VISUALSTYLE
  5
CEC
102
{ACAD_XDICTIONARY
360
1AB2
102
}
102
{ACAD_REACTORS
330
CE7
102
}
330
CE7
100
AcDbVisualStyle
  2

 70
     7
 71
     1
 72
     0
 73
     1
 90
        0
 40
-0.6
 41
-30.0
 62
     5
 63
     7
 74
     0
 91
        4
 64
     7
 65
   257
 75
     1
175
     1
 42
1.0
 92
        8
 66
     7
 43
1.0
 76
     1
 77
     6
 78
     2
 67
     7
 79
     5
170
     0
171
     0
290
     0
174
     0
 93
        1
 44
0.0
173
     0
291
     1
 45
0.0
1001
ACAD
1000
AcDbSavedByObjectVersion
1070
     0
  0
VISUALSTYLE
  5
CF3
102
{ACAD_XDICTIONARY
360
1AC0
102
}
102
{ACAD_REACTORS
330
CE7
102
}
330
CE7
100
AcDbVisualStyle
  2

 70
    12
 71
     2
 72
     2
 73
     0
 90
        0
 40
-0.6
 41
-30.0
 62
     5
 63
     7
 74
     1
 91
        4
 64
     7
 65
   257
 75
     1
175
     1
 42
1.0
 92
        8
 66
     7
 43
1.0
 76
     1
 77
     6
 78
     2
 67
     7
 79
     5
170
     0
171
     0
290
     0
174
     0
 93
        1
 44
50.0
173
     0
291
     1
 45
0.0
1001
ACAD
1000
AcDbSavedByObjectVersion
1070
     0
  0
VISUALSTYLE
  5
CF7
102
{ACAD_XDICTIONARY
360
1AC8
102
}
102
{ACAD_REACTORS
330
CE7
102
}
330
CE7
100
AcDbVisualStyle
  2

 70
    16
 71
     2
 72
     2
 73
     3
 90
        0
 40
-0.6
 41
-30.0
 62
     5
 63
     8
 74
     1
 91
        4
 64
     7
 65
   257
 75
     1
175
     1
 42
1.0
 92
        8
 66
     8
 43
1.0
 76
     1
 77
     6
 78
     2
 67
     7
 79
     5
170
     0
171
     0
290
     0
174
     0
 93
        1
 44
0.0
173
     0
291
     1
 45
0.0
1001
ACAD
1000
AcDbSavedByObjectVersion
1070
     0
  0
VISUALSTYLE
  5
CF0
102
{ACAD_XDICTIONARY
360
1ABA
102
}
102
{ACAD_REACTORS
330
CE7
102
}
330
CE7
100
AcDbVisualStyle
  2

 70
     9
 71
     3
 72
     2
 73
     0
 90
        0
 40
-0.6
 41
-30.0
 62
     5
 63
     7
 74
     2
 91
        2
 64
     7
 65
   257
 75
     1
175
     1
 42
179.0
 92
        8
 66
     7
 43
1.0
 76
     1
 77
     6
 78
     2
 67
     7
 79
     3
170
     0
171
     0
290
     0
174
     0
 93
        1
 44
0.0
173
     0
291
     0
 45
0.0
1001
ACAD
1000
AcDbSavedByObjectVersion
1070
     0
  0
VISUALSTYLE
  5
CF2
102
{ACAD_XDICTIONARY
360
1ABE
102
}
102
{ACAD_REACTORS
330
CE7
102
}
330
CE7
100
AcDbVisualStyle
  2

 70
    11
 71
     2
 72
     2
 73
     0
 90
        0
 40
-0.6
 41
-30.0
 62
     5
 63
     7
 74
     1
 91
        4
 64
     7
 65
   257
 75
     1
175
     1
 42
1.0
 92
        8
 66
     7
 43
1.0
 76
     1
 77
     6
 78
     2
 67
     7
 79
     5
170
     0
171
     0
290
     0
174
     0
 93
        1
 44
-50.0
173
     0
291
     1
 45
0.0
1001
ACAD
1000
AcDbSavedByObjectVersion
1070
     0
  0
VISUALSTYLE
  5
CFF
102
{ACAD_XDICTIONARY
360
1AD8
102
}
102
{ACAD_REACTORS
330
CE7
102
}
330
CE7
100
AcDbVisualStyle
  2

 70
    22
 71
     2
 72
     2
 73
     0
 90
        0
 40
-0.6
 41
-30.0
 62
     5
 63
     7
 74
     1
 91
        4
 64
     7
 65
   257
 75
     1
175
     1
 42
1.0
 92
        8
 66
     7
 43
1.0
 76
     1
 77
     6
 78
     2
 67
     7
 79
     5
170
     0
171
     0
290
     0
174
     0
 93
        1
 44
0.0
173
     0
291
     1
 45
0.0
1001
ACAD
1000
AcDbSavedByObjectVersion
1070
     0
  0
VISUALSTYLE
  5
CF6
102
{ACAD_XDICTIONARY
360
1AC6
102
}
102
{ACAD_REACTORS
330
CE7
102
}
330
CE7
100
AcDbVisualStyle
  2

 70
    15
 71
     2
 72
     2
 73
     0
 90
        0
 40
-0.6
 41
-30.0
 62
     5
 63
     7
 74
     1
 91
        4
 64
     7
 65
   257
 75
     1
175
     1
 42
1.0
 92
        8
 66
     7
 43
1.0
 76
     1
 77
     6
 78
     2
 67
     7
 79
     5
170
     0
171
     0
290
     0
174
     0
 93
        1
 44
0.0
173
     0
291
     1
 45
0.0
1001
ACAD
1000
AcDbSavedByObjectVersion
1070
     0
  0
VISUALSTYLE
  5
CE8
102
{ACAD_XDICTIONARY
360
1AAA
102
}
102
{ACAD_REACTORS
330
CE7
102
}
330
CE7
100
AcDbVisualStyle
  2

 70
     0
 71
     2
 72
     1
 73
     1
 90
        2
 40
-0.6
 41
30.0
 62
     5
 63
     7
 74
     0
 91
        0
 64
     7
 65
   257
 75
     1
175
     1
 42
1.0
 92
        8
 66
     7
 43
1.0
 76
     1
 77
     6
 78
     2
 67
     7
 79
     5
170
     0
171
     0
290
     0
174
     0
 93
       13
 44
0.0
173
     0
291
     1
 45
0.0
1001
ACAD
1000
AcDbSavedByObjectVersion
1070
     0
  0
VISUALSTYLE
  5
CE9
102
{ACAD_XDICTIONARY
360
1AAC
102
}
102
{ACAD_REACTORS
330
CE7
102
}
330
CE7
100
AcDbVisualStyle
  2

 70
     1
 71
     2
 72
     1
 73
     1
 90
        2
 40
-0.6
 41
30.0
 62
     5
 63
     7
 74
     1
 91
        0
 64
     7
 65
   257
 75
     1
175
     1
 42
1.0
 92
        0
 66
   257
 43
1.0
 76
     1
 77
     6
 78
     2
 67
     7
 79
     5
170
     0
171
     0
290
     0
174
     0
 93
       13
 44
0.0
173
     0
291
     1
 45
0.0
1001
ACAD
1000
AcDbSavedByObjectVersion
1070
     0
  0
VISUALSTYLE
  5
CEA
102
{ACAD_XDICTIONARY
360
1AAE
102
}
102
{ACAD_REACTORS
330
CE7
102
}
330
CE7
100
AcDbVisualStyle
  2

 70
     2
 71
     2
 72
     2
 73
     1
 90
        2
 40
-0.6
 41
30.0
 62
     5
 63
     7
 74
     0
 91
        0
 64
     7
 65
   257
 75
     1
175
     1
 42
1.0
 92
        0
 66
     7
 43
1.0
 76
     1
 77
     6
 78
     2
 67
     7
 79
     5
170
     0
171
     0
290
     0
174
     0
 93
       13
 44
0.0
173
     0
291
     1
 45
0.0
1001
ACAD
1000
AcDbSavedByObjectVersion
1070
     0
  0
VISUALSTYLE
  5
CEB
102
{ACAD_XDICTIONARY
360
1AB0
102
}
102
{ACAD_REACTORS
330
CE7
102
}
330
CE7
100
AcDbVisualStyle
  2

 70
     3
 71
     2
 72
     2
 73
     1
 90
        2
 40
-0.6
 41
30.0
 62
     5
 63
     7
 74
     1
 91
        0
 64
     7
 65
   257
 75
     1
175
     1
 42
1.0
 92
        0
 66
   257
 43
1.0
 76
     1
 77
     6
 78
     2
 67
     7
 79
     5
170
     0
171
     0
290
     0
174
     0
 93
       13
 44
0.0
173
     0
291
     1
 45
0.0
1001
ACAD
1000
AcDbSavedByObjectVersion
1070
     0
  0
VISUALSTYLE
  5
CEF
102
{ACAD_XDICTIONARY
360
1AB8
102
}
102
{ACAD_REACTORS
330
CE7
102
}
330
CE7
100
AcDbVisualStyle
  2

 70
     6
 71
     1
 72
     2
 73
     2
 90
        0
 40
-0.6
 41
-30.0
 62
     5
 63
     7
 74
     2
 91
        2
 64
     7
 65
   257
 75
     2
175
     1
 42
40.0
 92
        0
 66
   257
 43
1.0
 76
     1
 77
     6
 78
     2
 67
     7
 79
     3
170
     0
171
     0
290
     0
174
     0
 93
        1
 44
0.0
173
     0
291
     0
 45
0.0
1001
ACAD
1000
AcDbSavedByObjectVersion
1070
     0
  0
VISUALSTYLE
  5
CFD
102
{ACAD_XDICTIONARY
360
1AD4
102
}
102
{ACAD_REACTORS
330
CE7
102
}
330
CE7
100
AcDbVisualStyle
  2

 70
    20
 71
     2
 72
     2
 73
     0
 90
        0
 40
-0.6
 41
-30.0
 62
     5
 63
     7
 74
     1
 91
        4
 64
     7
 65
   257
 75
     1
175
     1
 42
1.0
 92
       10
 66
     7
 43
1.0
 76
     1
 77
     6
 78
     2
 67
     7
 79
     5
170
     0
171
     0
290
     0
174
     0
 93
        1
 44
0.0
173
     0
291
     1
 45
0.0
1001
ACAD
1000
AcDbSavedByObjectVersion
1070
     0
  0
VISUALSTYLE
  5
CF5
102
{ACAD_XDICTIONARY
360
1AC4
102
}
102
{ACAD_REACTORS
330
CE7
102
}
330
CE7
100
AcDbVisualStyle
  2

 70
    14
 71
     2
 72
     2
 73
     0
 90
        0
 40
-0.6
 41
-30.0
 62
     5
 63
     7
 74
     1
 91
        4
 64
     7
 65
   257
 75
     7
175
     7
 42
1.0
 92
        8
 66
     7
 43
1.0
 76
     1
 77
     6
 78
     2
 67
     7
 79
     5
170
     0
171
     0
290
     0
174
     0
 93
        1
 44
0.0
173
     0
291
     1
 45
0.0
1001
ACAD
1000
AcDbSavedByObjectVersion
1070
     0
  0
VISUALSTYLE
  5
CFE
102
{ACAD_XDICTIONARY
360
1AD6
102
}
102
{ACAD_REACTORS
330
CE7
102
}
330
CE7
100
AcDbVisualStyle
  2

 70
    21
 71
     2
 72
     2
 73
     0
 90
        0
 40
-0.6
 41
-30.0
 62
     5
 63
     7
 74
     1
 91
        4
 64
     7
 65
   257
 75
     1
175
     1
 42
1.0
 92
        9
 66
     7
 43
1.0
 76
     1
 77
     6
 78
     2
 67
     7
 79
     5
170
     0
171
     0
290
     0
174
     0
 93
        1
 44
0.0
173
     0
291
     1
 45
0.0
1001
ACAD
1000
AcDbSavedByObjectVersion
1070
     0
  0
VISUALSTYLE
  5
CF1
102
{ACAD_XDICTIONARY
360
1ABC
102
}
102
{ACAD_REACTORS
330
CE7
102
}
330
CE7
100
AcDbVisualStyle
  2

 70
     8
 71
     2
 72
     3
 73
     0
 90
        2
 40
-0.6
 41
30.0
 62
     5
 63
     7
 74
     0
 91
        0
 64
     7
 65
   257
 75
     1
175
     1
 42
1.0
 92
        8
 66
   257
 43
1.0
 76
     1
 77
     6
 78
     2
 67
     7
 79
     3
170
     0
171
     0
290
     0
174
     0
 93
       13
 44
0.0
173
     0
291
     0
 45
0.0
1001
ACAD
1000
AcDbSavedByObjectVersion
1070
     0
  0
VISUALSTYLE
  5
CFC
102
{ACAD_XDICTIONARY
360
1AD2
102
}
102
{ACAD_REACTORS
330
CE7
102
}
330
CE7
100
AcDbVisualStyle
  2

 70
    27
 71
     2
 72
     2
 73
     1
 90
        2
 40
-0.6
 41
30.0
 62
     5
 63
     7
 74
     0
 91
        4
 64
     7
 65
   257
 75
     1
175
     1
 42
1.0
 92
        8
 66
   257
 43
1.0
 76
     1
 77
     6
 78
     2
 67
     8
 79
     3
170
     0
171
     0
290
     0
174
     0
 93
        5
 44
0.0
173
     0
291
     0
 45
0.0
1001
ACAD
1000
AcDbSavedByObjectVersion
1070
     0
  0
VISUALSTYLE
  5
CFB
102
{ACAD_XDICTIONARY
360
1AD0
102
}
102
{ACAD_REACTORS
330
CE7
102
}
330
CE7
100
AcDbVisualStyle
  2

 70
    26
 71
     2
 72
     2
 73
     1
 90
        2
 40
-0.6
 41
30.0
 62
     5
 63
     7
 74
     1
 91
       10
 64
     7
 65
   257
 75
     2
175
     1
 42
1.0
 92
        8
 66
   257
 43
1.0
 76
     1
 77
     6
 78
     2
 67
     7
 79
     3
170
     0
171
     0
290
     0
174
     0
 93
        5
 44
0.0
173
     0
291
     0
 45
0.0
1001
ACAD
1000
AcDbSavedByObjectVersion
1070
     0
  0
VISUALSTYLE
  5
CF8
102
{ACAD_XDICTIONARY
360
1ACA
102
}
102
{ACAD_REACTORS
330
CE7
102
}
330
CE7
100
AcDbVisualStyle
  2

 70
    23
 71
     2
 72
     2
 73
     3
 90
        0
 40
-0.6
 41
-30.0
 62
     5
 63
     7
 74
     2
 91
        2
 64
     7
 65
     7
 75
     1
175
     1
 42
40.0
 92
        8
 66
     7
 43
1.0
 76
     1
 77
     6
 78
     2
 67
     7
 79
     3
170
     0
171
     0
290
     0
174
     0
 93
        1
 44
0.0
173
     0
291
     0
 45
0.0
1001
ACAD
1000
AcDbSavedByObjectVersion
1070
     0
  0
VISUALSTYLE
  5
CF9
102
{ACAD_XDICTIONARY
360
1ACC
102
}
102
{ACAD_REACTORS
330
CE7
102
}
330
CE7
100
AcDbVisualStyle
  2

 70
    24
 71
     1
 72
     2
 73
     2
 90
        0
 40
-0.6
 41
-30.0
 62
     5
 63
     7
 74
     2
 91
        2
 64
     7
 65
     7
 75
     1
175
     1
 42
40.0
 92
       11
 66
     7
 43
1.0
 76
     1
 77
     6
 78
     2
 67
     7
 79
     6
170
     0
171
     0
290
     0
174
     0
 93
        1
 44
0.0
173
     0
291
     0
 45
0.0
1001
ACAD
1000
AcDbSavedByObjectVersion
1070
     0
  0
VISUALSTYLE
  5
CF4
102
{ACAD_XDICTIONARY
360
1AC2
102
}
102
{ACAD_REACTORS
330
CE7
102
}
330
CE7
100
AcDbVisualStyle
  2

 70
    13
 71
     2
 72
     2
 73
     0
 90
        0
 40
-0.6
 41
-30.0
 62
     5
 63
     7
 74
     1
 91
        4
 64
     7
 65
   257
 75
     1
175
     1
 42
1.0
 92
       12
 66
     7
 43
1.0
 76
     1
 77
     6
 78
     2
 67
     7
 79
     5
170
     0
171
     0
290
     0
174
     0
 93
        1
 44
0.0
173
     0
291
     1
 45
0.0
1001
ACAD
1000
AcDbSavedByObjectVersion
1070
     0
  0
VISUALSTYLE
  5
CEE
102
{ACAD_XDICTIONARY
360
1AB6
102
}
102
{ACAD_REACTORS
330
CE7
102
}
330
CE7
100
AcDbVisualStyle
  2

 70
     5
 71
     0
 72
     2
 73
     0
 90
        0
 40
-0.6
 41
-30.0
 62
     5
 63
     7
 74
     1
 91
        4
 64
     7
 65
   257
 75
     1
175
     1
 42
1.0
 92
        0
 66
   257
 43
1.0
 76
     1
 77
     6
 78
     2
 67
     7
 79
     3
170
     0
171
     0
290
     0
174
     0
 93
        1
 44
0.0
173
     0
291
     0
 45
0.0
1001
ACAD
1000
AcDbSavedByObjectVersion
1070
     0
  0
VISUALSTYLE
  5
CFA
102
{ACAD_XDICTIONARY
360
1ACE
102
}
102
{ACAD_REACTORS
330
CE7
102
}
330
CE7
100
AcDbVisualStyle
  2

 70
    25
 71
     2
 72
     2
 73
     1
 90
        1
 40
0.5
 41
-30.0
 62
     5
 63
     7
 74
     1
 91
        0
 64
     7
 65
   257
 75
     1
175
     1
 42
1.0
 92
        8
 66
     7
 43
1.0
 76
     1
 77
     6
 78
     2
 67
     7
 79
     3
170
     0
171
     0
290
     0
174
     0
 93
       13
 44
0.0
173
     0
291
     0
 45
0.0
1001
ACAD
1000
AcDbSavedByObjectVersion
1070
     0
  0
DICTIONARYVAR
  5
1A44
102
{ACAD_REACTORS
330
5E
102
}
330
5E
100
DictionaryVariables
280
     0
  1
1:1
  0
DICTIONARYVAR
  5
1A43
102
{ACAD_REACTORS
330
5E
102
}
330
5E
100
DictionaryVariables
280
     0
  1
STANDARD
  0
DICTIONARYVAR
  5
1A42
102
{ACAD_REACTORS
330
5E
102
}
330
5E
100
DictionaryVariables
280
     0
  1
STANDARD
  0
DICTIONARYVAR
  5
5F
102
{ACAD_REACTORS
330
5E
102
}
330
5E
100
DictionaryVariables
280
     0
  1
2
  0
DICTIONARYVAR
  5
63
102
{ACAD_REACTORS
330
5E
102
}
330
5E
100
DictionaryVariables
280
     0
  1
1
  0
DICTIONARYVAR
  5
1A46
102
{ACAD_REACTORS
330
5E
102
}
330
5E
100
DictionaryVariables
280
     0
  1
0
  0
DICTIONARYVAR
  5
1A45
102
{ACAD_REACTORS
330
5E
102
}
330
5E
100
DictionaryVariables
280
     0
  1
127
  0
DICTIONARYVAR
  5
1A98
102
{ACAD_REACTORS
330
5E
102
}
330
5E
100
DictionaryVariables
280
     0
  1
2
  0
DICTIONARY
  5
1A9C
330
22
100
AcDbDictionary
280
     1
281
     1
  3
ACAD_XREC_ROUNDTRIP
360
1A9D
  0
DICTIONARY
  5
1A9E
330
51
100
AcDbDictionary
280
     1
281
     1
  3
ACAD_XREC_ROUNDTRIP
360
1A9F
  0
DICTIONARY
  5
1AA0
330
56
100
AcDbDictionary
280
     1
281
     1
  3
ACAD_XREC_ROUNDTRIP
360
1AA1
  0
DICTIONARY
  5
CD8
330
CD7
100
AcDbDictionary
280
     1
281
     1
  3
ACAD_XREC_ROUNDTRIP
360
1A5B
  3
BUMPTILE
360
CDA
  3
DIFFUSETILE
360
CD9
  3
OPACITYTILE
360
CDD
  3
REFLECTIONTILE
360
CDC
  3
REFRACTIONTILE
360
CDE
  3
SPECULARTILE
360
CDB
  0
DICTIONARY
  5
CD0
330
CCF
100
AcDbDictionary
280
     1
281
     1
  3
ACAD_XREC_ROUNDTRIP
360
1A5A
  3
BUMPTILE
360
CD2
  3
DIFFUSETILE
360
CD1
  3
OPACITYTILE
360
CD5
  3
REFLECTIONTILE
360
CD4
  3
REFRACTIONTILE
360
CD6
  3
SPECULARTILE
360
CD3
  0
DICTIONARY
  5
CE0
330
CDF
100
AcDbDictionary
280
     1
281
     1
  3
ACAD_XREC_ROUNDTRIP
360
1A5C
  3
BUMPTILE
360
CE2
  3
DIFFUSETILE
360
CE1
  3
OPACITYTILE
360
CE5
  3
REFLECTIONTILE
360
CE4
  3
REFRACTIONTILE
360
CE6
  3
SPECULARTILE
360
CE3
  0
DICTIONARY
  5
1A48
330
D02
100
AcDbDictionary
280
     1
281
     1
  3
ACAD_ROUNDTRIP_2008_TABLESTYLE_CELLSTYLEMAP
360
1A99
  3
ACAD_XREC_ROUNDTRIP
360
1ADA
  0
DICTIONARY
  5
1AB4
330
CED
100
AcDbDictionary
280
     1
281
     1
  3
ACAD_XREC_ROUNDTRIP
360
1AB5
  0
DICTIONARY
  5
1AB2
330
CEC
100
AcDbDictionary
280
     1
281
     1
  3
ACAD_XREC_ROUNDTRIP
360
1AB3
  0
DICTIONARY
  5
1AC0
330
CF3
100
AcDbDictionary
280
     1
281
     1
  3
ACAD_XREC_ROUNDTRIP
360
1AC1
  0
DICTIONARY
  5
1AC8
330
CF7
100
AcDbDictionary
280
     1
281
     1
  3
ACAD_XREC_ROUNDTRIP
360
1AC9
  0
DICTIONARY
  5
1ABA
330
CF0
100
AcDbDictionary
280
     1
281
     1
  3
ACAD_XREC_ROUNDTRIP
360
1ABB
  0
DICTIONARY
  5
1ABE
330
CF2
100
AcDbDictionary
280
     1
281
     1
  3
ACAD_XREC_ROUNDTRIP
360
1ABF
  0
DICTIONARY
  5
1AD8
330
CFF
100
AcDbDictionary
280
     1
281
     1
  3
ACAD_XREC_ROUNDTRIP
360
1AD9
  0
DICTIONARY
  5
1AC6
330
CF6
100
AcDbDictionary
280
     1
281
     1
  3
ACAD_XREC_ROUNDTRIP
360
1AC7
  0
DICTIONARY
  5
1AAA
330
CE8
100
AcDbDictionary
280
     1
281
     1
  3
ACAD_XREC_ROUNDTRIP
360
1AAB
  0
DICTIONARY
  5
1AAC
330
CE9
100
AcDbDictionary
280
     1
281
     1
  3
ACAD_XREC_ROUNDTRIP
360
1AAD
  0
DICTIONARY
  5
1AAE
330
CEA
100
AcDbDictionary
280
     1
281
     1
  3
ACAD_XREC_ROUNDTRIP
360
1AAF
  0
DICTIONARY
  5
1AB0
330
CEB
100
AcDbDictionary
280
     1
281
     1
  3
ACAD_XREC_ROUNDTRIP
360
1AB1
  0
DICTIONARY
  5
1AB8
330
CEF
100
AcDbDictionary
280
     1
281
     1
  3
ACAD_XREC_ROUNDTRIP
360
1AB9
  0
DICTIONARY
  5
1AD4
330
CFD
100
AcDbDictionary
280
     1
281
     1
  3
ACAD_XREC_ROUNDTRIP
360
1AD5
  0
DICTIONARY
  5
1AC4
330
CF5
100
AcDbDictionary
280
     1
281
     1
  3
ACAD_XREC_ROUNDTRIP
360
1AC5
  0
DICTIONARY
  5
1AD6
330
CFE
100
AcDbDictionary
280
     1
281
     1
  3
ACAD_XREC_ROUNDTRIP
360
1AD7
  0
DICTIONARY
  5
1ABC
330
CF1
100
AcDbDictionary
280
     1
281
     1
  3
ACAD_XREC_ROUNDTRIP
360
1ABD
  0
DICTIONARY
  5
1AD2
330
CFC
100
AcDbDictionary
280
     1
281
     1
  3
ACAD_XREC_ROUNDTRIP
360
1AD3
  0
DICTIONARY
  5
1AD0
330
CFB
100
AcDbDictionary
280
     1
281
     1
  3
ACAD_XREC_ROUNDTRIP
360
1AD1
  0
DICTIONARY
  5
1ACA
330
CF8
100
AcDbDictionary
280
     1
281
     1
  3
ACAD_XREC_ROUNDTRIP
360
1ACB
  0
DICTIONARY
  5
1ACC
330
CF9
100
AcDbDictionary
280
     1
281
     1
  3
ACAD_XREC_ROUNDTRIP
360
1ACD
  0
DICTIONARY
  5
1AC2
330
CF4
100
AcDbDictionary
280
     1
281
     1
  3
ACAD_XREC_ROUNDTRIP
360
1AC3
  0
DICTIONARY
  5
1AB6
330
CEE
100
AcDbDictionary
280
     1
281
     1
  3
ACAD_XREC_ROUNDTRIP
360
1AB7
  0
DICTIONARY
  5
1ACE
330
CFA
100
AcDbDictionary
280
     1
281
     1
  3
ACAD_XREC_ROUNDTRIP
360
1ACF
  0
XRECORD
  5
1A9D
102
{ACAD_REACTORS
330
1A9C
102
}
330
1A9C
100
AcDbXrecord
280
     1
102
SHADEPLOT
 70
     0
102
SHADEPLOTRESLEVEL
 70
     2
102
SHADEPLOTCUSTOMDPI
 70
   300
  0
XRECORD
  5
1A9F
102
{ACAD_REACTORS
330
1A9E
102
}
330
1A9E
100
AcDbXrecord
280
     1
102
SHADEPLOT
 70
     0
102
SHADEPLOTRESLEVEL
 70
     2
102
SHADEPLOTCUSTOMDPI
 70
   300
  0
XRECORD
  5
1AA1
102
{ACAD_REACTORS
330
1AA0
102
}
330
1AA0
100
AcDbXrecord
280
     1
102
SHADEPLOT
 70
     0
102
SHADEPLOTRESLEVEL
 70
     2
102
SHADEPLOTCUSTOMDPI
 70
   300
  0
XRECORD
  5
1A5B
102
{ACAD_REACTORS
330
CD8
102
}
330
CD8
100
AcDbXrecord
280
     1
102
MATERIAL
148
0.0
149
0.0
149
0.0
 93
        0
 94
      127
282
     0
 72
     0
 77
     0
171
     0
175
     0
179
     0
273
     0
  0
XRECORD
  5
CDA
102
{ACAD_REACTORS
330
CD8
102
}
330
CD8
100
AcDbXrecord
280
     1
270
     1
271
     1
  0
XRECORD
  5
CD9
102
{ACAD_REACTORS
330
CD8
102
}
330
CD8
100
AcDbXrecord
280
     1
270
     1
271
     1
  0
XRECORD
  5
CDD
102
{ACAD_REACTORS
330
CD8
102
}
330
CD8
100
AcDbXrecord
280
     1
270
     1
271
     1
  0
XRECORD
  5
CDC
102
{ACAD_REACTORS
330
CD8
102
}
330
CD8
100
AcDbXrecord
280
     1
270
     1
271
     1
  0
XRECORD
  5
CDE
102
{ACAD_REACTORS
330
CD8
102
}
330
CD8
100
AcDbXrecord
280
     1
270
     1
271
     1
  0
XRECORD
  5
CDB
102
{ACAD_REACTORS
330
CD8
102
}
330
CD8
100
AcDbXrecord
280
     1
270
     1
271
     1
  0
XRECORD
  5
1A5A
102
{ACAD_REACTORS
330
CD0
102
}
330
CD0
100
AcDbXrecord
280
     1
102
MATERIAL
148
0.0
149
0.0
149
0.0
 93
        0
 94
      127
282
     0
 72
     0
 77
     0
171
     0
175
     0
179
     0
273
     0
  0
XRECORD
  5
CD2
102
{ACAD_REACTORS
330
CD0
102
}
330
CD0
100
AcDbXrecord
280
     1
270
     1
271
     1
  0
XRECORD
  5
CD1
102
{ACAD_REACTORS
330
CD0
102
}
330
CD0
100
AcDbXrecord
280
     1
270
     1
271
     1
  0
XRECORD
  5
CD5
102
{ACAD_REACTORS
330
CD0
102
}
330
CD0
100
AcDbXrecord
280
     1
270
     1
271
     1
  0
XRECORD
  5
CD4
102
{ACAD_REACTORS
330
CD0
102
}
330
CD0
100
AcDbXrecord
280
     1
270
     1
271
     1
  0
XRECORD
  5
CD6
102
{ACAD_REACTORS
330
CD0
102
}
330
CD0
100
AcDbXrecord
280
     1
270
     1
271
     1
  0
XRECORD
  5
CD3
102
{ACAD_REACTORS
330
CD0
102
}
330
CD0
100
AcDbXrecord
280
     1
270
     1
271
     1
  0
XRECORD
  5
1A5C
102
{ACAD_REACTORS
330
CE0
102
}
330
CE0
100
AcDbXrecord
280
     1
102
MATERIAL
148
0.0
149
0.0
149
0.0
 93
        0
 94
      127
282
     0
 72
     0
 77
     0
171
     0
175
     0
179
     0
273
     0
  0
XRECORD
  5
CE2
102
{ACAD_REACTORS
330
CE0
102
}
330
CE0
100
AcDbXrecord
280
     1
270
     1
271
     1
  0
XRECORD
  5
CE1
102
{ACAD_REACTORS
330
CE0
102
}
330
CE0
100
AcDbXrecord
280
     1
270
     1
271
     1
  0
XRECORD
  5
CE5
102
{ACAD_REACTORS
330
CE0
102
}
330
CE0
100
AcDbXrecord
280
     1
270
     1
271
     1
  0
XRECORD
  5
CE4
102
{ACAD_REACTORS
330
CE0
102
}
330
CE0
100
AcDbXrecord
280
     1
270
     1
271
     1
  0
XRECORD
  5
CE6
102
{ACAD_REACTORS
330
CE0
102
}
330
CE0
100
AcDbXrecord
280
     1
270
     1
271
     1
  0
XRECORD
  5
CE3
102
{ACAD_REACTORS
330
CE0
102
}
330
CE0
100
AcDbXrecord
280
     1
270
     1
271
     1
  0
CELLSTYLEMAP
  5
1A99
102
{ACAD_REACTORS
330
1A48
102
}
330
1A48
100
AcDbCellStyleMap
 90
        3
300
CELLSTYLE
  1
TABLEFORMAT_BEGIN
 90
        5
170
     1
 91
        0
 92
    32768
 62
   257
 93
        1
300
CONTENTFORMAT
  1
CONTENTFORMAT_BEGIN
 90
        0
 91
        0
 92
      512
 93
        0
300

 40
0.0
140
1.0
 94
        5
 62
     0
340
11
144
6.0
309
CONTENTFORMAT_END
171
     1
301
MARGIN
  1
CELLMARGIN_BEGIN
 40
1.5
 40
1.5
 40
1.5
 40
1.5
 40
0.18
 40
0.18
309
CELLMARGIN_END
 94
        6
 95
        1
302
GRIDFORMAT
  1
GRIDFORMAT_BEGIN
 90
        0
 91
        1
 62
     0
 92
       -2
340
0
 93
        0
 40
1.125
309
GRIDFORMAT_END
 95
        2
302
GRIDFORMAT
  1
GRIDFORMAT_BEGIN
 90
        0
 91
        1
 62
     0
 92
       -2
340
0
 93
        0
 40
1.125
309
GRIDFORMAT_END
 95
        4
302
GRIDFORMAT
  1
GRIDFORMAT_BEGIN
 90
        0
 91
        1
 62
     0
 92
       -2
340
0
 93
        0
 40
1.125
309
GRIDFORMAT_END
 95
        8
302
GRIDFORMAT
  1
GRIDFORMAT_BEGIN
 90
        0
 91
        1
 62
     0
 92
       -2
340
0
 93
        0
 40
1.125
309
GRIDFORMAT_END
 95
       16
302
GRIDFORMAT
  1
GRIDFORMAT_BEGIN
 90
        0
 91
        1
 62
     0
 92
       -2
340
0
 93
        0
 40
1.125
309
GRIDFORMAT_END
 95
       32
302
GRIDFORMAT
  1
GRIDFORMAT_BEGIN
 90
        0
 91
        1
 62
     0
 92
       -2
340
0
 93
        0
 40
1.125
309
GRIDFORMAT_END
309
TABLEFORMAT_END
  1
CELLSTYLE_BEGIN
 90
        1
 91
        1
300
_TITLE
309
CELLSTYLE_END
300
CELLSTYLE
  1
TABLEFORMAT_BEGIN
 90
        5
170
     1
 91
        0
 92
        0
 62
   257
 93
        1
300
CONTENTFORMAT
  1
CONTENTFORMAT_BEGIN
 90
        0
 91
        0
 92
      512
 93
        0
300

 40
0.0
140
1.0
 94
        5
 62
     0
340
11
144
4.5
309
CONTENTFORMAT_END
171
     1
301
MARGIN
  1
CELLMARGIN_BEGIN
 40
1.5
 40
1.5
 40
1.5
 40
1.5
 40
0.18
 40
0.18
309
CELLMARGIN_END
 94
        6
 95
        1
302
GRIDFORMAT
  1
GRIDFORMAT_BEGIN
 90
        0
 91
        1
 62
     0
 92
       -2
340
0
 93
        0
 40
1.125
309
GRIDFORMAT_END
 95
        2
302
GRIDFORMAT
  1
GRIDFORMAT_BEGIN
 90
        0
 91
        1
 62
     0
 92
       -2
340
0
 93
        0
 40
1.125
309
GRIDFORMAT_END
 95
        4
302
GRIDFORMAT
  1
GRIDFORMAT_BEGIN
 90
        0
 91
        1
 62
     0
 92
       -2
340
0
 93
        0
 40
1.125
309
GRIDFORMAT_END
 95
        8
302
GRIDFORMAT
  1
GRIDFORMAT_BEGIN
 90
        0
 91
        1
 62
     0
 92
       -2
340
0
 93
        0
 40
1.125
309
GRIDFORMAT_END
 95
       16
302
GRIDFORMAT
  1
GRIDFORMAT_BEGIN
 90
        0
 91
        1
 62
     0
 92
       -2
340
0
 93
        0
 40
1.125
309
GRIDFORMAT_END
 95
       32
302
GRIDFORMAT
  1
GRIDFORMAT_BEGIN
 90
        0
 91
        1
 62
     0
 92
       -2
340
0
 93
        0
 40
1.125
309
GRIDFORMAT_END
309
TABLEFORMAT_END
  1
CELLSTYLE_BEGIN
 90
        2
 91
        1
300
_HEADER
309
CELLSTYLE_END
300
CELLSTYLE
  1
TABLEFORMAT_BEGIN
 90
        5
170
     1
 91
        0
 92
        0
 62
   257
 93
        1
300
CONTENTFORMAT
  1
CONTENTFORMAT_BEGIN
 90
        0
 91
        0
 92
      512
 93
        0
300

 40
0.0
140
1.0
 94
        2
 62
     0
340
11
144
4.5
309
CONTENTFORMAT_END
171
     1
301
MARGIN
  1
CELLMARGIN_BEGIN
 40
1.5
 40
1.5
 40
1.5
 40
1.5
 40
0.18
 40
0.18
309
CELLMARGIN_END
 94
        6
 95
        1
302
GRIDFORMAT
  1
GRIDFORMAT_BEGIN
 90
        0
 91
        1
 62
     0
 92
       -2
340
0
 93
        0
 40
1.125
309
GRIDFORMAT_END
 95
        2
302
GRIDFORMAT
  1
GRIDFORMAT_BEGIN
 90
        0
 91
        1
 62
     0
 92
       -2
340
0
 93
        0
 40
1.125
309
GRIDFORMAT_END
 95
        4
302
GRIDFORMAT
  1
GRIDFORMAT_BEGIN
 90
        0
 91
        1
 62
     0
 92
       -2
340
0
 93
        0
 40
1.125
309
GRIDFORMAT_END
 95
        8
302
GRIDFORMAT
  1
GRIDFORMAT_BEGIN
 90
        0
 91
        1
 62
     0
 92
       -2
340
0
 93
        0
 40
1.125
309
GRIDFORMAT_END
 95
       16
302
GRIDFORMAT
  1
GRIDFORMAT_BEGIN
 90
        0
 91
        1
 62
     0
 92
       -2
340
0
 93
        0
 40
1.125
309
GRIDFORMAT_END
 95
       32
302
GRIDFORMAT
  1
GRIDFORMAT_BEGIN
 90
        0
 91
        1
 62
     0
 92
       -2
340
0
 93
        0
 40
1.125
309
GRIDFORMAT_END
309
TABLEFORMAT_END
  1
CELLSTYLE_BEGIN
 90
        3
 91
        2
300
_DATA
309
CELLSTYLE_END
  0
XRECORD
  5
1ADA
102
{ACAD_REACTORS
330
1A48
102
}
330
1A48
100
AcDbXrecord
280
     1
102
ACAD_ROUNDTRIP_PRE2007_TABLESTYLE
 90
      512
 91
        0
  1

 92
      512
 93
        0
  2

 94
      512
 95
        0
  3

  0
XRECORD
  5
1AB5
102
{ACAD_REACTORS
330
1AB4
102
}
330
1AB4
100
AcDbXrecord
280
     1
102
RTVSPropertyOp0
 70
     1
102
RTVSPropertyOp1
 70
     1
102
RTVSPropertyOp2
 70
     1
102
RTVSPropertyOp3
 70
     1
102
RTVSPropertyOp4
 70
     1
102
RTVSPropertyOp5
 70
     1
102
RTVSPropertyOp6
 70
     1
102
RTVSPropertyOp7
 70
     1
102
RTVSPropertyOp8
 70
     1
102
RTVSPropertyOp9
 70
     1
102
RTVSPropertyOp10
 70
     1
102
RTVSPropertyOp11
 70
     1
102
RTVSPropertyOp12
 70
     1
102
RTVSPropertyOp13
 70
     1
102
RTVSPropertyOp14
 70
     1
102
RTVSPropertyOp15
 70
     1
102
RTVSPropertyOp16
 70
     1
102
RTVSPropertyOp17
 70
     1
102
RTVSPropertyOp18
 70
     1
102
RTVSPropertyOp19
 70
     1
102
RTVSPropertyOp20
 70
     1
102
RTVSPropertyOp21
 70
     1
102
RTVSPropertyOp22
 70
     1
102
RTVSPropertyOp23
 70
     1
102
RTVSPropertyOp24
 70
     1
102
RTVSPropertyOp25
 70
     1
102
RTVSPropertyOp26
 70
     1
102
RTVSPropertyOp27
 70
     1
102
RTVSPropertyOp28
 70
     1
102
RTVSPropertyOp29
 70
     1
102
RTVSPropertyOp30
 70
     1
102
RTVSPropertyOp31
 70
     1
102
RTVSPropertyOp32
 70
     1
  0
XRECORD
  5
1AB3
102
{ACAD_REACTORS
330
1AB2
102
}
330
1AB2
100
AcDbXrecord
280
     1
102
RTVSPropertyOp0
 70
     1
102
RTVSPropertyOp1
 70
     1
102
RTVSPropertyOp2
 70
     1
102
RTVSPropertyOp3
 70
     1
102
RTVSPropertyOp4
 70
     1
102
RTVSPropertyOp5
 70
     1
102
RTVSPropertyOp6
 70
     1
102
RTVSPropertyOp7
 70
     1
102
RTVSPropertyOp8
 70
     1
102
RTVSPropertyOp9
 70
     1
102
RTVSPropertyOp10
 70
     1
102
RTVSPropertyOp11
 70
     1
102
RTVSPropertyOp12
 70
     1
102
RTVSPropertyOp13
 70
     1
102
RTVSPropertyOp14
 70
     1
102
RTVSPropertyOp15
 70
     1
102
RTVSPropertyOp16
 70
     1
102
RTVSPropertyOp17
 70
     1
102
RTVSPropertyOp18
 70
     1
102
RTVSPropertyOp19
 70
     1
102
RTVSPropertyOp20
 70
     1
102
RTVSPropertyOp21
 70
     1
102
RTVSPropertyOp22
 70
     1
102
RTVSPropertyOp23
 70
     1
102
RTVSPropertyOp24
 70
     1
102
RTVSPropertyOp25
 70
     1
102
RTVSPropertyOp26
 70
     1
102
RTVSPropertyOp27
 70
     1
102
RTVSPropertyOp28
 70
     1
102
RTVSPropertyOp29
 70
     1
102
RTVSPropertyOp30
 70
     1
102
RTVSPropertyOp31
 70
     1
102
RTVSPropertyOp32
 70
     1
  0
XRECORD
  5
1AC1
102
{ACAD_REACTORS
330
1AC0
102
}
330
1AC0
100
AcDbXrecord
280
     1
102
RTVSPropertyOp0
 70
     1
102
RTVSPropertyOp1
 70
     1
102
RTVSPropertyOp2
 70
     1
102
RTVSPropertyOp3
 70
     1
102
RTVSPropertyOp4
 70
     1
102
RTVSPropertyOp5
 70
     1
102
RTVSPropertyOp6
 70
     1
102
RTVSPropertyOp7
 70
     1
102
RTVSPropertyOp8
 70
     1
102
RTVSPropertyOp9
 70
     1
102
RTVSPropertyOp10
 70
     1
102
RTVSPropertyOp11
 70
     1
102
RTVSPropertyOp12
 70
     1
102
RTVSPropertyOp13
 70
     1
102
RTVSPropertyOp14
 70
     1
102
RTVSPropertyOp15
 70
     1
102
RTVSPropertyOp16
 70
     1
102
RTVSPropertyOp17
 70
     1
102
RTVSPropertyOp18
 70
     1
102
RTVSPropertyOp19
 70
     1
102
RTVSPropertyOp20
 70
     1
102
RTVSPropertyOp21
 70
     1
102
RTVSPropertyOp22
 70
     1
102
RTVSPropertyOp23
 70
     1
102
RTVSPropertyOp24
 70
     1
102
RTVSPropertyOp25
 70
     1
102
RTVSPropertyOp26
 70
     1
102
RTVSPropertyOp27
 70
     1
102
RTVSPropertyOp28
 70
     1
102
RTVSPropertyOp29
 70
     1
102
RTVSPropertyOp30
 70
     1
102
RTVSPropertyOp31
 70
     1
102
RTVSPropertyOp32
 70
     1
  0
XRECORD
  5
1AC9
102
{ACAD_REACTORS
330
1AC8
102
}
330
1AC8
100
AcDbXrecord
280
     1
102
RTVSPropertyOp0
 70
     1
102
RTVSPropertyOp1
 70
     1
102
RTVSPropertyOp2
 70
     1
102
RTVSPropertyOp3
 70
     1
102
RTVSPropertyOp4
 70
     1
102
RTVSPropertyOp5
 70
     1
102
RTVSPropertyOp6
 70
     1
102
RTVSPropertyOp7
 70
     1
102
RTVSPropertyOp8
 70
     1
102
RTVSPropertyOp9
 70
     1
102
RTVSPropertyOp10
 70
     1
102
RTVSPropertyOp11
 70
     1
102
RTVSPropertyOp12
 70
     1
102
RTVSPropertyOp13
 70
     1
102
RTVSPropertyOp14
 70
     1
102
RTVSPropertyOp15
 70
     1
102
RTVSPropertyOp16
 70
     1
102
RTVSPropertyOp17
 70
     1
102
RTVSPropertyOp18
 70
     1
102
RTVSPropertyOp19
 70
     1
102
RTVSPropertyOp20
 70
     1
102
RTVSPropertyOp21
 70
     1
102
RTVSPropertyOp22
 70
     1
102
RTVSPropertyOp23
 70
     1
102
RTVSPropertyOp24
 70
     1
102
RTVSPropertyOp25
 70
     1
102
RTVSPropertyOp26
 70
     1
102
RTVSPropertyOp27
 70
     1
102
RTVSPropertyOp28
 70
     1
102
RTVSPropertyOp29
 70
     1
102
RTVSPropertyOp30
 70
     1
102
RTVSPropertyOp31
 70
     1
102
RTVSPropertyOp32
 70
     1
  0
XRECORD
  5
1ABB
102
{ACAD_REACTORS
330
1ABA
102
}
330
1ABA
100
AcDbXrecord
280
     1
102
RTVSPropertyOp0
 70
     1
102
RTVSPropertyOp1
 70
     1
102
RTVSPropertyOp2
 70
     1
102
RTVSPropertyOp3
 70
     1
102
RTVSPropertyOp4
 70
     1
102
RTVSPropertyOp5
 70
     1
102
RTVSPropertyOp6
 70
     1
102
RTVSPropertyOp7
 70
     1
102
RTVSPropertyOp8
 70
     1
102
RTVSPropertyOp9
 70
     1
102
RTVSPropertyOp10
 70
     1
102
RTVSPropertyOp11
 70
     1
102
RTVSPropertyOp12
 70
     1
102
RTVSPropertyOp13
 70
     1
102
RTVSPropertyOp14
 70
     1
102
RTVSPropertyOp15
 70
     1
102
RTVSPropertyOp16
 70
     1
102
RTVSPropertyOp17
 70
     1
102
RTVSPropertyOp18
 70
     1
102
RTVSPropertyOp19
 70
     1
102
RTVSPropertyOp20
 70
     1
102
RTVSPropertyOp21
 70
     1
102
RTVSPropertyOp22
 70
     1
102
RTVSPropertyOp23
 70
     1
102
RTVSPropertyOp24
 70
     1
102
RTVSPropertyOp25
 70
     1
102
RTVSPropertyOp26
 70
     1
102
RTVSPropertyOp27
 70
     1
102
RTVSPropertyOp28
 70
     1
102
RTVSPropertyOp29
 70
     1
102
RTVSPropertyOp30
 70
     1
102
RTVSPropertyOp31
 70
     1
102
RTVSPropertyOp32
 70
     1
  0
XRECORD
  5
1ABF
102
{ACAD_REACTORS
330
1ABE
102
}
330
1ABE
100
AcDbXrecord
280
     1
102
RTVSPropertyOp0
 70
     1
102
RTVSPropertyOp1
 70
     1
102
RTVSPropertyOp2
 70
     1
102
RTVSPropertyOp3
 70
     1
102
RTVSPropertyOp4
 70
     1
102
RTVSPropertyOp5
 70
     1
102
RTVSPropertyOp6
 70
     1
102
RTVSPropertyOp7
 70
     1
102
RTVSPropertyOp8
 70
     1
102
RTVSPropertyOp9
 70
     1
102
RTVSPropertyOp10
 70
     1
102
RTVSPropertyOp11
 70
     1
102
RTVSPropertyOp12
 70
     1
102
RTVSPropertyOp13
 70
     1
102
RTVSPropertyOp14
 70
     1
102
RTVSPropertyOp15
 70
     1
102
RTVSPropertyOp16
 70
     1
102
RTVSPropertyOp17
 70
     1
102
RTVSPropertyOp18
 70
     1
102
RTVSPropertyOp19
 70
     1
102
RTVSPropertyOp20
 70
     1
102
RTVSPropertyOp21
 70
     1
102
RTVSPropertyOp22
 70
     1
102
RTVSPropertyOp23
 70
     1
102
RTVSPropertyOp24
 70
     1
102
RTVSPropertyOp25
 70
     1
102
RTVSPropertyOp26
 70
     1
102
RTVSPropertyOp27
 70
     1
102
RTVSPropertyOp28
 70
     1
102
RTVSPropertyOp29
 70
     1
102
RTVSPropertyOp30
 70
     1
102
RTVSPropertyOp31
 70
     1
102
RTVSPropertyOp32
 70
     1
  0
XRECORD
  5
1AD9
102
{ACAD_REACTORS
330
1AD8
102
}
330
1AD8
100
AcDbXrecord
280
     1
102
RTVSPropertyOp0
 70
     0
102
RTVSPropertyOp1
 70
     0
102
RTVSPropertyOp2
 70
     0
102
RTVSPropertyOp3
 70
     0
102
RTVSPropertyOp4
 70
     0
102
RTVSPropertyOp5
 70
     0
102
RTVSPropertyOp6
 70
     0
102
RTVSPropertyOp7
 70
     0
102
RTVSPropertyOp8
 70
     0
102
RTVSPropertyOp9
 70
     0
102
RTVSPropertyOp10
 70
     0
102
RTVSPropertyOp11
 70
     0
102
RTVSPropertyOp12
 70
     0
102
RTVSPropertyOp13
 70
     0
102
RTVSPropertyOp14
 70
     2
102
RTVSPropertyOp15
 70
     0
102
RTVSPropertyOp16
 70
     0
102
RTVSPropertyOp17
 70
     0
102
RTVSPropertyOp18
 70
     0
102
RTVSPropertyOp19
 70
     0
102
RTVSPropertyOp20
 70
     0
102
RTVSPropertyOp21
 70
     0
102
RTVSPropertyOp22
 70
     0
102
RTVSPropertyOp23
 70
     0
102
RTVSPropertyOp24
 70
     0
102
RTVSPropertyOp25
 70
     0
102
RTVSPropertyOp26
 70
     0
102
RTVSPropertyOp27
 70
     0
102
RTVSPropertyOp28
 70
     0
102
RTVSPropertyOp29
 70
     0
102
RTVSPropertyOp30
 70
     0
102
RTVSPropertyOp31
 70
     0
102
RTVSPropertyOp32
 70
     0
  0
XRECORD
  5
1AC7
102
{ACAD_REACTORS
330
1AC6
102
}
330
1AC6
100
AcDbXrecord
280
     1
102
RTVSPropertyOp0
 70
     1
102
RTVSPropertyOp1
 70
     1
102
RTVSPropertyOp2
 70
     1
102
RTVSPropertyOp3
 70
     1
102
RTVSPropertyOp4
 70
     1
102
RTVSPropertyOp5
 70
     1
102
RTVSPropertyOp6
 70
     1
102
RTVSPropertyOp7
 70
     1
102
RTVSPropertyOp8
 70
     1
102
RTVSPropertyOp9
 70
     1
102
RTVSPropertyOp10
 70
     1
102
RTVSPropertyOp11
 70
     1
102
RTVSPropertyOp12
 70
     1
102
RTVSPropertyOp13
 70
     1
102
RTVSPropertyOp14
 70
     1
102
RTVSPropertyOp15
 70
     1
102
RTVSPropertyOp16
 70
     1
102
RTVSPropertyOp17
 70
     1
102
RTVSPropertyOp18
 70
     1
102
RTVSPropertyOp19
 70
     1
102
RTVSPropertyOp20
 70
     1
102
RTVSPropertyOp21
 70
     1
102
RTVSPropertyOp22
 70
     1
102
RTVSPropertyOp23
 70
     1
102
RTVSPropertyOp24
 70
     1
102
RTVSPropertyOp25
 70
     1
102
RTVSPropertyOp26
 70
     1
102
RTVSPropertyOp27
 70
     1
102
RTVSPropertyOp28
 70
     1
102
RTVSPropertyOp29
 70
     1
102
RTVSPropertyOp30
 70
     1
102
RTVSPropertyOp31
 70
     1
102
RTVSPropertyOp32
 70
     1
  0
XRECORD
  5
1AAB
102
{ACAD_REACTORS
330
1AAA
102
}
330
1AAA
100
AcDbXrecord
280
     1
102
RTVSPropertyOp0
 70
     1
102
RTVSPropertyOp1
 70
     1
102
RTVSPropertyOp2
 70
     1
102
RTVSPropertyOp3
 70
     1
102
RTVSPropertyOp4
 70
     1
102
RTVSPropertyOp5
 70
     1
102
RTVSPropertyOp6
 70
     1
102
RTVSPropertyOp7
 70
     1
102
RTVSPropertyOp8
 70
     1
102
RTVSPropertyOp9
 70
     1
102
RTVSPropertyOp10
 70
     1
102
RTVSPropertyOp11
 70
     1
102
RTVSPropertyOp12
 70
     1
102
RTVSPropertyOp13
 70
     1
102
RTVSPropertyOp14
 70
     1
102
RTVSPropertyOp15
 70
     1
102
RTVSPropertyOp16
 70
     1
102
RTVSPropertyOp17
 70
     1
102
RTVSPropertyOp18
 70
     1
102
RTVSPropertyOp19
 70
     1
102
RTVSPropertyOp20
 70
     1
102
RTVSPropertyOp21
 70
     1
102
RTVSPropertyOp22
 70
     1
102
RTVSPropertyOp23
 70
     1
102
RTVSPropertyOp24
 70
     1
102
RTVSPropertyOp25
 70
     1
102
RTVSPropertyOp26
 70
     1
102
RTVSPropertyOp27
 70
     1
102
RTVSPropertyOp28
 70
     1
102
RTVSPropertyOp29
 70
     1
102
RTVSPropertyOp30
 70
     1
102
RTVSPropertyOp31
 70
     1
102
RTVSPropertyOp32
 70
     1
  0
XRECORD
  5
1AAD
102
{ACAD_REACTORS
330
1AAC
102
}
330
1AAC
100
AcDbXrecord
280
     1
102
RTVSPropertyOp0
 70
     1
102
RTVSPropertyOp1
 70
     1
102
RTVSPropertyOp2
 70
     1
102
RTVSPropertyOp3
 70
     1
102
RTVSPropertyOp4
 70
     1
102
RTVSPropertyOp5
 70
     1
102
RTVSPropertyOp6
 70
     1
102
RTVSPropertyOp7
 70
     1
102
RTVSPropertyOp8
 70
     1
102
RTVSPropertyOp9
 70
     1
102
RTVSPropertyOp10
 70
     1
102
RTVSPropertyOp11
 70
     1
102
RTVSPropertyOp12
 70
     1
102
RTVSPropertyOp13
 70
     1
102
RTVSPropertyOp14
 70
     1
102
RTVSPropertyOp15
 70
     1
102
RTVSPropertyOp16
 70
     1
102
RTVSPropertyOp17
 70
     1
102
RTVSPropertyOp18
 70
     1
102
RTVSPropertyOp19
 70
     1
102
RTVSPropertyOp20
 70
     1
102
RTVSPropertyOp21
 70
     1
102
RTVSPropertyOp22
 70
     1
102
RTVSPropertyOp23
 70
     1
102
RTVSPropertyOp24
 70
     1
102
RTVSPropertyOp25
 70
     1
102
RTVSPropertyOp26
 70
     1
102
RTVSPropertyOp27
 70
     1
102
RTVSPropertyOp28
 70
     1
102
RTVSPropertyOp29
 70
     1
102
RTVSPropertyOp30
 70
     1
102
RTVSPropertyOp31
 70
     1
102
RTVSPropertyOp32
 70
     1
  0
XRECORD
  5
1AAF
102
{ACAD_REACTORS
330
1AAE
102
}
330
1AAE
100
AcDbXrecord
280
     1
102
RTVSPropertyOp0
 70
     1
102
RTVSPropertyOp1
 70
     1
102
RTVSPropertyOp2
 70
     1
102
RTVSPropertyOp3
 70
     1
102
RTVSPropertyOp4
 70
     1
102
RTVSPropertyOp5
 70
     1
102
RTVSPropertyOp6
 70
     1
102
RTVSPropertyOp7
 70
     1
102
RTVSPropertyOp8
 70
     1
102
RTVSPropertyOp9
 70
     1
102
RTVSPropertyOp10
 70
     1
102
RTVSPropertyOp11
 70
     1
102
RTVSPropertyOp12
 70
     1
102
RTVSPropertyOp13
 70
     1
102
RTVSPropertyOp14
 70
     1
102
RTVSPropertyOp15
 70
     1
102
RTVSPropertyOp16
 70
     1
102
RTVSPropertyOp17
 70
     1
102
RTVSPropertyOp18
 70
     1
102
RTVSPropertyOp19
 70
     1
102
RTVSPropertyOp20
 70
     1
102
RTVSPropertyOp21
 70
     1
102
RTVSPropertyOp22
 70
     1
102
RTVSPropertyOp23
 70
     1
102
RTVSPropertyOp24
 70
     1
102
RTVSPropertyOp25
 70
     1
102
RTVSPropertyOp26
 70
     1
102
RTVSPropertyOp27
 70
     1
102
RTVSPropertyOp28
 70
     1
102
RTVSPropertyOp29
 70
     1
102
RTVSPropertyOp30
 70
     1
102
RTVSPropertyOp31
 70
     1
102
RTVSPropertyOp32
 70
     1
  0
XRECORD
  5
1AB1
102
{ACAD_REACTORS
330
1AB0
102
}
330
1AB0
100
AcDbXrecord
280
     1
102
RTVSPropertyOp0
 70
     1
102
RTVSPropertyOp1
 70
     1
102
RTVSPropertyOp2
 70
     1
102
RTVSPropertyOp3
 70
     1
102
RTVSPropertyOp4
 70
     1
102
RTVSPropertyOp5
 70
     1
102
RTVSPropertyOp6
 70
     1
102
RTVSPropertyOp7
 70
     1
102
RTVSPropertyOp8
 70
     1
102
RTVSPropertyOp9
 70
     1
102
RTVSPropertyOp10
 70
     1
102
RTVSPropertyOp11
 70
     1
102
RTVSPropertyOp12
 70
     1
102
RTVSPropertyOp13
 70
     1
102
RTVSPropertyOp14
 70
     1
102
RTVSPropertyOp15
 70
     1
102
RTVSPropertyOp16
 70
     1
102
RTVSPropertyOp17
 70
     1
102
RTVSPropertyOp18
 70
     1
102
RTVSPropertyOp19
 70
     1
102
RTVSPropertyOp20
 70
     1
102
RTVSPropertyOp21
 70
     1
102
RTVSPropertyOp22
 70
     1
102
RTVSPropertyOp23
 70
     1
102
RTVSPropertyOp24
 70
     1
102
RTVSPropertyOp25
 70
     1
102
RTVSPropertyOp26
 70
     1
102
RTVSPropertyOp27
 70
     1
102
RTVSPropertyOp28
 70
     1
102
RTVSPropertyOp29
 70
     1
102
RTVSPropertyOp30
 70
     1
102
RTVSPropertyOp31
 70
     1
102
RTVSPropertyOp32
 70
     1
  0
XRECORD
  5
1AB9
102
{ACAD_REACTORS
330
1AB8
102
}
330
1AB8
100
AcDbXrecord
280
     1
102
RTVSPropertyOp0
 70
     1
102
RTVSPropertyOp1
 70
     1
102
RTVSPropertyOp2
 70
     1
102
RTVSPropertyOp3
 70
     1
102
RTVSPropertyOp4
 70
     1
102
RTVSPropertyOp5
 70
     1
102
RTVSPropertyOp6
 70
     1
102
RTVSPropertyOp7
 70
     1
102
RTVSPropertyOp8
 70
     1
102
RTVSPropertyOp9
 70
     1
102
RTVSPropertyOp10
 70
     1
102
RTVSPropertyOp11
 70
     1
102
RTVSPropertyOp12
 70
     1
102
RTVSPropertyOp13
 70
     1
102
RTVSPropertyOp14
 70
     1
102
RTVSPropertyOp15
 70
     1
102
RTVSPropertyOp16
 70
     1
102
RTVSPropertyOp17
 70
     1
102
RTVSPropertyOp18
 70
     1
102
RTVSPropertyOp19
 70
     1
102
RTVSPropertyOp20
 70
     1
102
RTVSPropertyOp21
 70
     1
102
RTVSPropertyOp22
 70
     1
102
RTVSPropertyOp23
 70
     1
102
RTVSPropertyOp24
 70
     1
102
RTVSPropertyOp25
 70
     1
102
RTVSPropertyOp26
 70
     1
102
RTVSPropertyOp27
 70
     1
102
RTVSPropertyOp28
 70
     1
102
RTVSPropertyOp29
 70
     1
102
RTVSPropertyOp30
 70
     1
102
RTVSPropertyOp31
 70
     1
102
RTVSPropertyOp32
 70
     1
  0
XRECORD
  5
1AD5
102
{ACAD_REACTORS
330
1AD4
102
}
330
1AD4
100
AcDbXrecord
280
     1
102
RTVSPropertyOp0
 70
     0
102
RTVSPropertyOp1
 70
     0
102
RTVSPropertyOp2
 70
     0
102
RTVSPropertyOp3
 70
     0
102
RTVSPropertyOp4
 70
     0
102
RTVSPropertyOp5
 70
     0
102
RTVSPropertyOp6
 70
     0
102
RTVSPropertyOp7
 70
     0
102
RTVSPropertyOp8
 70
     0
102
RTVSPropertyOp9
 70
     0
102
RTVSPropertyOp10
 70
     0
102
RTVSPropertyOp11
 70
     0
102
RTVSPropertyOp12
 70
     0
102
RTVSPropertyOp13
 70
     0
102
RTVSPropertyOp14
 70
     2
102
RTVSPropertyOp15
 70
     0
102
RTVSPropertyOp16
 70
     0
102
RTVSPropertyOp17
 70
     0
102
RTVSPropertyOp18
 70
     0
102
RTVSPropertyOp19
 70
     0
102
RTVSPropertyOp20
 70
     0
102
RTVSPropertyOp21
 70
     0
102
RTVSPropertyOp22
 70
     0
102
RTVSPropertyOp23
 70
     0
102
RTVSPropertyOp24
 70
     0
102
RTVSPropertyOp25
 70
     0
102
RTVSPropertyOp26
 70
     0
102
RTVSPropertyOp27
 70
     0
102
RTVSPropertyOp28
 70
     0
102
RTVSPropertyOp29
 70
     0
102
RTVSPropertyOp30
 70
     0
102
RTVSPropertyOp31
 70
     0
102
RTVSPropertyOp32
 70
     0
  0
XRECORD
  5
1AC5
102
{ACAD_REACTORS
330
1AC4
102
}
330
1AC4
100
AcDbXrecord
280
     1
102
RTVSPropertyOp0
 70
     1
102
RTVSPropertyOp1
 70
     1
102
RTVSPropertyOp2
 70
     1
102
RTVSPropertyOp3
 70
     1
102
RTVSPropertyOp4
 70
     1
102
RTVSPropertyOp5
 70
     1
102
RTVSPropertyOp6
 70
     1
102
RTVSPropertyOp7
 70
     1
102
RTVSPropertyOp8
 70
     1
102
RTVSPropertyOp9
 70
     1
102
RTVSPropertyOp10
 70
     1
102
RTVSPropertyOp11
 70
     1
102
RTVSPropertyOp12
 70
     1
102
RTVSPropertyOp13
 70
     1
102
RTVSPropertyOp14
 70
     1
102
RTVSPropertyOp15
 70
     1
102
RTVSPropertyOp16
 70
     1
102
RTVSPropertyOp17
 70
     1
102
RTVSPropertyOp18
 70
     1
102
RTVSPropertyOp19
 70
     1
102
RTVSPropertyOp20
 70
     1
102
RTVSPropertyOp21
 70
     1
102
RTVSPropertyOp22
 70
     1
102
RTVSPropertyOp23
 70
     1
102
RTVSPropertyOp24
 70
     1
102
RTVSPropertyOp25
 70
     1
102
RTVSPropertyOp26
 70
     1
102
RTVSPropertyOp27
 70
     1
102
RTVSPropertyOp28
 70
     1
102
RTVSPropertyOp29
 70
     1
102
RTVSPropertyOp30
 70
     1
102
RTVSPropertyOp31
 70
     1
102
RTVSPropertyOp32
 70
     1
  0
XRECORD
  5
1AD7
102
{ACAD_REACTORS
330
1AD6
102
}
330
1AD6
100
AcDbXrecord
280
     1
102
RTVSPropertyOp0
 70
     0
102
RTVSPropertyOp1
 70
     0
102
RTVSPropertyOp2
 70
     0
102
RTVSPropertyOp3
 70
     0
102
RTVSPropertyOp4
 70
     0
102
RTVSPropertyOp5
 70
     0
102
RTVSPropertyOp6
 70
     0
102
RTVSPropertyOp7
 70
     0
102
RTVSPropertyOp8
 70
     0
102
RTVSPropertyOp9
 70
     0
102
RTVSPropertyOp10
 70
     0
102
RTVSPropertyOp11
 70
     0
102
RTVSPropertyOp12
 70
     0
102
RTVSPropertyOp13
 70
     0
102
RTVSPropertyOp14
 70
     2
102
RTVSPropertyOp15
 70
     0
102
RTVSPropertyOp16
 70
     0
102
RTVSPropertyOp17
 70
     0
102
RTVSPropertyOp18
 70
     0
102
RTVSPropertyOp19
 70
     0
102
RTVSPropertyOp20
 70
     0
102
RTVSPropertyOp21
 70
     0
102
RTVSPropertyOp22
 70
     0
102
RTVSPropertyOp23
 70
     0
102
RTVSPropertyOp24
 70
     0
102
RTVSPropertyOp25
 70
     0
102
RTVSPropertyOp26
 70
     0
102
RTVSPropertyOp27
 70
     0
102
RTVSPropertyOp28
 70
     0
102
RTVSPropertyOp29
 70
     0
102
RTVSPropertyOp30
 70
     0
102
RTVSPropertyOp31
 70
     0
102
RTVSPropertyOp32
 70
     0
  0
XRECORD
  5
1ABD
102
{ACAD_REACTORS
330
1ABC
102
}
330
1ABC
100
AcDbXrecord
280
     1
102
RTVSPropertyOp0
 70
     1
102
RTVSPropertyOp1
 70
     1
102
RTVSPropertyOp2
 70
     1
102
RTVSPropertyOp3
 70
     1
102
RTVSPropertyOp4
 70
     1
102
RTVSPropertyOp5
 70
     1
102
RTVSPropertyOp6
 70
     1
102
RTVSPropertyOp7
 70
     1
102
RTVSPropertyOp8
 70
     1
102
RTVSPropertyOp9
 70
     1
102
RTVSPropertyOp10
 70
     1
102
RTVSPropertyOp11
 70
     1
102
RTVSPropertyOp12
 70
     1
102
RTVSPropertyOp13
 70
     1
102
RTVSPropertyOp14
 70
     1
102
RTVSPropertyOp15
 70
     1
102
RTVSPropertyOp16
 70
     1
102
RTVSPropertyOp17
 70
     1
102
RTVSPropertyOp18
 70
     1
102
RTVSPropertyOp19
 70
     1
102
RTVSPropertyOp20
 70
     1
102
RTVSPropertyOp21
 70
     1
102
RTVSPropertyOp22
 70
     1
102
RTVSPropertyOp23
 70
     1
102
RTVSPropertyOp24
 70
     1
102
RTVSPropertyOp25
 70
     1
102
RTVSPropertyOp26
 70
     1
102
RTVSPropertyOp27
 70
     1
102
RTVSPropertyOp28
 70
     1
102
RTVSPropertyOp29
 70
     1
102
RTVSPropertyOp30
 70
     1
102
RTVSPropertyOp31
 70
     1
102
RTVSPropertyOp32
 70
     1
  0
XRECORD
  5
1AD3
102
{ACAD_REACTORS
330
1AD2
102
}
330
1AD2
100
AcDbXrecord
280
     1
102
RTVSPropertyOp0
 70
     1
102
RTVSPropertyOp1
 70
     1
102
RTVSPropertyOp2
 70
     1
102
RTVSPropertyOp3
 70
     1
102
RTVSPropertyOp4
 70
     1
102
RTVSPropertyOp5
 70
     1
102
RTVSPropertyOp6
 70
     1
102
RTVSPropertyOp7
 70
     1
102
RTVSPropertyOp8
 70
     1
102
RTVSPropertyOp9
 70
     1
102
RTVSPropertyOp10
 70
     1
102
RTVSPropertyOp11
 70
     1
102
RTVSPropertyOp12
 70
     1
102
RTVSPropertyOp13
 70
     1
102
RTVSPropertyOp14
 70
     1
102
RTVSPropertyOp15
 70
     1
102
RTVSPropertyOp16
 70
     1
102
RTVSPropertyOp17
 70
     1
102
RTVSPropertyOp18
 70
     1
102
RTVSPropertyOp19
 70
     1
102
RTVSPropertyOp20
 70
     1
102
RTVSPropertyOp21
 70
     1
102
RTVSPropertyOp22
 70
     1
102
RTVSPropertyOp23
 70
     1
102
RTVSPropertyOp24
 70
     1
102
RTVSPropertyOp25
 70
     1
102
RTVSPropertyOp26
 70
     1
102
RTVSPropertyOp27
 70
     1
102
RTVSPropertyOp28
 70
     1
102
RTVSPropertyOp29
 70
     1
102
RTVSPropertyOp30
 70
     1
102
RTVSPropertyOp31
 70
     1
102
RTVSPropertyOp32
 70
     1
  0
XRECORD
  5
1AD1
102
{ACAD_REACTORS
330
1AD0
102
}
330
1AD0
100
AcDbXrecord
280
     1
102
RTVSPropertyOp0
 70
     1
102
RTVSPropertyOp1
 70
     1
102
RTVSPropertyOp2
 70
     1
102
RTVSPropertyOp3
 70
     1
102
RTVSPropertyOp4
 70
     1
102
RTVSPropertyOp5
 70
     1
102
RTVSPropertyOp6
 70
     1
102
RTVSPropertyOp7
 70
     1
102
RTVSPropertyOp8
 70
     1
102
RTVSPropertyOp9
 70
     1
102
RTVSPropertyOp10
 70
     1
102
RTVSPropertyOp11
 70
     1
102
RTVSPropertyOp12
 70
     1
102
RTVSPropertyOp13
 70
     1
102
RTVSPropertyOp14
 70
     1
102
RTVSPropertyOp15
 70
     1
102
RTVSPropertyOp16
 70
     1
102
RTVSPropertyOp17
 70
     1
102
RTVSPropertyOp18
 70
     1
102
RTVSPropertyOp19
 70
     1
102
RTVSPropertyOp20
 70
     1
102
RTVSPropertyOp21
 70
     1
102
RTVSPropertyOp22
 70
     1
102
RTVSPropertyOp23
 70
     1
102
RTVSPropertyOp24
 70
     1
102
RTVSPropertyOp25
 70
     1
102
RTVSPropertyOp26
 70
     1
102
RTVSPropertyOp27
 70
     1
102
RTVSPropertyOp28
 70
     1
102
RTVSPropertyOp29
 70
     1
102
RTVSPropertyOp30
 70
     1
102
RTVSPropertyOp31
 70
     1
102
RTVSPropertyOp32
 70
     1
  0
XRECORD
  5
1ACB
102
{ACAD_REACTORS
330
1ACA
102
}
330
1ACA
100
AcDbXrecord
280
     1
102
RTVSPropertyOp0
 70
     1
102
RTVSPropertyOp1
 70
     1
102
RTVSPropertyOp2
 70
     1
102
RTVSPropertyOp3
 70
     1
102
RTVSPropertyOp4
 70
     1
102
RTVSPropertyOp5
 70
     1
102
RTVSPropertyOp6
 70
     1
102
RTVSPropertyOp7
 70
     1
102
RTVSPropertyOp8
 70
     1
102
RTVSPropertyOp9
 70
     1
102
RTVSPropertyOp10
 70
     1
102
RTVSPropertyOp11
 70
     1
102
RTVSPropertyOp12
 70
     1
102
RTVSPropertyOp13
 70
     1
102
RTVSPropertyOp14
 70
     1
102
RTVSPropertyOp15
 70
     1
102
RTVSPropertyOp16
 70
     1
102
RTVSPropertyOp17
 70
     1
102
RTVSPropertyOp18
 70
     1
102
RTVSPropertyOp19
 70
     1
102
RTVSPropertyOp20
 70
     1
102
RTVSPropertyOp21
 70
     1
102
RTVSPropertyOp22
 70
     1
102
RTVSPropertyOp23
 70
     1
102
RTVSPropertyOp24
 70
     1
102
RTVSPropertyOp25
 70
     1
102
RTVSPropertyOp26
 70
     1
102
RTVSPropertyOp27
 70
     1
102
RTVSPropertyOp28
 70
     1
102
RTVSPropertyOp29
 70
     1
102
RTVSPropertyOp30
 70
     1
102
RTVSPropertyOp31
 70
     1
102
RTVSPropertyOp32
 70
     1
  0
XRECORD
  5
1ACD
102
{ACAD_REACTORS
330
1ACC
102
}
330
1ACC
100
AcDbXrecord
280
     1
102
RTVSPropertyOp0
 70
     1
102
RTVSPropertyOp1
 70
     1
102
RTVSPropertyOp2
 70
     1
102
RTVSPropertyOp3
 70
     1
102
RTVSPropertyOp4
 70
     1
102
RTVSPropertyOp5
 70
     1
102
RTVSPropertyOp6
 70
     1
102
RTVSPropertyOp7
 70
     1
102
RTVSPropertyOp8
 70
     1
102
RTVSPropertyOp9
 70
     1
102
RTVSPropertyOp10
 70
     1
102
RTVSPropertyOp11
 70
     1
102
RTVSPropertyOp12
 70
     1
102
RTVSPropertyOp13
 70
     1
102
RTVSPropertyOp14
 70
     1
102
RTVSPropertyOp15
 70
     1
102
RTVSPropertyOp16
 70
     1
102
RTVSPropertyOp17
 70
     1
102
RTVSPropertyOp18
 70
     1
102
RTVSPropertyOp19
 70
     1
102
RTVSPropertyOp20
 70
     1
102
RTVSPropertyOp21
 70
     1
102
RTVSPropertyOp22
 70
     1
102
RTVSPropertyOp23
 70
     1
102
RTVSPropertyOp24
 70
     1
102
RTVSPropertyOp25
 70
     1
102
RTVSPropertyOp26
 70
     1
102
RTVSPropertyOp27
 70
     1
102
RTVSPropertyOp28
 70
     1
102
RTVSPropertyOp29
 70
     1
102
RTVSPropertyOp30
 70
     1
102
RTVSPropertyOp31
 70
     1
102
RTVSPropertyOp32
 70
     1
  0
XRECORD
  5
1AC3
102
{ACAD_REACTORS
330
1AC2
102
}
330
1AC2
100
AcDbXrecord
280
     1
102
RTVSPropertyOp0
 70
     1
102
RTVSPropertyOp1
 70
     1
102
RTVSPropertyOp2
 70
     1
102
RTVSPropertyOp3
 70
     1
102
RTVSPropertyOp4
 70
     1
102
RTVSPropertyOp5
 70
     1
102
RTVSPropertyOp6
 70
     1
102
RTVSPropertyOp7
 70
     1
102
RTVSPropertyOp8
 70
     1
102
RTVSPropertyOp9
 70
     1
102
RTVSPropertyOp10
 70
     1
102
RTVSPropertyOp11
 70
     1
102
RTVSPropertyOp12
 70
     1
102
RTVSPropertyOp13
 70
     1
102
RTVSPropertyOp14
 70
     1
102
RTVSPropertyOp15
 70
     1
102
RTVSPropertyOp16
 70
     1
102
RTVSPropertyOp17
 70
     1
102
RTVSPropertyOp18
 70
     1
102
RTVSPropertyOp19
 70
     1
102
RTVSPropertyOp20
 70
     1
102
RTVSPropertyOp21
 70
     1
102
RTVSPropertyOp22
 70
     1
102
RTVSPropertyOp23
 70
     1
102
RTVSPropertyOp24
 70
     1
102
RTVSPropertyOp25
 70
     1
102
RTVSPropertyOp26
 70
     1
102
RTVSPropertyOp27
 70
     1
102
RTVSPropertyOp28
 70
     1
102
RTVSPropertyOp29
 70
     1
102
RTVSPropertyOp30
 70
     1
102
RTVSPropertyOp31
 70
     1
102
RTVSPropertyOp32
 70
     1
  0
XRECORD
  5
1AB7
102
{ACAD_REACTORS
330
1AB6
102
}
330
1AB6
100
AcDbXrecord
280
     1
102
RTVSPropertyOp0
 70
     1
102
RTVSPropertyOp1
 70
     1
102
RTVSPropertyOp2
 70
     1
102
RTVSPropertyOp3
 70
     1
102
RTVSPropertyOp4
 70
     1
102
RTVSPropertyOp5
 70
     1
102
RTVSPropertyOp6
 70
     1
102
RTVSPropertyOp7
 70
     1
102
RTVSPropertyOp8
 70
     1
102
RTVSPropertyOp9
 70
     1
102
RTVSPropertyOp10
 70
     1
102
RTVSPropertyOp11
 70
     1
102
RTVSPropertyOp12
 70
     1
102
RTVSPropertyOp13
 70
     1
102
RTVSPropertyOp14
 70
     1
102
RTVSPropertyOp15
 70
     1
102
RTVSPropertyOp16
 70
     1
102
RTVSPropertyOp17
 70
     1
102
RTVSPropertyOp18
 70
     1
102
RTVSPropertyOp19
 70
     1
102
RTVSPropertyOp20
 70
     1
102
RTVSPropertyOp21
 70
     1
102
RTVSPropertyOp22
 70
     1
102
RTVSPropertyOp23
 70
     1
102
RTVSPropertyOp24
 70
     1
102
RTVSPropertyOp25
 70
     1
102
RTVSPropertyOp26
 70
     1
102
RTVSPropertyOp27
 70
     1
102
RTVSPropertyOp28
 70
     1
102
RTVSPropertyOp29
 70
     1
102
RTVSPropertyOp30
 70
     1
102
RTVSPropertyOp31
 70
     1
102
RTVSPropertyOp32
 70
     1
  0
XRECORD
  5
1ACF
102
{ACAD_REACTORS
330
1ACE
102
}
330
1ACE
100
AcDbXrecord
280
     1
102
RTVSPropertyOp0
 70
     1
102
RTVSPropertyOp1
 70
     1
102
RTVSPropertyOp2
 70
     1
102
RTVSPropertyOp3
 70
     1
102
RTVSPropertyOp4
 70
     1
102
RTVSPropertyOp5
 70
     1
102
RTVSPropertyOp6
 70
     1
102
RTVSPropertyOp7
 70
     1
102
RTVSPropertyOp8
 70
     1
102
RTVSPropertyOp9
 70
     1
102
RTVSPropertyOp10
 70
     1
102
RTVSPropertyOp11
 70
     1
102
RTVSPropertyOp12
 70
     1
102
RTVSPropertyOp13
 70
     1
102
RTVSPropertyOp14
 70
     1
102
RTVSPropertyOp15
 70
     1
102
RTVSPropertyOp16
 70
     1
102
RTVSPropertyOp17
 70
     1
102
RTVSPropertyOp18
 70
     1
102
RTVSPropertyOp19
 70
     1
102
RTVSPropertyOp20
 70
     1
102
RTVSPropertyOp21
 70
     1
102
RTVSPropertyOp22
 70
     1
102
RTVSPropertyOp23
 70
     1
102
RTVSPropertyOp24
 70
     1
102
RTVSPropertyOp25
 70
     1
102
RTVSPropertyOp26
 70
     1
102
RTVSPropertyOp27
 70
     1
102
RTVSPropertyOp28
 70
     1
102
RTVSPropertyOp29
 70
     1
102
RTVSPropertyOp30
 70
     1
102
RTVSPropertyOp31
 70
     1
102
RTVSPropertyOp32
 70
     1
  0
ENDSEC
  0
EOF
