  0
SECTION
  2
HEADER
  9
$ACADVER
  1
AC1015
  9
$ACADMAINTVER
 70
    20
  9
$DWGCODEPAGE
  3
ANSI_932
  9
$INSBASE
 10
0.0
 20
0.0
 30
0.0
  9
$EXTMIN
 10
-381.9441398752644
 20
-215.1031825947945
 30
0.0
  9
$EXTMAX
 10
324.1952954908259
 20
195.7309870952036
 30
0.0
  9
$LIMMIN
 10
0.0
 20
0.0
  9
$LIMMAX
 10
12.0
 20
9.0
  9
$ORTHOMODE
 70
     0
  9
$REGENMODE
 70
     1
  9
$FILLMODE
 70
     1
  9
$QTEXTMODE
 70
     0
  9
$MIRRTEXT
 70
     1
  9
$LTSCALE
 40
1.0
  9
$ATTMODE
 70
     1
  9
$TEXTSIZE
 40
0.2
  9
$TRACEWID
 40
0.05
  9
$TEXTSTYLE
  7
CONVERTER_6
  9
$CLAYER
  8
0
  9
$CELTYPE
  6
ByLayer
  9
$CECOLOR
 62
     4
  9
$CELTSCALE
 40
1.0
  9
$DISPSILH
 70
     0
  9
$DIMSCALE
 40
1.0
  9
$DIMASZ
 40
0.18
  9
$DIMEXO
 40
0.0625
  9
$DIMDLI
 40
0.38
  9
$DIMRND
 40
0.0
  9
$DIMDLE
 40
0.0
  9
$DIMEXE
 40
0.18
  9
$DIMTP
 40
0.0
  9
$DIMTM
 40
0.0
  9
$DIMTXT
 40
0.18
  9
$DIMCEN
 40
0.09
  9
$DIMTSZ
 40
0.0
  9
$DIMTOL
 70
     0
  9
$DIMLIM
 70
     0
  9
$DIMTIH
 70
     1
  9
$DIMTOH
 70
     1
  9
$DIMSE1
 70
     0
  9
$DIMSE2
 70
     0
  9
$DIMTAD
 70
     0
  9
$DIMZIN
 70
     0
  9
$DIMBLK
  1

  9
$DIMASO
 70
     1
  9
$DIMSHO
 70
     1
  9
$DIMPOST
  1

  9
$DIMAPOST
  1

  9
$DIMALT
 70
     0
  9
$DIMALTD
 70
     2
  9
$DIMALTF
 40
25.4
  9
$DIMLFAC
 40
1.0
  9
$DIMTOFL
 70
     0
  9
$DIMTVP
 40
0.0
  9
$DIMTIX
 70
     0
  9
$DIMSOXD
 70
     0
  9
$DIMSAH
 70
     0
  9
$DIMBLK1
  1

  9
$DIMBLK2
  1

  9
$DIMSTYLE
  2
Standard
  9
$DIMCLRD
 70
     0
  9
$DIMCLRE
 70
     0
  9
$DIMCLRT
 70
     0
  9
$DIMTFAC
 40
1.0
  9
$DIMGAP
 40
0.09
  9
$DIMJUST
 70
     0
  9
$DIMSD1
 70
     0
  9
$DIMSD2
 70
     0
  9
$DIMTOLJ
 70
     1
  9
$DIMTZIN
 70
     0
  9
$DIMALTZ
 70
     0
  9
$DIMALTTZ
 70
     0
  9
$DIMUPT
 70
     0
  9
$DIMDEC
 70
     4
  9
$DIMTDEC
 70
     4
  9
$DIMALTU
 70
     2
  9
$DIMALTTD
 70
     2
  9
$DIMTXSTY
  7
Standard
  9
$DIMAUNIT
 70
     0
  9
$DIMADEC
 70
     0
  9
$DIMALTRND
 40
0.0
  9
$DIMAZIN
 70
     0
  9
$DIMDSEP
 70
    46
  9
$DIMATFIT
 70
     3
  9
$DIMFRAC
 70
     0
  9
$DIMLDRBLK
  1

  9
$DIMLUNIT
 70
     2
  9
$DIMLWD
 70
    -2
  9
$DIMLWE
 70
    -2
  9
$DIMTMOVE
 70
     0
  9
$LUNITS
 70
     2
  9
$LUPREC
 70
     4
  9
$SKETCHINC
 40
0.1
  9
$FILLETRAD
 40
0.5
  9
$AUNITS
 70
     0
  9
$AUPREC
 70
     0
  9
$MENU
  1
.
  9
$ELEVATION
 40
0.0
  9
$PELEVATION
 40
0.0
  9
$THICKNESS
 40
0.0
  9
$LIMCHECK
 70
     0
  9
$CHAMFERA
 40
0.5
  9
$CHAMFERB
 40
0.5
  9
$CHAMFERC
 40
1.0
  9
$CHAMFERD
 40
0.0
  9
$SKPOLY
 70
     0
  9
$TDCREATE
 40
2455106.657704167
  9
$TDUCREATE
 40
2455106.282704167
  9
$TDUPDATE
 40
2456737.657950486
  9
$TDUUPDATE
 40
2456737.282950486
  9
$TDINDWG
 40
0.1913443866
  9
$TDUSRTIMER
 40
0.1913436690
  9
$USRTIMER
 70
     1
  9
$ANGBASE
 50
0.0
  9
$ANGDIR
 70
     0
  9
$PDMODE
 70
     0
  9
$PDSIZE
 40
0.0
  9
$PLINEWID
 40
0.0
  9
$SPLFRAME
 70
     0
  9
$SPLINETYPE
 70
     6
  9
$SPLINESEGS
 70
     8
  9
$HANDSEED
  5
12D3
  9
$SURFTAB1
 70
     6
  9
$SURFTAB2
 70
     6
  9
$SURFTYPE
 70
     6
  9
$SURFU
 70
     6
  9
$SURFV
 70
     6
  9
$UCSBASE
  2

  9
$UCSNAME
  2

  9
$UCSORG
 10
0.0
 20
0.0
 30
0.0
  9
$UCSXDIR
 10
1.0
 20
0.0
 30
0.0
  9
$UCSYDIR
 10
0.0
 20
1.0
 30
0.0
  9
$UCSORTHOREF
  2

  9
$UCSORTHOVIEW
 70
     0
  9
$UCSORGTOP
 10
0.0
 20
0.0
 30
0.0
  9
$UCSORGBOTTOM
 10
0.0
 20
0.0
 30
0.0
  9
$UCSORGLEFT
 10
0.0
 20
0.0
 30
0.0
  9
$UCSORGRIGHT
 10
0.0
 20
0.0
 30
0.0
  9
$UCSORGFRONT
 10
0.0
 20
0.0
 30
0.0
  9
$UCSORGBACK
 10
0.0
 20
0.0
 30
0.0
  9
$PUCSBASE
  2

  9
$PUCSNAME
  2

  9
$PUCSORG
 10
0.0
 20
0.0
 30
0.0
  9
$PUCSXDIR
 10
1.0
 20
0.0
 30
0.0
  9
$PUCSYDIR
 10
0.0
 20
1.0
 30
0.0
  9
$PUCSORTHOREF
  2

  9
$PUCSORTHOVIEW
 70
     0
  9
$PUCSORGTOP
 10
0.0
 20
0.0
 30
0.0
  9
$PUCSORGBOTTOM
 10
0.0
 20
0.0
 30
0.0
  9
$PUCSORGLEFT
 10
0.0
 20
0.0
 30
0.0
  9
$PUCSORGRIGHT
 10
0.0
 20
0.0
 30
0.0
  9
$PUCSORGFRONT
 10
0.0
 20
0.0
 30
0.0
  9
$PUCSORGBACK
 10
0.0
 20
0.0
 30
0.0
  9
$USERI1
 70
     0
  9
$USERI2
 70
     0
  9
$USERI3
 70
     0
  9
$USERI4
 70
     0
  9
$USERI5
 70
     0
  9
$USERR1
 40
14.0
  9
$USERR2
 40
0.0
  9
$USERR3
 40
0.0
  9
$USERR4
 40
0.0
  9
$USERR5
 40
0.0
  9
$WORLDVIEW
 70
     1
  9
$SHADEDGE
 70
     3
  9
$SHADEDIF
 70
    70
  9
$TILEMODE
 70
     1
  9
$MAXACTVP
 70
    64
  9
$PINSBASE
 10
0.0
 20
0.0
 30
0.0
  9
$PLIMCHECK
 70
     0
  9
$PEXTMIN
 10
1.000000000000000E+20
 20
1.000000000000000E+20
 30
1.000000000000000E+20
  9
$PEXTMAX
 10
-1.000000000000000E+20
 20
-1.000000000000000E+20
 30
-1.000000000000000E+20
  9
$PLIMMIN
 10
0.0
 20
0.0
  9
$PLIMMAX
 10
12.0
 20
9.0
  9
$UNITMODE
 70
     0
  9
$VISRETAIN
 70
     1
  9
$PLINEGEN
 70
     0
  9
$PSLTSCALE
 70
     1
  9
$TREEDEPTH
 70
  3020
  9
$CMLSTYLE
  2
Standard
  9
$CMLJUST
 70
     0
  9
$CMLSCALE
 40
1.0
  9
$PROXYGRAPHICS
 70
     1
  9
$MEASUREMENT
 70
     1
  9
$CELWEIGHT
370
    -1
  9
$ENDCAPS
280
     0
  9
$JOINSTYLE
280
     0
  9
$LWDISPLAY
290
     0
  9
$INSUNITS
 70
     1
  9
$HYPERLINKBASE
  1

  9
$STYLESHEET
  1
P社図面.CTB
  9
$XEDIT
290
     1
  9
$CEPSNTYPE
380
     0
  9
$PSTYLEMODE
290
     1
  9
$FINGERPRINTGUID
  2
{C4CA8906-29B9-4E99-BDC5-2398E68825F4}
  9
$VERSIONGUID
  2
{533ACF3B-A2AB-4F23-A405-F085E8B3032B}
  9
$EXTNAMES
290
     1
  9
$PSVPSCALE
 40
0.0
  9
$OLESTARTUP
290
     0
  0
ENDSEC
  0
SECTION
  2
CLASSES
  0
CLASS
  1
ACDBDICTIONARYWDFLT
  2
AcDbDictionaryWithDefault
  3
ObjectDBX Classes
 90
        0
280
     0
281
     0
  0
CLASS
  1

  2
exOdDbCircle
  3

 90
    32768
280
     0
281
     1
  0
CLASS
  1

  2
exOdDbSpline
  3

 90
    32768
280
     0
281
     1
  0
CLASS
  1

  2
exOdDbPolyline
  3

 90
    32768
280
     0
281
     1
  0
CLASS
  1
ACDBPLACEHOLDER
  2
AcDbPlaceHolder
  3
ObjectDBX Classes
 90
        0
280
     0
281
     0
  0
CLASS
  1
LAYOUT
  2
AcDbLayout
  3
ObjectDBX Classes
 90
        0
280
     0
281
     0
  0
CLASS
  1
DICTIONARYVAR
  2
AcDbDictionaryVar
  3
ObjectDBX Classes
 90
        0
280
     0
281
     0
  0
ENDSEC
  0
SECTION
  2
TABLES
  0
TABLE
  2
VPORT
  5
8
330
0
100
AcDbSymbolTable
 70
     3
  0
VPORT
  5
12C9
330
8
100
AcDbSymbolTableRecord
100
AcDbViewportTableRecord
  2
*Active
 70
     0
 10
0.0
 20
0.0
 11
1.0
 21
1.0
 12
-32.82382946158617
 22
-27.04273740333258
 13
0.0
 23
0.0
 14
0.5
 24
0.5
 15
0.5
 25
0.5
 16
0.0
 26
0.0
 36
1.0
 17
0.0
 27
0.0
 37
0.0
 40
466.9098518573784
 41
1.805810397553516
 42
50.0
 43
0.0
 44
0.0
 50
0.0
 51
0.0
 71
     0
 72
   100
 73
     1
 74
     3
 75
     0
 76
     0
 77
     0
 78
     0
281
     0
 65
     1
110
0.0
120
0.0
130
0.0
111
1.0
121
0.0
131
0.0
112
0.0
122
1.0
132
0.0
 79
     0
146
0.0
  0
ENDTAB
  0
TABLE
  2
LTYPE
  5
5
330
0
100
AcDbSymbolTable
 70
     4
  0
LTYPE
  5
14
330
5
100
AcDbSymbolTableRecord
100
AcDbLinetypeTableRecord
  2
ByBlock
 70
     0
  3

 72
    65
 73
     0
 40
0.0
  0
LTYPE
  5
15
330
5
100
AcDbSymbolTableRecord
100
AcDbLinetypeTableRecord
  2
ByLayer
 70
     0
  3

 72
    65
 73
     0
 40
0.0
  0
LTYPE
  5
16
330
5
100
AcDbSymbolTableRecord
100
AcDbLinetypeTableRecord
  2
Continuous
 70
     0
  3
Solid line
 72
    65
 73
     0
 40
0.0
  0
LTYPE
  5
2A
330
5
100
AcDbSymbolTableRecord
100
AcDbLinetypeTableRecord
  2
DASHED
 70
     0
  3
Dashed
 72
    65
 73
     2
 40
15.0
 49
7.0
 74
     0
 49
-8.0
 74
     0
  0
LTYPE
  5
2E
330
5
100
AcDbSymbolTableRecord
100
AcDbLinetypeTableRecord
  2
DASH_CENTER
 70
     0
  3
Dash_Center
 72
    65
 73
     4
 40
14.0
 49
11.0
 74
     0
 49
-1.0
 74
     0
 49
1.0
 74
     0
 49
-1.0
 74
     0
  0
LTYPE
  5
30
330
5
100
AcDbSymbolTableRecord
100
AcDbLinetypeTableRecord
  2
CENTER_DASH_DASH
 70
     0
  3
Center_Dash_Dash
 72
    65
 73
     6
 40
14.0
 49
9.0
 74
     0
 49
-1.0
 74
     0
 49
1.0
 74
     0
 49
-1.0
 74
     0
 49
1.0
 74
     0
 49
-1.0
 74
     0
  0
ENDTAB
  0
TABLE
  2
LAYER
  5
2
330
0
100
AcDbSymbolTable
 70
     3
  0
LAYER
  5
10
330
2
100
AcDbSymbolTableRecord
100
AcDbLayerTableRecord
  2
0
 70
     0
 62
     7
  6
Continuous
370
    -3
390
F
  0
LAYER
  5
31
330
2
100
AcDbSymbolTableRecord
100
AcDbLayerTableRecord
  2
1
 70
     0
 62
     7
  6
Continuous
370
    -3
390
F
  0
LAYER
  5
D3C
330
2
100
AcDbSymbolTableRecord
100
AcDbLayerTableRecord
  2
Defpoints
 70
     0
 62
     7
  6
Continuous
290
     0
370
    -3
390
F
  0
ENDTAB
  0
TABLE
  2
STYLE
  5
3
330
0
100
AcDbSymbolTable
 70
     4
  0
STYLE
  5
11
330
3
100
AcDbSymbolTableRecord
100
AcDbTextStyleTableRecord
  2
Standard
 70
     0
 40
0.0
 41
1.0
 50
0.0
 71
     0
 42
0.2
  3
txt
  4

  0
STYLE
  5
BE
330
3
100
AcDbSymbolTableRecord
100
AcDbTextStyleTableRecord
  2
CONVERTER_1
 70
     0
 40
0.0
 41
0.8009999999999999
 50
0.0
 71
     0
 42
0.2
  3
simplex.shx
  4

  0
STYLE
  5
CB
330
3
100
AcDbSymbolTableRecord
100
AcDbTextStyleTableRecord
  2
CONVERTER_6
 70
     0
 40
0.0
 41
0.89
 50
0.0
 71
     0
 42
0.2
  3
simplex.shx
  4

  0
STYLE
  5
EA
330
3
100
AcDbSymbolTableRecord
100
AcDbTextStyleTableRecord
  2
CONVERTER_16
 70
     0
 40
0.0
 41
0.6230000000000002
 50
0.0
 71
     0
 42
0.2
  3
txt.shx
  4

  0
ENDTAB
  0
TABLE
  2
VIEW
  5
6
330
0
100
AcDbSymbolTable
 70
     0
  0
ENDTAB
  0
TABLE
  2
UCS
  5
7
330
0
100
AcDbSymbolTable
 70
     0
  0
ENDTAB
  0
TABLE
  2
APPID
  5
9
330
0
100
AcDbSymbolTable
 70
     1
  0
APPID
  5
12
330
9
100
AcDbSymbolTableRecord
100
AcDbRegAppTableRecord
  2
ACAD
 70
     0
  0
ENDTAB
  0
TABLE
  2
DIMSTYLE
  5
A
330
0
100
AcDbSymbolTable
 70
     1
100
AcDbDimStyleTable
 71
     1
340
27
  0
DIMSTYLE
105
27
330
A
100
AcDbSymbolTableRecord
100
AcDbDimStyleTableRecord
  2
Standard
 70
     0
340
11
  0
ENDTAB
  0
TABLE
  2
BLOCK_RECORD
  5
1
330
0
100
AcDbSymbolTable
 70
     1
  0
BLOCK_RECORD
  5
1F
330
1
100
AcDbSymbolTableRecord
100
AcDbBlockTableRecord
  2
*Model_Space
340
22
  0
BLOCK_RECORD
  5
1B
330
1
100
AcDbSymbolTableRecord
100
AcDbBlockTableRecord
  2
*Paper_Space
340
1E
  0
BLOCK_RECORD
  5
23
330
1
100
AcDbSymbolTableRecord
100
AcDbBlockTableRecord
  2
*Paper_Space0
340
26
  0
ENDTAB
  0
ENDSEC
  0
SECTION
  2
BLOCKS
  0
BLOCK
  5
20
330
1F
100
AcDbEntity
  8
0
100
AcDbBlockBegin
  2
*Model_Space
 70
     0
 10
0.0
 20
0.0
 30
0.0
  3
*Model_Space
  1

  0
ENDBLK
  5
21
330
1F
100
AcDbEntity
  8
0
100
AcDbBlockEnd
  0
BLOCK
  5
1C
330
1B
100
AcDbEntity
 67
     1
  8
0
100
AcDbBlockBegin
  2
*Paper_Space
 70
     0
 10
0.0
 20
0.0
 30
0.0
  3
*Paper_Space
  1

  0
ENDBLK
  5
1D
330
1B
100
AcDbEntity
 67
     1
  8
0
100
AcDbBlockEnd
  0
BLOCK
  5
24
330
23
100
AcDbEntity
  8
0
100
AcDbBlockBegin
  2
*Paper_Space0
 70
     0
 10
0.0
 20
0.0
 30
0.0
  3
*Paper_Space0
  1

  0
ENDBLK
  5
25
330
23
100
AcDbEntity
  8
0
100
AcDbBlockEnd
  0
ENDSEC
  0
SECTION
  2
ENTITIES
  0
TEXT
  5
80C
330
1F
100
AcDbEntity
  8
0
 62
     2
100
AcDbText
 10
-4.625668682633204
 20
-215.1031825947945
 30
0.0
 40
8.0
  1
ASAMDBS2P300W
 41
0.8009999999999999
  7
CONVERTER_1
100
AcDbText
  0
MTEXT
  5
827
330
1F
100
AcDbEntity
  8
0
 62
     2
100
AcDbMText
 10
205.5000000000006
 20
-255.4997860470252
 30
0.0
 40
4.0
 41
0.0
 71
     5
 72
     1
  1
 
  7
CONVERTER_16
 73
     1
 44
1.32052821128451
1001
ACAD
1000
MTEXTBEGIN
1070
    73
1070
     1
1070
    44
1040
1.32052821128451
1070
    74
1070
     0
1000
MTEXTEND
  0
MTEXT
  5
82F
330
1F
100
AcDbEntity
  8
0
 62
     2
100
AcDbMText
 10
131.5002
 20
-267.9996999999998
 30
0.0
 40
6.0
 41
0.0
 71
     5
 72
     1
  1
 
  7
CONVERTER_6
 73
     1
 44
1.32052821128451
1001
ACAD
1000
MTEXTBEGIN
1070
    73
1070
     1
1070
    44
1040
1.32052821128451
1070
    74
1070
     0
1000
MTEXTEND
  0
MTEXT
  5
830
330
1F
100
AcDbEntity
  8
0
 62
     2
100
AcDbMText
 10
170.5002
 20
-267.9996999999998
 30
0.0
 40
6.0
 41
0.0
 71
     5
 72
     1
  1
 
  7
CONVERTER_6
 73
     1
 44
1.32052821128451
1001
ACAD
1000
MTEXTBEGIN
1070
    73
1070
     1
1070
    44
1040
1.32052821128451
1070
    74
1070
     0
1000
MTEXTEND
  0
MTEXT
  5
831
330
1F
100
AcDbEntity
  8
0
 62
     2
100
AcDbMText
 10
92.50020000000002
 20
-267.9996999999998
 30
0.0
 40
6.0
 41
0.0
 71
     5
 72
     1
  1
 
  7
CONVERTER_6
 73
     1
 44
1.32052821128451
1001
ACAD
1000
MTEXTBEGIN
1070
    73
1070
     1
1070
    44
1040
1.32052821128451
1070
    74
1070
     0
1000
MTEXTEND
  0
MTEXT
  5
832
330
1F
100
AcDbEntity
  8
0
 62
     2
100
AcDbMText
 10
205.5000000000006
 20
-279.9996999999998
 30
0.0
 40
4.0
 41
0.0
 71
     5
 72
     1
  1
 
  7
CONVERTER_16
 73
     1
 44
1.32052821128451
1001
ACAD
1000
MTEXTBEGIN
1070
    73
1070
     1
1070
    44
1040
1.32052821128451
1070
    74
1070
     0
1000
MTEXTEND
  0
MTEXT
  5
833
330
1F
100
AcDbEntity
  8
0
 62
     2
100
AcDbMText
 10
166.5002
 20
-279.9996999999998
 30
0.0
 40
4.0
 41
0.0
 71
     5
 72
     1
  1
 
  7
CONVERTER_16
 73
     1
 44
1.32052821128451
1001
ACAD
1000
MTEXTBEGIN
1070
    73
1070
     1
1070
    44
1040
1.32052821128451
1070
    74
1070
     0
1000
MTEXTEND
  0
MTEXT
  5
834
330
1F
100
AcDbEntity
  8
0
 62
     2
100
AcDbMText
 10
127.5002
 20
-279.9996999999998
 30
0.0
 40
4.0
 41
0.0
 71
     5
 72
     1
  1
 
  7
CONVERTER_16
 73
     1
 44
1.32052821128451
1001
ACAD
1000
MTEXTBEGIN
1070
    73
1070
     1
1070
    44
1040
1.32052821128451
1070
    74
1070
     0
1000
MTEXTEND
  0
MTEXT
  5
835
330
1F
100
AcDbEntity
  8
0
 62
     2
100
AcDbMText
 10
49.50020000000002
 20
-279.9996999999998
 30
0.0
 40
4.0
 41
0.0
 71
     5
 72
     1
  1
 
  7
CONVERTER_16
 73
     1
 44
1.32052821128451
1001
ACAD
1000
MTEXTBEGIN
1070
    73
1070
     1
1070
    44
1040
1.32052821128451
1070
    74
1070
     0
1000
MTEXTEND
  0
MTEXT
  5
836
330
1F
100
AcDbEntity
  8
0
 62
     2
100
AcDbMText
 10
88.50020000000002
 20
-279.9996999999998
 30
0.0
 40
4.0
 41
0.0
 71
     5
 72
     1
  1
 
  7
CONVERTER_16
 73
     1
 44
1.32052821128451
1001
ACAD
1000
MTEXTBEGIN
1070
    73
1070
     1
1070
    44
1040
1.32052821128451
1070
    74
1070
     0
1000
MTEXTEND
  0
MTEXT
  5
837
330
1F
100
AcDbEntity
  8
0
 62
     2
100
AcDbMText
 10
209.5000000000006
 20
-267.9996999999998
 30
0.0
 40
6.0
 41
0.0
 71
     5
 72
     1
  1
 
  7
CONVERTER_6
 73
     1
 44
1.32052821128451
1001
ACAD
1000
MTEXTBEGIN
1070
    73
1070
     1
1070
    44
1040
1.32052821128451
1070
    74
1070
     0
1000
MTEXTEND
  0
MTEXT
  5
838
330
1F
100
AcDbEntity
  8
0
 62
     2
100
AcDbMText
 10
205.5000000000006
 20
-240.9997577209246
 30
0.0
 40
6.0
 41
0.0
 71
     5
 72
     1
  1
 
  7
CONVERTER_6
 73
     1
 44
1.32052821128451
1001
ACAD
1000
MTEXTBEGIN
1070
    73
1070
     1
1070
    44
1040
1.32052821128451
1070
    74
1070
     0
1000
MTEXTEND
  0
POINT
  5
AA2
330
1F
100
AcDbEntity
  8
0
 62
     1
100
AcDbPoint
 10
-248.8885238648277
 20
-170.1031825947945
 30
0.0
  0
POINT
  5
AA3
330
1F
100
AcDbEntity
  8
0
 62
     1
100
AcDbPoint
 10
-137.1049269597637
 20
-170.1031825947945
 30
0.0
  0
LINE
  5
AA6
330
1F
100
AcDbEntity
  8
0
  6
Continuous
 62
     7
100
AcDbLine
 10
105.4020165298384
 20
-49.32909404156426
 30
0.0
 11
105.4020165298384
 21
88.67090595843579
 31
0.0
  0
LINE
  5
AA7
330
1F
100
AcDbEntity
  8
0
  6
DASH_CENTER
 62
     2
100
AcDbLine
 10
272.4020665298384
 20
-167.8031825947945
 30
0.0
 11
272.4020665298384
 21
-175.0410990139121
 31
0.0
  0
LINE
  5
AA8
330
1F
100
AcDbEntity
  8
0
  6
Continuous
 62
     7
100
AcDbLine
 10
272.4020665298384
 20
-167.8031825947945
 30
0.0
 11
277.9020665298384
 21
-167.8031825947945
 31
0.0
  0
LINE
  5
AA9
330
1F
100
AcDbEntity
  8
0
  6
Continuous
 62
     7
100
AcDbLine
 10
272.4020665298384
 20
-167.8031825947945
 30
0.0
 11
286.4020665298383
 21
-167.8031825947945
 31
0.0
  0
LINE
  5
AB0
330
1F
100
AcDbEntity
  8
0
  6
Continuous
 62
     7
100
AcDbLine
 10
279.5833709954702
 20
-132.562924310355
 30
0.0
 11
277.4475457274194
 21
-121.5245909932016
 31
0.0
  0
LINE
  5
AB3
330
1F
100
AcDbEntity
  8
0
  6
Continuous
 62
     7
100
AcDbLine
 10
277.4475457274194
 20
-121.5245909932016
 30
0.0
 11
264.4020665298385
 21
-54.10318259479453
 31
0.0
  0
LINE
  5
AB5
330
1F
100
AcDbEntity
  8
0
  6
Continuous
 62
     7
100
AcDbLine
 10
279.6056131475802
 20
-132.6778757964873
 30
0.0
 11
279.5833709954702
 21
-132.562924310355
 31
0.0
  0
LINE
  5
AED
330
1F
100
AcDbEntity
  8
0
  6
Continuous
 62
     7
100
AcDbLine
 10
279.6056131475802
 20
-132.6778757964873
 30
0.0
 11
286.4020665298383
 21
-167.8031825947945
 31
0.0
  0
LINE
  5
B1A
330
1F
100
AcDbEntity
  8
0
  6
Continuous
 62
     7
100
AcDbLine
 10
187.4020165298384
 20
0.2324570888099
 30
0.0
 11
187.4020165298384
 21
-18.19965230287431
 31
0.0
  0
LINE
  5
B1C
330
1F
100
AcDbEntity
  8
0
  6
Continuous
 62
     7
100
AcDbLine
 10
187.4020165298384
 20
-18.19965230287431
 30
0.0
 11
187.4020165298384
 21
-24.33085329756847
 31
0.0
  0
LINE
  5
B1E
330
1F
100
AcDbEntity
  8
0
  6
DASHED
 62
     2
100
AcDbLine
 10
277.9020665298384
 20
-167.8031825947945
 30
0.0
 11
277.9020665298384
 21
-170.1031825947945
 31
0.0
  0
LINE
  5
B1F
330
1F
100
AcDbEntity
  8
0
  6
Continuous
 62
     7
100
AcDbLine
 10
266.9020665298384
 20
-170.1031825947945
 30
0.0
 11
277.9020665298384
 21
-170.1031825947945
 31
0.0
  0
LINE
  5
B20
330
1F
100
AcDbEntity
  8
0
  6
Continuous
 62
     7
100
AcDbLine
 10
266.9020665298384
 20
-167.8031825947945
 30
0.0
 11
271.4020665298384
 21
-167.8031825947945
 31
0.0
  0
LINE
  5
B21
330
1F
100
AcDbEntity
  8
0
  6
DASHED
 62
     2
100
AcDbLine
 10
266.9020665298384
 20
-167.8031825947945
 30
0.0
 11
266.9020665298384
 21
-170.1031825947945
 31
0.0
  0
LINE
  5
B22
330
1F
100
AcDbEntity
  8
0
  6
DASH_CENTER
 62
     2
100
AcDbLine
 10
272.4020665298384
 20
-165.6398873214152
 30
0.0
 11
272.4020665298384
 21
-167.8031825947945
 31
0.0
  0
LINE
  5
B23
330
1F
100
AcDbEntity
  8
0
  6
Continuous
 62
     7
100
AcDbLine
 10
271.4020665298384
 20
-167.8031825947945
 30
0.0
 11
272.4020665298384
 21
-167.8031825947945
 31
0.0
  0
LINE
  5
B24
330
1F
100
AcDbEntity
  8
0
  6
DASHED
 62
     2
100
AcDbLine
 10
237.9020665298385
 20
-167.8031825947945
 30
0.0
 11
237.9020665298385
 21
-170.1031825947945
 31
0.0
  0
LINE
  5
B25
330
1F
100
AcDbEntity
  8
0
  6
Continuous
 62
     7
100
AcDbLine
 10
226.9020665298385
 20
-170.1031825947945
 30
0.0
 11
237.9020665298385
 21
-170.1031825947945
 31
0.0
  0
LINE
  5
B26
330
1F
100
AcDbEntity
  8
0
  6
Continuous
 62
     7
100
AcDbLine
 10
226.9020665298385
 20
-167.8031825947945
 30
0.0
 11
231.4020665298386
 21
-167.8031825947945
 31
0.0
  0
LINE
  5
B27
330
1F
100
AcDbEntity
  8
0
  6
DASHED
 62
     2
100
AcDbLine
 10
226.9020665298385
 20
-167.8031825947945
 30
0.0
 11
226.9020665298385
 21
-170.1031825947945
 31
0.0
  0
LINE
  5
B28
330
1F
100
AcDbEntity
  8
0
  6
DASH_CENTER
 62
     2
100
AcDbLine
 10
232.4020665298385
 20
-165.6398873214152
 30
0.0
 11
232.4020665298385
 21
-175.0410990139121
 31
0.0
  0
LINE
  5
B29
330
1F
100
AcDbEntity
  8
0
  6
Continuous
 62
     7
100
AcDbLine
 10
231.4020665298386
 20
-167.8031825947945
 30
0.0
 11
237.9020665298385
 21
-167.8031825947945
 31
0.0
  0
LINE
  5
B2A
330
1F
100
AcDbEntity
  8
0
  6
Continuous
 62
     7
100
AcDbLine
 10
197.9020665298385
 20
-170.1031825947945
 30
0.0
 11
286.4020665298383
 21
-170.1031825947945
 31
0.0
  0
LINE
  5
B2B
330
1F
100
AcDbEntity
  8
0
  6
Continuous
 62
     7
100
AcDbLine
 10
197.9020665298385
 20
-167.8031825947945
 30
0.0
 11
272.4020665298384
 21
-167.8031825947945
 31
0.0
  0
LINE
  5
B2C
330
1F
100
AcDbEntity
  8
0
  6
DASHED
 62
     2
100
AcDbLine
 10
197.9020665298385
 20
-167.8031825947945
 30
0.0
 11
197.9020665298385
 21
-170.1031825947945
 31
0.0
  0
LINE
  5
B2D
330
1F
100
AcDbEntity
  8
0
  6
Continuous
 62
     7
100
AcDbLine
 10
186.9020665298385
 20
-170.1031825947945
 30
0.0
 11
197.9020665298385
 21
-170.1031825947945
 31
0.0
  0
LINE
  5
B2E
330
1F
100
AcDbEntity
  8
0
  6
Continuous
 62
     7
100
AcDbLine
 10
186.9020665298385
 20
-167.8031825947945
 30
0.0
 11
191.4020665298386
 21
-167.8031825947945
 31
0.0
  0
LINE
  5
B2F
330
1F
100
AcDbEntity
  8
0
  6
DASHED
 62
     2
100
AcDbLine
 10
186.9020665298385
 20
-167.8031825947945
 30
0.0
 11
186.9020665298385
 21
-170.1031825947945
 31
0.0
  0
LINE
  5
B30
330
1F
100
AcDbEntity
  8
0
  6
DASH_CENTER
 62
     2
100
AcDbLine
 10
192.4020665298385
 20
-165.6398873214152
 30
0.0
 11
192.4020665298385
 21
-175.0410990139121
 31
0.0
  0
LINE
  5
B31
330
1F
100
AcDbEntity
  8
0
  6
Continuous
 62
     7
100
AcDbLine
 10
191.4020665298386
 20
-67.10318259479453
 30
0.0
 11
191.4020665298386
 21
-70.77151166161224
 31
0.0
  0
LINE
  5
B32
330
1F
100
AcDbEntity
  8
0
  6
Continuous
 62
     7
100
AcDbLine
 10
191.4020665298386
 20
-67.10318259479453
 30
0.0
 11
196.4020665298386
 21
-67.10318259479453
 31
0.0
  0
LINE
  5
B33
330
1F
100
AcDbEntity
  8
0
  6
Continuous
 62
     7
100
AcDbLine
 10
196.4020665298386
 20
-53.10318259479453
 30
0.0
 11
196.4020665298386
 21
-67.10318259479453
 31
0.0
  0
LINE
  5
B34
330
1F
100
AcDbEntity
  8
0
  6
Continuous
 62
     7
100
AcDbLine
 10
196.4020665298386
 20
-53.10318259479453
 30
0.0
 11
195.4020165298384
 21
-53.10318259479453
 31
0.0
  0
LINE
  5
B35
330
1F
100
AcDbEntity
  8
0
  6
Continuous
 62
     7
100
AcDbLine
 10
193.7020665298386
 20
-64.40318259479449
 30
0.0
 11
193.7020665298386
 21
-67.10318259479453
 31
0.0
  0
LINE
  5
B36
330
1F
100
AcDbEntity
  8
0
  6
Continuous
 62
     7
100
AcDbLine
 10
196.4020665298386
 20
-53.10318259479453
 30
0.0
 11
250.2445905128871
 21
-53.10318259479453
 31
0.0
  0
LINE
  5
B37
330
1F
100
AcDbEntity
  8
0
  6
Continuous
 62
     7
100
AcDbLine
 10
191.4020665298386
 20
-167.8031825947945
 30
0.0
 11
197.9020665298385
 21
-167.8031825947945
 31
0.0
  0
LINE
  5
B38
330
1F
100
AcDbEntity
  8
0
  6
Continuous
 62
     7
100
AcDbLine
 10
191.4020665298386
 20
-64.10318259479453
 30
0.0
 11
191.4020665298386
 21
-67.10318259479453
 31
0.0
  0
LINE
  5
B39
330
1F
100
AcDbEntity
  8
0
  6
Continuous
 62
     7
100
AcDbLine
 10
264.4020165298384
 20
-53.10318259479453
 30
0.0
 11
264.4020665298385
 21
-54.10318259479453
 31
0.0
  0
LINE
  5
B3A
330
1F
100
AcDbEntity
  8
0
  6
Continuous
 62
     7
100
AcDbLine
 10
286.4020665298383
 20
-167.8031825947945
 30
0.0
 11
286.4020665298383
 21
-170.1031825947945
 31
0.0
  0
LINE
  5
B3B
330
1F
100
AcDbEntity
  8
0
  6
Continuous
 62
     7
100
AcDbLine
 10
176.4020665298385
 20
-167.8031825947945
 30
0.0
 11
176.4020665298385
 21
-170.1031825947945
 31
0.0
  0
LINE
  5
B3C
330
1F
100
AcDbEntity
  8
0
  6
Continuous
 62
     7
100
AcDbLine
 10
176.4020665298385
 20
-167.8031825947945
 30
0.0
 11
186.9020665298385
 21
-167.8031825947945
 31
0.0
  0
LINE
  5
B3D
330
1F
100
AcDbEntity
  8
0
  6
Continuous
 62
     7
100
AcDbLine
 10
176.4020665298385
 20
-170.1031825947945
 30
0.0
 11
186.9020665298385
 21
-170.1031825947945
 31
0.0
  0
LINE
  5
B3E
330
1F
100
AcDbEntity
  8
0
  6
Continuous
 62
     7
100
AcDbLine
 10
195.4020165298384
 20
-53.3772711480247
 30
0.0
 11
195.4020165298386
 21
-44.22816188684516
 31
0.0
  0
LINE
  5
B3F
330
1F
100
AcDbEntity
  8
0
  6
Continuous
 62
     7
100
AcDbLine
 10
194.4020165298385
 20
-54.3772711480247
 30
0.0
 11
195.4020165298384
 21
-54.3772711480247
 31
0.0
  0
LINE
  5
B40
330
1F
100
AcDbEntity
  8
0
  6
Continuous
 62
     7
100
AcDbLine
 10
194.4020165298385
 20
-54.3772711480247
 30
0.0
 11
195.4020165298384
 21
-54.3772711480247
 31
0.0
  0
LINE
  5
B41
330
1F
100
AcDbEntity
  8
0
  6
Continuous
 62
     7
100
AcDbLine
 10
105.4020165298384
 20
154.3087619341985
 30
0.0
 11
105.4020165298384
 21
137.0172632988814
 31
0.0
  0
LINE
  5
B42
330
1F
100
AcDbEntity
  8
0
  6
Continuous
 62
     7
100
AcDbLine
 10
118.4020165298384
 20
167.3087619341985
 30
0.0
 11
170.4020165298384
 21
167.3087619341985
 31
0.0
  0
LINE
  5
B43
330
1F
100
AcDbEntity
  8
0
  6
Continuous
 62
     7
100
AcDbLine
 10
183.4020165298385
 20
154.3087619341985
 30
0.0
 11
183.4020165298385
 21
150.0652815267286
 31
0.0
  0
LINE
  5
B44
330
1F
100
AcDbEntity
  8
0
  6
Continuous
 62
     7
100
AcDbLine
 10
103.9020165298384
 20
137.0172632988814
 30
0.0
 11
103.9020165298384
 21
132.2892090086442
 31
0.0
  0
LINE
  5
B45
330
1F
100
AcDbEntity
  8
0
  6
Continuous
 62
     7
100
AcDbLine
 10
103.9020165298384
 20
137.0172632988814
 30
0.0
 11
105.4020165298384
 21
137.0172632988814
 31
0.0
  0
LINE
  5
B46
330
1F
100
AcDbEntity
  8
0
  6
Continuous
 62
     7
100
AcDbLine
 10
105.4020165298384
 20
137.0172632988814
 30
0.0
 11
105.4020165298384
 21
132.2892090086442
 31
0.0
  0
LINE
  5
B47
330
1F
100
AcDbEntity
  8
0
  6
Continuous
 62
     7
100
AcDbLine
 10
103.9020165298384
 20
132.2892090086442
 30
0.0
 11
105.4020165298384
 21
132.2892090086442
 31
0.0
  0
LINE
  5
B48
330
1F
100
AcDbEntity
  8
0
  6
Continuous
 62
     7
100
AcDbLine
 10
103.9020165298384
 20
132.2892090086442
 30
0.0
 11
103.9020165298385
 21
124.012410367556
 31
0.0
  0
LINE
  5
B49
330
1F
100
AcDbEntity
  8
0
  6
Continuous
 62
     7
100
AcDbLine
 10
105.4020165298384
 20
132.2892090086442
 30
0.0
 11
105.4020165298385
 21
124.012410367556
 31
0.0
  0
LINE
  5
B4A
330
1F
100
AcDbEntity
  8
0
  6
Continuous
 62
     7
100
AcDbLine
 10
103.9020165298385
 20
124.012410367556
 30
0.0
 11
105.4020165298385
 21
124.012410367556
 31
0.0
  0
LINE
  5
B4B
330
1F
100
AcDbEntity
  8
0
  6
Continuous
 62
     7
100
AcDbLine
 10
103.9020165298385
 20
124.012410367556
 30
0.0
 11
103.9020165298384
 21
115.9591322697141
 31
0.0
  0
LINE
  5
B4C
330
1F
100
AcDbEntity
  8
0
  6
Continuous
 62
     7
100
AcDbLine
 10
105.4020165298385
 20
124.012410367556
 30
0.0
 11
105.4020165298384
 21
115.9591322697141
 31
0.0
  0
LINE
  5
B4D
330
1F
100
AcDbEntity
  8
0
  6
Continuous
 62
     7
100
AcDbLine
 10
103.9020165298384
 20
115.9591322697141
 30
0.0
 11
105.4020165298384
 21
115.9591322697141
 31
0.0
  0
LINE
  5
B4E
330
1F
100
AcDbEntity
  8
0
  6
Continuous
 62
     7
100
AcDbLine
 10
105.4020165298384
 20
115.9591322697141
 30
0.0
 11
105.4020165298384
 21
88.67090595843579
 31
0.0
  0
LINE
  5
B4F
330
1F
100
AcDbEntity
  8
0
  6
Continuous
 62
     7
100
AcDbLine
 10
103.4020165298384
 20
86.6709059584358
 30
0.0
 11
101.4020165298384
 21
86.6709059584358
 31
0.0
  0
LINE
  5
B50
330
1F
100
AcDbEntity
  8
0
  6
Continuous
 62
     7
100
AcDbLine
 10
101.4020165298384
 20
86.6709059584358
 30
0.0
 11
101.4020165298384
 21
-47.32909404156425
 31
0.0
  0
LINE
  5
B51
330
1F
100
AcDbEntity
  8
0
  6
Continuous
 62
     7
100
AcDbLine
 10
101.4020165298384
 20
-47.32909404156425
 30
0.0
 11
103.4020165298384
 21
-47.32909404156425
 31
0.0
  0
LINE
  5
B52
330
1F
100
AcDbEntity
  8
0
  6
Continuous
 62
     7
100
AcDbLine
 10
105.4020165298384
 20
-49.32909404156426
 30
0.0
 11
105.4020165298384
 21
-61.95617023746235
 31
0.0
  0
LINE
  5
B53
330
1F
100
AcDbEntity
  8
0
  6
Continuous
 62
     7
100
AcDbLine
 10
185.4020165298384
 20
147.8968174052055
 30
0.0
 11
185.4020165298384
 21
144.3282691753983
 31
0.0
  0
LINE
  5
B54
330
1F
100
AcDbEntity
  8
0
  6
Continuous
 62
     7
100
AcDbLine
 10
189.4020165298385
 20
147.8968174052055
 30
0.0
 11
185.4020165298384
 21
147.8968174052055
 31
0.0
  0
LINE
  5
B55
330
1F
100
AcDbEntity
  8
0
  6
Continuous
 62
     7
100
AcDbLine
 10
185.4020165298384
 20
147.8968174052055
 30
0.0
 11
183.4020165298385
 21
147.8968174052055
 31
0.0
  0
LINE
  5
B56
330
1F
100
AcDbEntity
  8
0
  6
Continuous
 62
     7
100
AcDbLine
 10
189.4020165298385
 20
147.8968174052055
 30
0.0
 11
189.4020165298385
 21
128.0083417781931
 31
0.0
  0
LINE
  5
B57
330
1F
100
AcDbEntity
  8
0
  6
Continuous
 62
     7
100
AcDbLine
 10
185.4020165298384
 20
27.32055016210058
 30
0.0
 11
185.4020165298384
 21
26.99426235127208
 31
0.0
  0
LINE
  5
B58
330
1F
100
AcDbEntity
  8
0
  6
Continuous
 62
     7
100
AcDbLine
 10
185.4020165298384
 20
128.0083417781931
 30
0.0
 11
187.4020165298384
 21
128.0083417781931
 31
0.0
  0
LINE
  5
B59
330
1F
100
AcDbEntity
  8
0
  6
Continuous
 62
     7
100
AcDbLine
 10
189.4020165298385
 20
134.9485643411957
 30
0.0
 11
189.4020165298385
 21
134.472705958436
 31
0.0
  0
LINE
  5
B5A
330
1F
100
AcDbEntity
  8
0
  6
Continuous
 62
     7
100
AcDbLine
 10
189.4020165298385
 20
134.9485643411957
 30
0.0
 11
189.4020165298385
 21
137.2728059584357
 31
0.0
  0
LINE
  5
B5B
330
1F
100
AcDbEntity
  8
0
  6
Continuous
 62
     7
100
AcDbLine
 10
189.4020165298385
 20
140.1709059584359
 30
0.0
 11
189.4020165298385
 21
134.9485643411957
 31
0.0
  0
LINE
  5
B5C
330
1F
100
AcDbEntity
  8
0
  6
Continuous
 62
     7
100
AcDbLine
 10
189.4020165298385
 20
146.6727059584358
 30
0.0
 11
189.4020165298385
 21
140.5728059584359
 31
0.0
  0
LINE
  5
B5D
330
1F
100
AcDbEntity
  8
0
  6
Continuous
 62
     7
100
AcDbLine
 10
190.9020165298384
 20
140.5728059584359
 30
0.0
 11
190.9020165298384
 21
134.472705958436
 31
0.0
  0
LINE
  5
B5E
330
1F
100
AcDbEntity
  8
0
  6
Continuous
 62
     7
100
AcDbLine
 10
190.9020165298384
 20
146.6727059584358
 30
0.0
 11
190.9020165298384
 21
140.9747059584357
 31
0.0
  0
LINE
  5
B5F
330
1F
100
AcDbEntity
  8
0
  6
Continuous
 62
     7
100
AcDbLine
 10
190.9020165298384
 20
140.5728059584359
 30
0.0
 11
189.4020165298385
 21
140.1709059584359
 31
0.0
  0
LINE
  5
B60
330
1F
100
AcDbEntity
  8
0
  6
Continuous
 62
     7
100
AcDbLine
 10
190.9020165298384
 20
140.9747059584357
 30
0.0
 11
189.4020165298385
 21
140.5728059584359
 31
0.0
  0
LINE
  5
B61
330
1F
100
AcDbEntity
  8
0
  6
Continuous
 62
     7
100
AcDbLine
 10
190.9020165298384
 20
134.472705958436
 30
0.0
 11
189.4020165298385
 21
134.472705958436
 31
0.0
  0
LINE
  5
B62
330
1F
100
AcDbEntity
  8
0
  6
Continuous
 62
     7
100
AcDbLine
 10
190.9020165298384
 20
146.6727059584358
 30
0.0
 11
189.4020165298385
 21
146.6727059584358
 31
0.0
  0
LINE
  5
B63
330
1F
100
AcDbEntity
  8
0
  6
Continuous
 62
     7
100
AcDbLine
 10
190.9020165298384
 20
145.8228059584359
 30
0.0
 11
190.9020165298384
 21
135.3228059584359
 31
0.0
  0
LINE
  5
B64
330
1F
100
AcDbEntity
  8
0
  6
Continuous
 62
     7
100
AcDbLine
 10
194.8019165298384
 20
143.7405059584358
 30
0.0
 11
194.8019165298384
 21
137.4050059584359
 31
0.0
  0
LINE
  5
B65
330
1F
100
AcDbEntity
  8
0
  6
Continuous
 62
     7
100
AcDbLine
 10
190.9020165298384
 20
145.8228059584359
 30
0.0
 11
193.0675165298385
 21
145.6333059584357
 31
0.0
  0
LINE
  5
B66
330
1F
100
AcDbEntity
  8
0
  6
Continuous
 62
     7
100
AcDbLine
 10
190.9020165298384
 20
135.3228059584359
 30
0.0
 11
193.0675165298385
 21
135.5122059584359
 31
0.0
  0
LINE
  5
B67
330
1F
100
AcDbEntity
  8
0
  6
CENTER_DASH_DASH
 62
   171
100
AcDbLine
 10
189.5174704842415
 20
133.5728059584359
 30
0.0
 11
189.5174704842415
 21
133.5565468792657
 31
0.0
  0
LINE
  5
B68
330
1F
100
AcDbEntity
  8
0
  6
Continuous
 62
     7
100
AcDbLine
 10
189.4020165298385
 20
133.5584395670438
 30
0.0
 11
189.4020165298385
 21
134.9485643411957
 31
0.0
  0
LINE
  5
B69
330
1F
100
AcDbEntity
  8
0
  6
Continuous
 62
     7
100
AcDbLine
 10
189.4020165298385
 20
143.8728059584358
 30
0.0
 11
189.4020165298385
 21
146.5728059584359
 31
0.0
  0
LINE
  5
B6A
330
1F
100
AcDbEntity
  8
0
  6
Continuous
 62
     7
100
AcDbLine
 10
189.4020165298385
 20
145.1709059584359
 30
0.0
 11
189.4020165298385
 21
134.9485643411957
 31
0.0
  0
LINE
  5
B6B
330
1F
100
AcDbEntity
  8
0
  6
Continuous
 62
     7
100
AcDbLine
 10
195.4020165298384
 20
71.48350387579847
 30
0.0
 11
195.4020165298384
 21
71.00764549303865
 31
0.0
  0
LINE
  5
B6C
330
1F
100
AcDbEntity
  8
0
  6
Continuous
 62
     7
100
AcDbLine
 10
195.4020165298384
 20
71.48350387579847
 30
0.0
 11
195.4020165298384
 21
73.80774549303845
 31
0.0
  0
LINE
  5
B6D
330
1F
100
AcDbEntity
  8
0
  6
Continuous
 62
     7
100
AcDbLine
 10
195.4020165298384
 20
76.70584549303855
 30
0.0
 11
195.4020165298384
 21
71.48350387579847
 31
0.0
  0
LINE
  5
B6E
330
1F
100
AcDbEntity
  8
0
  6
Continuous
 62
     7
100
AcDbLine
 10
195.4020165298384
 20
83.20764549303859
 30
0.0
 11
195.4020165298384
 21
77.10774549303865
 31
0.0
  0
LINE
  5
B6F
330
1F
100
AcDbEntity
  8
0
  6
Continuous
 62
     7
100
AcDbLine
 10
196.9020165298385
 20
77.10774549303865
 30
0.0
 11
196.9020165298385
 21
71.00764549303865
 31
0.0
  0
LINE
  5
B70
330
1F
100
AcDbEntity
  8
0
  6
Continuous
 62
     7
100
AcDbLine
 10
196.9020165298385
 20
83.20764549303859
 30
0.0
 11
196.9020165298385
 21
77.50964549303848
 31
0.0
  0
LINE
  5
B71
330
1F
100
AcDbEntity
  8
0
  6
Continuous
 62
     7
100
AcDbLine
 10
196.9020165298385
 20
77.10774549303865
 30
0.0
 11
195.4020165298384
 21
76.70584549303855
 31
0.0
  0
LINE
  5
B72
330
1F
100
AcDbEntity
  8
0
  6
Continuous
 62
     7
100
AcDbLine
 10
196.9020165298385
 20
77.50964549303848
 30
0.0
 11
195.4020165298384
 21
77.10774549303865
 31
0.0
  0
LINE
  5
B73
330
1F
100
AcDbEntity
  8
0
  6
Continuous
 62
     7
100
AcDbLine
 10
196.9020165298385
 20
71.00764549303865
 30
0.0
 11
195.4020165298384
 21
71.00764549303865
 31
0.0
  0
LINE
  5
B74
330
1F
100
AcDbEntity
  8
0
  6
Continuous
 62
     7
100
AcDbLine
 10
196.9020165298385
 20
83.20764549303859
 30
0.0
 11
195.4020165298384
 21
83.20764549303859
 31
0.0
  0
LINE
  5
B75
330
1F
100
AcDbEntity
  8
0
  6
Continuous
 62
     7
100
AcDbLine
 10
196.9020165298385
 20
82.3577454930386
 30
0.0
 11
196.9020165298385
 21
71.85774549303864
 31
0.0
  0
LINE
  5
B76
330
1F
100
AcDbEntity
  8
0
  6
Continuous
 62
     7
100
AcDbLine
 10
200.8019165298384
 20
80.27544549303859
 30
0.0
 11
200.8019165298384
 21
73.93994549303847
 31
0.0
  0
LINE
  5
B77
330
1F
100
AcDbEntity
  8
0
  6
Continuous
 62
     7
100
AcDbLine
 10
196.9020165298385
 20
82.3577454930386
 30
0.0
 11
199.0675165298385
 21
82.16824549303849
 31
0.0
  0
LINE
  5
B78
330
1F
100
AcDbEntity
  8
0
  6
Continuous
 62
     7
100
AcDbLine
 10
196.9020165298385
 20
71.85774549303864
 30
0.0
 11
199.0675165298385
 21
72.04714549303862
 31
0.0
  0
LINE
  5
B79
330
1F
100
AcDbEntity
  8
0
  6
CENTER_DASH_DASH
 62
   171
100
AcDbLine
 10
195.5174704842415
 20
70.10774549303865
 30
0.0
 11
195.5174704842415
 21
70.0914864138685
 31
0.0
  0
LINE
  5
B7A
330
1F
100
AcDbEntity
  8
0
  6
Continuous
 62
     7
100
AcDbLine
 10
195.4020165298384
 20
70.09337910164656
 30
0.0
 11
195.4020165298384
 21
71.48350387579847
 31
0.0
  0
LINE
  5
B7B
330
1F
100
AcDbEntity
  8
0
  6
Continuous
 62
     7
100
AcDbLine
 10
195.4020165298384
 20
80.4077454930386
 30
0.0
 11
195.4020165298384
 21
83.10774549303861
 31
0.0
  0
LINE
  5
B7C
330
1F
100
AcDbEntity
  8
0
  6
Continuous
 62
     7
100
AcDbLine
 10
195.4020165298384
 20
81.70584549303859
 30
0.0
 11
195.4020165298384
 21
71.48350387579847
 31
0.0
  0
LINE
  5
B7D
330
1F
100
AcDbEntity
  8
0
  6
Continuous
 62
     7
100
AcDbLine
 10
195.4020165298384
 20
93.17090595843579
 30
0.0
 11
195.4020165298384
 21
92.3968174052055
 31
0.0
  0
LINE
  5
B7E
330
1F
100
AcDbEntity
  8
0
  6
Continuous
 62
     7
100
AcDbLine
 10
195.4020165298384
 20
92.3968174052055
 30
0.0
 11
216.4020165298385
 21
92.1987041976584
 31
0.0
  0
LINE
  5
B7F
330
1F
100
AcDbEntity
  8
0
  6
Continuous
 62
     7
100
AcDbLine
 10
195.4020165298384
 20
92.3968174052055
 30
0.0
 11
195.4020165298384
 21
84.02179669725621
 31
0.0
  0
LINE
  5
B80
330
1F
100
AcDbEntity
  8
0
  6
Continuous
 62
     7
100
AcDbLine
 10
304.3448602618718
 20
88.11536782762741
 30
0.0
 11
313.8467473436533
 21
77.52018636715519
 31
0.0
  0
LINE
  5
B81
330
1F
100
AcDbEntity
  8
0
  6
Continuous
 62
     7
100
AcDbLine
 10
296.9944648728823
 20
-51.64476327080348
 30
0.0
 11
264.4020165298384
 21
-51.95223919856807
 31
0.0
  0
LINE
  5
B82
330
1F
100
AcDbEntity
  8
0
  6
Continuous
 62
     7
100
AcDbLine
 10
313.8467473436533
 20
-37.72655155674414
 30
0.0
 11
304.3448602618718
 21
-48.32173301721633
 31
0.0
  0
LINE
  5
B83
330
1F
100
AcDbEntity
  8
0
  6
Continuous
 62
     7
100
AcDbLine
 10
316.4020165298384
 20
-31.05002677884994
 30
0.0
 11
316.4020165298384
 21
70.84366158926099
 31
0.0
  0
LINE
  5
B84
330
1F
100
AcDbEntity
  8
0
  6
Continuous
 62
     7
100
AcDbLine
 10
183.4020165298385
 20
150.0652815267286
 30
0.0
 11
183.4020165298385
 21
-62.00817408324366
 31
0.0
  0
LINE
  5
B85
330
1F
100
AcDbEntity
  8
0
  6
Continuous
 62
     7
100
AcDbLine
 10
187.4020165298384
 20
64.12448810797953
 30
0.0
 11
187.4020165298384
 21
3.65327816137034
 31
0.0
  0
LINE
  5
B86
330
1F
100
AcDbEntity
  8
0
  6
Continuous
 62
     7
100
AcDbLine
 10
195.4020165298384
 20
84.02179669725621
 30
0.0
 11
195.4020165298384
 21
64.12448810797953
 31
0.0
  0
LINE
  5
B87
330
1F
100
AcDbEntity
  8
0
  6
Continuous
 62
     7
100
AcDbLine
 10
195.4020165298384
 20
64.12448810797953
 30
0.0
 11
195.4020165298384
 21
19.67090595843575
 31
0.0
  0
LINE
  5
B88
330
1F
100
AcDbEntity
  8
0
  6
Continuous
 62
     7
100
AcDbLine
 10
187.4020165298384
 20
64.12448810797953
 30
0.0
 11
187.4020165298384
 21
67.41294022699853
 31
0.0
  0
LINE
  5
B89
330
1F
100
AcDbEntity
  8
0
  6
Continuous
 62
     7
100
AcDbLine
 10
187.4020165298384
 20
128.0083417781931
 30
0.0
 11
189.4020165298385
 21
128.0083417781931
 31
0.0
  0
LINE
  5
B8A
330
1F
100
AcDbEntity
  8
0
  6
Continuous
 62
     7
100
AcDbLine
 10
185.4020165298384
 20
64.12448810797953
 30
0.0
 11
185.4020165298384
 21
144.3282691753983
 31
0.0
  0
LINE
  5
B8B
330
1F
100
AcDbEntity
  8
0
  6
Continuous
 62
     7
100
AcDbLine
 10
187.4020165298384
 20
94.1709059584358
 30
0.0
 11
194.4020165298385
 21
94.1709059584358
 31
0.0
  0
LINE
  5
B8C
330
1F
100
AcDbEntity
  8
0
  6
Continuous
 62
     7
100
AcDbLine
 10
187.4020165298384
 20
94.1709059584358
 30
0.0
 11
187.4020165298384
 21
128.0083417781931
 31
0.0
  0
LINE
  5
B8D
330
1F
100
AcDbEntity
  8
0
  6
DASH_CENTER
 62
     2
100
AcDbLine
 10
94.47208542883764
 20
19.89681740520557
 30
0.0
 11
185.4020165298384
 21
19.89681740520557
 31
0.0
  0
LINE
  5
B8E
330
1F
100
AcDbEntity
  8
0
  6
Continuous
 62
     7
100
AcDbLine
 10
185.4020165298384
 20
19.89681740520557
 30
0.0
 11
185.4020165298384
 21
64.12448810797953
 31
0.0
  0
LINE
  5
B8F
330
1F
100
AcDbEntity
  8
0
  6
Continuous
 62
     7
100
AcDbLine
 10
185.4020165298384
 20
3.65327816137034
 30
0.0
 11
185.4020165298384
 21
26.99426235127208
 31
0.0
  0
LINE
  5
B90
330
1F
100
AcDbEntity
  8
0
  6
Continuous
 62
     7
100
AcDbLine
 10
189.4020165298385
 20
-29.46612540842472
 30
0.0
 11
189.4020165298385
 21
-47.6718374874702
 31
0.0
  0
LINE
  5
B91
330
1F
100
AcDbEntity
  8
0
  6
Continuous
 62
     7
100
AcDbLine
 10
195.4020165298384
 20
-31.21401068262748
 30
0.0
 11
195.4020165298384
 21
-31.68986906538743
 31
0.0
  0
LINE
  5
B92
330
1F
100
AcDbEntity
  8
0
  6
Continuous
 62
     7
100
AcDbLine
 10
195.4020165298384
 20
-34.0141106826274
 30
0.0
 11
195.4020165298384
 21
-31.68986906538743
 31
0.0
  0
LINE
  5
B93
330
1F
100
AcDbEntity
  8
0
  6
Continuous
 62
     7
100
AcDbLine
 10
195.4020165298384
 20
-31.68986906538743
 30
0.0
 11
195.4020165298384
 21
-36.91221068262752
 31
0.0
  0
LINE
  5
B94
330
1F
100
AcDbEntity
  8
0
  6
Continuous
 62
     7
100
AcDbLine
 10
195.4020165298384
 20
-37.31411068262759
 30
0.0
 11
195.4020165298384
 21
-43.41401068262753
 31
0.0
  0
LINE
  5
B95
330
1F
100
AcDbEntity
  8
0
  6
Continuous
 62
     7
100
AcDbLine
 10
196.9020165298385
 20
-31.21401068262748
 30
0.0
 11
196.9020165298385
 21
-37.31411068262759
 31
0.0
  0
LINE
  5
B96
330
1F
100
AcDbEntity
  8
0
  6
Continuous
 62
     7
100
AcDbLine
 10
196.9020165298385
 20
-37.71601068262743
 30
0.0
 11
196.9020165298385
 21
-43.41401068262753
 31
0.0
  0
LINE
  5
B97
330
1F
100
AcDbEntity
  8
0
  6
Continuous
 62
     7
100
AcDbLine
 10
195.4020165298384
 20
-36.91221068262752
 30
0.0
 11
196.9020165298385
 21
-37.31411068262759
 31
0.0
  0
LINE
  5
B98
330
1F
100
AcDbEntity
  8
0
  6
Continuous
 62
     7
100
AcDbLine
 10
195.4020165298384
 20
-37.31411068262759
 30
0.0
 11
196.9020165298385
 21
-37.71601068262743
 31
0.0
  0
LINE
  5
B99
330
1F
100
AcDbEntity
  8
0
  6
Continuous
 62
     7
100
AcDbLine
 10
195.4020165298384
 20
-31.21401068262748
 30
0.0
 11
196.9020165298385
 21
-31.21401068262748
 31
0.0
  0
LINE
  5
B9A
330
1F
100
AcDbEntity
  8
0
  6
Continuous
 62
     7
100
AcDbLine
 10
195.4020165298384
 20
-43.41401068262753
 30
0.0
 11
196.9020165298385
 21
-43.41401068262753
 31
0.0
  0
LINE
  5
B9B
330
1F
100
AcDbEntity
  8
0
  6
Continuous
 62
     7
100
AcDbLine
 10
196.9020165298385
 20
-32.0641106826276
 30
0.0
 11
196.9020165298385
 21
-42.56411068262759
 31
0.0
  0
LINE
  5
B9C
330
1F
100
AcDbEntity
  8
0
  6
Continuous
 62
     7
100
AcDbLine
 10
200.8019165298384
 20
-34.14631068262742
 30
0.0
 11
200.8019165298384
 21
-40.48181068262755
 31
0.0
  0
LINE
  5
B9D
330
1F
100
AcDbEntity
  8
0
  6
Continuous
 62
     7
100
AcDbLine
 10
199.0675165298385
 20
-42.3746106826274
 30
0.0
 11
196.9020165298385
 21
-42.56411068262759
 31
0.0
  0
LINE
  5
B9E
330
1F
100
AcDbEntity
  8
0
  6
Continuous
 62
     7
100
AcDbLine
 10
199.0675165298385
 20
-32.25351068262756
 30
0.0
 11
196.9020165298385
 21
-32.0641106826276
 31
0.0
  0
LINE
  5
B9F
330
1F
100
AcDbEntity
  8
0
  6
CENTER_DASH_DASH
 62
   171
100
AcDbLine
 10
195.5174704842415
 20
-30.29785160345745
 30
0.0
 11
195.5174704842415
 21
-30.31411068262759
 31
0.0
  0
LINE
  5
BA0
330
1F
100
AcDbEntity
  8
0
  6
Continuous
 62
     7
100
AcDbLine
 10
195.4020165298384
 20
-31.68986906538743
 30
0.0
 11
195.4020165298384
 21
-30.29974429123554
 31
0.0
  0
LINE
  5
BA1
330
1F
100
AcDbEntity
  8
0
  6
Continuous
 62
     7
100
AcDbLine
 10
195.4020165298384
 20
-43.31411068262759
 30
0.0
 11
195.4020165298384
 21
-40.61411068262754
 31
0.0
  0
LINE
  5
BA2
330
1F
100
AcDbEntity
  8
0
  6
Continuous
 62
     7
100
AcDbLine
 10
195.4020165298384
 20
-31.68986906538743
 30
0.0
 11
195.4020165298384
 21
-41.91221068262752
 31
0.0
  0
LINE
  5
BA3
330
1F
100
AcDbEntity
  8
0
  6
Continuous
 62
     7
100
AcDbLine
 10
189.4020165298385
 20
-34.47429254140361
 30
0.0
 11
189.4020165298385
 21
-34.95015092416355
 31
0.0
  0
LINE
  5
BA4
330
1F
100
AcDbEntity
  8
0
  6
Continuous
 62
     7
100
AcDbLine
 10
189.4020165298385
 20
-37.27439254140353
 30
0.0
 11
189.4020165298385
 21
-34.95015092416355
 31
0.0
  0
LINE
  5
BA5
330
1F
100
AcDbEntity
  8
0
  6
Continuous
 62
     7
100
AcDbLine
 10
189.4020165298385
 20
-34.95015092416355
 30
0.0
 11
189.4020165298385
 21
-40.17249254140364
 31
0.0
  0
LINE
  5
BA6
330
1F
100
AcDbEntity
  8
0
  6
Continuous
 62
     7
100
AcDbLine
 10
189.4020165298385
 20
-40.57439254140371
 30
0.0
 11
189.4020165298385
 21
-46.67429254140365
 31
0.0
  0
LINE
  5
BA7
330
1F
100
AcDbEntity
  8
0
  6
Continuous
 62
     7
100
AcDbLine
 10
190.9020165298384
 20
-34.47429254140361
 30
0.0
 11
190.9020165298384
 21
-40.57439254140371
 31
0.0
  0
LINE
  5
BA8
330
1F
100
AcDbEntity
  8
0
  6
Continuous
 62
     7
100
AcDbLine
 10
190.9020165298384
 20
-40.97629254140353
 30
0.0
 11
190.9020165298384
 21
-46.67429254140365
 31
0.0
  0
LINE
  5
BA9
330
1F
100
AcDbEntity
  8
0
  6
Continuous
 62
     7
100
AcDbLine
 10
189.4020165298385
 20
-40.17249254140364
 30
0.0
 11
190.9020165298384
 21
-40.57439254140371
 31
0.0
  0
LINE
  5
BAA
330
1F
100
AcDbEntity
  8
0
  6
Continuous
 62
     7
100
AcDbLine
 10
189.4020165298385
 20
-40.57439254140371
 30
0.0
 11
190.9020165298384
 21
-40.97629254140353
 31
0.0
  0
LINE
  5
BAB
330
1F
100
AcDbEntity
  8
0
  6
Continuous
 62
     7
100
AcDbLine
 10
189.4020165298385
 20
-34.47429254140361
 30
0.0
 11
190.9020165298384
 21
-34.47429254140361
 31
0.0
  0
LINE
  5
BAC
330
1F
100
AcDbEntity
  8
0
  6
Continuous
 62
     7
100
AcDbLine
 10
189.4020165298385
 20
-46.67429254140365
 30
0.0
 11
190.9020165298384
 21
-46.67429254140365
 31
0.0
  0
LINE
  5
BAD
330
1F
100
AcDbEntity
  8
0
  6
Continuous
 62
     7
100
AcDbLine
 10
190.9020165298384
 20
-35.32439254140371
 30
0.0
 11
190.9020165298384
 21
-45.8243925414037
 31
0.0
  0
LINE
  5
BAE
330
1F
100
AcDbEntity
  8
0
  6
Continuous
 62
     7
100
AcDbLine
 10
194.8019165298384
 20
-37.40659254140354
 30
0.0
 11
194.8019165298384
 21
-43.74209254140366
 31
0.0
  0
LINE
  5
BAF
330
1F
100
AcDbEntity
  8
0
  6
Continuous
 62
     7
100
AcDbLine
 10
193.0675165298385
 20
-45.63489254140352
 30
0.0
 11
190.9020165298384
 21
-45.8243925414037
 31
0.0
  0
LINE
  5
BB0
330
1F
100
AcDbEntity
  8
0
  6
Continuous
 62
     7
100
AcDbLine
 10
193.0675165298385
 20
-35.51379254140369
 30
0.0
 11
190.9020165298384
 21
-35.32439254140371
 31
0.0
  0
LINE
  5
BB1
330
1F
100
AcDbEntity
  8
0
  6
CENTER_DASH_DASH
 62
   171
100
AcDbLine
 10
189.5174704842415
 20
-33.55813346223357
 30
0.0
 11
189.5174704842415
 21
-33.57439254140371
 31
0.0
  0
LINE
  5
BB2
330
1F
100
AcDbEntity
  8
0
  6
Continuous
 62
     7
100
AcDbLine
 10
189.4020165298385
 20
-34.95015092416355
 30
0.0
 11
189.4020165298385
 21
-33.56002615001165
 31
0.0
  0
LINE
  5
BB3
330
1F
100
AcDbEntity
  8
0
  6
Continuous
 62
     7
100
AcDbLine
 10
189.4020165298385
 20
-46.57439254140371
 30
0.0
 11
189.4020165298385
 21
-43.87439254140367
 31
0.0
  0
LINE
  5
BB4
330
1F
100
AcDbEntity
  8
0
  6
Continuous
 62
     7
100
AcDbLine
 10
189.4020165298385
 20
-34.95015092416355
 30
0.0
 11
189.4020165298385
 21
-45.17249254140363
 31
0.0
  0
LINE
  5
BB5
330
1F
100
AcDbEntity
  8
0
  6
Continuous
 62
     7
100
AcDbLine
 10
195.4020165298384
 20
-52.60318259479453
 30
0.0
 11
195.4020165298384
 21
-53.10318259479453
 31
0.0
  0
LINE
  5
BB6
330
1F
100
AcDbEntity
  8
0
  6
Continuous
 62
     7
100
AcDbLine
 10
189.4020165298385
 20
-29.46612540842472
 30
0.0
 11
189.4020165298385
 21
-24.33085329756847
 31
0.0
  0
LINE
  5
BB7
330
1F
100
AcDbEntity
  8
0
  6
Continuous
 62
     7
100
AcDbLine
 10
187.4020165298384
 20
3.65327816137034
 30
0.0
 11
187.4020165298384
 21
0.2324570888099
 31
0.0
  0
LINE
  5
BB8
330
1F
100
AcDbEntity
  8
0
  6
Continuous
 62
     2
100
AcDbLine
 10
194.8020165298381
 20
-44.22816188684516
 30
0.0
 11
195.4020165298386
 21
-44.22816188684516
 31
0.0
  0
LINE
  5
BB9
330
1F
100
AcDbEntity
  8
0
  6
Continuous
 62
     7
100
AcDbLine
 10
195.4020165298384
 20
-24.33085329756847
 30
0.0
 11
195.4020165298386
 21
-44.22816188684516
 31
0.0
  0
LINE
  5
BBB
330
1F
100
AcDbEntity
  8
0
  6
Continuous
 62
     7
100
AcDbLine
 10
195.4020165298384
 20
20.1227288519753
 30
0.0
 11
195.4020165298384
 21
-24.33085329756847
 31
0.0
  0
LINE
  5
BBC
330
1F
100
AcDbEntity
  8
0
  6
Continuous
 62
     7
100
AcDbLine
 10
189.4020165298385
 20
-47.6718374874702
 30
0.0
 11
187.4020165298384
 21
-47.6718374874702
 31
0.0
  0
LINE
  5
BBD
330
1F
100
AcDbEntity
  8
0
  6
Continuous
 62
     7
100
AcDbLine
 10
185.4020165298384
 20
-63.88577606918513
 30
0.0
 11
185.4020165298384
 21
19.89681740520557
 31
0.0
  0
LINE
  5
BBE
330
1F
100
AcDbEntity
  8
0
  6
Continuous
 62
     7
100
AcDbLine
 10
189.4020165298385
 20
-24.33085329756847
 30
0.0
 11
185.4020165298384
 21
-24.33085329756847
 31
0.0
  0
LINE
  5
BBF
330
1F
100
AcDbEntity
  8
0
  6
Continuous
 62
     7
100
AcDbLine
 10
187.4020165298384
 20
-47.6718374874702
 30
0.0
 11
187.4020165298384
 21
-54.3772711480247
 31
0.0
  0
LINE
  5
BC0
330
1F
100
AcDbEntity
  8
0
  6
Continuous
 62
     7
100
AcDbLine
 10
187.4020165298384
 20
-47.6718374874702
 30
0.0
 11
185.4020165298384
 21
-47.6718374874702
 31
0.0
  0
LINE
  5
BC1
330
1F
100
AcDbEntity
  8
0
  6
Continuous
 62
     7
100
AcDbLine
 10
187.4020165298384
 20
-54.3772711480247
 30
0.0
 11
187.4020165298384
 21
-65.95280377219677
 31
0.0
  0
LINE
  5
BC2
330
1F
100
AcDbEntity
  8
0
  6
Continuous
 62
     7
100
AcDbLine
 10
264.4020165298384
 20
-51.95223919856807
 30
0.0
 11
264.4020165298384
 21
-53.10318259479453
 31
0.0
  0
LINE
  5
BC3
330
1F
100
AcDbEntity
  8
0
  6
Continuous
 62
     7
100
AcDbLine
 10
264.4020165298384
 20
-51.95223919856807
 30
0.0
 11
195.4020165298384
 21
-52.60318259479453
 31
0.0
  0
LINE
  5
BC4
330
1F
100
AcDbEntity
  8
0
  6
Continuous
 62
     7
100
AcDbLine
 10
264.4020165298384
 20
-53.10318259479453
 30
0.0
 11
262.511664378956
 21
-53.10318259479453
 31
0.0
  0
LINE
  5
BC5
330
1F
100
AcDbEntity
  8
0
  6
Continuous
 62
     7
100
AcDbLine
 10
195.4020165298384
 20
-53.10318259479453
 30
0.0
 11
195.4020165298384
 21
-53.3772711480247
 31
0.0
  0
LINE
  5
BC6
330
1F
100
AcDbEntity
  8
0
  6
Continuous
 62
     7
100
AcDbLine
 10
262.511664378956
 20
-53.10318259479453
 30
0.0
 11
250.2445905128871
 21
-53.10318259479453
 31
0.0
  0
LINE
  5
BC7
330
1F
100
AcDbEntity
  8
0
  6
DASH_CENTER
 62
     2
100
AcDbLine
 10
324.1952954908259
 20
19.89681740520557
 30
0.0
 11
185.4020165298384
 21
19.89681740520557
 31
0.0
  0
LINE
  5
BC8
330
1F
100
AcDbEntity
  8
0
  6
DASH_CENTER
 62
     2
100
AcDbLine
 10
-89.99672541229577
 20
19.89681740520557
 30
0.0
 11
-89.69672541229583
 21
19.89681740520557
 31
0.0
  0
LINE
  5
BCC
330
1F
100
AcDbEntity
  8
0
  6
Continuous
 62
     7
100
AcDbLine
 10
256.4020165298384
 20
91.82134570709241
 30
0.0
 11
296.9944648728823
 21
91.4383980812145
 31
0.0
  0
LINE
  5
BCD
330
1F
100
AcDbEntity
  8
0
  6
Continuous
 62
     7
100
AcDbLine
 10
256.4020165298384
 20
91.82134570709241
 30
0.0
 11
216.4020165298385
 21
92.1987041976584
 31
0.0
  0
LINE
  5
BCE
330
1F
100
AcDbEntity
  8
0
  6
Continuous
 62
     7
100
AcDbLine
 10
187.4020165298384
 20
-54.3772711480247
 30
0.0
 11
194.4020165298385
 21
-54.3772711480247
 31
0.0
  0
LINE
  5
BCF
330
1F
100
AcDbEntity
  8
0
  6
DASH_CENTER
 62
     2
100
AcDbLine
 10
144.4020165298384
 20
-173.7004157749391
 30
0.0
 11
144.4020165298384
 21
-124.8983087278688
 31
0.0
  0
LINE
  5
BD0
330
1F
100
AcDbEntity
  8
0
  6
Continuous
 62
     7
100
AcDbLine
 10
-33.99672541229599
 20
-162.1031825947945
 30
0.0
 11
-33.99672541229599
 21
-153.1144836388734
 31
0.0
  0
LINE
  5
BD1
330
1F
100
AcDbEntity
  8
0
  6
Continuous
 62
     7
100
AcDbLine
 10
-75.81871139885016
 20
-61.10318259479442
 30
0.0
 11
-36.99672541229599
 21
-61.10318259479442
 31
0.0
  0
LINE
  5
BD2
330
1F
100
AcDbEntity
  8
0
  6
Continuous
 62
     7
100
AcDbLine
 10
-33.99672541229599
 20
-58.10318259479442
 30
0.0
 11
-33.99672541229599
 21
-49.10318259479442
 31
0.0
  0
LINE
  5
BD3
330
1F
100
AcDbEntity
  8
0
  6
Continuous
 62
     7
100
AcDbLine
 10
-31.99672541229599
 20
-47.10318259479442
 30
0.0
 11
-27.99672541229599
 21
-47.10318259479442
 31
0.0
  0
LINE
  5
BD4
330
1F
100
AcDbEntity
  8
0
  6
Continuous
 62
     7
100
AcDbLine
 10
-27.99672541229599
 20
-47.10318259479442
 30
0.0
 11
-27.99672541229599
 21
-164.1031825947945
 31
0.0
  0
LINE
  5
BD5
330
1F
100
AcDbEntity
  8
0
  6
Continuous
 62
     7
100
AcDbLine
 10
-31.99672541229599
 20
-164.1031825947945
 30
0.0
 11
-27.99672541229599
 21
-164.1031825947945
 31
0.0
  0
LINE
  5
BD6
330
1F
100
AcDbEntity
  8
0
  6
Continuous
 62
     7
100
AcDbLine
 10
-33.99672541229599
 20
-58.10318259479442
 30
0.0
 11
-33.99672541229599
 21
-153.1144836388734
 31
0.0
  0
LINE
  5
BD7
330
1F
100
AcDbEntity
  8
0
  6
DASH_CENTER
 62
     2
100
AcDbLine
 10
-47.06748330128495
 20
-105.6031825947944
 30
0.0
 11
-18.68789669527975
 21
-105.6031825947944
 31
0.0
  0
LINE
  5
BD8
330
1F
100
AcDbEntity
  8
0
  6
Continuous
 62
     7
100
AcDbLine
 10
-192.996725412296
 20
-150.7010140279584
 30
0.0
 11
-138.8142462073074
 21
-150.497290825471
 31
0.0
  0
LINE
  5
BD9
330
1F
100
AcDbEntity
  8
0
  6
Continuous
 62
     7
100
AcDbLine
 10
-138.8142462073074
 20
-150.497290825471
 30
0.0
 11
-37.00800517092581
 21
-150.1145048444409
 31
0.0
  0
LINE
  5
BDA
330
1F
100
AcDbEntity
  8
0
  6
Continuous
 62
     7
100
AcDbLine
 10
-181.2941483602417
 20
132.2892090086442
 30
0.0
 11
-185.2153289350265
 21
127.6161279714339
 31
0.0
  0
LINE
  5
BDB
330
1F
100
AcDbEntity
  8
0
  6
Continuous
 62
     7
100
AcDbLine
 10
-207.3773079341033
 20
137.0172632988814
 30
0.0
 11
-206.158614500052
 21
127.0918017824682
 31
0.0
  0
LINE
  5
BDC
330
1F
100
AcDbEntity
  8
0
  6
Continuous
 62
     7
100
AcDbLine
 10
-207.3773079341033
 20
137.0172632988814
 30
0.0
 11
-225.4313108799763
 21
117.6567154490343
 31
0.0
  0
LINE
  5
BDD
330
1F
100
AcDbEntity
  8
0
  6
Continuous
 62
     7
100
AcDbLine
 10
-149.076988367339
 20
124.012410367556
 30
0.0
 11
-155.8344910490066
 21
115.9591322697141
 31
0.0
  0
LINE
  5
BDE
330
1F
100
AcDbEntity
  8
0
  6
Continuous
 62
     7
100
AcDbLine
 10
183.4866993446711
 20
19.89681740520557
 30
0.0
 11
183.4866993446711
 21
147.8968174052055
 31
0.0
  0
LINE
  5
C1A
330
1F
100
AcDbEntity
  8
0
  6
DASH_CENTER
 62
     2
100
AcDbLine
 10
-192.9967254122958
 20
-173.3487242728014
 30
0.0
 11
-192.9967254122955
 21
176.4200059961901
 31
0.0
  0
LINE
  5
C37
330
1F
100
AcDbEntity
  8
0
  6
Continuous
 62
     7
100
AcDbLine
 10
-248.4638321225614
 20
-138.7508965615403
 30
0.0
 11
-250.8375021325574
 21
-165.9768915761953
 31
0.0
  0
LINE
  5
C38
330
1F
100
AcDbEntity
  8
0
  6
Continuous
 62
     7
100
AcDbLine
 10
-276.4967254122958
 20
-170.1031825947945
 30
0.0
 11
-252.5549613386853
 21
-170.1031825947945
 31
0.0
  0
LINE
  5
C39
330
1F
100
AcDbEntity
  8
0
  6
DASHED
 62
     2
100
AcDbLine
 10
-257.4967254122958
 20
-167.8031825947945
 30
0.0
 11
-257.4967254122958
 21
-170.1031825947945
 31
0.0
  0
LINE
  5
C3A
330
1F
100
AcDbEntity
  8
0
  6
DASHED
 62
     7
100
AcDbLine
 10
-268.4967254122958
 20
-167.8031825947945
 30
0.0
 11
-263.9967254122956
 21
-167.8031825947945
 31
0.0
  0
LINE
  5
C3B
330
1F
100
AcDbEntity
  8
0
  6
DASHED
 62
     2
100
AcDbLine
 10
-268.4967254122958
 20
-167.8031825947945
 30
0.0
 11
-268.4967254122958
 21
-170.1031825947945
 31
0.0
  0
LINE
  5
C3C
330
1F
100
AcDbEntity
  8
0
  6
Continuous
 62
     7
100
AcDbLine
 10
-263.9967254122956
 20
-167.8031825947945
 30
0.0
 11
-257.4967254122958
 21
-167.8031825947945
 31
0.0
  0
LINE
  5
C3D
330
1F
100
AcDbEntity
  8
0
  6
Continuous
 62
     7
100
AcDbLine
 10
-276.4967254122958
 20
-167.8031825947945
 30
0.0
 11
-276.4967254122958
 21
-170.1031825947945
 31
0.0
  0
LINE
  5
C3E
330
1F
100
AcDbEntity
  8
0
  6
Continuous
 62
     7
100
AcDbLine
 10
-252.8299441492246
 20
-167.8031825947945
 30
0.0
 11
-276.4967254122958
 21
-167.8031825947945
 31
0.0
  0
LINE
  5
C3F
330
1F
100
AcDbEntity
  8
0
  6
Continuous
 62
     7
100
AcDbLine
 10
-238.4146708079083
 20
-155.1031825947945
 30
0.0
 11
-192.9967254122958
 21
-155.1031825947945
 31
0.0
  0
LINE
  5
C40
330
1F
100
AcDbEntity
  8
0
  6
Continuous
 62
     7
100
AcDbLine
 10
-192.9967254122958
 20
-155.1031825947945
 30
0.0
 11
-147.5787800166832
 21
-155.1031825947945
 31
0.0
  0
LINE
  5
C41
330
1F
100
AcDbEntity
  8
0
  6
Continuous
 62
     7
100
AcDbLine
 10
-135.155948692034
 20
-165.9768915761953
 30
0.0
 11
-136.5062781241495
 21
-150.4886129898304
 31
0.0
  0
LINE
  5
C42
330
1F
100
AcDbEntity
  8
0
  6
Continuous
 62
     7
100
AcDbLine
 10
-133.4384894859061
 20
-170.1031825947945
 30
0.0
 11
-109.4967254122957
 21
-170.1031825947945
 31
0.0
  0
LINE
  5
C43
330
1F
100
AcDbEntity
  8
0
  6
DASHED
 62
     2
100
AcDbLine
 10
-128.4967254122958
 20
-170.1031825947945
 30
0.0
 11
-128.4967254122958
 21
-167.8031825947945
 31
0.0
  0
LINE
  5
C44
330
1F
100
AcDbEntity
  8
0
  6
DASHED
 62
     7
100
AcDbLine
 10
-121.9967254122958
 20
-167.8031825947945
 30
0.0
 11
-117.4967254122957
 21
-167.8031825947945
 31
0.0
  0
LINE
  5
C45
330
1F
100
AcDbEntity
  8
0
  6
DASHED
 62
     2
100
AcDbLine
 10
-117.4967254122957
 20
-170.1031825947945
 30
0.0
 11
-117.4967254122957
 21
-167.8031825947945
 31
0.0
  0
LINE
  5
C46
330
1F
100
AcDbEntity
  8
0
  6
DASH_CENTER
 62
     2
100
AcDbLine
 10
-122.9967254122957
 20
-175.0410990139121
 30
0.0
 11
-122.9967254122957
 21
-165.6398873214152
 31
0.0
  0
LINE
  5
C47
330
1F
100
AcDbEntity
  8
0
  6
Continuous
 62
     7
100
AcDbLine
 10
-128.4967254122958
 20
-167.8031825947945
 30
0.0
 11
-121.9967254122958
 21
-167.8031825947945
 31
0.0
  0
LINE
  5
C48
330
1F
100
AcDbEntity
  8
0
  6
Continuous
 62
     7
100
AcDbLine
 10
-137.4233735192404
 20
-166.4506005575961
 30
0.0
 11
-137.6165699333474
 21
-164.2346376877906
 31
0.0
  0
LINE
  5
C49
330
1F
100
AcDbEntity
  8
0
  6
Continuous
 62
     7
100
AcDbLine
 10
-109.4967254122957
 20
-170.1031825947945
 30
0.0
 11
-109.4967254122956
 21
-167.8031825947945
 31
0.0
  0
LINE
  5
C4A
330
1F
100
AcDbEntity
  8
0
  6
Continuous
 62
     7
100
AcDbLine
 10
-109.4967254122956
 20
-167.8031825947945
 30
0.0
 11
-133.1635066753668
 21
-167.8031825947945
 31
0.0
  0
LINE
  5
C4B
330
1F
100
AcDbEntity
  8
0
  6
DASH_CENTER
 62
     2
100
AcDbLine
 10
-262.9967254122958
 20
-165.6398873214152
 30
0.0
 11
-262.9967254122958
 21
-175.0410990139121
 31
0.0
  0
LINE
  5
C51
330
1F
100
AcDbEntity
  8
0
  6
Continuous
 62
     7
100
AcDbLine
 10
191.4020665298386
 20
-140.3778900232717
 30
0.0
 11
191.4020665298386
 21
-167.8031825947945
 31
0.0
  0
LINE
  5
C52
330
1F
100
AcDbEntity
  8
0
  6
DASH_CENTER
 62
     2
100
AcDbLine
 10
100.506632629751
 20
-149.4517931558461
 30
0.0
 11
112.0148069736469
 21
-137.9436188119502
 31
0.0
  0
LINE
  5
C53
330
1F
100
AcDbEntity
  8
0
  6
DASH_CENTER
 62
     2
100
AcDbLine
 10
100.434830956294
 20
-61.6473657260829
 30
0.0
 11
113.3341032978039
 21
-74.54663806759281
 31
0.0
  0
LINE
  5
C54
330
1F
100
AcDbEntity
  8
0
  6
DASH_CENTER
 62
     2
100
AcDbLine
 10
177.0716842793829
 20
-138.2842190491719
 30
0.0
 11
188.5798586232791
 21
-149.7923933930679
 31
0.0
  0
LINE
  5
C55
330
1F
100
AcDbEntity
  8
0
  6
DASH_CENTER
 62
     2
100
AcDbLine
 10
176.3847052268686
 20
-73.57372055872854
 30
0.0
 11
190.2956852030068
 21
-59.6627405825904
 31
0.0
  0
LINE
  5
C56
330
1F
100
AcDbEntity
  8
0
  6
DASH_CENTER
 62
     2
100
AcDbLine
 10
144.372945507904
 20
-168.9827134578376
 30
0.0
 11
144.372945507904
 21
-41.98060641076728
 31
0.0
  0
LINE
  5
C57
330
1F
100
AcDbEntity
  8
0
  6
DASH_CENTER
 62
     2
100
AcDbLine
 10
81.48591799211192
 20
-105.5854802776931
 30
0.0
 11
206.3504390542442
 21
-105.5854802776931
 31
0.0
  0
LINE
  5
C58
330
1F
100
AcDbEntity
  8
1
  6
DASH_CENTER
 62
     2
100
AcDbLine
 10
-365.562213975654
 20
19.89681740520557
 30
0.0
 11
-43.2926846259718
 21
19.89681740520557
 31
0.0
  0
LINE
  5
C59
330
1F
100
AcDbEntity
  8
0
  6
Continuous
 62
     7
100
AcDbLine
 10
189.4020165298385
 20
87.3014158540109
 30
0.0
 11
185.4020165298384
 21
87.3014158540109
 31
0.0
  0
LINE
  5
C5A
330
1F
100
AcDbEntity
  8
0
  6
Continuous
 62
     7
100
AcDbLine
 10
187.4020165298384
 20
32.9449945116661
 30
0.0
 11
187.4020165298384
 21
66.78243033142341
 31
0.0
  0
LINE
  5
C5B
330
1F
100
AcDbEntity
  8
0
  6
Continuous
 62
     7
100
AcDbLine
 10
187.4020165298384
 20
67.41294022699853
 30
0.0
 11
189.4020165298385
 21
67.41294022699853
 31
0.0
  0
LINE
  5
C5C
330
1F
100
AcDbEntity
  8
0
  6
Continuous
 62
     7
100
AcDbLine
 10
185.4020165298384
 20
67.41294022699853
 30
0.0
 11
187.4020165298384
 21
67.41294022699853
 31
0.0
  0
LINE
  5
C5D
330
1F
100
AcDbEntity
  8
0
  6
Continuous
 62
     7
100
AcDbLine
 10
189.4020165298385
 20
87.3014158540109
 30
0.0
 11
189.4020165298385
 21
67.41294022699853
 31
0.0
  0
LINE
  5
C5E
330
1F
100
AcDbEntity
  8
0
  6
Continuous
 62
     7
100
AcDbLine
 10
190.9020165298384
 20
86.07730440724122
 30
0.0
 11
189.4020165298385
 21
86.07730440724122
 31
0.0
  0
LINE
  5
C5F
330
1F
100
AcDbEntity
  8
0
  6
Continuous
 62
     7
100
AcDbLine
 10
189.4020165298385
 20
86.07730440724122
 30
0.0
 11
189.4020165298385
 21
79.97740440724131
 31
0.0
  0
LINE
  5
C60
330
1F
100
AcDbEntity
  8
0
  6
Continuous
 62
     7
100
AcDbLine
 10
190.9020165298384
 20
86.07730440724122
 30
0.0
 11
190.9020165298384
 21
80.37930440724109
 31
0.0
  0
LINE
  5
C61
330
1F
100
AcDbEntity
  8
0
  6
Continuous
 62
     7
100
AcDbLine
 10
189.4020165298385
 20
72.96303801584919
 30
0.0
 11
189.4020165298385
 21
74.35316279000111
 31
0.0
  0
LINE
  5
C62
330
1F
100
AcDbEntity
  8
0
  6
CENTER_DASH_DASH
 62
   171
100
AcDbLine
 10
189.5174704842415
 20
72.97740440724131
 30
0.0
 11
189.5174704842415
 21
72.96114532807113
 31
0.0
  0
LINE
  5
C63
330
1F
100
AcDbEntity
  8
0
  6
Continuous
 62
     7
100
AcDbLine
 10
190.9020165298384
 20
74.7274044072413
 30
0.0
 11
193.0675165298385
 21
74.91680440724133
 31
0.0
  0
LINE
  5
C64
330
1F
100
AcDbEntity
  8
0
  6
Continuous
 62
     7
100
AcDbLine
 10
190.9020165298384
 20
73.8773044072414
 30
0.0
 11
189.4020165298385
 21
73.8773044072414
 31
0.0
  0
LINE
  5
C65
330
1F
100
AcDbEntity
  8
0
  6
Continuous
 62
     7
100
AcDbLine
 10
190.9020165298384
 20
80.37930440724109
 30
0.0
 11
189.4020165298385
 21
79.97740440724131
 31
0.0
  0
LINE
  5
C66
330
1F
100
AcDbEntity
  8
0
  6
Continuous
 62
     7
100
AcDbLine
 10
190.9020165298384
 20
79.97740440724131
 30
0.0
 11
189.4020165298385
 21
79.57550440724144
 31
0.0
  0
LINE
  5
C67
330
1F
100
AcDbEntity
  8
0
  6
Continuous
 62
     7
100
AcDbLine
 10
190.9020165298384
 20
79.97740440724131
 30
0.0
 11
190.9020165298384
 21
73.8773044072414
 31
0.0
  0
LINE
  5
C68
330
1F
100
AcDbEntity
  8
0
  6
Continuous
 62
     7
100
AcDbLine
 10
189.4020165298385
 20
79.57550440724144
 30
0.0
 11
189.4020165298385
 21
74.35316279000111
 31
0.0
  0
LINE
  5
C69
330
1F
100
AcDbEntity
  8
0
  6
Continuous
 62
     7
100
AcDbLine
 10
189.4020165298385
 20
74.35316279000111
 30
0.0
 11
189.4020165298385
 21
76.67740440724111
 31
0.0
  0
LINE
  5
C6A
330
1F
100
AcDbEntity
  8
0
  6
Continuous
 62
     7
100
AcDbLine
 10
189.4020165298385
 20
74.35316279000111
 30
0.0
 11
189.4020165298385
 21
73.8773044072414
 31
0.0
  0
LINE
  5
C6B
330
1F
100
AcDbEntity
  8
0
  6
Continuous
 62
     7
100
AcDbLine
 10
194.8019165298384
 20
83.1451044072412
 30
0.0
 11
194.8019165298384
 21
76.80960440724131
 31
0.0
  0
LINE
  5
C6C
330
1F
100
AcDbEntity
  8
0
  6
Continuous
 62
     7
100
AcDbLine
 10
190.9020165298384
 20
85.22740440724129
 30
0.0
 11
193.0675165298385
 21
85.0379044072411
 31
0.0
  0
LINE
  5
C6D
330
1F
100
AcDbEntity
  8
0
  6
Continuous
 62
     7
100
AcDbLine
 10
187.4020165298384
 20
87.3014158540109
 30
0.0
 11
187.4020165298384
 21
94.1709059584358
 31
0.0
  0
ARC
  5
C78
330
1F
100
AcDbEntity
  8
0
  6
Continuous
 62
     7
100
AcDbCircle
 10
192.9019970131725
 20
143.7405272587561
 30
0.0
 40
1.900019516785245
100
AcDbArc
 50
359.9993576810951
 51
84.99630987471055
  0
ARC
  5
C79
330
1F
100
AcDbEntity
  8
0
  6
Continuous
 62
     7
100
AcDbCircle
 10
192.9020468230019
 20
137.4050390183853
 30
0.0
 40
1.899969707124108
100
AcDbArc
 50
275.0023138190536
 51
359.9990030390662
  0
ARC
  5
C7A
330
1F
100
AcDbEntity
  8
0
  6
Continuous
 62
     7
100
AcDbCircle
 10
198.9019970131725
 20
80.27546679335889
 30
0.0
 40
1.900019516785245
100
AcDbArc
 50
359.9993576810954
 51
84.99630987471055
  0
ARC
  5
C7B
330
1F
100
AcDbEntity
  8
0
  6
Continuous
 62
     7
100
AcDbCircle
 10
198.902046823002
 20
73.93997855298801
 30
0.0
 40
1.899969707123984
100
AcDbArc
 50
275.0023138190505
 51
359.9990030390628
  0
ARC
  5
C7C
330
1F
100
AcDbEntity
  8
0
  6
Continuous
 62
     7
100
AcDbCircle
 10
198.9019970131725
 20
-40.48183198294782
 30
0.0
 40
1.900019516785234
100
AcDbArc
 50
275.0036901252886
 51
0.0006423189041
  0
ARC
  5
C7D
330
1F
100
AcDbEntity
  8
0
  6
Continuous
 62
     7
100
AcDbCircle
 10
198.902046823002
 20
-34.14634374257696
 30
0.0
 40
1.89996970712397
100
AcDbArc
 50
0.000996960937
 51
84.9976861809495
  0
ARC
  5
C7E
330
1F
100
AcDbEntity
  8
0
  6
Continuous
 62
     7
100
AcDbCircle
 10
192.9019970131725
 20
-43.74211384172393
 30
0.0
 40
1.900019516785225
100
AcDbArc
 50
275.0036901252887
 51
0.00064231890388
  0
ARC
  5
C7F
330
1F
100
AcDbEntity
  8
0
  6
Continuous
 62
     7
100
AcDbCircle
 10
192.902046823002
 20
-37.40662560135309
 30
0.0
 40
1.89996970712397
100
AcDbArc
 50
0.00099696093721
 51
84.9976861809495
  0
ARC
  5
C80
330
1F
100
AcDbEntity
  8
0
  6
Continuous
 62
     7
100
AcDbCircle
 10
-189.996725412296
 20
23.17090595843587
 30
0.0
 40
134.0000000000002
100
AcDbArc
 50
325.2276530911917
 51
358.5999244321969
  0
ARC
  5
C81
330
1F
100
AcDbEntity
  8
0
  6
Continuous
 62
     7
100
AcDbCircle
 10
-197.996725412296
 20
25.3968174052057
 30
0.0
 40
142.0
100
AcDbArc
 50
90.0
 51
95.16318620986419
  0
ARC
  5
C82
330
1F
100
AcDbEntity
  8
0
  6
Continuous
 62
     7
100
AcDbCircle
 10
-186.496725412296
 20
14.17090595843587
 30
0.0
 40
165.0000000000001
100
AcDbArc
 50
258.2648818270988
 51
267.7423093322758
  0
ARC
  5
C83
330
1F
100
AcDbEntity
  8
0
  6
Continuous
 62
     7
100
AcDbCircle
 10
-192.9967254122958
 20
19.89681740520557
 30
0.0
 40
112.9999999999999
100
AcDbArc
 50
67.12821691640487
 51
84.05564022761264
  0
ARC
  5
C84
330
1F
100
AcDbEntity
  8
0
  6
Continuous
 62
     7
100
AcDbCircle
 10
-192.9967254122958
 20
19.89681740520557
 30
0.0
 40
108.0
100
AcDbArc
 50
85.86826090379627
 51
97.00000000000017
  0
ARC
  5
C85
330
1F
100
AcDbEntity
  8
0
  6
Continuous
 62
     7
100
AcDbCircle
 10
-192.9967254122958
 20
19.89681740520557
 30
0.0
 40
103.0
100
AcDbArc
 50
68.85076390637519
 51
108.3547098667915
  0
ARC
  5
C86
330
1F
100
AcDbEntity
  8
0
  6
Continuous
 62
     7
100
AcDbCircle
 10
-197.996725412296
 20
25.3968174052057
 30
0.0
 40
142.0
100
AcDbArc
 50
87.98212585703989
 51
90.0
  0
ARC
  5
C87
330
1F
100
AcDbEntity
  8
0
  6
Continuous
 62
     7
100
AcDbCircle
 10
-186.496725412296
 20
14.17090595843587
 30
0.0
 40
164.9999999999999
100
AcDbArc
 50
178.0112942867606
 51
258.2648818270988
  0
ARC
  5
C88
330
1F
100
AcDbEntity
  8
0
  6
Continuous
 62
     7
100
AcDbCircle
 10
-200.496725412296
 20
16.17090595843587
 30
0.0
 40
151.0000000000001
100
AcDbArc
 50
93.90329065380102
 51
178.5860882814509
  0
ARC
  5
C89
330
1F
100
AcDbEntity
  8
0
  6
Continuous
 62
     7
100
AcDbCircle
 10
-197.996725412296
 20
25.3968174052057
 30
0.0
 40
141.9999999999999
100
AcDbArc
 50
357.7802420234025
 51
87.98212585703989
  0
ARC
  5
C8C
330
1F
100
AcDbEntity
  8
0
  6
DASH_CENTER
 62
     2
100
AcDbCircle
 10
-192.9967254122958
 20
19.67090595843575
 30
0.0
 40
61.00000000000011
100
AcDbArc
 50
342.3116441447679
 51
13.40057906131479
  0
ARC
  5
C8D
330
1F
100
AcDbEntity
  8
0
  6
DASH_CENTER
 62
     2
100
AcDbCircle
 10
-192.7708139655261
 20
19.89681740520557
 30
0.0
 40
60.99999999999992
100
AcDbArc
 50
72.31164414476772
 51
103.4005790613147
  0
ARC
  5
C8E
330
1F
100
AcDbEntity
  8
0
  6
DASH_CENTER
 62
     2
100
AcDbCircle
 10
-192.9967254122958
 20
20.1227288519753
 30
0.0
 40
60.99999999999999
100
AcDbArc
 50
162.3116441447679
 51
193.4005790613147
  0
ARC
  5
C8F
330
1F
100
AcDbEntity
  8
0
  6
DASH_CENTER
 62
     2
100
AcDbCircle
 10
-193.2226368590656
 20
19.89681740520547
 30
0.0
 40
60.99999999999989
100
AcDbArc
 50
252.3116441447678
 51
283.4005790613147
  0
ARC
  5
CA4
330
1F
100
AcDbEntity
  8
0
  6
Continuous
 62
     2
100
AcDbCircle
 10
144.372945507904
 20
-105.5854802776931
 30
0.0
 40
52.50000000000005
100
AcDbArc
 50
118.5735785965234
 51
151.4264214034762
  0
ARC
  5
CA5
330
1F
100
AcDbEntity
  8
0
  6
Continuous
 62
     2
100
AcDbCircle
 10
144.372945507904
 20
-105.5854802776931
 30
0.0
 40
52.49999999999991
100
AcDbArc
 50
208.5735785965235
 51
241.4264214034764
  0
ARC
  5
CA6
330
1F
100
AcDbEntity
  8
0
  6
Continuous
 62
     2
100
AcDbCircle
 10
144.372945507904
 20
-105.5854802776931
 30
0.0
 40
52.5
100
AcDbArc
 50
28.57357859652367
 51
61.42642140347621
  0
ARC
  5
CA7
330
1F
100
AcDbEntity
  8
0
  6
Continuous
 62
     7
100
AcDbCircle
 10
144.372945507904
 20
-105.5854802776931
 30
0.0
 40
58.50000000000004
100
AcDbArc
 50
42.68917271661908
 51
45.50438294518936
  0
ARC
  5
CA8
330
1F
100
AcDbEntity
  8
0
  6
Continuous
 62
     7
100
AcDbCircle
 10
144.372945507904
 20
-105.5854802776931
 30
0.0
 40
58.50000000000002
100
AcDbArc
 50
45.50438294518936
 51
42.68917271661908
  0
ARC
  5
CA9
330
1F
100
AcDbEntity
  8
0
  6
Continuous
 62
     2
100
AcDbCircle
 10
144.372945507904
 20
-105.5854802776931
 30
0.0
 40
52.49999999999995
100
AcDbArc
 50
298.5735785965237
 51
331.4264214034764
  0
ARC
  5
CAA
330
1F
100
AcDbEntity
  8
0
  6
Continuous
 62
     7
100
AcDbCircle
 10
192.9020468230019
 20
76.80963746719074
 30
0.0
 40
1.899969707124092
100
AcDbArc
 50
275.0023138190536
 51
359.9990030390666
  0
ARC
  5
CAB
330
1F
100
AcDbEntity
  8
0
  6
Continuous
 62
     7
100
AcDbCircle
 10
192.9019970131725
 20
83.14512570756148
 30
0.0
 40
1.900019516785245
100
AcDbArc
 50
359.9993576810954
 51
84.99630987471055
  0
CIRCLE
  5
CB0
330
1F
100
AcDbEntity
  8
0
  6
Continuous
 62
     7
100
AcDbCircle
 10
-192.9967254122958
 20
19.89681740520557
 30
0.0
 40
120.5
  0
CIRCLE
  5
CB7
330
1F
100
AcDbEntity
  8
0
  6
Continuous
 62
     7
100
AcDbCircle
 10
-131.9967254122958
 20
19.67090595843575
 30
0.0
 40
2.09999999999998
  0
CIRCLE
  5
CB8
330
1F
100
AcDbEntity
  8
0
  6
Continuous
 62
     7
100
AcDbCircle
 10
-192.9967254122958
 20
19.67090595843575
 30
0.0
 40
67.0
  0
CIRCLE
  5
CB9
330
1F
100
AcDbEntity
  8
0
  6
Continuous
 62
     2
100
AcDbCircle
 10
-131.9967254122958
 20
19.67090595843575
 30
0.0
 40
2.50000000000001
  0
CIRCLE
  5
CBA
330
1F
100
AcDbEntity
  8
0
  6
Continuous
 62
     2
100
AcDbCircle
 10
-192.7708139655261
 20
80.89681740520545
 30
0.0
 40
2.5
  0
CIRCLE
  5
CBB
330
1F
100
AcDbEntity
  8
0
  6
Continuous
 62
     7
100
AcDbCircle
 10
-192.7708139655261
 20
80.89681740520545
 30
0.0
 40
2.099999999999909
  0
CIRCLE
  5
CBC
330
1F
100
AcDbEntity
  8
0
  6
Continuous
 62
     2
100
AcDbCircle
 10
-253.9967254122958
 20
20.1227288519753
 30
0.0
 40
2.5
  0
CIRCLE
  5
CBD
330
1F
100
AcDbEntity
  8
0
  6
Continuous
 62
     7
100
AcDbCircle
 10
-253.9967254122958
 20
20.1227288519753
 30
0.0
 40
2.10000000000003
  0
CIRCLE
  5
CBE
330
1F
100
AcDbEntity
  8
0
  6
Continuous
 62
     2
100
AcDbCircle
 10
-193.2226368590656
 20
-41.1031825947944
 30
0.0
 40
2.500000000000114
  0
CIRCLE
  5
CBF
330
1F
100
AcDbEntity
  8
0
  6
Continuous
 62
     7
100
AcDbCircle
 10
-193.2226368590656
 20
-41.1031825947944
 30
0.0
 40
2.099999999999992
  0
CIRCLE
  5
CC0
330
1F
100
AcDbEntity
  8
0
  6
Continuous
 62
     7
100
AcDbCircle
 10
-192.9967254122958
 20
19.89681740520557
 30
0.0
 40
50.0
  0
CIRCLE
  5
CC2
330
1F
100
AcDbEntity
  8
0
  6
Continuous
 62
     7
100
AcDbCircle
 10
144.372945507904
 20
-105.5854802776931
 30
0.0
 40
41.5
  0
CIRCLE
  5
CC3
330
1F
100
AcDbEntity
  8
0
  6
Continuous
 62
     7
100
AcDbCircle
 10
181.4960515201979
 20
-68.46237426539932
 30
0.0
 40
2.5
  0
CIRCLE
  5
CC4
330
1F
100
AcDbEntity
  8
0
  6
Continuous
 62
     7
100
AcDbCircle
 10
181.4960515201979
 20
-68.46237426539932
 30
0.0
 40
2.099999999999879
  0
CIRCLE
  5
CC5
330
1F
100
AcDbEntity
  8
0
  6
Continuous
 62
     7
100
AcDbCircle
 10
107.2498394956104
 20
-68.46237426539932
 30
0.0
 40
2.5
  0
CIRCLE
  5
CC6
330
1F
100
AcDbEntity
  8
0
  6
Continuous
 62
     7
100
AcDbCircle
 10
107.2498394956104
 20
-68.46237426539932
 30
0.0
 40
2.100000000000023
  0
CIRCLE
  5
CC7
330
1F
100
AcDbEntity
  8
0
  6
Continuous
 62
     7
100
AcDbCircle
 10
107.2498394956104
 20
-142.7085862899867
 30
0.0
 40
2.500000000000008
  0
CIRCLE
  5
CC8
330
1F
100
AcDbEntity
  8
0
  6
Continuous
 62
     7
100
AcDbCircle
 10
107.2498394956104
 20
-142.7085862899867
 30
0.0
 40
2.100000000000008
  0
CIRCLE
  5
CC9
330
1F
100
AcDbEntity
  8
0
  6
Continuous
 62
     7
100
AcDbCircle
 10
181.4960515201979
 20
-142.7085862899867
 30
0.0
 40
2.500000000000008
  0
CIRCLE
  5
CCA
330
1F
100
AcDbEntity
  8
0
  6
Continuous
 62
     7
100
AcDbCircle
 10
181.4960515201979
 20
-142.7085862899867
 30
0.0
 40
2.100000000000108
  0
ARC
  5
CCC
330
1F
100
AcDbEntity
  8
0
  6
Continuous
 62
     7
100
AcDbCircle
 10
-133.4384894859061
 20
-166.1031825947945
 30
0.0
 40
4.0
100
AcDbArc
 50
184.9826738258598
 51
247.072939265128
  0
ARC
  5
CCD
330
1F
100
AcDbEntity
  8
0
  6
Continuous
 62
     7
100
AcDbCircle
 10
-252.5549613386853
 20
-166.1031825947945
 30
0.0
 40
4.0
100
AcDbArc
 50
270.0
 51
292.9270607348705
  0
ARC
  5
CCE
330
1F
100
AcDbEntity
  8
1
  6
Continuous
 62
     7
100
AcDbCircle
 10
103.4020165298384
 20
-49.32909404156426
 30
0.0
 40
2.0
100
AcDbArc
 50
0.0
 51
90.0
  0
ARC
  5
CDE
330
1F
100
AcDbEntity
  8
0
  6
Continuous
 62
     7
100
AcDbCircle
 10
196.4020665298386
 20
-64.10318259479453
 30
0.0
 40
5.0
100
AcDbArc
 50
90.0
 51
180.0
  0
ARC
  5
CDF
330
1F
100
AcDbEntity
  8
0
  6
Continuous
 62
     7
100
AcDbCircle
 10
196.7020665298386
 20
-64.40318259479449
 30
0.0
 40
2.999999999999944
100
AcDbArc
 50
95.73917047726656
 51
180.0
  0
ARC
  5
CE0
330
1F
100
AcDbEntity
  8
0
  6
Continuous
 62
     7
100
AcDbCircle
 10
194.4020165298385
 20
-53.3772711480247
 30
0.0
 40
1.0
100
AcDbArc
 50
270.0
 51
0.0
  0
ARC
  5
CE1
330
1F
100
AcDbEntity
  8
0
  6
Continuous
 62
     7
100
AcDbCircle
 10
103.4020165298384
 20
88.67090595843579
 30
0.0
 40
2.0
100
AcDbArc
 50
270.0
 51
0.0
  0
ARC
  5
CE2
330
1F
100
AcDbEntity
  8
0
  6
Continuous
 62
     7
100
AcDbCircle
 10
170.4020165298384
 20
154.3087619341985
 30
0.0
 40
13.00000000000011
100
AcDbArc
 50
0.0
 51
90.0
  0
ARC
  5
CE3
330
1F
100
AcDbEntity
  8
0
  6
Continuous
 62
     7
100
AcDbCircle
 10
118.4020165298384
 20
154.3087619341985
 30
0.0
 40
13.0
100
AcDbArc
 50
90.0
 51
180.0
  0
ARC
  5
CE4
330
1F
100
AcDbEntity
  8
0
  6
Continuous
 62
     7
100
AcDbCircle
 10
194.4020165298385
 20
93.17090595843579
 30
0.0
 40
1.0
100
AcDbArc
 50
0.0
 51
90.0
  0
ARC
  5
CE5
330
1F
100
AcDbEntity
  8
0
  6
Continuous
 62
     7
100
AcDbCircle
 10
306.4020165298384
 20
70.84366158926099
 30
0.0
 40
10.0
100
AcDbArc
 50
0.0
 51
41.8861394443494
  0
ARC
  5
CE6
330
1F
100
AcDbEntity
  8
0
  6
Continuous
 62
     7
100
AcDbCircle
 10
296.9001294480569
 20
81.43884304973319
 30
0.0
 40
10.00000000000005
100
AcDbArc
 50
41.88613944434917
 51
89.45948981286854
  0
ARC
  5
CE7
330
1F
100
AcDbEntity
  8
0
  6
Continuous
 62
     7
100
AcDbCircle
 10
306.4020165298384
 20
-31.05002677884994
 30
0.0
 40
10.0
100
AcDbArc
 50
318.1138605556506
 51
0.0
  0
ARC
  5
CE8
330
1F
100
AcDbEntity
  8
0
  6
Continuous
 62
     7
100
AcDbCircle
 10
296.9001294480569
 20
-41.64520823932213
 30
0.0
 40
10.00000000000005
100
AcDbArc
 50
270.5405101871314
 51
318.1138605556508
  0
ARC
  5
CE9
330
1F
100
AcDbEntity
  8
0
  6
Continuous
 62
     7
100
AcDbCircle
 10
-75.81871139885016
 20
-56.10318259479442
 30
0.0
 40
4.999999999999934
100
AcDbArc
 50
145.2276530911911
 51
270.0
  0
ARC
  5
CEA
330
1F
100
AcDbEntity
  8
0
  6
Continuous
 62
     7
100
AcDbCircle
 10
-36.99672541229599
 20
-58.10318259479442
 30
0.0
 40
3.0
100
AcDbArc
 50
270.0
 51
0.0
  0
ARC
  5
CEB
330
1F
100
AcDbEntity
  8
0
  6
Continuous
 62
     7
100
AcDbCircle
 10
-36.99672541229599
 20
-153.1144836388734
 30
0.0
 40
3.0
100
AcDbArc
 50
0.0
 51
90.21542802872463
  0
ARC
  5
CEC
330
1F
100
AcDbEntity
  8
0
  6
Continuous
 62
     7
100
AcDbCircle
 10
-31.99672541229599
 20
-49.10318259479442
 30
0.0
 40
2.0
100
AcDbArc
 50
90.0
 51
180.0
  0
ARC
  5
CED
330
1F
100
AcDbEntity
  8
0
  6
Continuous
 62
     7
100
AcDbCircle
 10
-31.99672541229599
 20
-162.1031825947945
 30
0.0
 40
1.999999999999995
100
AcDbArc
 50
180.0
 51
270.0
  0
ARC
  5
D05
330
1F
100
AcDbEntity
  8
0
  6
Continuous
 62
     7
100
AcDbCircle
 10
-252.5549613386853
 20
-166.1031825947945
 30
0.0
 40
4.000000000000086
100
AcDbArc
 50
292.9270607348705
 51
355.0173261741403
  0
ARC
  5
D06
330
1F
100
AcDbEntity
  8
0
  6
Continuous
 62
     7
100
AcDbCircle
 10
-252.8299441492246
 20
-165.8031825947945
 30
0.0
 40
2.0
100
AcDbArc
 50
270.0
 51
355.0173261741415
  0
ARC
  5
D07
330
1F
100
AcDbEntity
  8
0
  6
Continuous
 62
     7
100
AcDbCircle
 10
-238.4146708079083
 20
-165.1031825947945
 30
0.0
 40
10.0
100
AcDbArc
 50
90.0
 51
175.0173261741423
  0
ARC
  5
D08
330
1F
100
AcDbEntity
  8
0
  6
Continuous
 62
     7
100
AcDbCircle
 10
-147.5787800166832
 20
-165.1031825947945
 30
0.0
 40
10.0
100
AcDbArc
 50
4.982673825857751
 51
90.0
  0
ARC
  5
D09
330
1F
100
AcDbEntity
  8
0
  6
Continuous
 62
     7
100
AcDbCircle
 10
-133.4384894859061
 20
-166.1031825947945
 30
0.0
 40
4.00000000000004
100
AcDbArc
 50
247.072939265128
 51
270.0
  0
ARC
  5
D0A
330
1F
100
AcDbEntity
  8
0
  6
Continuous
 62
     7
100
AcDbCircle
 10
-133.1635066753668
 20
-165.8031825947945
 30
0.0
 40
2.000000000000053
100
AcDbArc
 50
184.9826738258584
 51
270.0
  0
ENDSEC
  0
SECTION
  2
OBJECTS
  0
DICTIONARY
  5
C
330
0
100
AcDbDictionary
281
     1
  3
ACAD_COLOR
350
7A3
  3
ACAD_GROUP
350
D
  3
ACAD_LAYOUT
350
1A
  3
ACAD_MATERIAL
350
7A2
  3
ACAD_MLINESTYLE
350
17
  3
ACAD_PLOTSETTINGS
350
19
  3
ACAD_PLOTSTYLENAME
350
E
  3
ACDBHEADERROUNDTRIPXREC
350
12CA
  3
AcDbVariableDictionary
350
11F6
  0
DICTIONARY
  5
7A3
102
{ACAD_REACTORS
330
C
102
}
330
C
100
AcDbDictionary
281
     1
  0
DICTIONARY
  5
D
102
{ACAD_REACTORS
330
C
102
}
330
C
100
AcDbDictionary
281
     1
  0
DICTIONARY
  5
1A
102
{ACAD_REACTORS
330
C
102
}
330
C
100
AcDbDictionary
281
     1
  3
Layout1
350
1E
  3
Layout2
350
26
  3
Model
350
22
  0
DICTIONARY
  5
7A2
102
{ACAD_REACTORS
330
C
102
}
330
C
100
AcDbDictionary
281
     1
  0
DICTIONARY
  5
17
102
{ACAD_REACTORS
330
C
102
}
330
C
100
AcDbDictionary
281
     1
  3
Standard
350
18
  0
DICTIONARY
  5
19
102
{ACAD_REACTORS
330
C
102
}
330
C
100
AcDbDictionary
281
     1
  0
ACDBDICTIONARYWDFLT
  5
E
102
{ACAD_REACTORS
330
C
102
}
330
C
100
AcDbDictionary
281
     1
  3
Normal
350
F
100
AcDbDictionaryWithDefault
340
F
  0
DICTIONARY
  5
12CA
102
{ACAD_REACTORS
330
C
102
}
330
C
100
AcDbDictionary
281
     1
  3
COLORDICT
350
12CC
  3
MATERIALDICT
350
12CB
  0
DICTIONARY
  5
11F6
102
{ACAD_REACTORS
330
C
102
}
330
C
100
AcDbDictionary
281
     1
  3
DIMASSOC
350
11F7
  3
PROJECTNAME
350
11F8
  0
LAYOUT
  5
1E
102
{ACAD_XDICTIONARY
360
12CD
102
}
102
{ACAD_REACTORS
330
1A
102
}
330
1A
100
AcDbPlotSettings
  1

  2

  4

  6

 40
0.0
 41
0.0
 42
0.0
 43
0.0
 44
0.0
 45
0.0
 46
0.0
 47
0.0
 48
0.0
 49
0.0
140
0.0
141
0.0
142
1.0
143
1.0
 70
   688
 72
     0
 73
     0
 74
     5
  7
P社図面.ctb
 75
    16
147
1.0
148
0.0
149
0.0
100
AcDbLayout
  1
Layout1
 70
     1
 71
     1
 10
0.0
 20
0.0
 11
12.0
 21
9.0
 12
0.0
 22
0.0
 32
0.0
 14
1.000000000000000E+20
 24
1.000000000000000E+20
 34
1.000000000000000E+20
 15
-1.000000000000000E+20
 25
-1.000000000000000E+20
 35
-1.000000000000000E+20
146
0.0
 13
0.0
 23
0.0
 33
0.0
 16
1.0
 26
0.0
 36
0.0
 17
0.0
 27
1.0
 37
0.0
 76
     0
330
1B
  0
LAYOUT
  5
26
102
{ACAD_XDICTIONARY
360
12D1
102
}
102
{ACAD_REACTORS
330
1A
102
}
330
1A
100
AcDbPlotSettings
  1

  2

  4

  6

 40
0.0
 41
0.0
 42
0.0
 43
0.0
 44
0.0
 45
0.0
 46
0.0
 47
0.0
 48
0.0
 49
0.0
140
0.0
141
0.0
142
1.0
143
1.0
 70
   688
 72
     0
 73
     0
 74
     5
  7
P社図面.ctb
 75
    16
147
1.0
148
0.0
149
0.0
100
AcDbLayout
  1
Layout2
 70
     1
 71
     2
 10
0.0
 20
0.0
 11
0.0
 21
0.0
 12
0.0
 22
0.0
 32
0.0
 14
0.0
 24
0.0
 34
0.0
 15
0.0
 25
0.0
 35
0.0
146
0.0
 13
0.0
 23
0.0
 33
0.0
 16
1.0
 26
0.0
 36
0.0
 17
0.0
 27
1.0
 37
0.0
 76
     0
330
23
  0
LAYOUT
  5
22
102
{ACAD_XDICTIONARY
360
12CF
102
}
102
{ACAD_REACTORS
330
1A
102
}
330
1A
100
AcDbPlotSettings
  1

  2
Acrobat Distiller
  4
A3
  6

 40
3.174999952316283
 41
3.174999952316283
 42
3.17498779296875
 43
3.17498779296875
 44
297.0318298339844
 45
420.1583251953125
 46
0.0
 47
0.0
 48
0.0
 49
0.0
140
0.0
141
0.0
142
1.0
143
1.979296968291565
 70
 11952
 72
     1
 73
     1
 74
     1
  7
P社図面.ctb
 75
     0
147
0.5052298952709214
148
428.024791977424
149
286.0176547229163
100
AcDbLayout
  1
Model
 70
     1
 71
     0
 10
0.0
 20
0.0
 11
0.0
 21
0.0
 12
0.0
 22
0.0
 32
0.0
 14
-427.9997999999998
 24
-286.0002
 34
0.0
 15
390.9998
 25
285.9998
 35
0.0
146
0.0
 13
0.0
 23
0.0
 33
0.0
 16
1.0
 26
0.0
 36
0.0
 17
0.0
 27
1.0
 37
0.0
 76
     0
330
1F
  0
MLINESTYLE
  5
18
102
{ACAD_REACTORS
330
17
102
}
330
17
100
AcDbMlineStyle
  2
STANDARD
 70
     0
  3

 62
   256
 51
90.0
 52
90.0
 71
     2
 49
0.5
 62
   256
  6
BYLAYER
 49
-0.5
 62
   256
  6
BYLAYER
  0
ACDBPLACEHOLDER
  5
F
102
{ACAD_REACTORS
330
E
102
}
330
E
  0
XRECORD
  5
12CC
102
{ACAD_REACTORS
330
12CA
102
}
330
12CA
100
AcDbXrecord
280
     1
340
7A3
  0
XRECORD
  5
12CB
102
{ACAD_REACTORS
330
12CA
102
}
330
12CA
100
AcDbXrecord
280
     1
340
7A2
  0
DICTIONARYVAR
  5
11F7
102
{ACAD_REACTORS
330
11F6
102
}
330
11F6
100
DictionaryVariables
280
     0
  1
1
  0
DICTIONARYVAR
  5
11F8
102
{ACAD_REACTORS
330
11F6
102
}
330
11F6
100
DictionaryVariables
280
     0
  1

  0
DICTIONARY
  5
12CD
330
1E
100
AcDbDictionary
280
     1
281
     1
  3
ACAD_XREC_ROUNDTRIP
360
12CE
  0
DICTIONARY
  5
12D1
330
26
100
AcDbDictionary
280
     1
281
     1
  3
ACAD_XREC_ROUNDTRIP
360
12D2
  0
DICTIONARY
  5
12CF
330
22
100
AcDbDictionary
280
     1
281
     1
  3
ACAD_XREC_ROUNDTRIP
360
12D0
  0
XRECORD
  5
12CE
102
{ACAD_REACTORS
330
12CD
102
}
330
12CD
100
AcDbXrecord
280
     1
102
SHADEPLOT
 70
     0
102
SHADEPLOTRESLEVEL
 70
     2
102
SHADEPLOTCUSTOMDPI
 70
   300
  0
XRECORD
  5
12D2
102
{ACAD_REACTORS
330
12D1
102
}
330
12D1
100
AcDbXrecord
280
     1
102
SHADEPLOT
 70
     0
102
SHADEPLOTRESLEVEL
 70
     2
102
SHADEPLOTCUSTOMDPI
 70
   300
  0
XRECORD
  5
12D0
102
{ACAD_REACTORS
330
12CF
102
}
330
12CF
100
AcDbXrecord
280
     1
102
SHADEPLOT
 70
     0
102
SHADEPLOTRESLEVEL
 70
     2
102
SHADEPLOTCUSTOMDPI
 70
   300
  0
ENDSEC
  0
EOF
