  0
SECTION
  2
HEADER
  9
$ACADVER
  1
AC1015
  9
$ACADMAINTVER
 70
    20
  9
$DWGCODEPAGE
  3
ANSI_932
  9
$INSBASE
 10
0.0
 20
0.0
 30
0.0
  9
$EXTMIN
 10
-427.9997999999999
 20
-286.0002
 30
0.0
  9
$EXTMAX
 10
421.7298775833722
 20
815.7725211320627
 30
0.0
  9
$LIMMIN
 10
0.0
 20
0.0
  9
$LIMMAX
 10
12.0
 20
9.0
  9
$ORTHOMODE
 70
     0
  9
$REGENMODE
 70
     1
  9
$FILLMODE
 70
     1
  9
$QTEXTMODE
 70
     0
  9
$MIRRTEXT
 70
     1
  9
$LTSCALE
 40
1.0
  9
$ATTMODE
 70
     1
  9
$TEXTSIZE
 40
0.2
  9
$TRACEWID
 40
0.05
  9
$TEXTSTYLE
  7
CONVERTER_19
  9
$CLAYER
  8
0
  9
$CELTYPE
  6
ByLayer
  9
$CECOLOR
 62
   256
  9
$CELTSCALE
 40
1.0
  9
$DISPSILH
 70
     0
  9
$DIMSCALE
 40
1.0
  9
$DIMASZ
 40
0.18
  9
$DIMEXO
 40
0.0625
  9
$DIMDLI
 40
0.38
  9
$DIMRND
 40
0.0
  9
$DIMDLE
 40
0.0
  9
$DIMEXE
 40
0.18
  9
$DIMTP
 40
0.0
  9
$DIMTM
 40
0.0
  9
$DIMTXT
 40
0.18
  9
$DIMCEN
 40
0.09
  9
$DIMTSZ
 40
0.0
  9
$DIMTOL
 70
     0
  9
$DIMLIM
 70
     0
  9
$DIMTIH
 70
     1
  9
$DIMTOH
 70
     1
  9
$DIMSE1
 70
     0
  9
$DIMSE2
 70
     0
  9
$DIMTAD
 70
     0
  9
$DIMZIN
 70
     0
  9
$DIMBLK
  1

  9
$DIMASO
 70
     1
  9
$DIMSHO
 70
     1
  9
$DIMPOST
  1

  9
$DIMAPOST
  1

  9
$DIMALT
 70
     0
  9
$DIMALTD
 70
     2
  9
$DIMALTF
 40
25.4
  9
$DIMLFAC
 40
1.0
  9
$DIMTOFL
 70
     0
  9
$DIMTVP
 40
0.0
  9
$DIMTIX
 70
     0
  9
$DIMSOXD
 70
     0
  9
$DIMSAH
 70
     0
  9
$DIMBLK1
  1

  9
$DIMBLK2
  1

  9
$DIMSTYLE
  2
Standard
  9
$DIMCLRD
 70
     0
  9
$DIMCLRE
 70
     0
  9
$DIMCLRT
 70
     0
  9
$DIMTFAC
 40
1.0
  9
$DIMGAP
 40
0.09
  9
$DIMJUST
 70
     0
  9
$DIMSD1
 70
     0
  9
$DIMSD2
 70
     0
  9
$DIMTOLJ
 70
     1
  9
$DIMTZIN
 70
     0
  9
$DIMALTZ
 70
     0
  9
$DIMALTTZ
 70
     0
  9
$DIMUPT
 70
     0
  9
$DIMDEC
 70
     4
  9
$DIMTDEC
 70
     4
  9
$DIMALTU
 70
     2
  9
$DIMALTTD
 70
     2
  9
$DIMTXSTY
  7
Standard
  9
$DIMAUNIT
 70
     0
  9
$DIMADEC
 70
     0
  9
$DIMALTRND
 40
0.0
  9
$DIMAZIN
 70
     0
  9
$DIMDSEP
 70
    46
  9
$DIMATFIT
 70
     3
  9
$DIMFRAC
 70
     0
  9
$DIMLDRBLK
  1

  9
$DIMLUNIT
 70
     2
  9
$DIMLWD
 70
    -2
  9
$DIMLWE
 70
    -2
  9
$DIMTMOVE
 70
     0
  9
$LUNITS
 70
     2
  9
$LUPREC
 70
     4
  9
$SKETCHINC
 40
0.1
  9
$FILLETRAD
 40
0.5
  9
$AUNITS
 70
     0
  9
$AUPREC
 70
     0
  9
$MENU
  1
.
  9
$ELEVATION
 40
0.0
  9
$PELEVATION
 40
0.0
  9
$THICKNESS
 40
0.0
  9
$LIMCHECK
 70
     0
  9
$CHAMFERA
 40
0.5
  9
$CHAMFERB
 40
0.5
  9
$CHAMFERC
 40
1.0
  9
$CHAMFERD
 40
0.0
  9
$SKPOLY
 70
     0
  9
$TDCREATE
 40
2455106.658946389
  9
$TDUCREATE
 40
2455106.283946389
  9
$TDUPDATE
 40
2456737.646842871
  9
$TDUUPDATE
 40
2456737.271842871
  9
$TDINDWG
 40
0.0233939005
  9
$TDUSRTIMER
 40
0.0233935417
  9
$USRTIMER
 70
     1
  9
$ANGBASE
 50
0.0
  9
$ANGDIR
 70
     0
  9
$PDMODE
 70
     0
  9
$PDSIZE
 40
0.0
  9
$PLINEWID
 40
0.0
  9
$SPLFRAME
 70
     0
  9
$SPLINETYPE
 70
     6
  9
$SPLINESEGS
 70
     8
  9
$HANDSEED
  5
1A57
  9
$SURFTAB1
 70
     6
  9
$SURFTAB2
 70
     6
  9
$SURFTYPE
 70
     6
  9
$SURFU
 70
     6
  9
$SURFV
 70
     6
  9
$UCSBASE
  2

  9
$UCSNAME
  2

  9
$UCSORG
 10
0.0
 20
0.0
 30
0.0
  9
$UCSXDIR
 10
1.0
 20
0.0
 30
0.0
  9
$UCSYDIR
 10
0.0
 20
1.0
 30
0.0
  9
$UCSORTHOREF
  2

  9
$UCSORTHOVIEW
 70
     0
  9
$UCSORGTOP
 10
0.0
 20
0.0
 30
0.0
  9
$UCSORGBOTTOM
 10
0.0
 20
0.0
 30
0.0
  9
$UCSORGLEFT
 10
0.0
 20
0.0
 30
0.0
  9
$UCSORGRIGHT
 10
0.0
 20
0.0
 30
0.0
  9
$UCSORGFRONT
 10
0.0
 20
0.0
 30
0.0
  9
$UCSORGBACK
 10
0.0
 20
0.0
 30
0.0
  9
$PUCSBASE
  2

  9
$PUCSNAME
  2

  9
$PUCSORG
 10
0.0
 20
0.0
 30
0.0
  9
$PUCSXDIR
 10
1.0
 20
0.0
 30
0.0
  9
$PUCSYDIR
 10
0.0
 20
1.0
 30
0.0
  9
$PUCSORTHOREF
  2

  9
$PUCSORTHOVIEW
 70
     0
  9
$PUCSORGTOP
 10
0.0
 20
0.0
 30
0.0
  9
$PUCSORGBOTTOM
 10
0.0
 20
0.0
 30
0.0
  9
$PUCSORGLEFT
 10
0.0
 20
0.0
 30
0.0
  9
$PUCSORGRIGHT
 10
0.0
 20
0.0
 30
0.0
  9
$PUCSORGFRONT
 10
0.0
 20
0.0
 30
0.0
  9
$PUCSORGBACK
 10
0.0
 20
0.0
 30
0.0
  9
$USERI1
 70
     0
  9
$USERI2
 70
     0
  9
$USERI3
 70
     0
  9
$USERI4
 70
     0
  9
$USERI5
 70
     0
  9
$USERR1
 40
14.0
  9
$USERR2
 40
0.0
  9
$USERR3
 40
0.0
  9
$USERR4
 40
0.0
  9
$USERR5
 40
0.0
  9
$WORLDVIEW
 70
     1
  9
$SHADEDGE
 70
     3
  9
$SHADEDIF
 70
    70
  9
$TILEMODE
 70
     1
  9
$MAXACTVP
 70
    64
  9
$PINSBASE
 10
0.0
 20
0.0
 30
0.0
  9
$PLIMCHECK
 70
     0
  9
$PEXTMIN
 10
1.000000000000000E+20
 20
1.000000000000000E+20
 30
1.000000000000000E+20
  9
$PEXTMAX
 10
-1.000000000000000E+20
 20
-1.000000000000000E+20
 30
-1.000000000000000E+20
  9
$PLIMMIN
 10
0.0
 20
0.0
  9
$PLIMMAX
 10
12.0
 20
9.0
  9
$UNITMODE
 70
     0
  9
$VISRETAIN
 70
     1
  9
$PLINEGEN
 70
     0
  9
$PSLTSCALE
 70
     1
  9
$TREEDEPTH
 70
  3020
  9
$CMLSTYLE
  2
Standard
  9
$CMLJUST
 70
     0
  9
$CMLSCALE
 40
1.0
  9
$PROXYGRAPHICS
 70
     1
  9
$MEASUREMENT
 70
     1
  9
$CELWEIGHT
370
    -1
  9
$ENDCAPS
280
     0
  9
$JOINSTYLE
280
     0
  9
$LWDISPLAY
290
     0
  9
$INSUNITS
 70
     1
  9
$HYPERLINKBASE
  1

  9
$STYLESHEET
  1

  9
$XEDIT
290
     1
  9
$CEPSNTYPE
380
     0
  9
$PSTYLEMODE
290
     1
  9
$FINGERPRINTGUID
  2
{1FA3C634-0054-491B-A9CD-746E00C0BA1B}
  9
$VERSIONGUID
  2
{487CE04D-2A2C-4869-93B5-0C3A211DE7F4}
  9
$EXTNAMES
290
     1
  9
$PSVPSCALE
 40
0.0
  9
$OLESTARTUP
290
     0
  0
ENDSEC
  0
SECTION
  2
CLASSES
  0
CLASS
  1
ACDBDICTIONARYWDFLT
  2
AcDbDictionaryWithDefault
  3
ObjectDBX Classes
 90
        0
280
     0
281
     0
  0
CLASS
  1

  2
exOdDbSpline
  3

 90
    32768
280
     0
281
     1
  0
CLASS
  1

  2
exOdDbPolyline
  3

 90
    32768
280
     0
281
     1
  0
CLASS
  1

  2
exOdDbCircle
  3

 90
    32768
280
     0
281
     1
  0
CLASS
  1
ACDBPLACEHOLDER
  2
AcDbPlaceHolder
  3
ObjectDBX Classes
 90
        0
280
     0
281
     0
  0
CLASS
  1
LAYOUT
  2
AcDbLayout
  3
ObjectDBX Classes
 90
        0
280
     0
281
     0
  0
CLASS
  1
DICTIONARYVAR
  2
AcDbDictionaryVar
  3
ObjectDBX Classes
 90
        0
280
     0
281
     0
  0
ENDSEC
  0
SECTION
  2
TABLES
  0
TABLE
  2
VPORT
  5
8
330
0
100
AcDbSymbolTable
 70
     6
  0
VPORT
  5
1A05
330
8
100
AcDbSymbolTableRecord
100
AcDbViewportTableRecord
  2
*Active
 70
     0
 10
0.0
 20
0.0
 11
1.0
 21
1.0
 12
30.92888832732774
 22
575.4614743473816
 13
0.0
 23
0.0
 14
0.5
 24
0.5
 15
0.5
 25
0.5
 16
0.0
 26
0.0
 36
1.0
 17
0.0
 27
0.0
 37
0.0
 40
518.5464989979529
 41
1.805810397553516
 42
50.0
 43
0.0
 44
0.0
 50
0.0
 51
0.0
 71
     0
 72
   100
 73
     1
 74
     3
 75
     0
 76
     0
 77
     0
 78
     0
281
     0
 65
     1
110
0.0
120
0.0
130
0.0
111
1.0
121
0.0
131
0.0
112
0.0
122
1.0
132
0.0
 79
     0
146
0.0
  0
ENDTAB
  0
TABLE
  2
LTYPE
  5
5
330
0
100
AcDbSymbolTable
 70
     8
  0
LTYPE
  5
14
330
5
100
AcDbSymbolTableRecord
100
AcDbLinetypeTableRecord
  2
ByBlock
 70
     0
  3

 72
    65
 73
     0
 40
0.0
  0
LTYPE
  5
15
330
5
100
AcDbSymbolTableRecord
100
AcDbLinetypeTableRecord
  2
ByLayer
 70
     0
  3

 72
    65
 73
     0
 40
0.0
  0
LTYPE
  5
16
330
5
100
AcDbSymbolTableRecord
100
AcDbLinetypeTableRecord
  2
Continuous
 70
     0
  3
Solid line
 72
    65
 73
     0
 40
0.0
  0
LTYPE
  5
2B
330
5
100
AcDbSymbolTableRecord
100
AcDbLinetypeTableRecord
  2
DOTTED
 70
     0
  3
Dotted
 72
    65
 73
     2
 40
1.0
 49
0.0
 74
     0
 49
-1.0
 74
     0
  0
LTYPE
  5
2E
330
5
100
AcDbSymbolTableRecord
100
AcDbLinetypeTableRecord
  2
DASH_CENTER
 70
     0
  3
Dash_Center
 72
    65
 73
     4
 40
14.0
 49
11.0
 74
     0
 49
-1.0
 74
     0
 49
1.0
 74
     0
 49
-1.0
 74
     0
  0
LTYPE
  5
30
330
5
100
AcDbSymbolTableRecord
100
AcDbLinetypeTableRecord
  2
CENTER_DASH_DASH
 70
     0
  3
Center_Dash_Dash
 72
    65
 73
     6
 40
14.0
 49
9.0
 74
     0
 49
-1.0
 74
     0
 49
1.0
 74
     0
 49
-1.0
 74
     0
 49
1.0
 74
     0
 49
-1.0
 74
     0
  0
ENDTAB
  0
TABLE
  2
LAYER
  5
2
330
0
100
AcDbSymbolTable
 70
     5
  0
LAYER
  5
10
330
2
100
AcDbSymbolTableRecord
100
AcDbLayerTableRecord
  2
0
 70
     0
 62
     7
  6
Continuous
370
    -3
390
F
  0
LAYER
  5
31
330
2
100
AcDbSymbolTableRecord
100
AcDbLayerTableRecord
  2
1
 70
     0
 62
     7
  6
Continuous
370
    -3
390
F
  0
LAYER
  5
32
330
2
100
AcDbSymbolTableRecord
100
AcDbLayerTableRecord
  2
110
 70
     0
 62
     7
  6
Continuous
370
    -3
390
F
  0
LAYER
  5
10D3
330
2
100
AcDbSymbolTableRecord
100
AcDbLayerTableRecord
  2
Defpoints
 70
     0
 62
     7
  6
Continuous
290
     0
370
    -3
390
F
  0
ENDTAB
  0
TABLE
  2
STYLE
  5
3
330
0
100
AcDbSymbolTable
 70
    21
  0
STYLE
  5
11
330
3
100
AcDbSymbolTableRecord
100
AcDbTextStyleTableRecord
  2
Standard
 70
     0
 40
0.0
 41
1.0
 50
0.0
 71
     0
 42
0.2
  3
txt
  4

  0
STYLE
  5
2CC
330
3
100
AcDbSymbolTableRecord
100
AcDbTextStyleTableRecord
  2
CONVERTER_4
 70
     0
 40
0.0
 41
0.89
 50
0.0
 71
     0
 42
0.2
  3
txt.shx
  4

  0
STYLE
  5
70B
330
3
100
AcDbSymbolTableRecord
100
AcDbTextStyleTableRecord
  2
CONVERTER_7
 70
     0
 40
0.0
 41
0.6230000000000001
 50
0.0
 71
     0
 42
0.2
  3
txt.shx
  4

  0
STYLE
  5
71E
330
3
100
AcDbSymbolTableRecord
100
AcDbTextStyleTableRecord
  2
CONVERTER_10
 70
     0
 40
0.0
 41
0.73514
 50
0.0
 71
     0
 42
0.2
  3
txt.shx
  4

  0
STYLE
  5
741
330
3
100
AcDbSymbolTableRecord
100
AcDbTextStyleTableRecord
  2
CONVERTER_19
 70
     0
 40
0.0
 41
0.8009999999999999
 50
0.0
 71
     0
 42
0.2
  3
simplex.shx
  4

  0
ENDTAB
  0
TABLE
  2
VIEW
  5
6
330
0
100
AcDbSymbolTable
 70
     0
  0
ENDTAB
  0
TABLE
  2
UCS
  5
7
330
0
100
AcDbSymbolTable
 70
     0
  0
ENDTAB
  0
TABLE
  2
APPID
  5
9
330
0
100
AcDbSymbolTable
 70
     1
  0
APPID
  5
12
330
9
100
AcDbSymbolTableRecord
100
AcDbRegAppTableRecord
  2
ACAD
 70
     0
  0
ENDTAB
  0
TABLE
  2
DIMSTYLE
  5
A
330
0
100
AcDbSymbolTable
 70
    29
100
AcDbDimStyleTable
 71
     1
340
27
  0
DIMSTYLE
105
27
330
A
100
AcDbSymbolTableRecord
100
AcDbDimStyleTableRecord
  2
Standard
 70
     0
340
11
  0
ENDTAB
  0
TABLE
  2
BLOCK_RECORD
  5
1
330
0
100
AcDbSymbolTable
 70
   106
  0
BLOCK_RECORD
  5
1F
330
1
100
AcDbSymbolTableRecord
100
AcDbBlockTableRecord
  2
*Model_Space
340
22
  0
BLOCK_RECORD
  5
1B
330
1
100
AcDbSymbolTableRecord
100
AcDbBlockTableRecord
  2
*Paper_Space
340
1E
  0
BLOCK_RECORD
  5
23
330
1
100
AcDbSymbolTableRecord
100
AcDbBlockTableRecord
  2
*Paper_Space0
340
26
  0
ENDTAB
  0
ENDSEC
  0
SECTION
  2
BLOCKS
  0
BLOCK
  5
20
330
1F
100
AcDbEntity
  8
0
100
AcDbBlockBegin
  2
*Model_Space
 70
     0
 10
0.0
 20
0.0
 30
0.0
  3
*Model_Space
  1

  0
ENDBLK
  5
21
330
1F
100
AcDbEntity
  8
0
100
AcDbBlockEnd
  0
BLOCK
  5
1C
330
1B
100
AcDbEntity
 67
     1
  8
0
100
AcDbBlockBegin
  2
*Paper_Space
 70
     0
 10
0.0
 20
0.0
 30
0.0
  3
*Paper_Space
  1

  0
ENDBLK
  5
1D
330
1B
100
AcDbEntity
 67
     1
  8
0
100
AcDbBlockEnd
  0
BLOCK
  5
24
330
23
100
AcDbEntity
  8
0
100
AcDbBlockBegin
  2
*Paper_Space0
 70
     0
 10
0.0
 20
0.0
 30
0.0
  3
*Paper_Space0
  1

  0
ENDBLK
  5
25
330
23
100
AcDbEntity
  8
0
100
AcDbBlockEnd
  0
ENDSEC
  0
SECTION
  2
ENTITIES
  0
MTEXT
  5
7B4
330
1F
100
AcDbEntity
  8
0
 62
     2
100
AcDbMText
 10
205.5000000000006
 20
-240.9997577209246
 30
0.0
 40
6.0
 41
0.0
 71
     5
 72
     1
  1
 
  7
CONVERTER_4
 73
     1
 44
1.32052821128451
1001
ACAD
1000
MTEXTBEGIN
1070
    73
1070
     1
1070
    44
1040
1.32052821128451
1070
    74
1070
     0
1000
MTEXTEND
  0
MTEXT
  5
7B5
330
1F
100
AcDbEntity
  8
0
 62
     2
100
AcDbMText
 10
209.5000000000006
 20
-267.9996999999998
 30
0.0
 40
6.0
 41
0.0
 71
     5
 72
     1
  1
 
  7
CONVERTER_4
 73
     1
 44
1.32052821128451
1001
ACAD
1000
MTEXTBEGIN
1070
    73
1070
     1
1070
    44
1040
1.32052821128451
1070
    74
1070
     0
1000
MTEXTEND
  0
MTEXT
  5
7B6
330
1F
100
AcDbEntity
  8
0
 62
     2
100
AcDbMText
 10
88.50020000000002
 20
-279.9996999999998
 30
0.0
 40
4.0
 41
0.0
 71
     5
 72
     1
  1
 
  7
CONVERTER_7
 73
     1
 44
1.32052821128451
1001
ACAD
1000
MTEXTBEGIN
1070
    73
1070
     1
1070
    44
1040
1.32052821128451
1070
    74
1070
     0
1000
MTEXTEND
  0
MTEXT
  5
7B7
330
1F
100
AcDbEntity
  8
0
 62
     2
100
AcDbMText
 10
49.50020000000002
 20
-279.9996999999998
 30
0.0
 40
4.0
 41
0.0
 71
     5
 72
     1
  1
 
  7
CONVERTER_7
 73
     1
 44
1.32052821128451
1001
ACAD
1000
MTEXTBEGIN
1070
    73
1070
     1
1070
    44
1040
1.32052821128451
1070
    74
1070
     0
1000
MTEXTEND
  0
MTEXT
  5
7B8
330
1F
100
AcDbEntity
  8
0
 62
     2
100
AcDbMText
 10
127.5002
 20
-279.9996999999998
 30
0.0
 40
4.0
 41
0.0
 71
     5
 72
     1
  1
 
  7
CONVERTER_7
 73
     1
 44
1.32052821128451
1001
ACAD
1000
MTEXTBEGIN
1070
    73
1070
     1
1070
    44
1040
1.32052821128451
1070
    74
1070
     0
1000
MTEXTEND
  0
MTEXT
  5
7B9
330
1F
100
AcDbEntity
  8
0
 62
     2
100
AcDbMText
 10
166.5002
 20
-279.9996999999998
 30
0.0
 40
4.0
 41
0.0
 71
     5
 72
     1
  1
 
  7
CONVERTER_7
 73
     1
 44
1.32052821128451
1001
ACAD
1000
MTEXTBEGIN
1070
    73
1070
     1
1070
    44
1040
1.32052821128451
1070
    74
1070
     0
1000
MTEXTEND
  0
MTEXT
  5
7BA
330
1F
100
AcDbEntity
  8
0
 62
     2
100
AcDbMText
 10
205.5000000000006
 20
-279.9996999999998
 30
0.0
 40
4.0
 41
0.0
 71
     5
 72
     1
  1
 
  7
CONVERTER_7
 73
     1
 44
1.32052821128451
1001
ACAD
1000
MTEXTBEGIN
1070
    73
1070
     1
1070
    44
1040
1.32052821128451
1070
    74
1070
     0
1000
MTEXTEND
  0
MTEXT
  5
7BB
330
1F
100
AcDbEntity
  8
0
 62
     2
100
AcDbMText
 10
92.50020000000002
 20
-267.9996999999998
 30
0.0
 40
6.0
 41
0.0
 71
     5
 72
     1
  1
 
  7
CONVERTER_4
 73
     1
 44
1.32052821128451
1001
ACAD
1000
MTEXTBEGIN
1070
    73
1070
     1
1070
    44
1040
1.32052821128451
1070
    74
1070
     0
1000
MTEXTEND
  0
MTEXT
  5
7BC
330
1F
100
AcDbEntity
  8
0
 62
     2
100
AcDbMText
 10
170.5002
 20
-267.9996999999998
 30
0.0
 40
6.0
 41
0.0
 71
     5
 72
     1
  1
 
  7
CONVERTER_4
 73
     1
 44
1.32052821128451
1001
ACAD
1000
MTEXTBEGIN
1070
    73
1070
     1
1070
    44
1040
1.32052821128451
1070
    74
1070
     0
1000
MTEXTEND
  0
MTEXT
  5
7BD
330
1F
100
AcDbEntity
  8
0
 62
     2
100
AcDbMText
 10
131.5002
 20
-267.9996999999998
 30
0.0
 40
6.0
 41
0.0
 71
     5
 72
     1
  1
 
  7
CONVERTER_4
 73
     1
 44
1.32052821128451
1001
ACAD
1000
MTEXTBEGIN
1070
    73
1070
     1
1070
    44
1040
1.32052821128451
1070
    74
1070
     0
1000
MTEXTEND
  0
MTEXT
  5
7C5
330
1F
100
AcDbEntity
  8
0
 62
     2
100
AcDbMText
 10
205.5000000000006
 20
-255.4997860470252
 30
0.0
 40
4.0
 41
0.0
 71
     5
 72
     1
  1
 
  7
CONVERTER_7
 73
     1
 44
1.32052821128451
1001
ACAD
1000
MTEXTBEGIN
1070
    73
1070
     1
1070
    44
1040
1.32052821128451
1070
    74
1070
     0
1000
MTEXTEND
  0
MTEXT
  5
7C6
330
1F
100
AcDbEntity
  8
0
 62
     2
100
AcDbMText
 10
59.15722816266982
 20
-248.9482291377618
 30
0.0
 40
6.0
 41
0.0
 71
     5
 72
     1
  1
 
  7
CONVERTER_10
 73
     1
 44
1.32052821128451
1001
ACAD
1000
MTEXTBEGIN
1070
    73
1070
     1
1070
    44
1040
1.32052821128451
1070
    74
1070
     0
1000
MTEXTEND
  0
MTEXT
  5
7C7
330
1F
100
AcDbEntity
  8
0
 62
     2
100
AcDbMText
 10
41.35722816266964
 20
-248.9482291377618
 30
0.0
 40
6.0
 41
0.0
 71
     5
 72
     1
  1
 
  7
CONVERTER_10
 73
     1
 44
1.32052821128451
1001
ACAD
1000
MTEXTBEGIN
1070
    73
1070
     1
1070
    44
1040
1.32052821128451
1070
    74
1070
     0
1000
MTEXTEND
  0
TEXT
  5
7E0
330
1F
100
AcDbEntity
  8
0
 62
     2
100
AcDbText
 10
6.335832455315935
 20
347.7808107166723
 30
0.0
 40
8.0
  1
ASAMDBS2P750W
 41
0.8009999999999999
  7
CONVERTER_19
100
AcDbText
  0
LINE
  5
13D4
330
1F
100
AcDbEntity
  8
0
  6
Continuous
 62
     7
100
AcDbLine
 10
218.9159108675258
 20
691.7808107166722
 30
0.0
 11
218.9159108675258
 21
612.7808107166722
 31
0.0
  0
LINE
  5
13D5
330
1F
100
AcDbEntity
  8
1
  6
Continuous
 62
     7
100
AcDbLine
 10
104.9159108675255
 20
743.9684756085805
 30
0.0
 11
104.9159108675255
 21
720.0713570728164
 31
0.0
  0
LINE
  5
13D6
330
1F
100
AcDbEntity
  8
0
  6
Continuous
 62
     7
100
AcDbLine
 10
-246.1442010419907
 20
392.7808107166721
 30
0.0
 11
-245.0247522037057
 21
392.7808107166721
 31
0.0
  0
LINE
  5
13DA
330
1F
100
AcDbEntity
  8
0
  6
Continuous
 62
     7
100
AcDbLine
 10
218.9159108675258
 20
588.2750020854624
 30
0.0
 11
218.9159108675258
 21
609.4944317956353
 31
0.0
  0
LINE
  5
13DB
330
1F
100
AcDbEntity
  8
0
  6
Continuous
 62
     7
100
AcDbLine
 10
218.9159108675258
 20
588.2750020854624
 30
0.0
 11
218.9159108675258
 21
609.4944317956353
 31
0.0
  0
LINE
  5
13DC
330
1F
100
AcDbEntity
  8
0
  6
Continuous
 62
     7
100
AcDbLine
 10
218.9159108675258
 20
609.4944317956353
 30
0.0
 11
218.9159108675258
 21
612.7808107166722
 31
0.0
  0
LINE
  5
13DD
330
1F
100
AcDbEntity
  8
0
  6
Continuous
 62
     7
100
AcDbLine
 10
218.9159108675258
 20
609.4944317956353
 30
0.0
 11
218.9159108675258
 21
612.7808107166722
 31
0.0
  0
LINE
  5
13DF
330
1F
100
AcDbEntity
  8
0
  6
Continuous
 62
     7
100
AcDbLine
 10
246.9159108675257
 20
535.2729208851452
 30
0.0
 11
246.9159108675257
 21
522.7808107166722
 31
0.0
  0
LINE
  5
13E0
330
1F
100
AcDbEntity
  8
0
  6
Continuous
 62
     7
100
AcDbLine
 10
246.9159108675257
 20
535.2729208851452
 30
0.0
 11
226.9159108675246
 21
534.7808107166722
 31
0.0
  0
LINE
  5
13E1
330
1F
100
AcDbEntity
  8
0
  6
Continuous
 62
     7
100
AcDbLine
 10
226.9159108675246
 20
535.4194652607008
 30
0.0
 11
226.9159108675246
 21
534.7808107166722
 31
0.0
  0
LINE
  5
13E2
330
1F
100
AcDbEntity
  8
0
  6
Continuous
 62
     7
100
AcDbLine
 10
246.9159108675257
 20
535.4194652607008
 30
0.0
 11
226.9159108675246
 21
535.4194652607008
 31
0.0
  0
LINE
  5
13E3
330
1F
100
AcDbEntity
  8
0
  6
Continuous
 62
     7
100
AcDbLine
 10
226.9159108675246
 20
536.6515730110056
 30
0.0
 11
226.9159108675246
 21
535.4194652607008
 31
0.0
  0
LINE
  5
13E4
330
1F
100
AcDbEntity
  8
0
  6
Continuous
 62
     7
100
AcDbLine
 10
246.9159108675257
 20
536.6515730110056
 30
0.0
 11
226.9159108675246
 21
536.6515730110056
 31
0.0
  0
LINE
  5
13E5
330
1F
100
AcDbEntity
  8
0
  6
Continuous
 62
     7
100
AcDbLine
 10
226.9159108675246
 20
537.6372592112497
 30
0.0
 11
226.9159108675246
 21
536.6515730110056
 31
0.0
  0
LINE
  5
13E6
330
1F
100
AcDbEntity
  8
0
  6
Continuous
 62
     7
100
AcDbLine
 10
246.9159108675257
 20
537.6372592112495
 30
0.0
 11
246.9159108675257
 21
539.7808107166723
 31
0.0
  0
LINE
  5
13E7
330
1F
100
AcDbEntity
  8
0
  6
Continuous
 62
     7
100
AcDbLine
 10
246.9159108675257
 20
537.6372592112495
 30
0.0
 11
226.9159108675246
 21
537.6372592112497
 31
0.0
  0
LINE
  5
13E8
330
1F
100
AcDbEntity
  8
0
  6
Continuous
 62
     7
100
AcDbLine
 10
226.9159108675246
 20
539.7808107166722
 30
0.0
 11
226.9159108675246
 21
537.6372592112497
 31
0.0
  0
LINE
  5
13E9
330
1F
100
AcDbEntity
  8
0
  6
Continuous
 62
     7
100
AcDbLine
 10
246.9159108675257
 20
539.7808107166723
 30
0.0
 11
324.9159108675258
 21
539.7808107166722
 31
0.0
  0
LINE
  5
13EA
330
1F
100
AcDbEntity
  8
0
  6
Continuous
 62
     7
100
AcDbLine
 10
246.9159108675257
 20
536.6515730110056
 30
0.0
 11
246.9159108675257
 21
537.6372592112495
 31
0.0
  0
LINE
  5
13EB
330
1F
100
AcDbEntity
  8
110
  6
DASH_CENTER
 62
     2
100
AcDbLine
 10
382.9673644425109
 20
612.7808107166722
 30
0.0
 11
218.9159108675258
 21
612.7808107166722
 31
0.0
  0
LINE
  5
13EC
330
1F
100
AcDbEntity
  8
0
  6
Continuous
 62
     7
100
AcDbLine
 10
326.9159108675258
 20
395.9808107166722
 30
0.0
 11
332.4159108675258
 21
395.9808107166722
 31
0.0
  0
LINE
  5
13ED
330
1F
100
AcDbEntity
  8
0
  6
DASH_CENTER
 62
     2
100
AcDbLine
 10
326.9159108675258
 20
395.9808107166722
 30
0.0
 11
326.9159108675258
 21
388.9304191535444
 31
0.0
  0
LINE
  5
13EE
330
1F
100
AcDbEntity
  8
0
  6
DASH_CENTER
 62
     2
100
AcDbLine
 10
221.4159108675255
 20
473.7808107166722
 30
0.0
 11
224.9159108675257
 21
473.7808107166722
 31
0.0
  0
LINE
  5
13EF
330
1F
100
AcDbEntity
  8
0
  6
Continuous
 62
     7
100
AcDbLine
 10
226.9159108675257
 20
473.7808107166722
 30
0.0
 11
226.9159108675257
 21
522.7808107166722
 31
0.0
  0
LINE
  5
13F0
330
1F
100
AcDbEntity
  8
0
  6
DASH_CENTER
 62
     2
100
AcDbLine
 10
78.21037713221304
 20
473.7808107166722
 30
0.0
 11
221.4159108675255
 21
473.7808107166722
 31
0.0
  0
LINE
  5
13F1
330
1F
100
AcDbEntity
  8
0
  6
Continuous
 62
     7
100
AcDbLine
 10
226.9159108675257
 20
404.4078818450743
 30
0.0
 11
226.9159108675257
 21
473.7808107166722
 31
0.0
  0
LINE
  5
13F2
330
1F
100
AcDbEntity
  8
0
  6
Continuous
 62
     2
100
AcDbLine
 10
90.74393214141039
 20
534.4527894427873
 30
0.0
 11
122.692961513567
 21
502.5037600706308
 31
0.0
  0
LINE
  5
13F3
330
1F
100
AcDbEntity
  8
0
  6
Continuous
 62
     2
100
AcDbLine
 10
180.2852907765334
 20
444.9114308076643
 30
0.0
 11
211.3935562178435
 21
413.8031653663542
 31
0.0
  0
LINE
  5
13F4
330
1F
100
AcDbEntity
  8
0
  6
Continuous
 62
     2
100
AcDbLine
 10
88.91597372466803
 20
411.2808735738147
 30
0.0
 11
125.9095866819021
 21
448.2744865310487
 31
0.0
  0
LINE
  5
13F5
330
1F
100
AcDbEntity
  8
0
  6
Continuous
 62
     7
100
AcDbLine
 10
106.9159108675254
 20
754.9453533293212
 30
0.0
 11
106.9159108675255
 21
746.7969027333268
 31
0.0
  0
LINE
  5
13F6
330
1F
100
AcDbEntity
  8
0
  6
Continuous
 62
     7
100
AcDbLine
 10
195.9580257701656
 20
527.7808107166722
 30
0.0
 11
195.9580257701656
 21
536.4888202073047
 31
0.0
  0
LINE
  5
13F7
330
1F
100
AcDbEntity
  8
0
  6
Continuous
 62
     7
100
AcDbLine
 10
103.9159108675255
 20
537.7808107166722
 30
0.0
 11
102.9159108675255
 21
537.7808107166722
 31
0.0
  0
LINE
  5
13F8
330
1F
100
AcDbEntity
  8
0
  6
Continuous
 62
     7
100
AcDbLine
 10
106.9159108675254
 20
534.7808107166722
 30
0.0
 11
106.9159108675254
 21
527.7808107166722
 31
0.0
  0
LINE
  5
13F9
330
1F
100
AcDbEntity
  8
0
  6
Continuous
 62
     7
100
AcDbLine
 10
102.9159108675255
 20
687.7808107166722
 30
0.0
 11
103.9159108675255
 21
687.7808107166722
 31
0.0
  0
LINE
  5
13FA
330
1F
100
AcDbEntity
  8
0
  6
Continuous
 62
     7
100
AcDbLine
 10
106.9159108675254
 20
717.2429299480702
 30
0.0
 11
106.9159108675254
 21
690.7808107166722
 31
0.0
  0
LINE
  5
13FB
330
1F
100
AcDbEntity
  8
0
  6
Continuous
 62
     7
100
AcDbLine
 10
106.9159108675254
 20
722.9864008622126
 30
0.0
 11
106.9159108675255
 21
720.2429299480702
 31
0.0
  0
LINE
  5
13FC
330
1F
100
AcDbEntity
  8
0
  6
Continuous
 62
     7
100
AcDbLine
 10
106.9159108675255
 20
743.7969027333267
 30
0.0
 11
106.9159108675254
 21
740.6077024902203
 31
0.0
  0
LINE
  5
13FD
330
1F
100
AcDbEntity
  8
0
  6
Continuous
 62
     7
100
AcDbLine
 10
106.9159108675255
 20
746.7969027333268
 30
0.0
 11
106.9159108675254
 21
717.2429299480702
 31
0.0
  0
LINE
  5
13FE
330
1F
100
AcDbEntity
  8
0
  6
Continuous
 62
     7
100
AcDbLine
 10
106.9159108675254
 20
690.7808107166722
 30
0.0
 11
106.9159108675254
 21
534.7808107166722
 31
0.0
  0
LINE
  5
13FF
330
1F
100
AcDbEntity
  8
0
  6
Continuous
 62
     7
100
AcDbLine
 10
202.9159108675255
 20
754.7808107166722
 30
0.0
 11
199.9159108675255
 21
754.7808107166722
 31
0.0
  0
LINE
  5
1400
330
1F
100
AcDbEntity
  8
0
  6
Continuous
 62
     7
100
AcDbLine
 10
205.9159108675255
 20
751.7808107166722
 30
0.0
 11
205.9159108675255
 21
741.5584690994324
 31
0.0
  0
LINE
  5
1401
330
1F
100
AcDbEntity
  8
0
  6
Continuous
 62
     7
100
AcDbLine
 10
218.9159108675247
 20
533.9234246493333
 30
0.0
 11
218.9159108675258
 21
547.3175805448429
 31
0.0
  0
LINE
  5
1402
330
1F
100
AcDbEntity
  8
0
  6
Continuous
 62
     7
100
AcDbLine
 10
218.9159108675258
 20
533.9234246493324
 30
0.0
 11
218.9159108675258
 21
547.3175805448429
 31
0.0
  0
LINE
  5
1403
330
1F
100
AcDbEntity
  8
0
  6
Continuous
 62
     7
100
AcDbLine
 10
226.9159108675267
 20
612.7808107166722
 30
0.0
 11
226.9159108675246
 21
552.2748343158152
 31
0.0
  0
LINE
  5
1404
330
1F
100
AcDbEntity
  8
0
  6
Continuous
 62
     7
100
AcDbLine
 10
218.9159108675258
 20
691.7808107166722
 30
0.0
 11
225.9159108675258
 21
691.7808107166722
 31
0.0
  0
LINE
  5
1405
330
1F
100
AcDbEntity
  8
0
  6
Continuous
 62
     7
100
AcDbLine
 10
228.0149735816888
 20
689.7646859829053
 30
0.0
 11
276.0313648219276
 21
688.9775320281483
 31
0.0
  0
LINE
  5
1406
330
1F
100
AcDbEntity
  8
0
  6
Continuous
 62
     7
100
AcDbLine
 10
349.4681957120246
 20
687.6416029941483
 30
0.0
 11
375.1240429471097
 21
681.2276411853763
 31
0.0
  0
LINE
  5
1407
330
1F
100
AcDbEntity
  8
0
  6
Continuous
 62
     7
100
AcDbLine
 10
276.0313648219276
 20
688.9775320281483
 30
0.0
 11
348.3374737880396
 21
687.7902187664083
 31
0.0
  0
LINE
  5
1408
330
1F
100
AcDbEntity
  8
0
  6
CENTER_DASH_DASH
 62
   171
100
AcDbLine
 10
227.0313648219278
 20
690.7808107166722
 30
0.0
 11
227.0313648219278
 21
690.7645516375032
 31
0.0
  0
LINE
  5
1409
330
1F
100
AcDbEntity
  8
0
  6
Continuous
 62
     7
100
AcDbLine
 10
375.1240429471097
 20
544.3339802479672
 30
0.0
 11
349.4681957120246
 21
537.9200184391972
 31
0.0
  0
LINE
  5
140A
330
1F
100
AcDbEntity
  8
0
  6
Continuous
 62
     7
100
AcDbLine
 10
378.9113648219279
 20
612.7808107166722
 30
0.0
 11
378.9113648219279
 21
549.1846927486943
 31
0.0
  0
LINE
  5
140B
330
1F
100
AcDbEntity
  8
0
  6
Continuous
 62
     7
100
AcDbLine
 10
326.9159108675247
 20
539.7808107166722
 30
0.0
 11
326.9159108675247
 21
549.2988133094192
 31
0.0
  0
LINE
  5
140D
330
1F
100
AcDbEntity
  8
0
  6
Continuous
 62
     7
100
AcDbLine
 10
378.9113648219279
 20
676.3769286846504
 30
0.0
 11
378.9113648219279
 21
612.7808107166722
 31
0.0
  0
LINE
  5
140E
330
1F
100
AcDbEntity
  8
0
  6
Continuous
 62
     7
100
AcDbLine
 10
228.5313648219278
 20
667.6308107166721
 30
0.0
 11
230.6968648219276
 21
667.8202107166724
 31
0.0
  0
LINE
  5
140F
330
1F
100
AcDbEntity
  8
0
  6
Continuous
 62
     7
100
AcDbLine
 10
228.5313648219278
 20
678.1308107166722
 30
0.0
 11
230.6968648219276
 21
677.9413107166722
 31
0.0
  0
LINE
  5
1410
330
1F
100
AcDbEntity
  8
0
  6
Continuous
 62
     7
100
AcDbLine
 10
232.4312648219276
 20
676.0485107166724
 30
0.0
 11
232.4312648219276
 21
669.7130107166723
 31
0.0
  0
LINE
  5
1411
330
1F
100
AcDbEntity
  8
0
  6
Continuous
 62
     7
100
AcDbLine
 10
228.5313648219278
 20
678.1308107166722
 30
0.0
 11
228.5313648219278
 21
667.6308107166721
 31
0.0
  0
LINE
  5
1412
330
1F
100
AcDbEntity
  8
0
  6
Continuous
 62
     7
100
AcDbLine
 10
228.5313648219278
 20
678.9807107166723
 30
0.0
 11
227.0313648219278
 21
678.9807107166723
 31
0.0
  0
LINE
  5
1413
330
1F
100
AcDbEntity
  8
0
  6
Continuous
 62
     7
100
AcDbLine
 10
228.5313648219278
 20
666.7807107166724
 30
0.0
 11
227.0313648219278
 21
666.7807107166724
 31
0.0
  0
LINE
  5
1414
330
1F
100
AcDbEntity
  8
0
  6
Continuous
 62
     7
100
AcDbLine
 10
228.5313648219278
 20
673.2827107166722
 30
0.0
 11
227.0313648219278
 21
672.8808107166722
 31
0.0
  0
LINE
  5
1415
330
1F
100
AcDbEntity
  8
0
  6
Continuous
 62
     7
100
AcDbLine
 10
228.5313648219278
 20
672.8808107166722
 30
0.0
 11
227.0313648219278
 21
672.4789107166722
 31
0.0
  0
LINE
  5
1416
330
1F
100
AcDbEntity
  8
0
  6
Continuous
 62
     7
100
AcDbLine
 10
228.5313648219278
 20
678.9807107166723
 30
0.0
 11
228.5313648219278
 21
673.2827107166722
 31
0.0
  0
LINE
  5
1417
330
1F
100
AcDbEntity
  8
0
  6
Continuous
 62
     7
100
AcDbLine
 10
228.5313648219278
 20
672.8808107166722
 30
0.0
 11
228.5313648219278
 21
666.7807107166724
 31
0.0
  0
LINE
  5
1418
330
1F
100
AcDbEntity
  8
0
  6
Continuous
 62
     7
100
AcDbLine
 10
228.4159108675246
 20
547.4267343158152
 30
0.0
 11
230.5814108675246
 21
547.6161343158152
 31
0.0
  0
LINE
  5
1419
330
1F
100
AcDbEntity
  8
0
  6
Continuous
 62
     7
100
AcDbLine
 10
228.4159108675246
 20
557.9267343158153
 30
0.0
 11
230.5814108675246
 21
557.7372343158153
 31
0.0
  0
LINE
  5
141A
330
1F
100
AcDbEntity
  8
0
  6
Continuous
 62
     7
100
AcDbLine
 10
232.3158108675248
 20
555.8444343158153
 30
0.0
 11
232.3158108675248
 21
549.5089343158154
 31
0.0
  0
LINE
  5
141B
330
1F
100
AcDbEntity
  8
0
  6
Continuous
 62
     7
100
AcDbLine
 10
228.4159108675246
 20
557.9267343158153
 30
0.0
 11
228.4159108675246
 21
547.4267343158152
 31
0.0
  0
LINE
  5
141C
330
1F
100
AcDbEntity
  8
0
  6
Continuous
 62
     7
100
AcDbLine
 10
228.4159108675246
 20
558.7766343158152
 30
0.0
 11
226.9159108675246
 21
558.7766343158152
 31
0.0
  0
LINE
  5
141D
330
1F
100
AcDbEntity
  8
0
  6
Continuous
 62
     7
100
AcDbLine
 10
228.4159108675246
 20
546.5766343158154
 30
0.0
 11
226.9159108675246
 21
546.5766343158154
 31
0.0
  0
LINE
  5
141E
330
1F
100
AcDbEntity
  8
0
  6
Continuous
 62
     7
100
AcDbLine
 10
228.4159108675246
 20
553.0786343158154
 30
0.0
 11
226.9159108675246
 21
552.6767343158153
 31
0.0
  0
LINE
  5
141F
330
1F
100
AcDbEntity
  8
0
  6
Continuous
 62
     7
100
AcDbLine
 10
228.4159108675246
 20
552.6767343158153
 30
0.0
 11
226.9159108675246
 21
552.2748343158152
 31
0.0
  0
LINE
  5
1420
330
1F
100
AcDbEntity
  8
0
  6
Continuous
 62
     7
100
AcDbLine
 10
228.4159108675246
 20
558.7766343158152
 30
0.0
 11
228.4159108675246
 21
553.0786343158154
 31
0.0
  0
LINE
  5
1421
330
1F
100
AcDbEntity
  8
0
  6
Continuous
 62
     7
100
AcDbLine
 10
228.4159108675246
 20
552.6767343158153
 30
0.0
 11
228.4159108675246
 21
546.5766343158154
 31
0.0
  0
LINE
  5
1422
330
1F
100
AcDbEntity
  8
0
  6
Continuous
 62
     7
100
AcDbLine
 10
226.9159108675246
 20
558.7766343158152
 30
0.0
 11
226.9159108675246
 21
552.6767343158153
 31
0.0
  0
LINE
  5
1423
330
1F
100
AcDbEntity
  8
0
  6
Continuous
 62
     7
100
AcDbLine
 10
232.3158108675248
 20
550.2988133094192
 30
0.0
 11
327.297876878775
 21
550.2988133094192
 31
0.0
  0
LINE
  5
1424
330
1F
100
AcDbEntity
  8
0
  6
Continuous
 62
     7
100
AcDbLine
 10
218.9159108675258
 20
691.7808107166722
 30
0.0
 11
205.9159108675256
 21
691.7808107166722
 31
0.0
  0
LINE
  5
1425
330
1F
100
AcDbEntity
  8
0
  6
Continuous
 62
     7
100
AcDbLine
 10
205.9159108675255
 20
704.7808107166722
 30
0.0
 11
205.9159108675255
 21
689.1066612144825
 31
0.0
  0
LINE
  5
1426
330
1F
100
AcDbEntity
  8
0
  6
Continuous
 62
     7
100
AcDbLine
 10
227.0313648219278
 20
690.2999914410401
 30
0.0
 11
227.0313648219278
 21
612.7808107166722
 31
0.0
  0
LINE
  5
1427
330
1F
100
AcDbEntity
  8
0
  6
Continuous
 62
     7
100
AcDbLine
 10
102.9159108675255
 20
537.7808107166722
 30
0.0
 11
102.9159108675255
 21
687.7808107166722
 31
0.0
  0
LINE
  5
1428
330
1F
100
AcDbEntity
  8
0
  6
Continuous
 62
     7
100
AcDbLine
 10
205.9159108675255
 20
750.4827107166723
 30
0.0
 11
205.9159108675255
 21
753.1827107166719
 31
0.0
  0
LINE
  5
1429
330
1F
100
AcDbEntity
  8
0
  6
Continuous
 62
     7
100
AcDbLine
 10
205.9159108675255
 20
740.1683443252802
 30
0.0
 11
205.9159108675255
 21
741.5584690994324
 31
0.0
  0
LINE
  5
142A
330
1F
100
AcDbEntity
  8
0
  6
CENTER_DASH_DASH
 62
   171
100
AcDbLine
 10
206.0313648219276
 20
740.182710716672
 30
0.0
 11
206.0313648219276
 21
740.166451637503
 31
0.0
  0
LINE
  5
142B
330
1F
100
AcDbEntity
  8
0
  6
Continuous
 62
     7
100
AcDbLine
 10
207.4159108675255
 20
741.9327107166719
 30
0.0
 11
209.5814108675253
 21
742.1221107166721
 31
0.0
  0
LINE
  5
142C
330
1F
100
AcDbEntity
  8
0
  6
Continuous
 62
     7
100
AcDbLine
 10
207.4159108675255
 20
752.4327107166721
 30
0.0
 11
209.5814108675253
 21
752.2432107166721
 31
0.0
  0
LINE
  5
142D
330
1F
100
AcDbEntity
  8
0
  6
Continuous
 62
     7
100
AcDbLine
 10
211.3158108675253
 20
750.3504107166722
 30
0.0
 11
211.3158108675253
 21
744.0149107166721
 31
0.0
  0
LINE
  5
142E
330
1F
100
AcDbEntity
  8
0
  6
Continuous
 62
     7
100
AcDbLine
 10
207.4159108675255
 20
752.4327107166721
 30
0.0
 11
207.4159108675255
 21
741.9327107166719
 31
0.0
  0
LINE
  5
142F
330
1F
100
AcDbEntity
  8
0
  6
Continuous
 62
     7
100
AcDbLine
 10
207.4159108675255
 20
753.2826107166722
 30
0.0
 11
205.9159108675255
 21
753.2826107166722
 31
0.0
  0
LINE
  5
1430
330
1F
100
AcDbEntity
  8
0
  6
Continuous
 62
     7
100
AcDbLine
 10
207.4159108675255
 20
741.082610716672
 30
0.0
 11
205.9159108675255
 21
741.082610716672
 31
0.0
  0
LINE
  5
1431
330
1F
100
AcDbEntity
  8
0
  6
Continuous
 62
     7
100
AcDbLine
 10
207.4159108675255
 20
747.5846107166721
 30
0.0
 11
205.9159108675255
 21
747.182710716672
 31
0.0
  0
LINE
  5
1432
330
1F
100
AcDbEntity
  8
0
  6
Continuous
 62
     7
100
AcDbLine
 10
207.4159108675255
 20
747.182710716672
 30
0.0
 11
205.9159108675255
 21
746.7808107166722
 31
0.0
  0
LINE
  5
1433
330
1F
100
AcDbEntity
  8
0
  6
Continuous
 62
     7
100
AcDbLine
 10
207.4159108675255
 20
753.2826107166722
 30
0.0
 11
207.4159108675255
 21
747.5846107166721
 31
0.0
  0
LINE
  5
1434
330
1F
100
AcDbEntity
  8
0
  6
Continuous
 62
     7
100
AcDbLine
 10
207.4159108675255
 20
747.182710716672
 30
0.0
 11
207.4159108675255
 21
741.082610716672
 31
0.0
  0
LINE
  5
1435
330
1F
100
AcDbEntity
  8
0
  6
Continuous
 62
     7
100
AcDbLine
 10
205.9159108675255
 20
753.2826107166722
 30
0.0
 11
205.9159108675255
 21
747.182710716672
 31
0.0
  0
LINE
  5
1436
330
1F
100
AcDbEntity
  8
0
  6
Continuous
 62
     7
100
AcDbLine
 10
205.9159108675255
 20
746.7808107166722
 30
0.0
 11
205.9159108675255
 21
741.5584690994324
 31
0.0
  0
LINE
  5
1437
330
1F
100
AcDbEntity
  8
0
  6
Continuous
 62
     7
100
AcDbLine
 10
205.9159108675255
 20
548.0808229924122
 30
0.0
 11
205.9159108675255
 21
550.7808229924123
 31
0.0
  0
LINE
  5
1438
330
1F
100
AcDbEntity
  8
0
  6
Continuous
 62
     7
100
AcDbLine
 10
205.9159108675255
 20
537.7664566010205
 30
0.0
 11
205.9159108675255
 21
541.4808229924123
 31
0.0
  0
LINE
  5
1439
330
1F
100
AcDbEntity
  8
0
  6
CENTER_DASH_DASH
 62
   171
100
AcDbLine
 10
206.0313648219274
 20
537.7808229924122
 30
0.0
 11
206.0313648219274
 21
537.7645639132433
 31
0.0
  0
LINE
  5
143A
330
1F
100
AcDbEntity
  8
0
  6
Continuous
 62
     7
100
AcDbLine
 10
207.4159108675255
 20
539.5308229924124
 30
0.0
 11
209.5814108675253
 21
539.7202229924125
 31
0.0
  0
LINE
  5
143B
330
1F
100
AcDbEntity
  8
0
  6
Continuous
 62
     7
100
AcDbLine
 10
207.4159108675255
 20
550.0308229924122
 30
0.0
 11
209.5814108675253
 21
549.8413229924123
 31
0.0
  0
LINE
  5
143C
330
1F
100
AcDbEntity
  8
0
  6
Continuous
 62
     7
100
AcDbLine
 10
207.4159108675255
 20
550.0308229924122
 30
0.0
 11
207.4159108675255
 21
539.5308229924124
 31
0.0
  0
LINE
  5
143D
330
1F
100
AcDbEntity
  8
0
  6
Continuous
 62
     7
100
AcDbLine
 10
207.4159108675255
 20
550.8807229924125
 30
0.0
 11
205.9159108675255
 21
550.8807229924125
 31
0.0
  0
LINE
  5
143E
330
1F
100
AcDbEntity
  8
0
  6
Continuous
 62
     7
100
AcDbLine
 10
207.4159108675255
 20
538.6807229924123
 30
0.0
 11
205.9159108675255
 21
538.6807229924123
 31
0.0
  0
LINE
  5
143F
330
1F
100
AcDbEntity
  8
0
  6
Continuous
 62
     7
100
AcDbLine
 10
207.4159108675255
 20
545.1827229924123
 30
0.0
 11
205.9159108675255
 21
544.7808229924122
 31
0.0
  0
LINE
  5
1440
330
1F
100
AcDbEntity
  8
0
  6
Continuous
 62
     7
100
AcDbLine
 10
207.4159108675255
 20
544.7808229924122
 30
0.0
 11
205.9159108675255
 21
544.3789229924123
 31
0.0
  0
LINE
  5
1441
330
1F
100
AcDbEntity
  8
0
  6
Continuous
 62
     7
100
AcDbLine
 10
207.4159108675255
 20
550.8807229924125
 30
0.0
 11
207.4159108675255
 21
545.1827229924123
 31
0.0
  0
LINE
  5
1442
330
1F
100
AcDbEntity
  8
0
  6
Continuous
 62
     7
100
AcDbLine
 10
207.4159108675255
 20
544.7808229924122
 30
0.0
 11
207.4159108675255
 21
538.6807229924123
 31
0.0
  0
LINE
  5
1443
330
1F
100
AcDbEntity
  8
0
  6
Continuous
 62
     7
100
AcDbLine
 10
205.9159108675255
 20
550.8807229924125
 30
0.0
 11
205.9159108675255
 21
544.7808229924122
 31
0.0
  0
LINE
  5
1444
330
1F
100
AcDbEntity
  8
0
  6
Continuous
 62
     7
100
AcDbLine
 10
205.9159108675255
 20
544.3789229924123
 30
0.0
 11
205.9159108675255
 21
538.6807229924123
 31
0.0
  0
LINE
  5
1445
330
1F
100
AcDbEntity
  8
0
  6
Continuous
 62
     7
100
AcDbLine
 10
211.3158108675253
 20
541.6130229924123
 30
0.0
 11
211.3158108675253
 21
547.9485229924123
 31
0.0
  0
LINE
  5
1446
330
1F
100
AcDbEntity
  8
0
  6
Continuous
 62
     7
100
AcDbLine
 10
211.9159108675257
 20
392.7808107166723
 30
0.0
 11
221.4159108675258
 21
392.7808107166723
 31
0.0
  0
LINE
  5
1447
330
1F
100
AcDbEntity
  8
0
  6
Continuous
 62
     7
100
AcDbLine
 10
341.9159108675258
 20
392.7808107166723
 30
0.0
 11
341.9159108675258
 21
395.9808107166722
 31
0.0
  0
LINE
  5
1448
330
1F
100
AcDbEntity
  8
0
  6
Continuous
 62
     7
100
AcDbLine
 10
341.9159108675258
 20
395.9808107166722
 30
0.0
 11
327.1801265833408
 21
537.2478627210582
 31
0.0
  0
LINE
  5
1449
330
1F
100
AcDbEntity
  8
0
  6
Continuous
 62
     7
100
AcDbLine
 10
324.9159108675258
 20
539.7808107166722
 30
0.0
 11
326.9159108675247
 21
539.7808107166722
 31
0.0
  0
LINE
  5
144A
330
1F
100
AcDbEntity
  8
0
  6
Continuous
 62
     7
100
AcDbLine
 10
211.9159108675257
 20
392.7808107166723
 30
0.0
 11
211.9159108675257
 21
395.9808107166722
 31
0.0
  0
LINE
  5
144B
330
1F
100
AcDbEntity
  8
0
  6
Continuous
 62
     7
100
AcDbLine
 10
211.9159108675257
 20
395.9808107166722
 30
0.0
 11
221.4159108675258
 21
395.9808107166722
 31
0.0
  0
LINE
  5
144C
330
1F
100
AcDbEntity
  8
0
  6
Continuous
 62
     7
100
AcDbLine
 10
226.9159108675257
 20
395.9808107166722
 30
0.0
 11
232.4159108675257
 21
395.9808107166722
 31
0.0
  0
LINE
  5
144D
330
1F
100
AcDbEntity
  8
0
  6
Continuous
 62
     7
100
AcDbLine
 10
226.9159108675257
 20
522.7808107166722
 30
0.0
 11
246.9159108675257
 21
522.7808107166722
 31
0.0
  0
LINE
  5
144E
330
1F
100
AcDbEntity
  8
0
  6
Continuous
 62
     7
100
AcDbLine
 10
244.9159108675257
 20
539.7808107166723
 30
0.0
 11
246.9159108675257
 21
539.7808107166723
 31
0.0
  0
LINE
  5
144F
330
1F
100
AcDbEntity
  8
0
  6
Continuous
 62
     7
100
AcDbLine
 10
199.9159108675255
 20
524.256052172261
 30
0.0
 11
199.9159108675255
 21
754.7808107166722
 31
0.0
  0
LINE
  5
1450
330
1F
100
AcDbEntity
  8
0
  6
Continuous
 62
     7
100
AcDbLine
 10
199.9159108675255
 20
754.7808107166722
 30
0.0
 11
195.9159108675255
 21
754.7808107166722
 31
0.0
  0
LINE
  5
1451
330
1F
100
AcDbEntity
  8
0
  6
Continuous
 62
     7
100
AcDbLine
 10
205.9159108675255
 20
517.7097305759175
 30
0.0
 11
205.9159108675256
 21
533.7808107166722
 31
0.0
  0
LINE
  5
1452
330
1F
100
AcDbEntity
  8
0
  6
Continuous
 62
     7
100
AcDbLine
 10
205.9159108675255
 20
637.7808107166722
 30
0.0
 11
205.9159108675256
 21
557.4695433612848
 31
0.0
  0
LINE
  5
1453
330
1F
100
AcDbEntity
  8
0
  6
Continuous
 62
     7
100
AcDbLine
 10
226.9159108675246
 20
552.2748343158152
 30
0.0
 11
226.9159108675246
 21
546.6767343158153
 31
0.0
  0
LINE
  5
1454
330
1F
100
AcDbEntity
  8
0
  6
Continuous
 62
     7
100
AcDbLine
 10
205.9159108675256
 20
533.7808107166722
 30
0.0
 11
225.9159108675246
 21
533.7808107166722
 31
0.0
  0
LINE
  5
1455
330
1F
100
AcDbEntity
  8
0
  6
Continuous
 62
     7
100
AcDbLine
 10
205.9159108675256
 20
533.7808107166722
 30
0.0
 11
205.9159108675256
 21
557.4695433612848
 31
0.0
  0
LINE
  5
1456
330
1F
100
AcDbEntity
  8
0
  6
Continuous
 62
     7
100
AcDbLine
 10
205.9159108675256
 20
533.7808107166722
 30
0.0
 11
205.9159108675255
 21
517.7097305759175
 31
0.0
  0
LINE
  5
1457
330
1F
100
AcDbEntity
  8
0
  6
Continuous
 62
     7
100
AcDbLine
 10
246.9159108675257
 20
536.6515730110056
 30
0.0
 11
246.9159108675257
 21
535.4194652607008
 31
0.0
  0
LINE
  5
1458
330
1F
100
AcDbEntity
  8
0
  6
Continuous
 62
     7
100
AcDbLine
 10
246.9159108675257
 20
535.4194652607008
 30
0.0
 11
246.9159108675257
 21
535.2729208851452
 31
0.0
  0
LINE
  5
1459
330
1F
100
AcDbEntity
  8
0
  6
Continuous
 62
     7
100
AcDbLine
 10
226.9159108675246
 20
539.7808107166722
 30
0.0
 11
244.9159108675257
 21
539.7808107166723
 31
0.0
  0
LINE
  5
145A
330
1F
100
AcDbEntity
  8
0
  6
Continuous
 62
     7
100
AcDbLine
 10
226.9159108675246
 20
539.7808107166722
 30
0.0
 11
226.9159108675246
 21
552.2748343158152
 31
0.0
  0
LINE
  5
145C
330
1F
100
AcDbEntity
  8
0
  6
Continuous
 62
     7
100
AcDbLine
 10
348.9113648219279
 20
611.741640481804
 30
0.0
 11
348.9113648219279
 21
537.7808107166731
 31
0.0
  0
LINE
  5
145D
330
1F
100
AcDbEntity
  8
0
  6
Continuous
 62
     7
100
AcDbLine
 10
348.9113648219279
 20
611.741640481804
 30
0.0
 11
348.9113648219279
 21
687.7902187664083
 31
0.0
  0
LINE
  5
145E
330
1F
100
AcDbEntity
  8
0
  6
DOTTED
 62
     2
100
AcDbLine
 10
271.4159108675257
 20
395.9808107166722
 30
0.0
 11
271.4159108675257
 21
392.7808107166723
 31
0.0
  0
LINE
  5
145F
330
1F
100
AcDbEntity
  8
0
  6
Continuous
 62
     7
100
AcDbLine
 10
271.4159108675257
 20
395.9808107166722
 30
0.0
 11
282.4159108675257
 21
395.9808107166722
 31
0.0
  0
LINE
  5
1460
330
1F
100
AcDbEntity
  8
0
  6
Continuous
 62
     7
100
AcDbLine
 10
271.4159108675257
 20
392.7808107166723
 30
0.0
 11
282.4159108675257
 21
392.7808107166723
 31
0.0
  0
LINE
  5
1461
330
1F
100
AcDbEntity
  8
0
  6
DOTTED
 62
     2
100
AcDbLine
 10
282.4159108675257
 20
395.9808107166722
 30
0.0
 11
282.4159108675257
 21
392.7808107166723
 31
0.0
  0
LINE
  5
1462
330
1F
100
AcDbEntity
  8
0
  6
Continuous
 62
     7
100
AcDbLine
 10
282.4159108675257
 20
395.9808107166722
 30
0.0
 11
321.4159108675257
 21
395.9808107166722
 31
0.0
  0
LINE
  5
1463
330
1F
100
AcDbEntity
  8
0
  6
Continuous
 62
     7
100
AcDbLine
 10
282.4159108675257
 20
392.7808107166723
 30
0.0
 11
321.4159108675257
 21
392.7808107166723
 31
0.0
  0
LINE
  5
1464
330
1F
100
AcDbEntity
  8
0
  6
DOTTED
 62
     2
100
AcDbLine
 10
321.4159108675257
 20
395.9808107166722
 30
0.0
 11
321.4159108675257
 21
392.7808107166723
 31
0.0
  0
LINE
  5
1465
330
1F
100
AcDbEntity
  8
0
  6
Continuous
 62
     7
100
AcDbLine
 10
321.4159108675257
 20
395.9808107166722
 30
0.0
 11
326.9159108675258
 21
395.9808107166722
 31
0.0
  0
LINE
  5
1466
330
1F
100
AcDbEntity
  8
0
  6
Continuous
 62
     7
100
AcDbLine
 10
321.4159108675257
 20
392.7808107166723
 30
0.0
 11
332.4159108675258
 21
392.7808107166723
 31
0.0
  0
LINE
  5
1467
330
1F
100
AcDbEntity
  8
0
  6
DOTTED
 62
     2
100
AcDbLine
 10
332.4159108675258
 20
395.9808107166722
 30
0.0
 11
332.4159108675258
 21
392.7808107166723
 31
0.0
  0
LINE
  5
1468
330
1F
100
AcDbEntity
  8
0
  6
Continuous
 62
     7
100
AcDbLine
 10
332.4159108675258
 20
395.9808107166722
 30
0.0
 11
341.9159108675258
 21
395.9808107166722
 31
0.0
  0
LINE
  5
1469
330
1F
100
AcDbEntity
  8
0
  6
Continuous
 62
     7
100
AcDbLine
 10
332.4159108675258
 20
392.7808107166723
 30
0.0
 11
341.9159108675258
 21
392.7808107166723
 31
0.0
  0
LINE
  5
146A
330
1F
100
AcDbEntity
  8
0
  6
DOTTED
 62
     2
100
AcDbLine
 10
232.4159108675257
 20
395.9808107166722
 30
0.0
 11
232.4159108675257
 21
392.7808107166723
 31
0.0
  0
LINE
  5
146B
330
1F
100
AcDbEntity
  8
0
  6
Continuous
 62
     7
100
AcDbLine
 10
232.4159108675257
 20
395.9808107166722
 30
0.0
 11
271.4159108675257
 21
395.9808107166722
 31
0.0
  0
LINE
  5
146C
330
1F
100
AcDbEntity
  8
0
  6
Continuous
 62
     7
100
AcDbLine
 10
232.4159108675257
 20
392.7808107166723
 30
0.0
 11
271.4159108675257
 21
392.7808107166723
 31
0.0
  0
LINE
  5
146D
330
1F
100
AcDbEntity
  8
0
  6
DOTTED
 62
     2
100
AcDbLine
 10
221.4159108675258
 20
395.9808107166722
 30
0.0
 11
221.4159108675258
 21
392.7808107166723
 31
0.0
  0
LINE
  5
146E
330
1F
100
AcDbEntity
  8
0
  6
Continuous
 62
     7
100
AcDbLine
 10
221.4159108675258
 20
395.9808107166722
 30
0.0
 11
226.9159108675257
 21
395.9808107166722
 31
0.0
  0
LINE
  5
146F
330
1F
100
AcDbEntity
  8
0
  6
Continuous
 62
     7
100
AcDbLine
 10
221.4159108675258
 20
392.7808107166723
 30
0.0
 11
232.4159108675257
 21
392.7808107166723
 31
0.0
  0
LINE
  5
1470
330
1F
100
AcDbEntity
  8
0
  6
DASH_CENTER
 62
     2
100
AcDbLine
 10
226.9159108675257
 20
404.4078818450743
 30
0.0
 11
226.9159108675257
 21
380.9571807973014
 31
0.0
  0
LINE
  5
1471
330
1F
100
AcDbEntity
  8
0
  6
Continuous
 62
     7
100
AcDbLine
 10
226.9159108675257
 20
404.4078818450743
 30
0.0
 11
226.9159108675257
 21
395.9808107166722
 31
0.0
  0
LINE
  5
1472
330
1F
100
AcDbEntity
  8
0
  6
DASH_CENTER
 62
     2
100
AcDbLine
 10
276.9159108675257
 20
403.7825298171333
 30
0.0
 11
276.9159108675257
 21
386.4290110417814
 31
0.0
  0
LINE
  5
1473
330
1F
100
AcDbEntity
  8
0
  6
DASH_CENTER
 62
     2
100
AcDbLine
 10
326.9159108675258
 20
400.3430936634603
 30
0.0
 11
326.9159108675258
 21
395.9808107166722
 31
0.0
  0
LINE
  5
1478
330
1F
100
AcDbEntity
  8
0
  6
Continuous
 62
     7
100
AcDbLine
 10
197.2816280998481
 20
741.5584690994324
 30
0.0
 11
205.9159108675255
 21
741.5584690994324
 31
0.0
  0
LINE
  5
1479
330
1F
100
AcDbEntity
  8
0
  6
Continuous
 62
     7
100
AcDbLine
 10
205.9159108675255
 20
741.5584690994324
 30
0.0
 11
205.9159108675255
 21
704.7808107166722
 31
0.0
  0
LINE
  5
147A
330
1F
100
AcDbEntity
  8
0
  6
Continuous
 62
     7
100
AcDbLine
 10
205.9159108675255
 20
741.5584690994324
 30
0.0
 11
205.9159108675255
 21
743.8827107166721
 31
0.0
  0
LINE
  5
147B
330
1F
100
AcDbEntity
  8
0
  6
Continuous
 62
     7
100
AcDbLine
 10
205.9159108675255
 20
741.5584690994324
 30
0.0
 11
205.9159108675255
 21
741.082610716672
 31
0.0
  0
LINE
  5
147C
330
1F
100
AcDbEntity
  8
0
  6
Continuous
 62
     7
100
AcDbLine
 10
195.9580257701656
 20
689.1066612144825
 30
0.0
 11
195.9580257701656
 21
754.9453533293212
 31
0.0
  0
LINE
  5
147D
330
1F
100
AcDbEntity
  8
0
  6
Continuous
 62
     7
100
AcDbLine
 10
195.9580257701656
 20
557.4695433612848
 30
0.0
 11
205.9159108675256
 21
557.4695433612848
 31
0.0
  0
LINE
  5
147E
330
1F
100
AcDbEntity
  8
0
  6
Continuous
 62
     7
100
AcDbLine
 10
205.9159108675256
 20
557.4695433612848
 30
0.0
 11
205.9159108675256
 21
533.7808107166722
 31
0.0
  0
LINE
  5
147F
330
1F
100
AcDbEntity
  8
0
  6
Continuous
 62
     7
100
AcDbLine
 10
205.9159108675256
 20
557.4695433612848
 30
0.0
 11
205.9159108675255
 21
637.7808107166722
 31
0.0
  0
LINE
  5
1480
330
1F
100
AcDbEntity
  8
0
  6
Continuous
 62
     7
100
AcDbLine
 10
195.9580257701656
 20
536.4888202073047
 30
0.0
 11
206.0313648219274
 21
536.4888202073047
 31
0.0
  0
LINE
  5
1481
330
1F
100
AcDbEntity
  8
0
  6
Continuous
 62
     7
100
AcDbLine
 10
195.9580257701656
 20
536.4888202073047
 30
0.0
 11
195.9580257701656
 21
557.4695433612848
 31
0.0
  0
LINE
  5
1482
330
1F
100
AcDbEntity
  8
0
  6
Continuous
 62
     7
100
AcDbLine
 10
195.9580257701656
 20
689.0728012260394
 30
0.0
 11
195.9580257701656
 21
697.7808107166723
 31
0.0
  0
LINE
  5
1483
330
1F
100
AcDbEntity
  8
0
  6
Continuous
 62
     7
100
AcDbLine
 10
205.9159108675255
 20
674.7807984409323
 30
0.0
 11
205.9159108675255
 21
677.4807984409322
 31
0.0
  0
LINE
  5
1484
330
1F
100
AcDbEntity
  8
0
  6
Continuous
 62
     7
100
AcDbLine
 10
205.9159108675255
 20
684.0807984409321
 30
0.0
 11
205.9159108675255
 21
687.7951648323241
 31
0.0
  0
LINE
  5
1485
330
1F
100
AcDbEntity
  8
0
  6
CENTER_DASH_DASH
 62
   171
100
AcDbLine
 10
206.0313648219274
 20
687.7970575201013
 30
0.0
 11
206.0313648219274
 21
687.7807984409321
 31
0.0
  0
LINE
  5
1486
330
1F
100
AcDbEntity
  8
0
  6
Continuous
 62
     7
100
AcDbLine
 10
209.5814108675253
 20
685.8413984409321
 30
0.0
 11
207.4159108675255
 21
686.0307984409323
 31
0.0
  0
LINE
  5
1487
330
1F
100
AcDbEntity
  8
0
  6
Continuous
 62
     7
100
AcDbLine
 10
209.5814108675253
 20
675.720298440932
 30
0.0
 11
207.4159108675255
 21
675.5307984409322
 31
0.0
  0
LINE
  5
1488
330
1F
100
AcDbEntity
  8
0
  6
Continuous
 62
     7
100
AcDbLine
 10
207.4159108675255
 20
686.0307984409323
 30
0.0
 11
207.4159108675255
 21
675.5307984409322
 31
0.0
  0
LINE
  5
1489
330
1F
100
AcDbEntity
  8
0
  6
Continuous
 62
     7
100
AcDbLine
 10
205.9159108675255
 20
674.6808984409321
 30
0.0
 11
207.4159108675255
 21
674.6808984409321
 31
0.0
  0
LINE
  5
148A
330
1F
100
AcDbEntity
  8
0
  6
Continuous
 62
     7
100
AcDbLine
 10
205.9159108675255
 20
686.8808984409319
 30
0.0
 11
207.4159108675255
 21
686.8808984409319
 31
0.0
  0
LINE
  5
148B
330
1F
100
AcDbEntity
  8
0
  6
Continuous
 62
     7
100
AcDbLine
 10
205.9159108675255
 20
680.7807984409322
 30
0.0
 11
207.4159108675255
 21
680.3788984409321
 31
0.0
  0
LINE
  5
148C
330
1F
100
AcDbEntity
  8
0
  6
Continuous
 62
     7
100
AcDbLine
 10
205.9159108675255
 20
681.182698440932
 30
0.0
 11
207.4159108675255
 21
680.7807984409322
 31
0.0
  0
LINE
  5
148D
330
1F
100
AcDbEntity
  8
0
  6
Continuous
 62
     7
100
AcDbLine
 10
207.4159108675255
 20
680.3788984409321
 30
0.0
 11
207.4159108675255
 21
674.6808984409321
 31
0.0
  0
LINE
  5
148E
330
1F
100
AcDbEntity
  8
0
  6
Continuous
 62
     7
100
AcDbLine
 10
207.4159108675255
 20
686.8808984409319
 30
0.0
 11
207.4159108675255
 21
680.7807984409322
 31
0.0
  0
LINE
  5
148F
330
1F
100
AcDbEntity
  8
0
  6
Continuous
 62
     7
100
AcDbLine
 10
205.9159108675255
 20
680.7807984409322
 30
0.0
 11
205.9159108675255
 21
674.6808984409321
 31
0.0
  0
LINE
  5
1490
330
1F
100
AcDbEntity
  8
0
  6
Continuous
 62
     7
100
AcDbLine
 10
205.9159108675255
 20
686.8808984409319
 30
0.0
 11
205.9159108675255
 21
681.182698440932
 31
0.0
  0
LINE
  5
1491
330
1F
100
AcDbEntity
  8
0
  6
Continuous
 62
     7
100
AcDbLine
 10
211.3158108675253
 20
677.613098440932
 30
0.0
 11
211.3158108675253
 21
683.9485984409321
 31
0.0
  0
LINE
  5
1492
330
1F
100
AcDbEntity
  8
0
  6
Continuous
 62
     7
100
AcDbLine
 10
205.9159108675256
 20
668.0920780720595
 30
0.0
 11
205.9159108675256
 21
691.7808107166722
 31
0.0
  0
LINE
  5
1493
330
1F
100
AcDbEntity
  8
0
  6
Continuous
 62
     7
100
AcDbLine
 10
205.9159108675256
 20
668.0920780720595
 30
0.0
 11
195.9580257701656
 21
668.0920780720595
 31
0.0
  0
LINE
  5
1494
330
1F
100
AcDbEntity
  8
0
  6
Continuous
 62
     7
100
AcDbLine
 10
205.9159108675256
 20
691.7808107166722
 30
0.0
 11
205.9159108675256
 21
668.0920780720595
 31
0.0
  0
LINE
  5
1495
330
1F
100
AcDbEntity
  8
0
  6
Continuous
 62
     7
100
AcDbLine
 10
206.0313648219274
 20
689.0728012260394
 30
0.0
 11
195.9580257701656
 21
689.0728012260394
 31
0.0
  0
LINE
  5
1496
330
1F
100
AcDbEntity
  8
0
  6
Continuous
 62
     7
100
AcDbLine
 10
195.9580257701656
 20
668.0920780720595
 30
0.0
 11
195.9580257701656
 21
689.0728012260394
 31
0.0
  0
LINE
  5
1497
330
1F
100
AcDbEntity
  8
0
  6
Continuous
 62
     7
100
AcDbLine
 10
195.9580257701656
 20
668.0920780720595
 30
0.0
 11
195.9580257701656
 21
557.4695433612848
 31
0.0
  0
LINE
  5
1498
330
1F
100
AcDbEntity
  8
0
  6
Continuous
 62
     7
100
AcDbLine
 10
205.9159108675256
 20
668.0920780720595
 30
0.0
 11
205.9159108675255
 21
637.7808107166722
 31
0.0
  0
LINE
  5
1499
330
1F
100
AcDbEntity
  8
0
  6
Continuous
 62
     7
100
AcDbLine
 10
218.9159108675258
 20
547.3175805448429
 30
0.0
 11
218.9159108675258
 21
588.2750020854624
 31
0.0
  0
LINE
  5
149A
330
1F
100
AcDbEntity
  8
0
  6
Continuous
 62
     7
100
AcDbLine
 10
218.9159108675258
 20
547.3175805448429
 30
0.0
 11
218.9159108675258
 21
588.2750020854624
 31
0.0
  0
LINE
  5
149B
330
1F
100
AcDbEntity
  8
0
  6
Continuous
 62
     2
100
AcDbLine
 10
208.7483630739359
 20
531.1132629230827
 30
0.0
 11
179.7184782560606
 21
502.0833781052073
 31
0.0
  0
LINE
  5
149C
330
1F
100
AcDbEntity
  8
110
  6
DASH_CENTER
 62
     2
100
AcDbLine
 10
97.45399373816912
 20
612.7808107166722
 30
0.0
 11
218.9159108675258
 21
612.7808107166722
 31
0.0
  0
LINE
  5
14A6
330
1F
100
AcDbEntity
  8
0
  6
Continuous
 62
     7
100
AcDbLine
 10
327.1801265833408
 20
537.2478627210582
 30
0.0
 11
348.3374737880396
 21
537.7714026669364
 31
0.0
  0
LINE
  5
14A7
330
1F
100
AcDbEntity
  8
0
  6
Continuous
 62
     7
100
AcDbLine
 10
327.1801265833408
 20
537.2478627210582
 30
0.0
 11
326.9159108675258
 21
539.7808107166722
 31
0.0
  0
LINE
  5
14A8
330
1F
100
AcDbEntity
  8
0
  6
Continuous
 62
     7
100
AcDbLine
 10
175.9580257701656
 20
774.9453533293213
 30
0.0
 11
126.9159108675254
 21
774.9453533293213
 31
0.0
  0
LINE
  5
14A9
330
1F
100
AcDbEntity
  8
0
  6
DASH_CENTER
 62
     2
100
AcDbLine
 10
151.4159108675254
 20
782.7828568216554
 30
0.0
 11
151.4159108675254
 21
400.2504610473435
 31
0.0
  0
LINE
  5
14B9
330
1F
100
AcDbEntity
  8
0
  6
Continuous
 62
     7
100
AcDbLine
 10
-204.2309543714702
 20
743.7969027333267
 30
0.0
 11
-226.1953893321977
 21
720.2429299480701
 31
0.0
  0
LINE
  5
14BA
330
1F
100
AcDbEntity
  8
0
  6
Continuous
 62
     7
100
AcDbLine
 10
-204.2309543714702
 20
743.7969027333267
 30
0.0
 11
-202.7685222506084
 21
731.8863489136308
 31
0.0
  0
LINE
  5
14BB
330
1F
100
AcDbEntity
  8
0
  6
Continuous
 62
     7
100
AcDbLine
 10
-162.7685334294648
 20
736.199105524284
 30
0.0
 11
-167.9971034820192
 21
724.9864008622125
 31
0.0
  0
LINE
  5
14BC
330
1F
100
AcDbEntity
  8
0
  6
Continuous
 62
     7
100
AcDbLine
 10
-194.7467237877147
 20
738.6077024902204
 30
0.0
 11
-197.6392930590311
 21
732.404567669829
 31
0.0
  0
LINE
  5
14BD
330
1F
100
AcDbEntity
  8
0
  6
Continuous
 62
     7
100
AcDbLine
 10
-19.14420104199074
 20
543.7808107166723
 30
0.0
 11
-13.14420104199075
 21
543.7808107166723
 31
0.0
  0
LINE
  5
14BE
330
1F
100
AcDbEntity
  8
0
  6
Continuous
 62
     7
100
AcDbLine
 10
-13.14420104199075
 20
543.7808107166723
 30
0.0
 11
-13.14420104199075
 21
403.7808107166721
 31
0.0
  0
LINE
  5
14BF
330
1F
100
AcDbEntity
  8
0
  6
Continuous
 62
     7
100
AcDbLine
 10
-19.14420104199074
 20
403.7808107166721
 30
0.0
 11
-13.14420104199075
 21
403.7808107166721
 31
0.0
  0
LINE
  5
14C0
330
1F
100
AcDbEntity
  8
0
  6
Continuous
 62
     7
100
AcDbLine
 10
-21.14420104199074
 20
541.7808107166721
 30
0.0
 11
-21.14420104199074
 21
530.4600792428315
 31
0.0
  0
LINE
  5
14C1
330
1F
100
AcDbEntity
  8
0
  6
Continuous
 62
     7
100
AcDbLine
 10
-23.14420104199076
 20
527.7808107166722
 30
0.0
 11
-67.40089288259349
 21
527.7808107166722
 31
0.0
  0
LINE
  5
14C2
330
1F
100
AcDbEntity
  8
0
  6
Continuous
 62
     7
100
AcDbLine
 10
-23.14420104199076
 20
419.7808107166721
 30
0.0
 11
-131.8474261623014
 21
420.4731879467379
 31
0.0
  0
LINE
  5
14C3
330
1F
100
AcDbEntity
  8
0
  6
Continuous
 62
     7
100
AcDbLine
 10
-21.14420104199074
 20
417.7808107166721
 30
0.0
 11
-21.14420104199074
 21
405.7808107166722
 31
0.0
  0
LINE
  5
14C4
330
1F
100
AcDbEntity
  8
0
  6
Continuous
 62
     7
100
AcDbLine
 10
-21.14420104199074
 20
530.4600792428315
 30
0.0
 11
-21.14420104199074
 21
417.7808107166721
 31
0.0
  0
LINE
  5
14C5
330
1F
100
AcDbEntity
  8
0
  6
Continuous
 62
     7
100
AcDbLine
 10
-21.14420104199074
 20
530.4600792428315
 30
0.0
 11
-21.14420104199074
 21
529.7808107166722
 31
0.0
  0
LINE
  5
14DA
330
1F
100
AcDbEntity
  8
0
  6
Continuous
 62
     7
100
AcDbLine
 10
-271.6442010419908
 20
392.7808107166721
 30
0.0
 11
-263.6442010419908
 21
392.7808107166721
 31
0.0
  0
LINE
  5
14DB
330
1F
100
AcDbEntity
  8
0
  6
Continuous
 62
     7
100
AcDbLine
 10
-271.6442010419908
 20
395.9808107166722
 30
0.0
 11
-263.6442010419908
 21
395.9808107166722
 31
0.0
  0
LINE
  5
14DC
330
1F
100
AcDbEntity
  8
0
  6
Continuous
 62
     7
100
AcDbLine
 10
-271.6442010419908
 20
395.9808107166722
 30
0.0
 11
-271.6442010419908
 21
392.7808107166721
 31
0.0
  0
LINE
  5
14DD
330
1F
100
AcDbEntity
  8
0
  6
Continuous
 62
     7
100
AcDbLine
 10
-246.014767591086
 20
397.8420637406838
 30
0.0
 11
-243.6381389033958
 21
432.0179842696671
 31
0.0
  0
LINE
  5
14DE
330
1F
100
AcDbEntity
  8
0
  6
DOTTED
 62
     2
100
AcDbLine
 10
-263.6442010419908
 20
395.9808107166722
 30
0.0
 11
-263.6442010419908
 21
392.7808107166721
 31
0.0
  0
LINE
  5
14DF
330
1F
100
AcDbEntity
  8
0
  6
Continuous
 62
     7
100
AcDbLine
 10
-263.6442010419908
 20
395.9808107166722
 30
0.0
 11
-252.6442010419908
 21
395.9808107166722
 31
0.0
  0
LINE
  5
14E0
330
1F
100
AcDbEntity
  8
0
  6
Continuous
 62
     7
100
AcDbLine
 10
-263.6442010419908
 20
392.7808107166721
 30
0.0
 11
-252.6442010419908
 21
392.7808107166721
 31
0.0
  0
LINE
  5
14E1
330
1F
100
AcDbEntity
  8
0
  6
DOTTED
 62
     2
100
AcDbLine
 10
-252.6442010419908
 20
395.9808107166722
 30
0.0
 11
-252.6442010419908
 21
392.7808107166721
 31
0.0
  0
LINE
  5
14E2
330
1F
100
AcDbEntity
  8
0
  6
Continuous
 62
     7
100
AcDbLine
 10
-252.6442010419908
 20
395.9808107166722
 30
0.0
 11
-248.0099491057994
 21
395.9808107166722
 31
0.0
  0
LINE
  5
14E3
330
1F
100
AcDbEntity
  8
0
  6
Continuous
 62
     7
100
AcDbLine
 10
-252.6442010419908
 20
392.7808107166721
 30
0.0
 11
-246.1442010419907
 21
392.7808107166721
 31
0.0
  0
LINE
  5
14E4
330
1F
100
AcDbEntity
  8
0
  6
DASH_CENTER
 62
     2
100
AcDbLine
 10
-258.1442010419908
 20
401.4606216488854
 30
0.0
 11
-258.1442010419908
 21
387.7752311959705
 31
0.0
  0
LINE
  5
14EB
330
1F
100
AcDbEntity
  8
0
  6
Continuous
 62
     7
100
AcDbLine
 10
-232.7871483827458
 20
407.7808107166721
 30
0.0
 11
-188.1442010419908
 21
407.7808107166721
 31
0.0
  0
LINE
  5
14EC
330
1F
100
AcDbEntity
  8
0
  6
Continuous
 62
     7
100
AcDbLine
 10
-242.7630559563127
 20
398.4745455966142
 30
0.0
 11
-243.0295706889923
 21
394.6420637406837
 31
0.0
  0
LINE
  5
1509
330
1F
100
AcDbEntity
  8
0
  6
Continuous
 62
     7
100
AcDbLine
 10
-112.6442010419909
 20
392.7808107166721
 30
0.0
 11
-104.6442010419908
 21
392.7808107166721
 31
0.0
  0
LINE
  5
150A
330
1F
100
AcDbEntity
  8
0
  6
Continuous
 62
     7
100
AcDbLine
 10
-112.6442010419909
 20
395.9808107166722
 30
0.0
 11
-104.6442010419908
 21
395.9808107166722
 31
0.0
  0
LINE
  5
150B
330
1F
100
AcDbEntity
  8
0
  6
Continuous
 62
     7
100
AcDbLine
 10
-104.6442010419908
 20
392.7808107166721
 30
0.0
 11
-104.6442010419908
 21
395.9808107166722
 31
0.0
  0
LINE
  5
150C
330
1F
100
AcDbEntity
  8
0
  6
DOTTED
 62
     2
100
AcDbLine
 10
-112.6442010419909
 20
392.7808107166721
 30
0.0
 11
-112.6442010419909
 21
395.9808107166722
 31
0.0
  0
LINE
  5
150D
330
1F
100
AcDbEntity
  8
0
  6
Continuous
 62
     7
100
AcDbLine
 10
-123.6442010419909
 20
395.9808107166722
 30
0.0
 11
-112.6442010419909
 21
395.9808107166722
 31
0.0
  0
LINE
  5
150E
330
1F
100
AcDbEntity
  8
0
  6
Continuous
 62
     7
100
AcDbLine
 10
-123.6442010419909
 20
392.7808107166721
 30
0.0
 11
-112.6442010419909
 21
392.7808107166721
 31
0.0
  0
LINE
  5
150F
330
1F
100
AcDbEntity
  8
0
  6
DOTTED
 62
     2
100
AcDbLine
 10
-123.6442010419909
 20
392.7808107166721
 30
0.0
 11
-123.6442010419909
 21
395.9808107166722
 31
0.0
  0
LINE
  5
1510
330
1F
100
AcDbEntity
  8
0
  6
Continuous
 62
     7
100
AcDbLine
 10
-128.2784529781822
 20
395.9808107166722
 30
0.0
 11
-123.6442010419909
 21
395.9808107166722
 31
0.0
  0
LINE
  5
1511
330
1F
100
AcDbEntity
  8
0
  6
Continuous
 62
     7
100
AcDbLine
 10
-131.263649880276
 20
392.7808107166721
 30
0.0
 11
-123.6442010419909
 21
392.7808107166721
 31
0.0
  0
LINE
  5
1512
330
1F
100
AcDbEntity
  8
0
  6
DASH_CENTER
 62
     2
100
AcDbLine
 10
-118.1442010419909
 20
387.7752311959705
 30
0.0
 11
-118.1442010419909
 21
401.4606216488854
 31
0.0
  0
LINE
  5
1513
330
1F
100
AcDbEntity
  8
0
  6
Continuous
 62
     7
100
AcDbLine
 10
-188.1442010419908
 20
407.7808107166721
 30
0.0
 11
-143.5012537012358
 21
407.7808107166721
 31
0.0
  0
LINE
  5
1514
330
1F
100
AcDbEntity
  8
0
  6
Continuous
 62
     7
100
AcDbLine
 10
-133.2588313949893
 20
394.6420637406837
 30
0.0
 11
-133.5253461276688
 21
398.4745455966142
 31
0.0
  0
LINE
  5
152B
330
1F
100
AcDbEntity
  8
0
  6
Continuous
 62
     7
100
AcDbLine
 10
-131.8474261623014
 20
420.4731879467379
 30
0.0
 11
-130.2736344928957
 21
397.8420637406838
 31
0.0
  0
LINE
  5
152C
330
1F
100
AcDbEntity
  8
0
  6
Continuous
 62
     7
100
AcDbLine
 10
-180.1442010419908
 20
420.7808107166721
 30
0.0
 11
-131.8474261623014
 21
420.4731879467379
 31
0.0
  0
LINE
  5
152E
330
1F
100
AcDbEntity
  8
0
  6
DASH_CENTER
 62
     2
100
AcDbLine
 10
-53.1432303520204
 20
473.7808107166721
 30
0.0
 11
-3.156410296067377
 21
473.7808107166721
 31
0.0
  0
LINE
  5
1530
330
1F
100
AcDbEntity
  8
0
  6
DASH_CENTER
 62
     2
100
AcDbLine
 10
-18.85282401343488
 20
612.7808107166721
 30
0.0
 11
-384.3942010419908
 21
612.7808107166722
 31
0.0
  0
LINE
  5
1539
330
1F
100
AcDbEntity
  8
0
  6
DASH_CENTER
 62
     2
100
AcDbLine
 10
-188.1442010419908
 20
374.398941202362
 30
0.0
 11
-188.1442010419908
 21
785.7486844237635
 31
0.0
  0
ELLIPSE
  5
1568
330
1F
100
AcDbEntity
  8
0
  6
Continuous
 62
     7
100
AcDbEllipse
 10
151.4159108675254
 20
473.7808107166722
 30
0.0
 11
-49.49747468308414
 21
49.49747468308414
 31
0.0
210
0.0
220
0.0
230
1.0
 40
0.9999999999994797
 41
-1.550842050787163
 42
-1.47511131736811
  0
ELLIPSE
  5
1569
330
1F
100
AcDbEntity
  8
0
  6
Continuous
 62
     7
100
AcDbEllipse
 10
328.4159108675246
 20
549.2988133094192
 30
0.0
 11
-1.060660171779739
 21
1.060660171779739
 31
0.0
210
0.0
220
0.0
230
1.0
 40
0.9999999999998749
 41
0.0556705071703323
 42
0.7853981633975109
  0
ELLIPSE
  5
156A
330
1F
100
AcDbEntity
  8
0
  6
Continuous
 62
     7
100
AcDbEllipse
 10
230.5313951150913
 20
669.7130437766218
 30
0.0
 11
1.343481463956384
 21
1.343481463956384
 31
0.0
210
0.0
220
0.0
230
1.0
 40
0.9999999999999998
 41
4.014297663347659
 42
5.497769743531293
  0
ELLIPSE
  5
156B
330
1F
100
AcDbEntity
  8
0
  6
Continuous
 62
     7
100
AcDbEllipse
 10
230.5313453052618
 20
676.0485320169926
 30
0.0
 11
-1.343516684705636
 21
1.343516684705636
 31
0.0
210
0.0
220
0.0
230
1.0
 40
0.9999999999999749
 41
3.926979606407572
 42
5.410456276346347
  0
ELLIPSE
  5
156C
330
1F
100
AcDbEntity
  8
0
  6
Continuous
 62
     7
100
AcDbEllipse
 10
230.4159411606882
 20
549.5089673757649
 30
0.0
 11
-1.343481463956545
 21
1.343481463956545
 31
0.0
210
0.0
220
0.0
230
0.9999999999999998
 40
0.9999999999999948
 41
2.443501336552781
 42
3.926973416736332
  0
ELLIPSE
  5
156D
330
1F
100
AcDbEntity
  8
0
  6
Continuous
 62
     7
100
AcDbEllipse
 10
230.4158913508587
 20
555.8444556161354
 30
0.0
 11
1.343516684705855
 21
1.343516684705855
 31
0.0
210
0.0
220
0.0
230
1.0
 40
0.9999999999999074
 41
5.49777593320241
 42
6.98125260314128
  0
ELLIPSE
  5
156E
330
1F
100
AcDbEntity
  8
0
  6
Continuous
 62
     7
100
AcDbEllipse
 10
209.415941160689
 20
744.0149437766216
 30
0.0
 11
-1.343481463956418
 21
1.343481463956418
 31
0.0
210
0.0
220
0.0
230
0.9999999999999998
 40
0.9999999999999522
 41
2.443501336552804
 42
3.92697341673642
  0
ELLIPSE
  5
156F
330
1F
100
AcDbEntity
  8
0
  6
Continuous
 62
     7
100
AcDbEllipse
 10
209.4158913508594
 20
750.3504320169923
 30
0.0
 11
-1.343516684705726
 21
1.343516684705726
 31
0.0
210
0.0
220
0.0
230
1.0
 40
0.9999999999999818
 41
3.926979606407568
 42
5.410456276346257
  0
ELLIPSE
  5
1570
330
1F
100
AcDbEntity
  8
0
  6
Continuous
 62
     7
100
AcDbEllipse
 10
209.415941160689
 20
541.6130560523619
 30
0.0
 11
-1.343481463956417
 21
1.343481463956417
 31
0.0
210
0.0
220
0.0
230
1.0
 40
0.9999999999999463
 41
2.443501336552736
 42
3.926973416736356
  0
ELLIPSE
  5
1571
330
1F
100
AcDbEntity
  8
0
  6
Continuous
 62
     7
100
AcDbEllipse
 10
209.4158913508594
 20
547.9485442927326
 30
0.0
 11
-1.343516684705652
 21
1.343516684705652
 31
0.0
210
0.0
220
0.0
230
1.0
 40
0.9999999999999859
 41
3.926979606407501
 42
5.410456276346319
  0
ELLIPSE
  5
1572
330
1F
100
AcDbEntity
  8
0
  6
Continuous
 62
     7
100
AcDbEllipse
 10
151.4159108675254
 20
473.7808107166722
 30
0.0
 11
-49.49747468306108
 21
49.49747468306109
 31
0.0
210
0.0
220
0.0
230
1.0
 40
0.9999999999999451
 41
4.605400956856598
 42
4.732343256392432
  0
ELLIPSE
  5
1573
330
1F
100
AcDbEntity
  8
0
  6
Continuous
 62
     7
100
AcDbEllipse
 10
209.415941160689
 20
683.9485653809825
 30
0.0
 11
1.343481463956417
 21
1.343481463956417
 31
0.0
210
0.0
220
0.0
230
0.9999999999999998
 40
0.9999999999999463
 41
5.497804544033022
 42
6.981276624216643
  0
ELLIPSE
  5
1574
330
1F
100
AcDbEntity
  8
0
  6
Continuous
 62
     7
100
AcDbEllipse
 10
209.4158913508594
 20
677.6130771406116
 30
0.0
 11
-1.343516684705666
 21
1.343516684705666
 31
0.0
210
0.0
220
0.0
230
1.0
 40
0.9999999999999598
 41
2.443525357628136
 42
3.927002027567009
  0
ELLIPSE
  5
1575
330
1F
100
AcDbEntity
  8
0
  6
DASH_CENTER
 62
     2
100
AcDbEllipse
 10
151.4159108675254
 20
473.7808107166722
 30
0.0
 11
-45.25483399593909
 21
45.25483399593909
 31
0.0
210
0.0
220
0.0
230
0.9999999999999998
 40
0.9999999999999964
 41
2.874542153828964
 42
3.396920780759083
  0
ELLIPSE
  5
1576
330
1F
100
AcDbEntity
  8
0
  6
DASH_CENTER
 62
     2
100
AcDbEllipse
 10
151.4159108675254
 20
473.7808107166722
 30
0.0
 11
-45.25483399593926
 21
45.25483399593926
 31
0.0
210
0.0
220
0.0
230
0.9999999999999998
 40
0.9999999999999966
 41
4.302710990080085
 42
5.00022875215359
  0
ELLIPSE
  5
1577
330
1F
100
AcDbEntity
  8
0
  6
DASH_CENTER
 62
     2
100
AcDbEllipse
 10
151.4159108675254
 20
473.7808107166722
 30
0.0
 11
45.25483399593915
 21
45.25483399593915
 31
0.0
210
0.0
220
0.0
230
1.0
 40
0.9999999999999968
 41
1.313020714823847
 42
1.811915801630829
  0
ELLIPSE
  5
1578
330
1F
100
AcDbEntity
  8
0
  6
DASH_CENTER
 62
     2
100
AcDbEllipse
 10
151.4159108675254
 20
473.7808107166722
 30
0.0
 11
45.254833995939
 21
45.25483399593899
 31
0.0
210
0.0
220
0.0
230
1.0
 40
0.999999999999996
 41
2.712159155367808
 42
3.408846867579773
  0
ELLIPSE
  5
1584
330
1F
100
AcDbEntity
  8
0
  6
Continuous
 62
     7
100
AcDbEllipse
 10
-188.1442010419908
 20
612.7808107166722
 30
0.0
 11
-80.61017305526636
 21
80.61017305526636
 31
0.0
210
0.0
220
0.0
230
0.9999999999999998
 40
0.9999999999999975
 41
-0.9630602307642529
 42
-0.4450849560965225
  0
ELLIPSE
  5
1585
330
1F
100
AcDbEntity
  8
0
  6
Continuous
 62
     7
100
AcDbEllipse
 10
-188.1442010419908
 20
612.7808107166722
 30
0.0
 11
-89.09545442950618
 21
89.09545442950619
 31
0.0
210
0.0
220
0.0
230
1.0
 40
0.9999999999999962
 41
-0.9881792279359546
 42
-0.7329731785699344
  0
ELLIPSE
  5
1586
330
1F
100
AcDbEntity
  8
0
  6
Continuous
 62
     7
100
AcDbEllipse
 10
-188.1442010419908
 20
612.7808107166722
 30
0.0
 11
84.85281374242473
 21
84.85281374242473
 31
0.0
210
0.0
220
0.0
230
1.0
 40
0.9999999999998461
 41
0.8646067299460023
 42
0.9075712110371247
  0
ELLIPSE
  5
1587
330
1F
100
AcDbEntity
  8
0
  6
Continuous
 62
     2
100
AcDbEllipse
 10
-188.1442010419908
 20
612.7808107166722
 30
0.0
 11
-48.79036790187183
 21
48.79036790187185
 31
0.0
210
0.0
220
0.0
230
1.0
 40
0.9999999999999978
 41
3.517711348205645
 42
4.311210873778843
  0
ELLIPSE
  5
1588
330
1F
100
AcDbEntity
  8
0
  6
Continuous
 62
     2
100
AcDbEllipse
 10
-188.1442010419908
 20
612.7808107166722
 30
0.0
 11
-48.79036790187154
 21
48.79036790187154
 31
0.0
210
0.0
220
0.0
230
1.0
 40
0.9999999999999975
 41
0.3849512821447083
 42
0.7853981633974497
  0
ELLIPSE
  5
1589
330
1F
100
AcDbEntity
  8
0
  6
Continuous
 62
     2
100
AcDbEllipse
 10
-188.1442010419908
 20
612.7808107166722
 30
0.0
 11
48.7903679018717
 21
48.7903679018717
 31
0.0
210
0.0
220
0.0
230
0.9999999999999998
 40
0.9999999999999996
 41
0.4479677686017396
 42
1.108903940770998
  0
ELLIPSE
  5
158A
330
1F
100
AcDbEntity
  8
0
  6
Continuous
 62
     2
100
AcDbEllipse
 10
-188.1442010419908
 20
612.7808107166722
 30
0.0
 11
48.79036790187171
 21
48.7903679018717
 31
0.0
210
0.0
220
0.0
230
1.0
 40
0.9999999999999966
 41
2.356194490192343
 42
2.771479946925934
  0
ELLIPSE
  5
158B
330
1F
100
AcDbEntity
  8
0
  6
Continuous
 62
     2
100
AcDbEllipse
 10
-188.1442010419908
 20
612.7808107166722
 30
0.0
 11
-48.79036790187159
 21
48.79036790187159
 31
0.0
210
0.0
220
0.0
230
0.9999999999999998
 40
0.9999999999999989
 41
2.030576781185621
 42
2.709171846422663
  0
ELLIPSE
  5
158C
330
1F
100
AcDbEntity
  8
0
  6
Continuous
 62
     7
100
AcDbEllipse
 10
-180.1442010419908
 20
605.7808107166721
 30
0.0
 11
130.8147545195124
 21
130.8147545195123
 31
0.0
210
0.0
220
0.0
230
1.0
 40
0.9999999999999966
 41
2.051407994399924
 42
2.356194490192342
  0
ELLIPSE
  5
1599
330
1F
100
AcDbEntity
  8
0
  6
Continuous
 62
     7
100
AcDbEllipse
 10
-180.1442010419908
 20
605.7808107166721
 30
0.0
 11
-130.8147545195121
 21
130.8147545195121
 31
0.0
210
0.0
220
0.0
230
1.0
 40
0.999999999999996
 41
2.023818983759316
 42
2.356194490192342
  0
ELLIPSE
  5
159A
330
1F
100
AcDbEntity
  8
0
  6
Continuous
 62
     7
100
AcDbEllipse
 10
-180.1442010419908
 20
605.7808107166721
 30
0.0
 11
130.8147545195112
 21
130.8147545195112
 31
0.0
210
0.0
220
0.0
230
1.0
 40
1.0
 41
2.356194490192343
 42
3.594615310554214
  0
ELLIPSE
  5
15A2
330
1F
100
AcDbEntity
  8
0
  6
Continuous
 62
     7
100
AcDbEllipse
 10
-195.6442010419908
 20
621.2808107166721
 30
0.0
 11
108.540890912135
 21
108.540890912135
 31
0.0
210
0.0
220
0.0
230
1.0
 40
0.9999999999999994
 41
5.442384212221589
 42
7.019704074310665
  0
ELLIPSE
  5
15A3
330
1F
100
AcDbEntity
  8
0
  6
Continuous
 62
     7
100
AcDbEllipse
 10
-184.1442010419908
 20
616.7808107166721
 30
0.0
 11
-100.4091629284897
 21
100.4091629284897
 31
0.0
210
0.0
220
0.0
230
1.0
 40
0.9999999999999994
 41
3.292082813228392
 42
3.942528055784319
  0
ELLIPSE
  5
15A4
330
1F
100
AcDbEntity
  8
0
  6
Continuous
 62
     7
100
AcDbEllipse
 10
-198.1442010419908
 20
607.7808107166722
 30
0.0
 11
118.0868324581539
 21
118.0868324581539
 31
0.0
210
0.0
220
0.0
230
0.9999999999999998
 40
0.9999999999999978
 41
2.153011995921967
 42
2.356194490192343
  0
ELLIPSE
  5
15A5
330
1F
100
AcDbEntity
  8
0
  6
Continuous
 62
     7
100
AcDbEllipse
 10
-198.1442010419908
 20
607.7808107166722
 30
0.0
 11
88.8009100703336
 21
141.6191996367861
 31
0.0
210
0.0
220
0.0
230
1.0
 40
0.9989276219522245
 41
0.5006422464233645
 42
1.927327724991606
  0
ELLIPSE
  5
15AA
330
1F
100
AcDbEntity
  8
0
  6
Continuous
 62
     7
100
AcDbEllipse
 10
151.4159108675254
 20
473.7808107166722
 30
0.0
 11
49.49747468305837
 21
49.49747468305837
 31
0.0
210
0.0
220
0.0
230
1.0
 40
0.999999999999998
 41
5.497787143782137
 42
11.78097245096172
  0
ELLIPSE
  5
15AC
330
1F
100
AcDbEntity
  8
0
  6
Continuous
 62
     7
100
AcDbEllipse
 10
151.4159108675254
 20
473.7808107166722
 30
0.0
 11
-35.35533905932743
 21
35.35533905932743
 31
0.0
210
0.0
220
0.0
230
1.0
 40
0.9999999999999984
 41
3.926990816987242
 42
10.21017612416683
  0
ELLIPSE
  5
15AD
330
1F
100
AcDbEntity
  8
0
  6
Continuous
 62
     2
100
AcDbEllipse
 10
196.6707448634645
 20
519.0356447126113
 30
0.0
 11
-1.767766952966395
 21
1.767766952966395
 31
0.0
210
0.0
220
0.0
230
1.0
 40
0.999999999999969
 41
3.926990816987256
 42
10.21017612416684
  0
ELLIPSE
  5
15AE
330
1F
100
AcDbEntity
  8
0
  6
Continuous
 62
     7
100
AcDbEllipse
 10
196.6707448634645
 20
519.0356447126113
 30
0.0
 11
-1.484924240491803
 21
1.484924240491803
 31
0.0
210
0.0
220
0.0
230
1.0
 40
0.9999999999999422
 41
3.926990816987269
 42
10.21017612416685
  0
ELLIPSE
  5
15AF
330
1F
100
AcDbEntity
  8
0
  6
Continuous
 62
     7
100
AcDbEllipse
 10
106.1610768715864
 20
519.0356447126113
 30
0.0
 11
1.484924240491787
 21
1.484924240491787
 31
0.0
210
0.0
220
0.0
230
0.9999999999999998
 40
0.9999999999999721
 41
5.497787143782123
 42
11.78097245096171
  0
ELLIPSE
  5
15B0
330
1F
100
AcDbEntity
  8
0
  6
Continuous
 62
     7
100
AcDbEllipse
 10
106.1610768715864
 20
428.5259767207332
 30
0.0
 11
-1.484924240491791
 21
1.484924240491791
 31
0.0
210
0.0
220
0.0
230
1.0
 40
0.9999999999999287
 41
3.926990816987276
 42
10.21017612416686
  0
ELLIPSE
  5
15B1
330
1F
100
AcDbEntity
  8
0
  6
Continuous
 62
     7
100
AcDbEllipse
 10
196.6707448634644
 20
428.5259767207331
 30
0.0
 11
-1.484924240491803
 21
1.484924240491803
 31
0.0
210
0.0
220
0.0
230
1.0
 40
0.9999999999999422
 41
3.926990816987269
 42
10.21017612416685
  0
ELLIPSE
  5
15B2
330
1F
100
AcDbEntity
  8
0
  6
Continuous
 62
     2
100
AcDbEllipse
 10
106.1610768715864
 20
519.0356447126113
 30
0.0
 11
1.767766952966392
 21
1.767766952966392
 31
0.0
210
0.0
220
0.0
230
1.0
 40
0.9999999999999666
 41
5.497787143782121
 42
11.78097245096171
  0
ELLIPSE
  5
15B3
330
1F
100
AcDbEntity
  8
0
  6
Continuous
 62
     2
100
AcDbEllipse
 10
106.1610768715864
 20
428.5259767207332
 30
0.0
 11
1.767766952966396
 21
1.767766952966396
 31
0.0
210
0.0
220
0.0
230
0.9999999999999998
 40
0.9999999999999685
 41
5.497787143782121
 42
11.78097245096171
  0
ELLIPSE
  5
15B4
330
1F
100
AcDbEntity
  8
0
  6
Continuous
 62
     2
100
AcDbEllipse
 10
196.6707448634644
 20
428.5259767207331
 30
0.0
 11
1.767766952966413
 21
1.767766952966413
 31
0.0
210
0.0
220
0.0
230
1.0
 40
0.999999999999949
 41
5.497787143782112
 42
11.7809724509617
  0
ELLIPSE
  5
15B6
330
1F
100
AcDbEntity
  8
0
  6
Continuous
 62
     7
100
AcDbEllipse
 10
-188.1442010419908
 20
612.7808107166722
 30
0.0
 11
-53.03300858899112
 21
53.03300858899112
 31
0.0
210
0.0
220
0.0
230
0.9999999999999998
 40
0.999999999999998
 41
3.926990816987242
 42
10.21017612416683
  0
ELLIPSE
  5
15B7
330
1F
100
AcDbEntity
  8
0
  6
Continuous
 62
     7
100
AcDbEllipse
 10
-188.1442010419908
 20
612.7808107166722
 30
0.0
 11
40.65863991822655
 21
40.65863991822653
 31
0.0
210
0.0
220
0.0
230
1.0
 40
0.9999999999999975
 41
5.497787143782137
 42
11.78097245096172
  0
ELLIPSE
  5
15B8
330
1F
100
AcDbEntity
  8
0
  6
Continuous
 62
     7
100
AcDbEllipse
 10
-188.1442010419908
 20
681.7808107166722
 30
0.0
 11
1.484924240491824
 21
1.484924240491824
 31
0.0
210
0.0
220
0.0
230
1.0
 40
0.9999999999998845
 41
5.49778714378208
 42
11.78097245096166
  0
ELLIPSE
  5
15B9
330
1F
100
AcDbEntity
  8
0
  6
Continuous
 62
     2
100
AcDbEllipse
 10
-188.1442010419908
 20
681.7808107166722
 30
0.0
 11
1.76776695296639
 21
1.76776695296639
 31
0.0
210
0.0
220
0.0
230
1.0
 40
0.9999999999999754
 41
5.497787143782125
 42
11.78097245096171
  0
ELLIPSE
  5
15BA
330
1F
100
AcDbEntity
  8
0
  6
Continuous
 62
     2
100
AcDbEllipse
 10
-257.1442010419908
 20
612.7808107166722
 30
0.0
 11
1.767766952966413
 21
1.767766952966413
 31
0.0
210
0.0
220
0.0
230
1.0
 40
0.999999999999949
 41
5.497787143782112
 42
11.7809724509617
  0
ELLIPSE
  5
15BB
330
1F
100
AcDbEntity
  8
0
  6
Continuous
 62
     2
100
AcDbEllipse
 10
-188.1442010419908
 20
543.7808107166723
 30
0.0
 11
1.767766952966413
 21
1.767766952966413
 31
0.0
210
0.0
220
0.0
230
1.0
 40
0.999999999999949
 41
5.497787143782112
 42
11.7809724509617
  0
ELLIPSE
  5
15BC
330
1F
100
AcDbEntity
  8
0
  6
Continuous
 62
     2
100
AcDbEllipse
 10
-119.1442010419908
 20
612.7808107166722
 30
0.0
 11
-1.767766952966479
 21
1.767766952966479
 31
0.0
210
0.0
220
0.0
230
1.0
 40
0.9999999999998745
 41
3.926990816987304
 42
10.21017612416689
  0
ELLIPSE
  5
15BD
330
1F
100
AcDbEntity
  8
0
  6
Continuous
 62
     7
100
AcDbEllipse
 10
-257.1442010419908
 20
612.7808107166722
 30
0.0
 11
-1.484924240491774
 21
1.484924240491774
 31
0.0
210
0.0
220
0.0
230
0.9999999999999998
 40
0.9999999999999522
 41
3.926990816987265
 42
10.21017612416685
  0
ELLIPSE
  5
15BE
330
1F
100
AcDbEntity
  8
0
  6
Continuous
 62
     7
100
AcDbEllipse
 10
-188.1442010419908
 20
543.7808107166723
 30
0.0
 11
-1.484924240491797
 21
1.484924240491798
 31
0.0
210
0.0
220
0.0
230
1.0
 40
0.9999999999999204
 41
3.926990816987281
 42
10.21017612416686
  0
ELLIPSE
  5
15BF
330
1F
100
AcDbEntity
  8
0
  6
Continuous
 62
     7
100
AcDbEllipse
 10
-119.1442010419908
 20
612.7808107166722
 30
0.0
 11
-1.484924240491801
 21
1.484924240491802
 31
0.0
210
0.0
220
0.0
230
1.0
 40
0.9999999999999374
 41
3.926990816987272
 42
10.21017612416686
  0
ELLIPSE
  5
15CC
330
1F
100
AcDbEntity
  8
0
  6
Continuous
 62
     7
100
AcDbEllipse
 10
126.9159108675254
 20
754.9453533293212
 30
0.0
 11
14.14213562373095
 21
14.14213562373095
 31
0.0
210
0.0
220
0.0
230
1.0
 40
0.9999999999999994
 41
0.7853981633974485
 42
2.356194490192344
  0
ELLIPSE
  5
15CD
330
1F
100
AcDbEntity
  8
0
  6
Continuous
 62
     7
100
AcDbEllipse
 10
175.9580257701656
 20
754.9453533293212
 30
0.0
 11
-14.14213562373096
 21
14.14213562373096
 31
0.0
210
0.0
220
0.0
230
1.0
 40
0.9999999999999984
 41
3.926990816987242
 42
5.497787143782137
  0
ELLIPSE
  5
15CE
330
1F
100
AcDbEntity
  8
0
  6
Continuous
 62
     7
100
AcDbEllipse
 10
103.9159108675255
 20
717.2429299480702
 30
0.0
 11
2.12132034355964
 21
2.121320343559639
 31
0.0
210
0.0
220
0.0
230
1.0
 40
0.9999999999999594
 41
5.497787143782117
 42
6.728746561122925
  0
ELLIPSE
  5
15CF
330
1F
100
AcDbEntity
  8
0
  6
Continuous
 62
     7
100
AcDbEllipse
 10
103.9159108675255
 20
746.7969027333266
 30
0.0
 11
2.121320343559627
 21
2.121320343559626
 31
0.0
210
0.0
220
0.0
230
1.0
 40
0.9999999999999712
 41
4.266827726441372
 42
5.497787143782123
  0
ELLIPSE
  5
15D0
330
1F
100
AcDbEntity
  8
0
  6
Continuous
 62
     7
100
AcDbEllipse
 10
104.9159108675254
 20
722.9864008622126
 30
0.0
 11
-1.414213562373106
 21
1.414213562373107
 31
0.0
210
0.0
220
0.0
230
1.0
 40
0.9999999999999559
 41
3.926990816987263
 42
5.497787143782115
  0
ELLIPSE
  5
15D1
330
1F
100
AcDbEntity
  8
0
  6
Continuous
 62
     7
100
AcDbEllipse
 10
104.9159108675254
 20
740.6077024902203
 30
0.0
 11
1.414213562373125
 21
1.414213562373125
 31
0.0
210
0.0
220
0.0
230
1.0
 40
0.9999999999999932
 41
3.926990816987268
 42
5.497787143782134
  0
ELLIPSE
  5
15D2
330
1F
100
AcDbEntity
  8
0
  6
Continuous
 62
     7
100
AcDbEllipse
 10
103.9159108675255
 20
690.7808107166722
 30
0.0
 11
-2.121320343559665
 21
2.121320343559665
 31
0.0
210
0.0
220
0.0
230
0.9999999999999998
 40
0.9999999999999957
 41
2.356194490192337
 42
3.926990816987243
  0
ELLIPSE
  5
15D3
330
1F
100
AcDbEntity
  8
0
  6
Continuous
 62
     7
100
AcDbEllipse
 10
103.9159108675255
 20
534.7808107166721
 30
0.0
 11
2.121320343559658
 21
2.121320343559658
 31
0.0
210
0.0
220
0.0
230
0.9999999999999998
 40
0.9999999999999927
 41
5.497787143782134
 42
7.068583470577038
  0
ELLIPSE
  5
15D4
330
1F
100
AcDbEntity
  8
0
  6
Continuous
 62
     7
100
AcDbEllipse
 10
202.9159108675255
 20
751.7808107166722
 30
0.0
 11
-2.121320343559708
 21
2.121320343559708
 31
0.0
210
0.0
220
0.0
230
1.0
 40
0.9999999999999499
 41
3.926990816987266
 42
5.497787143782113
  0
ELLIPSE
  5
15D5
330
1F
100
AcDbEntity
  8
0
  6
Continuous
 62
     7
100
AcDbEllipse
 10
227.9159108675258
 20
690.7664443252802
 30
0.0
 11
-0.7071067811866003
 21
0.7071067811866003
 31
0.0
210
0.0
220
0.0
230
1.0
 40
0.9999999999999618
 41
0.7853981633974674
 42
2.339802515884615
  0
ELLIPSE
  5
15D6
330
1F
100
AcDbEntity
  8
0
  6
Continuous
 62
     7
100
AcDbEllipse
 10
225.9159108675258
 20
690.7808107166722
 30
0.0
 11
0.7071067811865658
 21
0.7071067811865658
 31
0.0
210
0.0
220
0.0
230
1.0
 40
0.9999999999998976
 41
5.497787143782086
 42
7.068583470577085
  0
ELLIPSE
  5
15D7
330
1F
100
AcDbEntity
  8
0
  6
Continuous
 62
     7
100
AcDbEllipse
 10
373.9113648219279
 20
676.3769286846504
 30
0.0
 11
-3.535533905932738
 21
3.535533905932738
 31
0.0
210
0.0
220
0.0
230
0.9999999999999998
 40
0.9999999999999932
 41
3.926990816987244
 42
5.252808480655197
  0
ELLIPSE
  5
15D8
330
1F
100
AcDbEntity
  8
0
  6
Continuous
 62
     7
100
AcDbEllipse
 10
348.2555175868429
 20
682.7908904934213
 30
0.0
 11
3.535533905932617
 21
3.535533905932617
 31
0.0
210
0.0
220
0.0
230
1.0
 40
0.9999999999999149
 41
0.5404195002706035
 42
0.7690061890894392
  0
ELLIPSE
  5
15D9
330
1F
100
AcDbEntity
  8
0
  6
Continuous
 62
     7
100
AcDbEllipse
 10
348.2555175868429
 20
542.7707309399234
 30
0.0
 11
3.535533905934796
 21
3.535533905934796
 31
0.0
210
0.0
220
0.0
230
1.0
 40
0.9999999999997251
 41
3.94338279129543
 42
4.171969480114276
  0
ELLIPSE
  5
15DA
330
1F
100
AcDbEntity
  8
0
  6
Continuous
 62
     7
100
AcDbEllipse
 10
373.9113648219279
 20
549.1846927486943
 30
0.0
 11
3.535533905933069
 21
3.535533905933069
 31
0.0
210
0.0
220
0.0
230
1.0
 40
0.9999999999999785
 41
4.171969480114139
 42
5.497787143782127
  0
ELLIPSE
  5
15DB
330
1F
100
AcDbEntity
  8
0
  6
Continuous
 62
     7
100
AcDbEllipse
 10
225.9159108675246
 20
534.7808107166721
 30
0.0
 11
0.7071067811866013
 21
0.7071067811866013
 31
0.0
210
0.0
220
0.0
230
1.0
 40
0.9999999999998605
 41
3.926990816987311
 42
5.497787143782067
  0
ELLIPSE
  5
15DC
330
1F
100
AcDbEntity
  8
0
  6
Continuous
 62
     7
100
AcDbEllipse
 10
-67.40089288259345
 20
530.7808107166721
 30
0.0
 11
-2.121320343559613
 21
2.121320343559613
 31
0.0
210
0.0
220
0.0
230
1.0
 40
0.999999999999992
 41
0.1504901596386137
 42
2.356194490192335
  0
ELLIPSE
  5
15DD
330
1F
100
AcDbEntity
  8
0
  6
Continuous
 62
     7
100
AcDbEllipse
 10
-19.14420104199075
 20
541.7808107166721
 30
0.0
 11
1.414213562373132
 21
1.414213562373131
 31
0.0
210
0.0
220
0.0
230
1.0
 40
0.9999999999999856
 41
0.7853981633974554
 42
2.356194490192337
  0
ELLIPSE
  5
15DE
330
1F
100
AcDbEntity
  8
0
  6
Continuous
 62
     7
100
AcDbEllipse
 10
-19.14420104199075
 20
405.7808107166722
 30
0.0
 11
1.414213562373111
 21
1.414213562373111
 31
0.0
210
0.0
220
0.0
230
1.0
 40
0.9999999999999827
 41
2.356194490192335
 42
3.926990816987249
  0
ELLIPSE
  5
15DF
330
1F
100
AcDbEntity
  8
0
  6
Continuous
 62
     7
100
AcDbEllipse
 10
-23.14420104199074
 20
417.7808107166721
 30
0.0
 11
-1.414213562373134
 21
1.414213562373134
 31
0.0
210
0.0
220
0.0
230
1.0
 40
0.9999999999999838
 41
3.926990816987249
 42
5.497787143782133
  0
ELLIPSE
  5
15E0
330
1F
100
AcDbEntity
  8
0
  6
Continuous
 62
     7
100
AcDbEllipse
 10
-23.14420104199074
 20
529.7808107166721
 30
0.0
 11
-1.414213562373111
 21
1.414213562373111
 31
0.0
210
0.0
220
0.0
230
1.0
 40
0.9999999999999531
 41
2.356194490192317
 42
3.926990816987264
  0
ELLIPSE
  5
15ED
330
1F
100
AcDbEntity
  8
0
  6
Continuous
 62
     7
100
AcDbEllipse
 10
-248.0099491057994
 20
397.9808107166722
 30
0.0
 11
1.414213562373132
 21
1.414213562373131
 31
0.0
210
0.0
220
0.0
230
1.0
 40
0.999999999999984
 41
3.926990816987249
 42
5.428357889520555
  0
ELLIPSE
  5
15EE
330
1F
100
AcDbEntity
  8
0
  6
Continuous
 62
     7
100
AcDbEllipse
 10
-245.0247522037057
 20
394.7808107166722
 30
0.0
 11
-1.414213562373139
 21
1.414213562373139
 31
0.0
210
0.0
220
0.0
230
1.0
 40
0.9999999999999751
 41
2.356194490192332
 42
3.857561562725613
  0
ELLIPSE
  5
15F1
330
1F
100
AcDbEntity
  8
0
  6
Continuous
 62
     7
100
AcDbEllipse
 10
-232.7871483827458
 20
397.7808107166721
 30
0.0
 11
-7.071067811865473
 21
7.071067811865474
 31
0.0
210
0.0
220
0.0
230
1.0
 40
0.9999999999999964
 41
-0.7853981633974501
 42
0.7159689091358859
  0
ELLIPSE
  5
15F2
330
1F
100
AcDbEntity
  8
0
  6
Continuous
 62
     7
100
AcDbEllipse
 10
-128.2784529781823
 20
397.9808107166722
 30
0.0
 11
1.41421356237314
 21
1.414213562373139
 31
0.0
210
0.0
220
0.0
230
1.0
 40
0.9999999999999698
 41
2.425623744453904
 42
3.926990816987256
  0
ELLIPSE
  5
15F3
330
1F
100
AcDbEntity
  8
0
  6
Continuous
 62
     7
100
AcDbEllipse
 10
-131.263649880276
 20
394.7808107166722
 30
0.0
 11
1.414213562373139
 21
1.414213562373138
 31
0.0
210
0.0
220
0.0
230
1.0
 40
0.9999999999999753
 41
2.425623744453972
 42
3.926990816987253
  0
ELLIPSE
  5
15F4
330
1F
100
AcDbEntity
  8
0
  6
Continuous
 62
     7
100
AcDbEllipse
 10
-143.5012537012358
 20
397.7808107166721
 30
0.0
 11
7.071067811865473
 21
7.071067811865473
 31
0.0
210
0.0
220
0.0
230
0.9999999999999998
 40
0.999999999999996
 41
5.5672163980437
 42
7.068583470577036
  0
ENDSEC
  0
SECTION
  2
OBJECTS
  0
DICTIONARY
  5
C
330
0
100
AcDbDictionary
281
     1
  3
ACAD_COLOR
350
74A
  3
ACAD_GROUP
350
D
  3
ACAD_LAYOUT
350
1A
  3
ACAD_MATERIAL
350
749
  3
ACAD_MLINESTYLE
350
17
  3
ACAD_PLOTSETTINGS
350
19
  3
ACAD_PLOTSTYLENAME
350
E
  3
ACDBHEADERROUNDTRIPXREC
350
1A06
  3
AcDbVariableDictionary
350
1991
  0
DICTIONARY
  5
74A
102
{ACAD_REACTORS
330
C
102
}
330
C
100
AcDbDictionary
281
     1
  0
DICTIONARY
  5
D
102
{ACAD_REACTORS
330
C
102
}
330
C
100
AcDbDictionary
281
     1
  0
DICTIONARY
  5
1A
102
{ACAD_REACTORS
330
C
102
}
330
C
100
AcDbDictionary
281
     1
  3
Layout1
350
1E
  3
Layout2
350
26
  3
Model
350
22
  0
DICTIONARY
  5
749
102
{ACAD_REACTORS
330
C
102
}
330
C
100
AcDbDictionary
281
     1
  0
DICTIONARY
  5
17
102
{ACAD_REACTORS
330
C
102
}
330
C
100
AcDbDictionary
281
     1
  3
Standard
350
18
  0
DICTIONARY
  5
19
102
{ACAD_REACTORS
330
C
102
}
330
C
100
AcDbDictionary
281
     1
  0
ACDBDICTIONARYWDFLT
  5
E
102
{ACAD_REACTORS
330
C
102
}
330
C
100
AcDbDictionary
281
     1
  3
Normal
350
F
100
AcDbDictionaryWithDefault
340
F
  0
DICTIONARY
  5
1A06
102
{ACAD_REACTORS
330
C
102
}
330
C
100
AcDbDictionary
281
     1
  3
COLORDICT
350
1A08
  3
MATERIALDICT
350
1A07
  0
DICTIONARY
  5
1991
102
{ACAD_REACTORS
330
C
102
}
330
C
100
AcDbDictionary
281
     1
  3
DIMASSOC
350
1992
  3
PROJECTNAME
350
1993
  0
LAYOUT
  5
1E
102
{ACAD_XDICTIONARY
360
1A09
102
}
102
{ACAD_REACTORS
330
1A
102
}
330
1A
100
AcDbPlotSettings
  1

  2

  4

  6

 40
0.0
 41
0.0
 42
0.0
 43
0.0
 44
0.0
 45
0.0
 46
0.0
 47
0.0
 48
0.0
 49
0.0
140
0.0
141
0.0
142
1.0
143
1.0
 70
   688
 72
     0
 73
     0
 74
     5
  7

 75
    16
147
1.0
148
0.0
149
0.0
100
AcDbLayout
  1
Layout1
 70
     1
 71
     1
 10
0.0
 20
0.0
 11
12.0
 21
9.0
 12
0.0
 22
0.0
 32
0.0
 14
1.000000000000000E+20
 24
1.000000000000000E+20
 34
1.000000000000000E+20
 15
-1.000000000000000E+20
 25
-1.000000000000000E+20
 35
-1.000000000000000E+20
146
0.0
 13
0.0
 23
0.0
 33
0.0
 16
1.0
 26
0.0
 36
0.0
 17
0.0
 27
1.0
 37
0.0
 76
     0
330
1B
  0
LAYOUT
  5
26
102
{ACAD_XDICTIONARY
360
1A0D
102
}
102
{ACAD_REACTORS
330
1A
102
}
330
1A
100
AcDbPlotSettings
  1

  2

  4

  6

 40
0.0
 41
0.0
 42
0.0
 43
0.0
 44
0.0
 45
0.0
 46
0.0
 47
0.0
 48
0.0
 49
0.0
140
0.0
141
0.0
142
1.0
143
1.0
 70
   688
 72
     0
 73
     0
 74
     5
  7

 75
    16
147
1.0
148
0.0
149
0.0
100
AcDbLayout
  1
Layout2
 70
     1
 71
     2
 10
0.0
 20
0.0
 11
0.0
 21
0.0
 12
0.0
 22
0.0
 32
0.0
 14
0.0
 24
0.0
 34
0.0
 15
0.0
 25
0.0
 35
0.0
146
0.0
 13
0.0
 23
0.0
 33
0.0
 16
1.0
 26
0.0
 36
0.0
 17
0.0
 27
1.0
 37
0.0
 76
     0
330
23
  0
LAYOUT
  5
22
102
{ACAD_XDICTIONARY
360
1A0B
102
}
102
{ACAD_REACTORS
330
1A
102
}
330
1A
100
AcDbPlotSettings
  1

  2

  4

  6

 40
0.0
 41
0.0
 42
0.0
 43
0.0
 44
0.0
 45
0.0
 46
0.0
 47
0.0
 48
0.0
 49
0.0
140
0.0
141
0.0
142
1.0
143
1.0
 70
  1712
 72
     0
 73
     0
 74
     0
  7

 75
     0
147
1.0
148
0.0
149
0.0
100
AcDbLayout
  1
Model
 70
     1
 71
     0
 10
0.0
 20
0.0
 11
0.0
 21
0.0
 12
0.0
 22
0.0
 32
0.0
 14
-427.9997999999999
 24
-286.0002
 34
0.0
 15
390.9998
 25
285.9998
 35
0.0
146
0.0
 13
0.0
 23
0.0
 33
0.0
 16
1.0
 26
0.0
 36
0.0
 17
0.0
 27
1.0
 37
0.0
 76
     0
330
1F
  0
MLINESTYLE
  5
18
102
{ACAD_REACTORS
330
17
102
}
330
17
100
AcDbMlineStyle
  2
STANDARD
 70
     0
  3

 62
   256
 51
90.0
 52
90.0
 71
     2
 49
0.5
 62
   256
  6
BYLAYER
 49
-0.5
 62
   256
  6
BYLAYER
  0
ACDBPLACEHOLDER
  5
F
102
{ACAD_REACTORS
330
E
102
}
330
E
  0
XRECORD
  5
1A08
102
{ACAD_REACTORS
330
1A06
102
}
330
1A06
100
AcDbXrecord
280
     1
340
74A
  0
XRECORD
  5
1A07
102
{ACAD_REACTORS
330
1A06
102
}
330
1A06
100
AcDbXrecord
280
     1
340
749
  0
DICTIONARYVAR
  5
1992
102
{ACAD_REACTORS
330
1991
102
}
330
1991
100
DictionaryVariables
280
     0
  1
1
  0
DICTIONARYVAR
  5
1993
102
{ACAD_REACTORS
330
1991
102
}
330
1991
100
DictionaryVariables
280
     0
  1

  0
DICTIONARY
  5
1A09
330
1E
100
AcDbDictionary
280
     1
281
     1
  3
ACAD_XREC_ROUNDTRIP
360
1A0A
  0
DICTIONARY
  5
1A0D
330
26
100
AcDbDictionary
280
     1
281
     1
  3
ACAD_XREC_ROUNDTRIP
360
1A0E
  0
DICTIONARY
  5
1A0B
330
22
100
AcDbDictionary
280
     1
281
     1
  3
ACAD_XREC_ROUNDTRIP
360
1A0C
  0
XRECORD
  5
1A0A
102
{ACAD_REACTORS
330
1A09
102
}
330
1A09
100
AcDbXrecord
280
     1
102
SHADEPLOT
 70
     0
102
SHADEPLOTRESLEVEL
 70
     2
102
SHADEPLOTCUSTOMDPI
 70
   300
  0
XRECORD
  5
1A0E
102
{ACAD_REACTORS
330
1A0D
102
}
330
1A0D
100
AcDbXrecord
280
     1
102
SHADEPLOT
 70
     0
102
SHADEPLOTRESLEVEL
 70
     2
102
SHADEPLOTCUSTOMDPI
 70
   300
  0
XRECORD
  5
1A0C
102
{ACAD_REACTORS
330
1A0B
102
}
330
1A0B
100
AcDbXrecord
280
     1
102
SHADEPLOT
 70
     0
102
SHADEPLOTRESLEVEL
 70
     2
102
SHADEPLOTCUSTOMDPI
 70
   300
  0
ENDSEC
  0
EOF
