  0
SECTION
  2
HEADER
  9
$ACADVER
  1
AC1015
  9
$ACADMAINTVER
 70
    20
  9
$DWGCODEPAGE
  3
ANSI_932
  9
$INSBASE
 10
0.0
 20
0.0
 30
0.0
  9
$EXTMIN
 10
-372.2229248099625
 20
-195.8388683355167
 30
-0.0015258207003583
  9
$EXTMAX
 10
374.2016141724007
 20
191.4334142257727
 30
0.0000000349246037
  9
$LIMMIN
 10
0.0
 20
0.0
  9
$LIMMAX
 10
12.0
 20
9.0
  9
$ORTHOMODE
 70
     0
  9
$REGENMODE
 70
     1
  9
$FILLMODE
 70
     1
  9
$QTEXTMODE
 70
     0
  9
$MIRRTEXT
 70
     1
  9
$LTSCALE
 40
1.0
  9
$ATTMODE
 70
     1
  9
$TEXTSIZE
 40
0.2
  9
$TRACEWID
 40
0.05
  9
$TEXTSTYLE
  7
CONVERTER_16
  9
$CLAYER
  8
0
  9
$CELTYPE
  6
ByLayer
  9
$CECOLOR
 62
     4
  9
$CELTSCALE
 40
1.0
  9
$DISPSILH
 70
     0
  9
$DIMSCALE
 40
1.0
  9
$DIMASZ
 40
0.18
  9
$DIMEXO
 40
0.0625
  9
$DIMDLI
 40
0.38
  9
$DIMRND
 40
0.0
  9
$DIMDLE
 40
0.0
  9
$DIMEXE
 40
0.18
  9
$DIMTP
 40
0.0
  9
$DIMTM
 40
0.0
  9
$DIMTXT
 40
0.18
  9
$DIMCEN
 40
0.09
  9
$DIMTSZ
 40
0.0
  9
$DIMTOL
 70
     0
  9
$DIMLIM
 70
     0
  9
$DIMTIH
 70
     1
  9
$DIMTOH
 70
     1
  9
$DIMSE1
 70
     0
  9
$DIMSE2
 70
     0
  9
$DIMTAD
 70
     0
  9
$DIMZIN
 70
     0
  9
$DIMBLK
  1

  9
$DIMASO
 70
     1
  9
$DIMSHO
 70
     1
  9
$DIMPOST
  1

  9
$DIMAPOST
  1

  9
$DIMALT
 70
     0
  9
$DIMALTD
 70
     2
  9
$DIMALTF
 40
25.4
  9
$DIMLFAC
 40
1.0
  9
$DIMTOFL
 70
     0
  9
$DIMTVP
 40
0.0
  9
$DIMTIX
 70
     0
  9
$DIMSOXD
 70
     0
  9
$DIMSAH
 70
     0
  9
$DIMBLK1
  1

  9
$DIMBLK2
  1

  9
$DIMSTYLE
  2
Standard
  9
$DIMCLRD
 70
     0
  9
$DIMCLRE
 70
     0
  9
$DIMCLRT
 70
     0
  9
$DIMTFAC
 40
1.0
  9
$DIMGAP
 40
0.09
  9
$DIMJUST
 70
     0
  9
$DIMSD1
 70
     0
  9
$DIMSD2
 70
     0
  9
$DIMTOLJ
 70
     1
  9
$DIMTZIN
 70
     0
  9
$DIMALTZ
 70
     0
  9
$DIMALTTZ
 70
     0
  9
$DIMUPT
 70
     0
  9
$DIMDEC
 70
     4
  9
$DIMTDEC
 70
     4
  9
$DIMALTU
 70
     2
  9
$DIMALTTD
 70
     2
  9
$DIMTXSTY
  7
Standard
  9
$DIMAUNIT
 70
     0
  9
$DIMADEC
 70
     0
  9
$DIMALTRND
 40
0.0
  9
$DIMAZIN
 70
     0
  9
$DIMDSEP
 70
    46
  9
$DIMATFIT
 70
     3
  9
$DIMFRAC
 70
     0
  9
$DIMLDRBLK
  1

  9
$DIMLUNIT
 70
     2
  9
$DIMLWD
 70
    -2
  9
$DIMLWE
 70
    -2
  9
$DIMTMOVE
 70
     0
  9
$LUNITS
 70
     2
  9
$LUPREC
 70
     4
  9
$SKETCHINC
 40
0.1
  9
$FILLETRAD
 40
1.0
  9
$AUNITS
 70
     0
  9
$AUPREC
 70
     0
  9
$MENU
  1
.
  9
$ELEVATION
 40
0.0
  9
$PELEVATION
 40
0.0
  9
$THICKNESS
 40
0.0
  9
$LIMCHECK
 70
     0
  9
$CHAMFERA
 40
0.5
  9
$CHAMFERB
 40
0.5
  9
$CHAMFERC
 40
1.0
  9
$CHAMFERD
 40
0.0
  9
$SKPOLY
 70
     0
  9
$TDCREATE
 40
2455106.661234085
  9
$TDUCREATE
 40
2455106.286234085
  9
$TDUPDATE
 40
2458859.732106875
  9
$TDUUPDATE
 40
2458859.357106875
  9
$TDINDWG
 40
0.1213863542
  9
$TDUSRTIMER
 40
0.1213847222
  9
$USRTIMER
 70
     1
  9
$ANGBASE
 50
0.0
  9
$ANGDIR
 70
     0
  9
$PDMODE
 70
     0
  9
$PDSIZE
 40
0.0
  9
$PLINEWID
 40
0.0
  9
$SPLFRAME
 70
     0
  9
$SPLINETYPE
 70
     6
  9
$SPLINESEGS
 70
     8
  9
$HANDSEED
  5
1C19
  9
$SURFTAB1
 70
     6
  9
$SURFTAB2
 70
     6
  9
$SURFTYPE
 70
     6
  9
$SURFU
 70
     6
  9
$SURFV
 70
     6
  9
$UCSBASE
  2

  9
$UCSNAME
  2

  9
$UCSORG
 10
0.0
 20
0.0
 30
0.0
  9
$UCSXDIR
 10
1.0
 20
0.0
 30
0.0
  9
$UCSYDIR
 10
0.0
 20
1.0
 30
0.0
  9
$UCSORTHOREF
  2

  9
$UCSORTHOVIEW
 70
     0
  9
$UCSORGTOP
 10
0.0
 20
0.0
 30
0.0
  9
$UCSORGBOTTOM
 10
0.0
 20
0.0
 30
0.0
  9
$UCSORGLEFT
 10
0.0
 20
0.0
 30
0.0
  9
$UCSORGRIGHT
 10
0.0
 20
0.0
 30
0.0
  9
$UCSORGFRONT
 10
0.0
 20
0.0
 30
0.0
  9
$UCSORGBACK
 10
0.0
 20
0.0
 30
0.0
  9
$PUCSBASE
  2

  9
$PUCSNAME
  2

  9
$PUCSORG
 10
0.0
 20
0.0
 30
0.0
  9
$PUCSXDIR
 10
1.0
 20
0.0
 30
0.0
  9
$PUCSYDIR
 10
0.0
 20
1.0
 30
0.0
  9
$PUCSORTHOREF
  2

  9
$PUCSORTHOVIEW
 70
     0
  9
$PUCSORGTOP
 10
0.0
 20
0.0
 30
0.0
  9
$PUCSORGBOTTOM
 10
0.0
 20
0.0
 30
0.0
  9
$PUCSORGLEFT
 10
0.0
 20
0.0
 30
0.0
  9
$PUCSORGRIGHT
 10
0.0
 20
0.0
 30
0.0
  9
$PUCSORGFRONT
 10
0.0
 20
0.0
 30
0.0
  9
$PUCSORGBACK
 10
0.0
 20
0.0
 30
0.0
  9
$USERI1
 70
     0
  9
$USERI2
 70
     0
  9
$USERI3
 70
     0
  9
$USERI4
 70
     0
  9
$USERI5
 70
     0
  9
$USERR1
 40
14.0
  9
$USERR2
 40
0.0
  9
$USERR3
 40
0.0
  9
$USERR4
 40
0.0
  9
$USERR5
 40
0.0
  9
$WORLDVIEW
 70
     1
  9
$SHADEDGE
 70
     3
  9
$SHADEDIF
 70
    70
  9
$TILEMODE
 70
     1
  9
$MAXACTVP
 70
    64
  9
$PINSBASE
 10
0.0
 20
0.0
 30
0.0
  9
$PLIMCHECK
 70
     0
  9
$PEXTMIN
 10
1.000000000000000E+20
 20
1.000000000000000E+20
 30
1.000000000000000E+20
  9
$PEXTMAX
 10
-1.000000000000000E+20
 20
-1.000000000000000E+20
 30
-1.000000000000000E+20
  9
$PLIMMIN
 10
0.0
 20
0.0
  9
$PLIMMAX
 10
12.0
 20
9.0
  9
$UNITMODE
 70
     0
  9
$VISRETAIN
 70
     1
  9
$PLINEGEN
 70
     0
  9
$PSLTSCALE
 70
     1
  9
$TREEDEPTH
 70
  3020
  9
$CMLSTYLE
  2
Standard
  9
$CMLJUST
 70
     0
  9
$CMLSCALE
 40
1.0
  9
$PROXYGRAPHICS
 70
     1
  9
$MEASUREMENT
 70
     1
  9
$CELWEIGHT
370
    -1
  9
$ENDCAPS
280
     0
  9
$JOINSTYLE
280
     0
  9
$LWDISPLAY
290
     0
  9
$INSUNITS
 70
     1
  9
$HYPERLINKBASE
  1

  9
$STYLESHEET
  1
P社図面.CTB
  9
$XEDIT
290
     1
  9
$CEPSNTYPE
380
     0
  9
$PSTYLEMODE
290
     1
  9
$FINGERPRINTGUID
  2
{984BA262-FDB2-4CCE-8AE2-D31F850191ED}
  9
$VERSIONGUID
  2
{1BC7A64F-E6C4-4E5C-960C-1343D81DBB64}
  9
$EXTNAMES
290
     1
  9
$PSVPSCALE
 40
0.0
  9
$OLESTARTUP
290
     0
  0
ENDSEC
  0
SECTION
  2
CLASSES
  0
CLASS
  1
ACDBDICTIONARYWDFLT
  2
AcDbDictionaryWithDefault
  3
ObjectDBX Classes
 90
        0
280
     0
281
     0
  0
CLASS
  1

  2
exOdDbCircle
  3

 90
    32768
280
     0
281
     1
  0
CLASS
  1

  2
exOdDbSpline
  3

 90
    32768
280
     0
281
     1
  0
CLASS
  1

  2
exOdDbPolyline
  3

 90
    32768
280
     0
281
     1
  0
CLASS
  1
MATERIAL
  2
AcDbMaterial
  3
ObjectDBX Classes
 90
     1153
280
     0
281
     0
  0
CLASS
  1
VISUALSTYLE
  2
AcDbVisualStyle
  3
ObjectDBX Classes
 90
     4095
280
     0
281
     0
  0
CLASS
  1
TABLESTYLE
  2
AcDbTableStyle
  3
ObjectDBX Classes
 90
     4095
280
     0
281
     0
  0
CLASS
  1
SCALE
  2
AcDbScale
  3
ObjectDBX Classes
 90
     1153
280
     0
281
     0
  0
CLASS
  1
MLEADERSTYLE
  2
AcDbMLeaderStyle
  3
ACDB_MLEADERSTYLE_CLASS
 90
     4095
280
     0
281
     0
  0
CLASS
  1
DICTIONARYVAR
  2
AcDbDictionaryVar
  3
ObjectDBX Classes
 90
        0
280
     0
281
     0
  0
CLASS
  1
CELLSTYLEMAP
  2
AcDbCellStyleMap
  3
ObjectDBX Classes
 90
     1152
280
     0
281
     0
  0
CLASS
  1
ACDBPLACEHOLDER
  2
AcDbPlaceHolder
  3
ObjectDBX Classes
 90
        0
280
     0
281
     0
  0
CLASS
  1
LAYOUT
  2
AcDbLayout
  3
ObjectDBX Classes
 90
        0
280
     0
281
     0
  0
CLASS
  1
SORTENTSTABLE
  2
AcDbSortentsTable
  3
ObjectDBX Classes
 90
        0
280
     0
281
     0
  0
ENDSEC
  0
SECTION
  2
TABLES
  0
TABLE
  2
VPORT
  5
8
330
0
100
AcDbSymbolTable
 70
     1
  0
VPORT
  5
18D0
330
8
100
AcDbSymbolTableRecord
100
AcDbViewportTableRecord
  2
*Active
 70
     0
 10
0.0
 20
0.0
 11
1.0
 21
1.0
 12
0.9893446812191086
 22
-2.202727054872013
 13
0.0
 23
0.0
 14
0.5
 24
0.5
 15
0.5
 25
0.5
 16
0.0
 26
0.0
 36
1.0
 17
0.0
 27
0.0
 37
0.0
 40
415.4447946458906
 41
1.803827751196172
 42
50.0
 43
0.0
 44
0.0
 50
0.0
 51
0.0
 71
     0
 72
   100
 73
     1
 74
     3
 75
     0
 76
     0
 77
     0
 78
     0
281
     0
 65
     1
110
0.0
120
0.0
130
0.0
111
1.0
121
0.0
131
0.0
112
0.0
122
1.0
132
0.0
 79
     0
146
0.0
1001
ACAD_NAV_VCDISPLAY
1070
     3
  0
ENDTAB
  0
TABLE
  2
LTYPE
  5
5
330
0
100
AcDbSymbolTable
 70
     7
  0
LTYPE
  5
14
330
5
100
AcDbSymbolTableRecord
100
AcDbLinetypeTableRecord
  2
ByBlock
 70
     0
  3

 72
    65
 73
     0
 40
0.0
  0
LTYPE
  5
15
330
5
100
AcDbSymbolTableRecord
100
AcDbLinetypeTableRecord
  2
ByLayer
 70
     0
  3

 72
    65
 73
     0
 40
0.0
  0
LTYPE
  5
16
330
5
100
AcDbSymbolTableRecord
100
AcDbLinetypeTableRecord
  2
Continuous
 70
     0
  3
Solid line
 72
    65
 73
     0
 40
0.0
  0
LTYPE
  5
2A
330
5
100
AcDbSymbolTableRecord
100
AcDbLinetypeTableRecord
  2
DASHED
 70
     0
  3
Dashed
 72
    65
 73
     2
 40
15.0
 49
7.0
 74
     0
 49
-8.0
 74
     0
  0
LTYPE
  5
2B
330
5
100
AcDbSymbolTableRecord
100
AcDbLinetypeTableRecord
  2
DOTTED
 70
     0
  3
Dotted
 72
    65
 73
     2
 40
1.0
 49
0.0
 74
     0
 49
-1.0
 74
     0
  0
LTYPE
  5
2E
330
5
100
AcDbSymbolTableRecord
100
AcDbLinetypeTableRecord
  2
DASH_CENTER
 70
     0
  3
Dash_Center
 72
    65
 73
     4
 40
14.0
 49
11.0
 74
     0
 49
-1.0
 74
     0
 49
1.0
 74
     0
 49
-1.0
 74
     0
  0
LTYPE
  5
30
330
5
100
AcDbSymbolTableRecord
100
AcDbLinetypeTableRecord
  2
CENTER_DASH_DASH
 70
     0
  3
Center_Dash_Dash
 72
    65
 73
     6
 40
14.0
 49
9.0
 74
     0
 49
-1.0
 74
     0
 49
1.0
 74
     0
 49
-1.0
 74
     0
 49
1.0
 74
     0
 49
-1.0
 74
     0
  0
ENDTAB
  0
TABLE
  2
LAYER
  5
2
330
0
100
AcDbSymbolTable
 70
     4
  0
LAYER
  5
10
102
{ACAD_XDICTIONARY
360
191F
102
}
330
2
100
AcDbSymbolTableRecord
100
AcDbLayerTableRecord
  2
0
 70
     0
 62
     7
  6
Continuous
370
    -3
390
F
  0
LAYER
  5
31
102
{ACAD_XDICTIONARY
360
1921
102
}
330
2
100
AcDbSymbolTableRecord
100
AcDbLayerTableRecord
  2
1
 70
     0
 62
     7
  6
Continuous
370
    -3
390
F
  0
LAYER
  5
32
102
{ACAD_XDICTIONARY
360
1923
102
}
330
2
100
AcDbSymbolTableRecord
100
AcDbLayerTableRecord
  2
60
 70
     0
 62
     7
  6
Continuous
370
    -3
390
F
  0
LAYER
  5
1254
330
2
100
AcDbSymbolTableRecord
100
AcDbLayerTableRecord
  2
Defpoints
 70
     0
 62
     7
  6
Continuous
290
     0
370
    -3
390
F
  0
ENDTAB
  0
TABLE
  2
STYLE
  5
3
330
0
100
AcDbSymbolTable
 70
     6
  0
STYLE
  5
11
330
3
100
AcDbSymbolTableRecord
100
AcDbTextStyleTableRecord
  2
Standard
 70
     0
 40
0.0
 41
1.0
 50
0.0
 71
     0
 42
0.2
  3
txt
  4

  0
STYLE
  5
58
330
3
100
AcDbSymbolTableRecord
100
AcDbTextStyleTableRecord
  2
CONVERTER_2
 70
     0
 40
0.0
 41
0.89
 50
0.0
 71
     0
 42
0.2
  3
simplex.shx
  4
bigfont.shx
  0
STYLE
  5
56E
330
3
100
AcDbSymbolTableRecord
100
AcDbTextStyleTableRecord
  2
CONVERTER_3
 70
     0
 40
0.0
 41
0.6230000000000003
 50
0.0
 71
     0
 42
0.2
  3
txt.shx
  4

  0
STYLE
  5
A2C
330
3
100
AcDbSymbolTableRecord
100
AcDbTextStyleTableRecord
  2
CONVERTER_10
 70
     0
 40
0.0
 41
0.73514
 50
0.0
 71
     0
 42
0.2
  3
txt.shx
  4

  0
STYLE
  5
A43
330
3
100
AcDbSymbolTableRecord
100
AcDbTextStyleTableRecord
  2
CONVERTER_16
 70
     0
 40
0.0
 41
1.0235
 50
0.0
 71
     0
 42
0.2
  3
simplex.shx
  4
bigfont.shx
  0
STYLE
  5
A4F
330
3
100
AcDbSymbolTableRecord
100
AcDbTextStyleTableRecord
  2
CONVERTER_19
 70
     0
 40
0.0
 41
0.8009999999999999
 50
0.0
 71
     0
 42
0.2
  3
simplex.shx
  4
bigfont.shx
  0
ENDTAB
  0
TABLE
  2
VIEW
  5
6
330
0
100
AcDbSymbolTable
 70
     0
  0
ENDTAB
  0
TABLE
  2
UCS
  5
7
330
0
100
AcDbSymbolTable
 70
     0
  0
ENDTAB
  0
TABLE
  2
APPID
  5
9
330
0
100
AcDbSymbolTable
 70
     4
  0
APPID
  5
12
330
9
100
AcDbSymbolTableRecord
100
AcDbRegAppTableRecord
  2
ACAD
 70
     0
  0
APPID
  5
192D
330
9
100
AcDbSymbolTableRecord
100
AcDbRegAppTableRecord
  2
ACAD_NAV_VCDISPLAY
 70
     0
  0
APPID
  5
196C
330
9
100
AcDbSymbolTableRecord
100
AcDbRegAppTableRecord
  2
ACAD_MLEADERVER
 70
     0
  0
APPID
  5
1972
330
9
100
AcDbSymbolTableRecord
100
AcDbRegAppTableRecord
  2
ACAD_EXEMPT_FROM_CAD_STANDARDS
 70
     0
  0
ENDTAB
  0
TABLE
  2
DIMSTYLE
  5
A
330
0
100
AcDbSymbolTable
 70
     2
100
AcDbDimStyleTable
 71
     1
340
27
  0
DIMSTYLE
105
27
330
A
100
AcDbSymbolTableRecord
100
AcDbDimStyleTableRecord
  2
Standard
 70
     0
340
11
  0
ENDTAB
  0
TABLE
  2
BLOCK_RECORD
  5
1
330
0
100
AcDbSymbolTable
 70
     2
  0
BLOCK_RECORD
  5
1F
102
{ACAD_XDICTIONARY
360
19BE
102
}
330
1
100
AcDbSymbolTableRecord
100
AcDbBlockTableRecord
  2
*Model_Space
340
22
  0
BLOCK_RECORD
  5
1B
330
1
100
AcDbSymbolTableRecord
100
AcDbBlockTableRecord
  2
*Paper_Space
340
1E
  0
BLOCK_RECORD
  5
23
330
1
100
AcDbSymbolTableRecord
100
AcDbBlockTableRecord
  2
*Paper_Space0
340
26
  0
ENDTAB
  0
ENDSEC
  0
SECTION
  2
BLOCKS
  0
BLOCK
  5
20
330
1F
100
AcDbEntity
  8
0
100
AcDbBlockBegin
  2
*Model_Space
 70
     0
 10
0.0
 20
0.0
 30
0.0
  3
*Model_Space
  1

  0
ENDBLK
  5
21
330
1F
100
AcDbEntity
  8
0
100
AcDbBlockEnd
  0
BLOCK
  5
1C
330
1B
100
AcDbEntity
 67
     1
  8
0
100
AcDbBlockBegin
  2
*Paper_Space
 70
     0
 10
0.0
 20
0.0
 30
0.0
  3
*Paper_Space
  1

  0
ENDBLK
  5
1D
330
1B
100
AcDbEntity
 67
     1
  8
0
100
AcDbBlockEnd
  0
BLOCK
  5
24
330
23
100
AcDbEntity
 67
     1
  8
0
100
AcDbBlockBegin
  2
*Paper_Space0
 70
     0
 10
0.0
 20
0.0
 30
0.0
  3
*Paper_Space0
  1

  0
ENDBLK
  5
25
330
23
100
AcDbEntity
 67
     1
  8
0
100
AcDbBlockEnd
  0
ENDSEC
  0
SECTION
  2
ENTITIES
  0
MTEXT
  5
AC0
330
1F
100
AcDbEntity
  8
0
 62
     2
100
AcDbMText
 10
205.5000000000006
 20
-240.9997577209246
 30
0.0
 40
6.0
 41
0.0
 71
     5
 72
     1
  1
 
  7
CONVERTER_2
 73
     1
 44
1.32052821128451
1001
ACAD
1000
MTEXTBEGIN
1070
    73
1070
     1
1070
    44
1040
1.32052821128451
1070
    74
1070
     0
1000
MTEXTEND
  0
MTEXT
  5
AC1
330
1F
100
AcDbEntity
  8
0
 62
     2
100
AcDbMText
 10
209.5000000000006
 20
-267.9996999999998
 30
0.0
 40
6.0
 41
0.0
 71
     5
 72
     1
  1
 
  7
CONVERTER_2
 73
     1
 44
1.32052821128451
1001
ACAD
1000
MTEXTBEGIN
1070
    73
1070
     1
1070
    44
1040
1.32052821128451
1070
    74
1070
     0
1000
MTEXTEND
  0
MTEXT
  5
AC2
330
1F
100
AcDbEntity
  8
0
 62
     2
100
AcDbMText
 10
88.50020000000002
 20
-279.9996999999998
 30
0.0
 40
4.0
 41
0.0
 71
     5
 72
     1
  1
 
  7
CONVERTER_3
 73
     1
 44
1.32052821128451
1001
ACAD
1000
MTEXTBEGIN
1070
    73
1070
     1
1070
    44
1040
1.32052821128451
1070
    74
1070
     0
1000
MTEXTEND
  0
MTEXT
  5
AC3
330
1F
100
AcDbEntity
  8
0
 62
     2
100
AcDbMText
 10
49.50020000000002
 20
-279.9996999999998
 30
0.0
 40
4.0
 41
0.0
 71
     5
 72
     1
  1
 
  7
CONVERTER_3
 73
     1
 44
1.32052821128451
1001
ACAD
1000
MTEXTBEGIN
1070
    73
1070
     1
1070
    44
1040
1.32052821128451
1070
    74
1070
     0
1000
MTEXTEND
  0
MTEXT
  5
AC4
330
1F
100
AcDbEntity
  8
0
 62
     2
100
AcDbMText
 10
127.5002
 20
-279.9996999999998
 30
0.0
 40
4.0
 41
0.0
 71
     5
 72
     1
  1
 
  7
CONVERTER_3
 73
     1
 44
1.32052821128451
1001
ACAD
1000
MTEXTBEGIN
1070
    73
1070
     1
1070
    44
1040
1.32052821128451
1070
    74
1070
     0
1000
MTEXTEND
  0
MTEXT
  5
AC5
330
1F
100
AcDbEntity
  8
0
 62
     2
100
AcDbMText
 10
166.5002
 20
-279.9996999999998
 30
0.0
 40
4.0
 41
0.0
 71
     5
 72
     1
  1
 
  7
CONVERTER_3
 73
     1
 44
1.32052821128451
1001
ACAD
1000
MTEXTBEGIN
1070
    73
1070
     1
1070
    44
1040
1.32052821128451
1070
    74
1070
     0
1000
MTEXTEND
  0
MTEXT
  5
AC6
330
1F
100
AcDbEntity
  8
0
 62
     2
100
AcDbMText
 10
205.5000000000006
 20
-279.9996999999998
 30
0.0
 40
4.0
 41
0.0
 71
     5
 72
     1
  1
 
  7
CONVERTER_3
 73
     1
 44
1.32052821128451
1001
ACAD
1000
MTEXTBEGIN
1070
    73
1070
     1
1070
    44
1040
1.32052821128451
1070
    74
1070
     0
1000
MTEXTEND
  0
MTEXT
  5
AC7
330
1F
100
AcDbEntity
  8
0
 62
     2
100
AcDbMText
 10
92.50020000000002
 20
-267.9996999999998
 30
0.0
 40
6.0
 41
0.0
 71
     5
 72
     1
  1
 
  7
CONVERTER_2
 73
     1
 44
1.32052821128451
1001
ACAD
1000
MTEXTBEGIN
1070
    73
1070
     1
1070
    44
1040
1.32052821128451
1070
    74
1070
     0
1000
MTEXTEND
  0
MTEXT
  5
AC8
330
1F
100
AcDbEntity
  8
0
 62
     2
100
AcDbMText
 10
170.5002
 20
-267.9996999999998
 30
0.0
 40
6.0
 41
0.0
 71
     5
 72
     1
  1
 
  7
CONVERTER_2
 73
     1
 44
1.32052821128451
1001
ACAD
1000
MTEXTBEGIN
1070
    73
1070
     1
1070
    44
1040
1.32052821128451
1070
    74
1070
     0
1000
MTEXTEND
  0
MTEXT
  5
AC9
330
1F
100
AcDbEntity
  8
0
 62
     2
100
AcDbMText
 10
131.5002
 20
-267.9996999999998
 30
0.0
 40
6.0
 41
0.0
 71
     5
 72
     1
  1
 
  7
CONVERTER_2
 73
     1
 44
1.32052821128451
1001
ACAD
1000
MTEXTBEGIN
1070
    73
1070
     1
1070
    44
1040
1.32052821128451
1070
    74
1070
     0
1000
MTEXTEND
  0
MTEXT
  5
AD2
330
1F
100
AcDbEntity
  8
0
 62
     2
100
AcDbMText
 10
205.5000000000006
 20
-255.4997860470252
 30
0.0
 40
4.0
 41
0.0
 71
     5
 72
     1
  1
 
  7
CONVERTER_3
 73
     1
 44
1.32052821128451
1001
ACAD
1000
MTEXTBEGIN
1070
    73
1070
     1
1070
    44
1040
1.32052821128451
1070
    74
1070
     0
1000
MTEXTEND
  0
MTEXT
  5
AD3
330
1F
100
AcDbEntity
  8
0
 62
     2
100
AcDbMText
 10
59.15722816266982
 20
-248.9482291377618
 30
0.0
 40
6.0
 41
0.0
 71
     5
 72
     1
  1
 
  7
CONVERTER_10
 73
     1
 44
1.32052821128451
1001
ACAD
1000
MTEXTBEGIN
1070
    73
1070
     1
1070
    44
1040
1.32052821128451
1070
    74
1070
     0
1000
MTEXTEND
  0
MTEXT
  5
AD4
330
1F
100
AcDbEntity
  8
0
 62
     2
100
AcDbMText
 10
41.35722816266964
 20
-248.9482291377618
 30
0.0
 40
6.0
 41
0.0
 71
     5
 72
     1
  1
 
  7
CONVERTER_10
 73
     1
 44
1.32052821128451
1001
ACAD
1000
MTEXTBEGIN
1070
    73
1070
     1
1070
    44
1040
1.32052821128451
1070
    74
1070
     0
1000
MTEXTEND
  0
TEXT
  5
AED
330
1F
100
AcDbEntity
  8
0
 62
     2
100
AcDbText
 10
14.46188819272361
 20
-195.8132927234652
 30
0.0
 40
8.888888888888898
  1
ASAMDBT2P200W
 41
0.8009999999999999
  7
CONVERTER_19
100
AcDbText
  0
LINE
  5
D64
330
1F
100
AcDbEntity
  8
1
  6
DASHED
 62
     2
 48
0.5
100
AcDbLine
 10
263.5084706909021
 20
-87.88515512039532
 30
0.0
 11
263.5084706909021
 21
-93.98871808654844
 31
0.0
  0
LINE
  5
D65
330
1F
100
AcDbEntity
  8
1
  6
DOTTED
 62
     2
100
AcDbLine
 10
-267.7164497834893
 20
-159.762806639779
 30
0.0
 11
-267.7164497834893
 21
-157.4628066397788
 31
0.0
  0
LINE
  5
D66
330
1F
100
AcDbEntity
  8
1
  6
DOTTED
 62
     2
100
AcDbLine
 10
-256.7164497834892
 20
-157.4628066397788
 30
0.0
 11
-256.7164497834892
 21
-159.762806639779
 31
0.0
  0
LINE
  5
D67
330
1F
100
AcDbEntity
  8
1
  6
DOTTED
 62
     2
100
AcDbLine
 10
-147.7164497834891
 20
-157.4628066397788
 30
0.0
 11
-147.7164497834891
 21
-159.762806639779
 31
0.0
  0
LINE
  5
D68
330
1F
100
AcDbEntity
  8
1
  6
DOTTED
 62
     2
100
AcDbLine
 10
-136.7164497834891
 20
-157.4628066397788
 30
0.0
 11
-136.7164497834891
 21
-159.762806639779
 31
0.0
  0
LINE
  5
D69
330
1F
100
AcDbEntity
  8
0
  6
DASHED
 62
     2
 48
0.5
100
AcDbLine
 10
-229.7164497834892
 20
-65.13848033264448
 30
0.0
 11
-245.9081340649453
 21
-65.13848033264448
 31
0.0
  0
LINE
  5
D6A
330
1F
100
AcDbEntity
  8
0
  6
Continuous
 62
     7
 48
0.5
100
AcDbLine
 10
-229.7164497834892
 20
-65.13848033264448
 30
0.0
 11
-229.7164497834892
 21
-62.76280663977868
 31
0.0
  0
LINE
  5
D6C
330
1F
100
AcDbEntity
  8
0
  6
DASH_CENTER
 62
     2
100
AcDbLine
 10
-371.9724015005453
 20
10.01128191345111
 30
0.0
 11
-27.15828718269477
 21
10.01128191345063
 31
0.0
  0
LINE
  5
D6D
330
1F
100
AcDbEntity
  8
0
  6
Continuous
 62
     7
100
AcDbLine
 10
-202.2164497834892
 20
-56.55488601735966
 30
0.0
 11
-201.7761932994479
 21
-56.55488601735971
 31
0.0
  0
LINE
  5
D6E
330
1F
100
AcDbEntity
  8
0
  6
Continuous
 62
     7
100
AcDbLine
 10
203.0084706909024
 20
-102.4887180865486
 30
0.0
 11
167.1638395450902
 21
-102.4887180865486
 31
0.0
  0
LINE
  5
D6F
330
1F
100
AcDbEntity
  8
0
  6
Continuous
 62
     7
100
AcDbLine
 10
175.7084706909022
 20
-81.73203369735913
 30
0.0
 11
175.7084706909022
 21
-102.4887180865486
 31
0.0
  0
LINE
  5
D70
330
1F
100
AcDbEntity
  8
0
  6
Continuous
 62
     7
100
AcDbLine
 10
175.7084706909022
 20
-105.4887180865486
 30
0.0
 11
175.7084706909022
 21
-126.5724266168525
 31
0.0
  0
LINE
  5
D71
330
1F
100
AcDbEntity
  8
0
  6
Continuous
 62
     7
100
AcDbLine
 10
169.7084706909022
 20
10.01128191345148
 30
0.0
 11
169.7084706909022
 21
15.63552353069165
 31
0.0
  0
LINE
  5
D72
330
1F
100
AcDbEntity
  8
0
  6
Continuous
 62
     7
100
AcDbLine
 10
-209.2164497834891
 20
26.51128191345148
 30
0.0
 11
-209.2164497834891
 21
24.95283471093554
 31
0.0
  0
LINE
  5
D73
330
1F
100
AcDbEntity
  8
0
  6
Continuous
 62
     7
100
AcDbLine
 10
-209.2164497834891
 20
26.51128191345148
 30
0.0
 11
-207.7164497834892
 21
26.51128191345148
 31
0.0
  0
LINE
  5
D74
330
1F
100
AcDbEntity
  8
0
  6
Continuous
 62
     7
100
AcDbLine
 10
-195.2164497834892
 20
26.51128191345148
 30
0.0
 11
-195.2164497834892
 21
24.95283471093554
 31
0.0
  0
LINE
  5
D75
330
1F
100
AcDbEntity
  8
0
  6
Continuous
 62
     7
100
AcDbLine
 10
-209.2164497834891
 20
-4.930270884032619
 30
0.0
 11
-209.2164497834891
 21
-17.48871808654856
 31
0.0
  0
LINE
  5
D76
330
1F
100
AcDbEntity
  8
0
  6
Continuous
 62
     7
100
AcDbLine
 10
-195.2164497834892
 20
-17.48871808654856
 30
0.0
 11
-195.2164497834892
 21
-4.930270884032619
 31
0.0
  0
LINE
  5
D77
330
1F
100
AcDbEntity
  8
0
  6
Continuous
 62
     7
100
AcDbLine
 10
-209.2164497834891
 20
-17.48871808654856
 30
0.0
 11
-195.2164497834892
 21
-17.48871808654856
 31
0.0
  0
LINE
  5
D78
330
1F
100
AcDbEntity
  8
0
  6
Continuous
 62
     7
100
AcDbLine
 10
-199.2164497834892
 20
36.21128191345152
 30
0.0
 11
-199.2164497834892
 21
32.21128191345154
 31
0.0
  0
LINE
  5
D79
330
1F
100
AcDbEntity
  8
0
  6
Continuous
 62
     7
100
AcDbLine
 10
-205.2164497834892
 20
36.21128191345152
 30
0.0
 11
-205.2164497834892
 21
32.21128191345154
 31
0.0
  0
LINE
  5
D7A
330
1F
100
AcDbEntity
  8
0
  6
Continuous
 62
     7
100
AcDbLine
 10
-207.7164497834892
 20
36.21128191345152
 30
0.0
 11
-204.9664497834892
 21
36.21128191345152
 31
0.0
  0
LINE
  5
D7B
330
1F
100
AcDbEntity
  8
0
  6
Continuous
 62
     7
100
AcDbLine
 10
-196.7164497834891
 20
36.21128191345152
 30
0.0
 11
-196.7164497834891
 21
41.91128191345135
 31
0.0
  0
LINE
  5
D7C
330
1F
100
AcDbEntity
  8
0
  6
Continuous
 62
     7
100
AcDbLine
 10
-207.7164497834892
 20
41.91128191345135
 30
0.0
 11
-199.4664497834891
 21
41.91128191345135
 31
0.0
  0
LINE
  5
D7D
330
1F
100
AcDbEntity
  8
0
  6
Continuous
 62
     7
100
AcDbLine
 10
-199.4664497834891
 20
41.91128191345135
 30
0.0
 11
-199.4561187874112
 21
41.67573520288441
 31
0.0
  0
LINE
  5
D7E
330
1F
100
AcDbEntity
  8
0
  6
Continuous
 62
     7
100
AcDbLine
 10
-199.4664497834891
 20
41.91128191345135
 30
0.0
 11
-196.7164497834891
 21
41.91128191345135
 31
0.0
  0
LINE
  5
D7F
330
1F
100
AcDbEntity
  8
0
  6
Continuous
 62
     7
100
AcDbLine
 10
-199.2164497834892
 20
36.21128191345152
 30
0.0
 11
-196.7164497834891
 21
36.21128191345152
 31
0.0
  0
LINE
  5
D80
330
1F
100
AcDbEntity
  8
0
  6
Continuous
 62
     7
100
AcDbLine
 10
-199.4664497834891
 20
36.21128191345152
 30
0.0
 11
-199.4561187874112
 21
41.67573520288441
 31
0.0
  0
LINE
  5
D81
330
1F
100
AcDbEntity
  8
0
  6
Continuous
 62
     7
100
AcDbLine
 10
-199.4664497834891
 20
36.21128191345152
 30
0.0
 11
-199.2164497834892
 21
36.21128191345152
 31
0.0
  0
LINE
  5
D82
330
1F
100
AcDbEntity
  8
0
  6
Continuous
 62
     7
100
AcDbLine
 10
-204.9664497834892
 20
36.21128191345152
 30
0.0
 11
-204.9664497834892
 21
41.61912189491157
 31
0.0
  0
LINE
  5
D83
330
1F
100
AcDbEntity
  8
0
  6
Continuous
 62
     7
100
AcDbLine
 10
-204.9664497834892
 20
36.21128191345152
 30
0.0
 11
-199.4664497834891
 21
36.21128191345152
 31
0.0
  0
LINE
  5
D84
330
1F
100
AcDbEntity
  8
0
  6
Continuous
 62
     7
100
AcDbLine
 10
-207.7164497834892
 20
41.91128191345135
 30
0.0
 11
-207.7164497834892
 21
36.21128191345152
 31
0.0
  0
LINE
  5
D85
330
1F
100
AcDbEntity
  8
0
  6
Continuous
 62
     7
100
AcDbLine
 10
-204.9664497834892
 20
32.21128191345154
 30
0.0
 11
-204.9664497834892
 21
26.51128191345148
 31
0.0
  0
LINE
  5
D86
330
1F
100
AcDbEntity
  8
0
  6
Continuous
 62
     7
100
AcDbLine
 10
-204.9664497834892
 20
26.51128191345148
 30
0.0
 11
-199.4664497834891
 21
26.51128191345148
 31
0.0
  0
LINE
  5
D87
330
1F
100
AcDbEntity
  8
0
  6
Continuous
 62
     7
100
AcDbLine
 10
-199.4664497834891
 20
32.21128191345154
 30
0.0
 11
-199.4664497834891
 21
26.51128191345148
 31
0.0
  0
LINE
  5
D88
330
1F
100
AcDbEntity
  8
0
  6
Continuous
 62
     7
100
AcDbLine
 10
-199.4664497834891
 20
26.51128191345148
 30
0.0
 11
-196.7164497834891
 21
26.51128191345148
 31
0.0
  0
LINE
  5
D89
330
1F
100
AcDbEntity
  8
0
  6
Continuous
 62
     7
100
AcDbLine
 10
-196.7164497834891
 20
32.21128191345154
 30
0.0
 11
-196.7164497834891
 21
26.51128191345148
 31
0.0
  0
LINE
  5
D8A
330
1F
100
AcDbEntity
  8
0
  6
Continuous
 62
     7
100
AcDbLine
 10
-196.7164497834891
 20
26.51128191345148
 30
0.0
 11
-195.2164497834892
 21
26.51128191345148
 31
0.0
  0
LINE
  5
D8B
330
1F
100
AcDbEntity
  8
0
  6
Continuous
 62
     7
100
AcDbLine
 10
-207.7164497834892
 20
32.21128191345154
 30
0.0
 11
-207.7164497834892
 21
26.51128191345148
 31
0.0
  0
LINE
  5
D8C
330
1F
100
AcDbEntity
  8
0
  6
Continuous
 62
     7
100
AcDbLine
 10
-207.7164497834892
 20
26.51128191345148
 30
0.0
 11
-204.9664497834892
 21
26.51128191345148
 31
0.0
  0
LINE
  5
D8D
330
1F
100
AcDbEntity
  8
0
  6
Continuous
 62
     7
100
AcDbLine
 10
-207.7164497834892
 20
32.21128191345154
 30
0.0
 11
-196.7164497834891
 21
32.21128191345154
 31
0.0
  0
LINE
  5
D8E
330
1F
100
AcDbEntity
  8
0
  6
DASH_CENTER
 62
     2
100
AcDbLine
 10
-189.7641801421112
 20
33.16777431146054
 30
0.0
 11
-189.9641801421111
 21
32.82136414994646
 31
0.0
  0
LINE
  5
D8F
330
1F
100
AcDbEntity
  8
0
  6
Continuous
 62
     7
100
AcDbLine
 10
211.5084706909021
 20
-102.4887180865487
 30
0.0
 11
211.5084706909021
 21
-66.31910168287472
 31
0.0
  0
LINE
  5
D90
330
1F
100
AcDbEntity
  8
0
  6
Continuous
 62
     7
100
AcDbLine
 10
182.5084706909023
 20
-102.4887180865487
 30
0.0
 11
182.5084706909023
 21
-74.52687836123658
 31
0.0
  0
LINE
  5
D91
330
1F
100
AcDbEntity
  8
0
  6
Continuous
 62
     7
100
AcDbLine
 10
182.5084706909023
 20
-119.9887180865478
 30
0.0
 11
182.5084706909023
 21
-105.4887180865487
 31
0.0
  0
LINE
  5
D92
330
1F
100
AcDbEntity
  8
0
  6
Continuous
 62
     7
100
AcDbLine
 10
211.5084706909021
 20
-105.4887180865487
 30
0.0
 11
211.5084706909021
 21
-119.9887180865478
 31
0.0
  0
LINE
  5
D93
330
1F
100
AcDbEntity
  8
0
  6
Continuous
 62
     7
100
AcDbLine
 10
212.5084706909021
 20
-105.4887180865487
 30
0.0
 11
212.5084706909021
 21
-119.9887180865478
 31
0.0
  0
LINE
  5
D94
330
1F
100
AcDbEntity
  8
0
  6
Continuous
 62
     7
100
AcDbLine
 10
183.5084706909023
 20
-105.4887180865487
 30
0.0
 11
183.5084706909023
 21
-119.9887180865478
 31
0.0
  0
LINE
  5
D95
330
1F
100
AcDbEntity
  8
0
  6
Continuous
 62
     7
100
AcDbLine
 10
212.5084706909021
 20
-66.46539200796169
 30
0.0
 11
212.5084706909021
 21
-102.4887180865487
 31
0.0
  0
LINE
  5
D96
330
1F
100
AcDbEntity
  8
0
  6
Continuous
 62
     7
100
AcDbLine
 10
212.5084706909021
 20
-119.9887180865478
 30
0.0
 11
211.5084706909021
 21
-119.9887180865478
 31
0.0
  0
LINE
  5
D97
330
1F
100
AcDbEntity
  8
0
  6
Continuous
 62
     7
100
AcDbLine
 10
213.5084706909021
 20
-98.01855100230971
 30
0.0
 11
213.5084706909021
 21
-99.30789125012866
 31
0.0
  0
LINE
  5
D98
330
1F
100
AcDbEntity
  8
0
  6
Continuous
 62
     7
100
AcDbLine
 10
213.5084706909021
 20
-99.46212737669473
 30
0.0
 11
213.5084706909021
 21
-99.30789125012866
 31
0.0
  0
LINE
  5
D99
330
1F
100
AcDbEntity
  8
0
  6
Continuous
 62
     7
100
AcDbLine
 10
212.5084706909021
 20
-97.51855100230972
 30
0.0
 11
213.0084706909021
 21
-97.51855100230972
 31
0.0
  0
LINE
  5
D9A
330
1F
100
AcDbEntity
  8
0
  6
Continuous
 62
     7
100
AcDbLine
 10
213.0084706909021
 20
-98.46212737669477
 30
0.0
 11
212.5084706909021
 21
-98.46212737669477
 31
0.0
  0
LINE
  5
D9B
330
1F
100
AcDbEntity
  8
0
  6
Continuous
 62
     7
100
AcDbLine
 10
213.5084706909021
 20
-82.71706614134966
 30
0.0
 11
213.5084706909021
 21
-80.62093202698264
 31
0.0
  0
LINE
  5
D9C
330
1F
100
AcDbEntity
  8
0
  6
Continuous
 62
     7
100
AcDbLine
 10
213.0084706909021
 20
-80.9170661413497
 30
0.0
 11
212.5084706909021
 21
-80.9170661413497
 31
0.0
  0
LINE
  5
D9D
330
1F
100
AcDbEntity
  8
0
  6
Continuous
 62
     7
100
AcDbLine
 10
212.5084706909021
 20
-80.12093202698263
 30
0.0
 11
213.0084706909021
 21
-80.12093202698263
 31
0.0
  0
LINE
  5
D9E
330
1F
100
AcDbEntity
  8
0
  6
Continuous
 62
     7
100
AcDbLine
 10
213.0084706909021
 20
-83.21706614134969
 30
0.0
 11
212.5084706909021
 21
-83.21706614134969
 31
0.0
  0
LINE
  5
D9F
330
1F
100
AcDbEntity
  8
0
  6
Continuous
 62
     7
100
AcDbLine
 10
213.0084706909021
 20
-99.80789125012867
 30
0.0
 11
212.5084706909021
 21
-99.80789125012867
 31
0.0
  0
LINE
  5
DA0
330
1F
100
AcDbEntity
  8
0
  6
Continuous
 62
     7
100
AcDbLine
 10
183.5084706909023
 20
-73.73975116204056
 30
0.0
 11
183.5084706909023
 21
-102.4887180865487
 31
0.0
  0
LINE
  5
DA1
330
1F
100
AcDbEntity
  8
0
  6
Continuous
 62
     7
100
AcDbLine
 10
183.5084706909023
 20
-119.9887180865478
 30
0.0
 11
182.5084706909023
 21
-119.9887180865478
 31
0.0
  0
LINE
  5
DA2
330
1F
100
AcDbEntity
  8
0
  6
Continuous
 62
     7
100
AcDbLine
 10
181.5084706909023
 20
-99.30789125012866
 30
0.0
 11
181.5084706909023
 21
-98.01855100230971
 31
0.0
  0
LINE
  5
DA3
330
1F
100
AcDbEntity
  8
0
  6
Continuous
 62
     7
100
AcDbLine
 10
181.5084706909023
 20
-99.30789125012866
 30
0.0
 11
181.5084706909023
 21
-99.46212737669473
 31
0.0
  0
LINE
  5
DA4
330
1F
100
AcDbEntity
  8
0
  6
Continuous
 62
     7
100
AcDbLine
 10
182.0084706909023
 20
-97.51855100230972
 30
0.0
 11
182.5084706909023
 21
-97.51855100230972
 31
0.0
  0
LINE
  5
DA5
330
1F
100
AcDbEntity
  8
0
  6
Continuous
 62
     7
100
AcDbLine
 10
182.5084706909023
 20
-98.46212737669477
 30
0.0
 11
182.0084706909023
 21
-98.46212737669477
 31
0.0
  0
LINE
  5
DA6
330
1F
100
AcDbEntity
  8
0
  6
Continuous
 62
     7
100
AcDbLine
 10
181.5084706909023
 20
-80.62093202698264
 30
0.0
 11
181.5084706909023
 21
-82.71706614134966
 31
0.0
  0
LINE
  5
DA7
330
1F
100
AcDbEntity
  8
0
  6
Continuous
 62
     7
100
AcDbLine
 10
182.5084706909023
 20
-80.9170661413497
 30
0.0
 11
182.0084706909023
 21
-80.9170661413497
 31
0.0
  0
LINE
  5
DA8
330
1F
100
AcDbEntity
  8
0
  6
Continuous
 62
     7
100
AcDbLine
 10
182.0084706909023
 20
-80.12093202698263
 30
0.0
 11
182.5084706909023
 21
-80.12093202698263
 31
0.0
  0
LINE
  5
DA9
330
1F
100
AcDbEntity
  8
0
  6
Continuous
 62
     7
100
AcDbLine
 10
182.5084706909023
 20
-83.21706614134969
 30
0.0
 11
182.0084706909023
 21
-83.21706614134969
 31
0.0
  0
LINE
  5
DAA
330
1F
100
AcDbEntity
  8
0
  6
Continuous
 62
     7
100
AcDbLine
 10
182.5084706909023
 20
-99.80789125012867
 30
0.0
 11
182.0084706909023
 21
-99.80789125012867
 31
0.0
  0
LINE
  5
DAB
330
1F
100
AcDbEntity
  8
60
  6
Continuous
 62
     7
100
AcDbLine
 10
219.5086706909011
 20
-68.28164875903363
 30
0.0
 11
219.5086706909011
 21
-80.52231808654862
 31
0.0
  0
LINE
  5
DAC
330
1F
100
AcDbEntity
  8
0
  6
Continuous
 62
     2
100
AcDbLine
 10
185.7084706909023
 20
158.1724021200512
 30
0.0
 11
169.7084706909023
 21
158.1724021200512
 31
0.0
  0
LINE
  5
DAD
330
1F
100
AcDbEntity
  8
0
  6
Continuous
 62
     2
100
AcDbLine
 10
185.7084706909023
 20
140.8821325679641
 30
0.0
 11
169.7084706909023
 21
140.8821325679641
 31
0.0
  0
LINE
  5
DAE
330
1F
100
AcDbEntity
  8
0
  6
Continuous
 62
     7
100
AcDbLine
 10
169.7084706909023
 20
157.2733227303151
 30
0.0
 11
169.7084706909023
 21
158.1724021200512
 31
0.0
  0
LINE
  5
DAF
330
1F
100
AcDbEntity
  8
0
  6
Continuous
 62
     7
100
AcDbLine
 10
169.7084706909023
 20
140.8821325679641
 30
0.0
 11
169.7084706909023
 21
157.2733227303151
 31
0.0
  0
LINE
  5
DB0
330
1F
100
AcDbEntity
  8
0
  6
Continuous
 62
     7
100
AcDbLine
 10
169.7084706909023
 20
145.073322730315
 30
0.0
 11
169.7084706909023
 21
145.5491811130749
 31
0.0
  0
LINE
  5
DB1
330
1F
100
AcDbEntity
  8
0
  6
Continuous
 62
     7
100
AcDbLine
 10
169.7084706909023
 20
147.8734227303149
 30
0.0
 11
169.7084706909023
 21
145.5491811130749
 31
0.0
  0
LINE
  5
DB2
330
1F
100
AcDbEntity
  8
0
  6
Continuous
 62
     7
100
AcDbLine
 10
169.7084706909023
 20
145.5491811130749
 30
0.0
 11
169.7084706909023
 21
150.771522730315
 31
0.0
  0
LINE
  5
DB3
330
1F
100
AcDbEntity
  8
0
  6
Continuous
 62
     7
100
AcDbLine
 10
169.7084706909023
 20
151.1734227303151
 30
0.0
 11
169.7084706909023
 21
157.2733227303151
 31
0.0
  0
LINE
  5
DB4
330
1F
100
AcDbEntity
  8
0
  6
Continuous
 62
     7
100
AcDbLine
 10
168.2084706909023
 20
145.073322730315
 30
0.0
 11
168.2084706909023
 21
151.1734227303151
 31
0.0
  0
LINE
  5
DB5
330
1F
100
AcDbEntity
  8
0
  6
Continuous
 62
     7
100
AcDbLine
 10
168.2084706909023
 20
151.5753227303149
 30
0.0
 11
168.2084706909023
 21
157.2733227303151
 31
0.0
  0
LINE
  5
DB6
330
1F
100
AcDbEntity
  8
0
  6
Continuous
 62
     7
100
AcDbLine
 10
169.7084706909023
 20
150.771522730315
 30
0.0
 11
168.2084706909023
 21
151.1734227303151
 31
0.0
  0
LINE
  5
DB7
330
1F
100
AcDbEntity
  8
0
  6
Continuous
 62
     7
100
AcDbLine
 10
169.7084706909023
 20
151.1734227303151
 30
0.0
 11
168.2084706909023
 21
151.5753227303149
 31
0.0
  0
LINE
  5
DB8
330
1F
100
AcDbEntity
  8
0
  6
Continuous
 62
     7
100
AcDbLine
 10
169.7084706909023
 20
145.073322730315
 30
0.0
 11
168.2084706909023
 21
145.073322730315
 31
0.0
  0
LINE
  5
DB9
330
1F
100
AcDbEntity
  8
0
  6
Continuous
 62
     7
100
AcDbLine
 10
169.7084706909023
 20
157.2733227303151
 30
0.0
 11
168.2084706909023
 21
157.2733227303151
 31
0.0
  0
LINE
  5
DBA
330
1F
100
AcDbEntity
  8
0
  6
Continuous
 62
     7
100
AcDbLine
 10
168.2084706909023
 20
145.9234227303151
 30
0.0
 11
168.2084706909023
 21
156.4234227303152
 31
0.0
  0
LINE
  5
DBB
330
1F
100
AcDbEntity
  8
0
  6
Continuous
 62
     7
100
AcDbLine
 10
164.3085706909024
 20
148.0055922997187
 30
0.0
 11
164.3085706909024
 21
154.3411531613688
 31
0.0
  0
LINE
  5
DBC
330
1F
100
AcDbEntity
  8
0
  6
Continuous
 62
     7
100
AcDbLine
 10
166.0429372213601
 20
156.2339198014402
 30
0.0
 11
168.2084706909023
 21
156.4234227303152
 31
0.0
  0
LINE
  5
DBD
330
1F
100
AcDbEntity
  8
0
  6
Continuous
 62
     7
100
AcDbLine
 10
166.0430239631623
 20
146.1128180709913
 30
0.0
 11
168.2084706909023
 21
145.9234227303151
 31
0.0
  0
LINE
  5
DBE
330
1F
100
AcDbEntity
  8
0
  6
Continuous
 62
     7
100
AcDbLine
 10
169.7084706909023
 20
157.1734227303151
 30
0.0
 11
169.7084706909023
 21
154.4734227303152
 31
0.0
  0
LINE
  5
DBF
330
1F
100
AcDbEntity
  8
0
  6
Continuous
 62
     7
100
AcDbLine
 10
169.7084706909023
 20
145.5491811130749
 30
0.0
 11
169.7084706909023
 21
155.771522730315
 31
0.0
  0
LINE
  5
DC0
330
1F
100
AcDbEntity
  8
0
  6
Continuous
 62
     7
100
AcDbLine
 10
169.7084706909023
 20
158.1724021200512
 30
0.0
 11
169.7084706909023
 21
166.5112819134516
 31
0.0
  0
LINE
  5
DC1
330
1F
100
AcDbEntity
  8
0
  6
Continuous
 62
     7
100
AcDbLine
 10
185.7084706909022
 20
-0.6149776252464053
 30
0.0
 11
185.7084706909022
 21
10.01128191345149
 31
0.0
  0
LINE
  5
DC2
330
1F
100
AcDbEntity
  8
0
  6
Continuous
 62
     7
100
AcDbLine
 10
169.7084706909022
 20
-0.6149776252464053
 30
0.0
 11
169.7084706909022
 21
10.01128191345148
 31
0.0
  0
LINE
  5
DC3
330
1F
100
AcDbEntity
  8
0
  6
Continuous
 62
     2
100
AcDbLine
 10
169.7084706909022
 20
-0.6149776252464053
 30
0.0
 11
185.7084706909022
 21
-0.6149776252464053
 31
0.0
  0
LINE
  5
DC4
330
1F
100
AcDbEntity
  8
0
  6
Continuous
 62
     7
100
AcDbLine
 10
185.7084706909022
 20
20.83314996544798
 30
0.0
 11
185.7084706909023
 21
165.0112819134516
 31
0.0
  0
LINE
  5
DC5
330
1F
100
AcDbEntity
  8
0
  6
Continuous
 62
     7
100
AcDbLine
 10
169.7084706909022
 20
20.83314996544798
 30
0.0
 11
169.7084706909022
 21
10.01128191345148
 31
0.0
  0
LINE
  5
DC6
330
1F
100
AcDbEntity
  8
0
  6
Continuous
 62
     2
100
AcDbLine
 10
169.7084706909022
 20
20.83314996544798
 30
0.0
 11
185.7084706909022
 21
20.83314996544798
 31
0.0
  0
LINE
  5
DC7
330
1F
100
AcDbEntity
  8
0
  6
Continuous
 62
     7
100
AcDbLine
 10
169.7084706909022
 20
15.63552353069165
 30
0.0
 11
169.7084706909022
 21
16.11138191345159
 31
0.0
  0
LINE
  5
DC8
330
1F
100
AcDbEntity
  8
0
  6
Continuous
 62
     7
100
AcDbLine
 10
169.7084706909022
 20
15.63552353069165
 30
0.0
 11
169.7084706909022
 21
13.31128191345167
 31
0.0
  0
LINE
  5
DC9
330
1F
100
AcDbEntity
  8
0
  6
Continuous
 62
     7
100
AcDbLine
 10
169.7084706909022
 20
10.41318191345156
 30
0.0
 11
169.7084706909022
 21
15.63552353069165
 31
0.0
  0
LINE
  5
DCA
330
1F
100
AcDbEntity
  8
0
  6
Continuous
 62
     7
100
AcDbLine
 10
169.7084706909022
 20
3.911381913451538
 30
0.0
 11
169.7084706909022
 21
10.01128191345148
 31
0.0
  0
LINE
  5
DCB
330
1F
100
AcDbEntity
  8
0
  6
Continuous
 62
     7
100
AcDbLine
 10
168.2084706909021
 20
10.01128191345148
 30
0.0
 11
168.2084706909021
 21
16.11138191345159
 31
0.0
  0
LINE
  5
DCC
330
1F
100
AcDbEntity
  8
0
  6
Continuous
 62
     7
100
AcDbLine
 10
168.2084706909021
 20
3.911381913451538
 30
0.0
 11
168.2084706909021
 21
9.609381913451635
 31
0.0
  0
LINE
  5
DCD
330
1F
100
AcDbEntity
  8
0
  6
Continuous
 62
     7
100
AcDbLine
 10
168.2084706909021
 20
10.01128191345148
 30
0.0
 11
169.7084706909022
 21
10.41318191345156
 31
0.0
  0
LINE
  5
DCE
330
1F
100
AcDbEntity
  8
0
  6
Continuous
 62
     7
100
AcDbLine
 10
168.2084706909021
 20
9.609381913451635
 30
0.0
 11
169.7084706909022
 21
10.01128191345148
 31
0.0
  0
LINE
  5
DCF
330
1F
100
AcDbEntity
  8
0
  6
Continuous
 62
     7
100
AcDbLine
 10
168.2084706909021
 20
16.11138191345159
 30
0.0
 11
169.7084706909022
 21
16.11138191345159
 31
0.0
  0
LINE
  5
DD0
330
1F
100
AcDbEntity
  8
0
  6
Continuous
 62
     7
100
AcDbLine
 10
168.2084706909021
 20
3.911381913451538
 30
0.0
 11
169.7084706909022
 21
3.911381913451538
 31
0.0
  0
LINE
  5
DD1
330
1F
100
AcDbEntity
  8
0
  6
Continuous
 62
     7
100
AcDbLine
 10
168.2084706909021
 20
4.761281913451469
 30
0.0
 11
168.2084706909021
 21
15.26128191345148
 31
0.0
  0
LINE
  5
DD2
330
1F
100
AcDbEntity
  8
0
  6
Continuous
 62
     7
100
AcDbLine
 10
164.3085706909023
 20
6.843551482397831
 30
0.0
 11
164.3085706909023
 21
13.17911234404809
 31
0.0
  0
LINE
  5
DD3
330
1F
100
AcDbEntity
  8
0
  6
Continuous
 62
     7
100
AcDbLine
 10
168.2084706909021
 20
4.761281913451469
 30
0.0
 11
166.04293722136
 21
4.950784842326377
 31
0.0
  0
LINE
  5
DD4
330
1F
100
AcDbEntity
  8
0
  6
Continuous
 62
     7
100
AcDbLine
 10
168.2084706909021
 20
15.26128191345148
 30
0.0
 11
166.0430239631623
 21
15.07188657277549
 31
0.0
  0
LINE
  5
DD5
330
1F
100
AcDbEntity
  8
0
  6
Continuous
 62
     7
100
AcDbLine
 10
169.7084706909022
 20
6.711281913451522
 30
0.0
 11
169.7084706909022
 21
4.011281913451469
 31
0.0
  0
LINE
  5
DD6
330
1F
100
AcDbEntity
  8
0
  6
Continuous
 62
     7
100
AcDbLine
 10
169.7084706909022
 20
5.41318191345154
 30
0.0
 11
169.7084706909022
 21
10.01128191345148
 31
0.0
  0
LINE
  5
DD7
330
1F
100
AcDbEntity
  8
0
  6
DASH_CENTER
 62
     2
100
AcDbLine
 10
169.7084706909022
 20
10.01128191345148
 30
0.0
 11
365.3017496518898
 21
10.01128191345147
 31
0.0
  0
LINE
  5
DD8
330
1F
100
AcDbEntity
  8
0
  6
Continuous
 62
     7
100
AcDbLine
 10
125.7084706909021
 20
-49.48871808654853
 30
0.0
 11
125.7084706909021
 21
-47.98871808654852
 31
0.0
  0
LINE
  5
DD9
330
1F
100
AcDbEntity
  8
0
  6
Continuous
 62
     7
100
AcDbLine
 10
236.5084706909024
 20
-34.21638878932257
 30
0.0
 11
236.5084706909024
 21
10.23719336022125
 31
0.0
  0
LINE
  5
DDA
330
1F
100
AcDbEntity
  8
0
  6
Continuous
 62
     7
100
AcDbLine
 10
227.5084706909023
 20
-34.21638878932257
 30
0.0
 11
227.5084706909023
 21
-42.47449208962987
 31
0.0
  0
LINE
  5
DDB
330
1F
100
AcDbEntity
  8
0
  6
Continuous
 62
     2
100
AcDbLine
 10
227.5084706909023
 20
-34.21638878932257
 30
0.0
 11
236.5084706909024
 21
-34.21638878932257
 31
0.0
  0
LINE
  5
DDC
330
1F
100
AcDbEntity
  8
0
  6
DASH_CENTER
 62
     2
100
AcDbLine
 10
-202.2164497834892
 20
-146.7672275008276
 30
0.0
 11
-202.2164497834892
 21
-144.762806639779
 31
0.0
  0
LINE
  5
DDD
330
1F
100
AcDbEntity
  8
0
  6
Continuous
 62
     7
100
AcDbLine
 10
-62.09150553729138
 20
-62.98871808654907
 30
0.0
 11
-20.21644978348903
 21
-62.98871808654907
 31
0.0
  0
LINE
  5
DDE
330
1F
100
AcDbEntity
  8
0
  6
Continuous
 62
     7
100
AcDbLine
 10
-17.21644978348902
 20
-59.98871808654906
 30
0.0
 11
-17.21644978348902
 21
-53.48871808654857
 31
0.0
  0
LINE
  5
DDF
330
1F
100
AcDbEntity
  8
0
  6
Continuous
 62
     7
100
AcDbLine
 10
-15.21644978348902
 20
-38.98871808654906
 30
0.0
 11
-7.216449783489029
 21
-38.98871808654906
 31
0.0
  0
LINE
  5
DE0
330
1F
100
AcDbEntity
  8
0
  6
Continuous
 62
     7
100
AcDbLine
 10
-7.216449783489029
 20
-103.9887180865491
 30
0.0
 11
-7.216449783489029
 21
-38.98871808654906
 31
0.0
  0
LINE
  5
DE1
330
1F
100
AcDbEntity
  8
0
  6
Continuous
 62
     7
100
AcDbLine
 10
-17.21644978348902
 20
-147.9887180865492
 30
0.0
 11
-17.21644978348902
 21
-59.98871808654906
 31
0.0
  0
LINE
  5
DE2
330
1F
100
AcDbEntity
  8
0
  6
Continuous
 62
     7
100
AcDbLine
 10
-20.21644978348903
 20
-144.9887180865491
 30
0.0
 11
-154.2164497834891
 21
-144.9887180865494
 31
0.0
  0
LINE
  5
DE3
330
1F
100
AcDbEntity
  8
0
  6
Continuous
 62
     7
100
AcDbLine
 10
-17.21644978348902
 20
-166.9887180865492
 30
0.0
 11
-17.21644978348902
 21
-147.9887180865492
 31
0.0
  0
LINE
  5
DE4
330
1F
100
AcDbEntity
  8
0
  6
Continuous
 62
     7
100
AcDbLine
 10
-7.216449783489029
 20
-168.9887180865493
 30
0.0
 11
-15.21644978348902
 21
-168.9887180865493
 31
0.0
  0
LINE
  5
DE5
330
1F
100
AcDbEntity
  8
0
  6
Continuous
 62
     7
100
AcDbLine
 10
-7.216449783489029
 20
-168.9887180865493
 30
0.0
 11
-7.216449783489029
 21
-103.9887180865491
 31
0.0
  0
LINE
  5
DE6
330
1F
100
AcDbEntity
  8
0
  6
Continuous
 62
     7
100
AcDbLine
 10
-132.7761932994476
 20
7.445113982640271
 30
0.0
 11
-133.3761932994477
 21
7.445113982640271
 31
0.0
  0
LINE
  5
DE7
330
1F
100
AcDbEntity
  8
0
  6
Continuous
 62
     7
100
AcDbLine
 10
-135.8761932994477
 20
9.345113982640244
 30
0.0
 11
-135.8761932994477
 21
9.945113982640297
 31
0.0
  0
LINE
  5
DE8
330
1F
100
AcDbEntity
  8
0
  6
Continuous
 62
     7
100
AcDbLine
 10
-133.9761932994477
 20
12.44511398264029
 30
0.0
 11
-132.7761932994478
 21
12.44511398264028
 31
0.0
  0
LINE
  5
DE9
330
1F
100
AcDbEntity
  8
0
  6
Continuous
 62
     7
100
AcDbLine
 10
-132.7761932994476
 20
8.345113982640272
 30
0.0
 11
-132.7761932994476
 21
7.445113982640271
 31
0.0
  0
LINE
  5
DEA
330
1F
100
AcDbEntity
  8
0
  6
Continuous
 62
     7
100
AcDbLine
 10
-133.9761932994477
 20
11.54511398264028
 30
0.0
 11
-133.9761932994477
 21
12.44511398264029
 31
0.0
  0
LINE
  5
DEB
330
1F
100
AcDbEntity
  8
0
  6
Continuous
 62
     7
100
AcDbLine
 10
-130.8761932994477
 20
9.345113982640272
 30
0.0
 11
-131.7761932994477
 21
9.345113982640244
 31
0.0
  0
LINE
  5
DEC
330
1F
100
AcDbEntity
  8
0
  6
Continuous
 62
     7
100
AcDbLine
 10
-133.9761932994477
 20
7.445113982640219
 30
0.0
 11
-133.9761932994477
 21
8.345113982640242
 31
0.0
  0
LINE
  5
DED
330
1F
100
AcDbEntity
  8
0
  6
Continuous
 62
     7
100
AcDbLine
 10
-130.8761932994477
 20
9.945113982640274
 30
0.0
 11
-130.8761932994477
 21
9.345113982640272
 31
0.0
  0
LINE
  5
DEE
330
1F
100
AcDbEntity
  8
0
  6
Continuous
 62
     7
100
AcDbLine
 10
-133.3761932994477
 20
7.445113982640271
 30
0.0
 11
-133.9761932994477
 21
7.445113982640219
 31
0.0
  0
LINE
  5
DEF
330
1F
100
AcDbEntity
  8
0
  6
DASH_CENTER
 62
     2
100
AcDbLine
 10
-130.8761932994477
 20
9.945113982640274
 30
0.0
 11
-137.8761932994477
 21
9.945113982640274
 31
0.0
  0
LINE
  5
DF0
330
1F
100
AcDbEntity
  8
0
  6
Continuous
 62
     7
100
AcDbLine
 10
-130.8761932994477
 20
10.54511398264023
 30
0.0
 11
-130.8761932994477
 21
9.945113982640274
 31
0.0
  0
LINE
  5
DF1
330
1F
100
AcDbEntity
  8
0
  6
Continuous
 62
     7
100
AcDbLine
 10
-132.7761932994478
 20
12.44511398264028
 30
0.0
 11
-132.7761932994478
 21
11.54511398264023
 31
0.0
  0
LINE
  5
DF2
330
1F
100
AcDbEntity
  8
0
  6
DASH_CENTER
 62
     2
100
AcDbLine
 10
-127.0761932994477
 20
9.945113982640274
 30
0.0
 11
-130.8761932994477
 21
9.945113982640274
 31
0.0
  0
LINE
  5
DF3
330
1F
100
AcDbEntity
  8
0
  6
Continuous
 62
     7
100
AcDbLine
 10
-204.8761932994478
 20
-59.6548860173597
 30
0.0
 11
-204.8761932994479
 21
-59.05488601735974
 31
0.0
  0
LINE
  5
DF4
330
1F
100
AcDbEntity
  8
0
  6
Continuous
 62
     7
100
AcDbLine
 10
-202.9761932994479
 20
-56.55488601735974
 30
0.0
 11
-202.3761932994479
 21
-56.55488601735978
 31
0.0
  0
LINE
  5
DF5
330
1F
100
AcDbEntity
  8
0
  6
Continuous
 62
     7
100
AcDbLine
 10
-203.9761932994479
 20
-59.65488601735966
 30
0.0
 11
-204.8761932994478
 21
-59.6548860173597
 31
0.0
  0
LINE
  5
DF6
330
1F
100
AcDbEntity
  8
0
  6
Continuous
 62
     7
100
AcDbLine
 10
-202.9761932994479
 20
-61.55488601735967
 30
0.0
 11
-202.9761932994479
 21
-60.65488601735968
 31
0.0
  0
LINE
  5
DF7
330
1F
100
AcDbEntity
  8
0
  6
Continuous
 62
     7
100
AcDbLine
 10
-204.8761932994479
 20
-58.45488601735974
 30
0.0
 11
-203.9761932994479
 21
-58.45488601735974
 31
0.0
  0
LINE
  5
DF8
330
1F
100
AcDbEntity
  8
0
  6
Continuous
 62
     7
100
AcDbLine
 10
-202.3761932994479
 20
-61.55488601735977
 30
0.0
 11
-202.9761932994479
 21
-61.55488601735967
 31
0.0
  0
LINE
  5
DF9
330
1F
100
AcDbEntity
  8
0
  6
Continuous
 62
     7
100
AcDbLine
 10
-204.8761932994479
 20
-59.05488601735974
 30
0.0
 11
-204.8761932994479
 21
-58.45488601735974
 31
0.0
  0
LINE
  5
DFA
330
1F
100
AcDbEntity
  8
0
  6
Continuous
 62
     7
100
AcDbLine
 10
-202.3761932994479
 20
-56.55488601735978
 30
0.0
 11
-202.2164497834892
 21
-56.55488601735966
 31
0.0
  0
LINE
  5
DFB
330
1F
100
AcDbEntity
  8
0
  6
DASH_CENTER
 62
     2
100
AcDbLine
 10
-202.3761932994479
 20
-61.55488601735977
 30
0.0
 11
-202.3761932994478
 21
-54.55488601735964
 31
0.0
  0
LINE
  5
DFC
330
1F
100
AcDbEntity
  8
0
  6
Continuous
 62
     7
100
AcDbLine
 10
-201.7761932994478
 20
-61.55488601735967
 30
0.0
 11
-202.3761932994479
 21
-61.55488601735977
 31
0.0
  0
LINE
  5
DFD
330
1F
100
AcDbEntity
  8
0
  6
DASH_CENTER
 62
     2
100
AcDbLine
 10
-202.3761932994479
 20
-65.35488601735976
 30
0.0
 11
-202.3761932994479
 21
-61.55488601735977
 31
0.0
  0
LINE
  5
DFE
330
1F
100
AcDbEntity
  8
0
  6
Continuous
 62
     7
100
AcDbLine
 10
-271.9761932994479
 20
12.44511398264037
 30
0.0
 11
-271.3761932994479
 21
12.44511398264041
 31
0.0
  0
LINE
  5
DFF
330
1F
100
AcDbEntity
  8
0
  6
Continuous
 62
     7
100
AcDbLine
 10
-270.7761932994479
 20
7.445113982640351
 30
0.0
 11
-271.9761932994477
 21
7.445113982640412
 31
0.0
  0
LINE
  5
E00
330
1F
100
AcDbEntity
  8
0
  6
Continuous
 62
     7
100
AcDbLine
 10
-271.9761932994479
 20
11.54511398264034
 30
0.0
 11
-271.9761932994479
 21
12.44511398264037
 31
0.0
  0
LINE
  5
E01
330
1F
100
AcDbEntity
  8
0
  6
Continuous
 62
     7
100
AcDbLine
 10
-273.8761932994479
 20
10.54511398264035
 30
0.0
 11
-272.976193299448
 21
10.54511398264032
 31
0.0
  0
LINE
  5
E02
330
1F
100
AcDbEntity
  8
0
  6
Continuous
 62
     7
100
AcDbLine
 10
-273.8761932994479
 20
9.945113982640355
 30
0.0
 11
-273.8761932994479
 21
10.54511398264035
 31
0.0
  0
LINE
  5
E03
330
1F
100
AcDbEntity
  8
0
  6
Continuous
 62
     7
100
AcDbLine
 10
-271.3761932994479
 20
12.44511398264041
 30
0.0
 11
-270.7761932994479
 21
12.44511398264039
 31
0.0
  0
LINE
  5
E04
330
1F
100
AcDbEntity
  8
0
  6
DASH_CENTER
 62
     2
100
AcDbLine
 10
-273.8761932994479
 20
9.945113982640355
 30
0.0
 11
-266.8761932994479
 21
9.945113982640355
 31
0.0
  0
LINE
  5
E05
330
1F
100
AcDbEntity
  8
0
  6
Continuous
 62
     7
100
AcDbLine
 10
-273.8761932994477
 20
9.345113982640413
 30
0.0
 11
-273.8761932994479
 21
9.945113982640355
 31
0.0
  0
LINE
  5
E06
330
1F
100
AcDbEntity
  8
0
  6
DASH_CENTER
 62
     2
100
AcDbLine
 10
-277.6761932994479
 20
9.945113982640336
 30
0.0
 11
-273.8761932994479
 21
9.945113982640355
 31
0.0
  0
LINE
  5
E07
330
1F
100
AcDbEntity
  8
0
  6
Continuous
 62
     7
100
AcDbLine
 10
-131.7761932994478
 20
10.54511398264023
 30
0.0
 11
-130.8761932994477
 21
10.54511398264023
 31
0.0
  0
LINE
  5
E08
330
1F
100
AcDbEntity
  8
0
  6
Continuous
 62
     7
100
AcDbLine
 10
-201.7761932994479
 20
-60.65488601735975
 30
0.0
 11
-201.7761932994478
 21
-61.55488601735967
 31
0.0
  0
LINE
  5
E09
330
1F
100
AcDbEntity
  8
0
  6
Continuous
 62
     7
100
AcDbLine
 10
-134.9761932994477
 20
9.345113982640244
 30
0.0
 11
-135.8761932994477
 21
9.345113982640244
 31
0.0
  0
LINE
  5
E0A
330
1F
100
AcDbEntity
  8
0
  6
Continuous
 62
     7
100
AcDbLine
 10
-135.8761932994477
 20
10.54511398264026
 30
0.0
 11
-134.9761932994477
 21
10.54511398264026
 31
0.0
  0
LINE
  5
E0B
330
1F
100
AcDbEntity
  8
0
  6
Continuous
 62
     7
100
AcDbLine
 10
-135.8761932994477
 20
9.945113982640297
 30
0.0
 11
-135.8761932994477
 21
10.54511398264026
 31
0.0
  0
LINE
  5
E0C
330
1F
100
AcDbEntity
  8
0
  6
Continuous
 62
     7
100
AcDbLine
 10
-199.8761932994478
 20
-58.45488601735974
 30
0.0
 11
-199.8761932994479
 21
-59.65488601735977
 31
0.0
  0
LINE
  5
E0D
330
1F
100
AcDbEntity
  8
0
  6
Continuous
 62
     7
100
AcDbLine
 10
-202.9761932994479
 20
-57.45488601735974
 30
0.0
 11
-202.9761932994479
 21
-56.55488601735974
 31
0.0
  0
LINE
  5
E0E
330
1F
100
AcDbEntity
  8
0
  6
Continuous
 62
     7
100
AcDbLine
 10
-200.7761932994479
 20
-58.45488601735974
 30
0.0
 11
-199.8761932994478
 21
-58.45488601735974
 31
0.0
  0
LINE
  5
E0F
330
1F
100
AcDbEntity
  8
0
  6
Continuous
 62
     7
100
AcDbLine
 10
-201.7761932994479
 20
-56.55488601735971
 30
0.0
 11
-201.7761932994479
 21
-57.45488601735974
 31
0.0
  0
LINE
  5
E10
330
1F
100
AcDbEntity
  8
0
  6
Continuous
 62
     7
100
AcDbLine
 10
-199.8761932994479
 20
-59.65488601735977
 30
0.0
 11
-200.7761932994479
 21
-59.65488601735973
 31
0.0
  0
LINE
  5
E11
330
1F
100
AcDbEntity
  8
0
  6
Continuous
 62
     7
100
AcDbLine
 10
-268.8761932994479
 20
10.54511398264041
 30
0.0
 11
-268.8761932994479
 21
9.945113982640336
 31
0.0
  0
LINE
  5
E12
330
1F
100
AcDbEntity
  8
0
  6
Continuous
 62
     7
100
AcDbLine
 10
-269.7761932994479
 20
10.54511398264041
 30
0.0
 11
-268.8761932994479
 21
10.54511398264041
 31
0.0
  0
LINE
  5
E13
330
1F
100
AcDbEntity
  8
0
  6
Continuous
 62
     7
100
AcDbLine
 10
-270.7761932994479
 20
8.345113982640304
 30
0.0
 11
-270.7761932994479
 21
7.445113982640351
 31
0.0
  0
LINE
  5
E14
330
1F
100
AcDbEntity
  8
0
  6
Continuous
 62
     7
100
AcDbLine
 10
-270.7761932994479
 20
12.44511398264039
 30
0.0
 11
-270.7761932994479
 21
11.54511398264041
 31
0.0
  0
LINE
  5
E15
330
1F
100
AcDbEntity
  8
0
  6
Continuous
 62
     7
100
AcDbLine
 10
-268.8761932994479
 20
9.345113982640365
 30
0.0
 11
-269.7761932994479
 21
9.345113982640365
 31
0.0
  0
LINE
  5
E16
330
1F
100
AcDbEntity
  8
0
  6
Continuous
 62
     7
100
AcDbLine
 10
-268.8761932994479
 20
9.945113982640336
 30
0.0
 11
-268.8761932994479
 21
9.345113982640365
 31
0.0
  0
LINE
  5
E17
330
1F
100
AcDbEntity
  8
0
  6
Continuous
 62
     7
100
AcDbLine
 10
-272.9761932994478
 20
9.345113982640386
 30
0.0
 11
-273.8761932994477
 21
9.345113982640413
 31
0.0
  0
LINE
  5
E18
330
1F
100
AcDbEntity
  8
0
  6
Continuous
 62
     7
100
AcDbLine
 10
-271.9761932994477
 20
7.445113982640412
 30
0.0
 11
-271.9761932994477
 21
8.345113982640411
 31
0.0
  0
LINE
  5
E19
330
1F
100
AcDbEntity
  8
0
  6
Continuous
 62
     7
100
AcDbLine
 10
-199.8761932994478
 20
79.54511398264038
 30
0.0
 11
-199.8761932994478
 21
78.9451139826404
 31
0.0
  0
LINE
  5
E1A
330
1F
100
AcDbEntity
  8
0
  6
Continuous
 62
     7
100
AcDbLine
 10
-201.7761932994476
 20
76.4451139826404
 30
0.0
 11
-202.3761932994478
 21
76.44511398264032
 31
0.0
  0
LINE
  5
E1B
330
1F
100
AcDbEntity
  8
0
  6
Continuous
 62
     7
100
AcDbLine
 10
-204.8761932994478
 20
78.34511398264033
 30
0.0
 11
-204.8761932994478
 21
79.54511398264033
 31
0.0
  0
LINE
  5
E1C
330
1F
100
AcDbEntity
  8
0
  6
Continuous
 62
     7
100
AcDbLine
 10
-200.7761932994478
 20
79.54511398264038
 30
0.0
 11
-199.8761932994478
 21
79.54511398264038
 31
0.0
  0
LINE
  5
E1D
330
1F
100
AcDbEntity
  8
0
  6
Continuous
 62
     7
100
AcDbLine
 10
-201.7761932994478
 20
77.34511398264032
 30
0.0
 11
-201.7761932994476
 21
76.4451139826404
 31
0.0
  0
LINE
  5
E1E
330
1F
100
AcDbEntity
  8
0
  6
Continuous
 62
     7
100
AcDbLine
 10
-203.9761932994475
 20
78.34511398264038
 30
0.0
 11
-204.8761932994478
 21
78.34511398264033
 31
0.0
  0
LINE
  5
E1F
330
1F
100
AcDbEntity
  8
0
  6
Continuous
 62
     7
100
AcDbLine
 10
-201.7761932994478
 20
81.44511398264038
 30
0.0
 11
-201.7761932994478
 21
80.54511398264038
 31
0.0
  0
LINE
  5
E20
330
1F
100
AcDbEntity
  8
0
  6
Continuous
 62
     7
100
AcDbLine
 10
-199.8761932994478
 20
78.34511398264041
 30
0.0
 11
-200.7761932994478
 21
78.34511398264033
 31
0.0
  0
LINE
  5
E21
330
1F
100
AcDbEntity
  8
0
  6
Continuous
 62
     7
100
AcDbLine
 10
-202.9761932994478
 20
76.4451139826404
 30
0.0
 11
-202.9761932994476
 21
77.34511398264036
 31
0.0
  0
LINE
  5
E22
330
1F
100
AcDbEntity
  8
0
  6
Continuous
 62
     7
100
AcDbLine
 10
-202.3761932994476
 20
81.44511398264041
 30
0.0
 11
-201.7761932994478
 21
81.44511398264038
 31
0.0
  0
LINE
  5
E23
330
1F
100
AcDbEntity
  8
0
  6
Continuous
 62
     7
100
AcDbLine
 10
-199.8761932994478
 20
78.9451139826404
 30
0.0
 11
-199.8761932994478
 21
78.34511398264041
 31
0.0
  0
LINE
  5
E24
330
1F
100
AcDbEntity
  8
0
  6
Continuous
 62
     7
100
AcDbLine
 10
-202.3761932994478
 20
76.44511398264032
 30
0.0
 11
-202.9761932994478
 21
76.4451139826404
 31
0.0
  0
LINE
  5
E25
330
1F
100
AcDbEntity
  8
0
  6
DASH_CENTER
 62
     2
100
AcDbLine
 10
-202.3761932994476
 20
81.44511398264041
 30
0.0
 11
-202.3761932994478
 21
74.44511398264032
 31
0.0
  0
LINE
  5
E26
330
1F
100
AcDbEntity
  8
0
  6
Continuous
 62
     7
100
AcDbLine
 10
-202.9761932994478
 20
81.44511398264036
 30
0.0
 11
-202.3761932994476
 21
81.44511398264041
 31
0.0
  0
LINE
  5
E27
330
1F
100
AcDbEntity
  8
0
  6
Continuous
 62
     7
100
AcDbLine
 10
-202.9761932994478
 20
80.54511398264034
 30
0.0
 11
-202.9761932994478
 21
81.44511398264036
 31
0.0
  0
LINE
  5
E28
330
1F
100
AcDbEntity
  8
0
  6
Continuous
 62
     7
100
AcDbLine
 10
-204.8761932994478
 20
79.54511398264033
 30
0.0
 11
-203.9761932994478
 21
79.54511398264033
 31
0.0
  0
LINE
  5
E29
330
1F
100
AcDbEntity
  8
0
  6
DASH_CENTER
 62
     2
100
AcDbLine
 10
-202.3761932994478
 20
85.2451139826403
 30
0.0
 11
-202.3761932994476
 21
81.44511398264041
 31
0.0
  0
LINE
  5
E79
330
1F
100
AcDbEntity
  8
0
  6
Continuous
 62
     7
100
AcDbLine
 10
-113.7430868968469
 20
150.5633325310814
 30
0.0
 11
-114.2846513568489
 21
144.3732224279417
 31
0.0
  0
LINE
  5
E7A
330
1F
100
AcDbEntity
  8
0
  6
Continuous
 62
     7
100
AcDbLine
 10
-129.8214952094872
 20
153.3434234086195
 30
0.0
 11
-124.7314848379463
 21
156.907487040338
 31
0.0
  0
LINE
  5
EA0
330
1F
100
AcDbEntity
  8
0
  6
DASH_CENTER
 62
     2
100
AcDbLine
 10
206.5084706909023
 20
-26.98871808654863
 30
0.0
 11
206.5084706909023
 21
-180.9887180865486
 31
0.0
  0
LINE
  5
EA1
330
1F
100
AcDbEntity
  8
0
  6
Continuous
 62
     7
100
AcDbLine
 10
175.7084706909022
 20
10.01128191345149
 30
0.0
 11
175.7084706909022
 21
-46.74922123341419
 31
0.0
  0
LINE
  5
EA2
330
1F
100
AcDbEntity
  8
0
  6
Continuous
 62
     7
100
AcDbLine
 10
161.7084706909021
 20
10.01128191345147
 30
0.0
 11
161.7084706909023
 21
-52.98871808654854
 31
0.0
  0
LINE
  5
EA3
330
1F
100
AcDbEntity
  8
0
  6
Continuous
 62
     7
100
AcDbLine
 10
159.7084706909023
 20
-50.98871808654853
 30
0.0
 11
127.2084706909021
 21
-50.98871808654853
 31
0.0
  0
LINE
  5
EA4
330
1F
100
AcDbEntity
  8
0
  6
Continuous
 62
     7
100
AcDbLine
 10
161.7084706909023
 20
73.01128191345156
 30
0.0
 11
161.7084706909021
 21
10.01128191345147
 31
0.0
  0
LINE
  5
EA5
330
1F
100
AcDbEntity
  8
0
  6
Continuous
 62
     7
100
AcDbLine
 10
127.2084706909021
 20
71.01128191345155
 30
0.0
 11
159.7084706909023
 21
71.01128191345155
 31
0.0
  0
LINE
  5
EA6
330
1F
100
AcDbEntity
  8
0
  6
Continuous
 62
     7
100
AcDbLine
 10
161.7084706909023
 20
83.01128191345155
 30
0.0
 11
161.7084706909023
 21
73.01128191345156
 31
0.0
  0
LINE
  5
EA7
330
1F
100
AcDbEntity
  8
0
  6
Continuous
 62
     7
100
AcDbLine
 10
161.7084706909023
 20
85.01128191345152
 30
0.0
 11
166.7084706909023
 21
85.01128191345152
 31
0.0
  0
LINE
  5
EA8
330
1F
100
AcDbEntity
  8
0
  6
Continuous
 62
     7
100
AcDbLine
 10
169.7084706909023
 20
88.01128191345155
 30
0.0
 11
169.7084706909022
 21
10.01128191345148
 31
0.0
  0
LINE
  5
EA9
330
1F
100
AcDbEntity
  8
0
  6
Continuous
 62
     7
100
AcDbLine
 10
169.7084706909023
 20
166.5112819134516
 30
0.0
 11
169.7084706909022
 21
20.83314996544798
 31
0.0
  0
LINE
  5
EAA
330
1F
100
AcDbEntity
  8
0
  6
Continuous
 62
     7
100
AcDbLine
 10
171.2084706909022
 20
168.0112819134516
 30
0.0
 11
175.7084706909023
 21
168.0112819134516
 31
0.0
  0
LINE
  5
EAB
330
1F
100
AcDbEntity
  8
0
  6
Continuous
 62
     7
100
AcDbLine
 10
165.7084706909023
 20
85.01128191345152
 30
0.0
 11
165.7084706909022
 21
15.01211219143389
 31
0.0
  0
LINE
  5
EAC
330
1F
100
AcDbEntity
  8
0
  6
Continuous
 62
     7
100
AcDbLine
 10
227.5084706909024
 20
150.0112819134516
 30
0.0
 11
227.5084706909024
 21
84.28537046668182
 31
0.0
  0
LINE
  5
EAD
330
1F
100
AcDbEntity
  8
0
  6
Continuous
 62
     7
100
AcDbLine
 10
185.7084706909023
 20
165.0112819134516
 30
0.0
 11
185.7084706909023
 21
166.5112819134516
 31
0.0
  0
LINE
  5
EAE
330
1F
100
AcDbEntity
  8
0
  6
Continuous
 62
     7
100
AcDbLine
 10
185.7084706909023
 20
165.0112819134516
 30
0.0
 11
212.5084706909023
 21
165.0112819134516
 31
0.0
  0
LINE
  5
EAF
330
1F
100
AcDbEntity
  8
0
  6
Continuous
 62
     7
100
AcDbLine
 10
175.7084706909023
 20
168.0112819134516
 30
0.0
 11
184.2084706909023
 21
168.0112819134516
 31
0.0
  0
LINE
  5
EB0
330
1F
100
AcDbEntity
  8
0
  6
Continuous
 62
     7
100
AcDbLine
 10
185.7084706909022
 20
10.01128191345149
 30
0.0
 11
185.7084706909022
 21
20.83314996544798
 31
0.0
  0
LINE
  5
EB1
330
1F
100
AcDbEntity
  8
0
  6
Continuous
 62
     7
100
AcDbLine
 10
175.7084706909023
 20
168.0112819134516
 30
0.0
 11
175.7084706909022
 21
10.01128191345149
 31
0.0
  0
LINE
  5
EB2
330
1F
100
AcDbEntity
  8
0
  6
Continuous
 62
     7
100
AcDbLine
 10
-190.513872731435
 20
122.4036735168898
 30
0.0
 11
-194.4350533062198
 21
117.7305924796793
 31
0.0
  0
LINE
  5
EB3
330
1F
100
AcDbEntity
  8
0
  6
Continuous
 62
     7
100
AcDbLine
 10
-216.5970323052963
 20
127.1317278071271
 30
0.0
 11
-215.3783388712451
 21
117.2062662907138
 31
0.0
  0
LINE
  5
EB4
330
1F
100
AcDbEntity
  8
0
  6
Continuous
 62
     7
100
AcDbLine
 10
-216.5970323052963
 20
127.1317278071271
 30
0.0
 11
-234.6510352511696
 21
107.7711799572795
 31
0.0
  0
LINE
  5
EB5
330
1F
100
AcDbEntity
  8
0
  6
Continuous
 62
     7
100
AcDbLine
 10
-158.2967127385322
 20
114.1268748758014
 30
0.0
 11
-165.0542154201997
 21
106.0735967779594
 31
0.0
  0
LINE
  5
EB6
330
1F
100
AcDbEntity
  8
0
  6
Continuous
 62
     7
100
AcDbLine
 10
236.5084706909024
 20
61.59796838404449
 30
0.0
 11
236.5084706909024
 21
61.12211000128453
 31
0.0
  0
LINE
  5
EB7
330
1F
100
AcDbEntity
  8
0
  6
Continuous
 62
     7
100
AcDbLine
 10
236.5084706909024
 20
61.59796838404449
 30
0.0
 11
236.5084706909024
 21
63.92221000128451
 31
0.0
  0
LINE
  5
EB8
330
1F
100
AcDbEntity
  8
0
  6
Continuous
 62
     7
100
AcDbLine
 10
236.5084706909024
 20
66.8203100012846
 30
0.0
 11
236.5084706909024
 21
61.59796838404449
 31
0.0
  0
LINE
  5
EB9
330
1F
100
AcDbEntity
  8
0
  6
Continuous
 62
     7
100
AcDbLine
 10
236.5084706909024
 20
73.32211000128461
 30
0.0
 11
236.5084706909024
 21
67.22221000128461
 31
0.0
  0
LINE
  5
EBA
330
1F
100
AcDbEntity
  8
0
  6
Continuous
 62
     7
100
AcDbLine
 10
238.0084706909025
 20
67.22221000128461
 30
0.0
 11
238.0084706909025
 21
61.12211000128453
 31
0.0
  0
LINE
  5
EBB
330
1F
100
AcDbEntity
  8
0
  6
Continuous
 62
     7
100
AcDbLine
 10
238.0084706909025
 20
73.32211000128461
 30
0.0
 11
238.0084706909025
 21
67.62411000128451
 31
0.0
  0
LINE
  5
EBC
330
1F
100
AcDbEntity
  8
0
  6
Continuous
 62
     7
100
AcDbLine
 10
238.0084706909025
 20
67.22221000128461
 30
0.0
 11
236.5084706909024
 21
66.8203100012846
 31
0.0
  0
LINE
  5
EBD
330
1F
100
AcDbEntity
  8
0
  6
Continuous
 62
     7
100
AcDbLine
 10
238.0084706909025
 20
67.62411000128451
 30
0.0
 11
236.5084706909024
 21
67.22221000128461
 31
0.0
  0
LINE
  5
EBE
330
1F
100
AcDbEntity
  8
0
  6
Continuous
 62
     7
100
AcDbLine
 10
238.0084706909025
 20
61.12211000128453
 30
0.0
 11
236.5084706909024
 21
61.12211000128453
 31
0.0
  0
LINE
  5
EBF
330
1F
100
AcDbEntity
  8
0
  6
Continuous
 62
     7
100
AcDbLine
 10
238.0084706909025
 20
73.32211000128461
 30
0.0
 11
236.5084706909024
 21
73.32211000128461
 31
0.0
  0
LINE
  5
EC0
330
1F
100
AcDbEntity
  8
0
  6
Continuous
 62
     7
100
AcDbLine
 10
238.0084706909025
 20
72.47221000128461
 30
0.0
 11
238.0084706909025
 21
61.97221000128459
 31
0.0
  0
LINE
  5
EC1
330
1F
100
AcDbEntity
  8
0
  6
Continuous
 62
     7
100
AcDbLine
 10
241.9083706909023
 20
70.38994043233834
 30
0.0
 11
241.9083706909023
 21
64.05437957068802
 31
0.0
  0
LINE
  5
EC2
330
1F
100
AcDbEntity
  8
0
  6
Continuous
 62
     7
100
AcDbLine
 10
238.0084706909025
 20
72.47221000128461
 30
0.0
 11
240.1740041604445
 21
72.28270707240977
 31
0.0
  0
LINE
  5
EC3
330
1F
100
AcDbEntity
  8
0
  6
Continuous
 62
     7
100
AcDbLine
 10
238.0084706909025
 20
61.97221000128459
 30
0.0
 11
240.1739174186423
 21
62.16160534196062
 31
0.0
  0
LINE
  5
EC4
330
1F
100
AcDbEntity
  8
0
  6
CENTER_DASH_DASH
 62
   171
100
AcDbLine
 10
236.6239246453054
 20
60.22221000128463
 30
0.0
 11
236.6239246453054
 21
60.20595092211451
 31
0.0
  0
LINE
  5
EC5
330
1F
100
AcDbEntity
  8
0
  6
Continuous
 62
     7
100
AcDbLine
 10
236.5084706909024
 20
60.20784360989259
 30
0.0
 11
236.5084706909024
 21
61.59796838404449
 31
0.0
  0
LINE
  5
EC6
330
1F
100
AcDbEntity
  8
0
  6
Continuous
 62
     7
100
AcDbLine
 10
236.5084706909024
 20
70.52221000128461
 30
0.0
 11
236.5084706909024
 21
73.22221000128462
 31
0.0
  0
LINE
  5
EC7
330
1F
100
AcDbEntity
  8
0
  6
Continuous
 62
     7
100
AcDbLine
 10
236.5084706909024
 20
71.82031000128461
 30
0.0
 11
236.5084706909024
 21
61.59796838404449
 31
0.0
  0
LINE
  5
EC8
330
1F
100
AcDbEntity
  8
0
  6
Continuous
 62
     7
100
AcDbLine
 10
236.5084706909024
 20
83.28537046668182
 30
0.0
 11
236.5084706909024
 21
82.51128191345154
 31
0.0
  0
LINE
  5
EC9
330
1F
100
AcDbEntity
  8
0
  6
Continuous
 62
     7
100
AcDbLine
 10
236.5084706909024
 20
82.51128191345154
 30
0.0
 11
257.5084706909024
 21
82.31316870590442
 31
0.0
  0
LINE
  5
ECA
330
1F
100
AcDbEntity
  8
0
  6
Continuous
 62
     7
100
AcDbLine
 10
236.5084706909024
 20
82.51128191345154
 30
0.0
 11
236.5084706909024
 21
54.23895261622551
 31
0.0
  0
LINE
  5
ECB
330
1F
100
AcDbEntity
  8
0
  6
Continuous
 62
     7
100
AcDbLine
 10
345.4513144229357
 20
78.22983233587347
 30
0.0
 11
354.9532015047173
 21
67.63465087540123
 31
0.0
  0
LINE
  5
ECC
330
1F
100
AcDbEntity
  8
0
  6
Continuous
 62
     7
100
AcDbLine
 10
338.1009190339462
 20
-61.5302987625576
 30
0.0
 11
305.5084706909024
 21
-61.83777469032218
 31
0.0
  0
LINE
  5
ECD
330
1F
100
AcDbEntity
  8
0
  6
Continuous
 62
     7
100
AcDbLine
 10
354.9532015047173
 20
-47.61208704849827
 30
0.0
 11
345.4513144229357
 21
-58.20726850897052
 31
0.0
  0
LINE
  5
ECE
330
1F
100
AcDbEntity
  8
0
  6
Continuous
 62
     7
100
AcDbLine
 10
357.5084706909025
 20
-40.93556227060404
 30
0.0
 11
357.5084706909025
 21
60.958126097507
 31
0.0
  0
LINE
  5
ECF
330
1F
100
AcDbEntity
  8
0
  6
Continuous
 62
     2
100
AcDbLine
 10
236.5084706909024
 20
54.23895261622551
 30
0.0
 11
227.5084706909024
 21
54.23895261622551
 31
0.0
  0
LINE
  5
ED0
330
1F
100
AcDbEntity
  8
0
  6
Continuous
 62
     7
100
AcDbLine
 10
236.5084706909024
 20
54.23895261622551
 30
0.0
 11
236.5084706909024
 21
9.785370466681705
 31
0.0
  0
LINE
  5
ED1
330
1F
100
AcDbEntity
  8
0
  6
Continuous
 62
     7
100
AcDbLine
 10
236.5084706909024
 20
-41.09954617438158
 30
0.0
 11
236.5084706909024
 21
-41.57540455714151
 31
0.0
  0
LINE
  5
ED2
330
1F
100
AcDbEntity
  8
0
  6
Continuous
 62
     7
100
AcDbLine
 10
236.5084706909024
 20
-43.89964617438152
 30
0.0
 11
236.5084706909024
 21
-41.57540455714151
 31
0.0
  0
LINE
  5
ED3
330
1F
100
AcDbEntity
  8
0
  6
Continuous
 62
     7
100
AcDbLine
 10
236.5084706909024
 20
-41.57540455714151
 30
0.0
 11
236.5084706909024
 21
-46.32590511319472
 31
0.0
  0
LINE
  5
ED4
330
1F
100
AcDbEntity
  8
0
  6
Continuous
 62
     7
100
AcDbLine
 10
238.0084706909025
 20
-41.09954617438158
 30
0.0
 11
238.0084706909025
 21
-47.19964617438168
 31
0.0
  0
LINE
  5
ED5
330
1F
100
AcDbEntity
  8
0
  6
Continuous
 62
     7
100
AcDbLine
 10
236.5084706909024
 20
-41.09954617438158
 30
0.0
 11
238.0084706909025
 21
-41.09954617438158
 31
0.0
  0
LINE
  5
ED6
330
1F
100
AcDbEntity
  8
0
  6
Continuous
 62
     7
100
AcDbLine
 10
240.1739706909025
 20
-42.13904617438165
 30
0.0
 11
238.0084706909025
 21
-41.94964617438169
 31
0.0
  0
LINE
  5
ED7
330
1F
100
AcDbEntity
  8
0
  6
CENTER_DASH_DASH
 62
   171
100
AcDbLine
 10
236.6239246453054
 20
-40.18338709521153
 30
0.0
 11
236.6239246453054
 21
-40.19964617438168
 31
0.0
  0
LINE
  5
ED8
330
1F
100
AcDbEntity
  8
0
  6
Continuous
 62
     7
100
AcDbLine
 10
236.5084706909024
 20
-41.57540455714151
 30
0.0
 11
236.5084706909024
 21
-40.18527978298961
 31
0.0
  0
LINE
  5
ED9
330
1F
100
AcDbEntity
  8
0
  6
DASHED
 62
     2
 48
0.5
100
AcDbLine
 10
-156.0071876815149
 20
70.54381897966749
 30
0.0
 11
-148.0232449422161
 21
73.64277683119273
 31
0.0
  0
LINE
  5
EDA
330
1F
100
AcDbEntity
  8
0
  6
DASHED
 62
     2
 48
0.5
100
AcDbLine
 10
-141.5515660244812
 20
56.3130349859389
 30
0.0
 11
-138.2276069148373
 21
64.13963024173561
 31
0.0
  0
LINE
  5
EDB
330
1F
100
AcDbEntity
  8
0
  6
DASHED
 62
     2
 48
0.5
100
AcDbLine
 10
-262.7489868497053
 20
56.22054401542569
 30
0.0
 11
-265.8479447012305
 21
64.20448675472451
 31
0.0
  0
LINE
  5
EDC
330
1F
100
AcDbEntity
  8
0
  6
DASHED
 62
     2
 48
0.5
100
AcDbLine
 10
-248.5182028559767
 20
70.67616567245945
 30
0.0
 11
-256.3447981117734
 21
74.00012478210325
 31
0.0
  0
LINE
  5
EDD
330
1F
100
AcDbEntity
  8
0
  6
DASHED
 62
     2
 48
0.5
100
AcDbLine
 10
-248.4257118854634
 20
-50.52125515276446
 30
0.0
 11
-256.4096546247624
 21
-53.62021300428973
 31
0.0
  0
LINE
  5
EDE
330
1F
100
AcDbEntity
  8
0
  6
DASHED
 62
     2
 48
0.5
100
AcDbLine
 10
-262.881333542497
 20
-36.2904711590359
 30
0.0
 11
-266.2052926521411
 21
-44.11706641483259
 31
0.0
  0
LINE
  5
EDF
330
1F
100
AcDbEntity
  8
0
  6
DASHED
 62
     2
 48
0.5
100
AcDbLine
 10
-141.6839127172732
 20
-36.19798018852267
 30
0.0
 11
-138.584954865748
 21
-44.1819229278215
 31
0.0
  0
LINE
  5
EE0
330
1F
100
AcDbEntity
  8
0
  6
DASHED
 62
     2
 48
0.5
100
AcDbLine
 10
-155.9146967110018
 20
-50.65360184555637
 30
0.0
 11
-148.0881014552051
 21
-53.97756095520024
 31
0.0
  0
LINE
  5
EE1
330
1F
100
AcDbEntity
  8
0
  6
Continuous
 62
     2
100
AcDbLine
 10
-274.8257442522932
 20
-9.945931237250144
 30
0.0
 11
-274.1358262097553
 21
-9.653078402944181
 31
0.0
  0
LINE
  5
EE2
330
1F
100
AcDbEntity
  8
0
  6
Continuous
 62
     2
100
AcDbLine
 10
-267.0111216825076
 20
-28.35602830629896
 30
0.0
 11
-266.3730614223276
 21
-28.08518779462836
 31
0.0
  0
LINE
  5
EE3
330
1F
100
AcDbEntity
  8
0
  6
DASHED
 62
     2
 48
0.5
100
AcDbLine
 10
-244.6974644806195
 20
-50.96422321082056
 30
0.0
 11
-244.6974644806195
 21
-62.98871808654858
 31
0.0
  0
LINE
  5
EE4
330
1F
100
AcDbEntity
  8
0
  6
DASHED
 62
     2
 48
0.5
100
AcDbLine
 10
-159.7694863877096
 20
-51.05651444987016
 30
0.0
 11
-159.7694863877096
 21
-61.33067740116506
 31
0.0
  0
LINE
  5
EE5
330
1F
100
AcDbEntity
  8
0
  6
DASH_CENTER
 62
     2
 48
0.5
100
AcDbLine
 10
-236.7164497834892
 20
-53.89007729359862
 30
0.0
 11
-236.7164497834892
 21
-79.77754164283784
 31
0.0
  0
LINE
  5
EE6
330
1F
100
AcDbEntity
  8
0
  6
DASH_CENTER
 62
     2
100
AcDbLine
 10
-167.7164497834892
 20
-54.04133402666814
 30
0.0
 11
-167.7164497834892
 21
-77.48907511745411
 31
0.0
  0
LINE
  5
EE7
330
1F
100
AcDbEntity
  8
0
  6
Continuous
 62
     7
100
AcDbLine
 10
227.5084706909024
 20
84.28537046668182
 30
0.0
 11
227.5084706909023
 21
-34.21638878932257
 31
0.0
  0
LINE
  5
EE8
330
1F
100
AcDbEntity
  8
0
  6
Continuous
 62
     7
100
AcDbLine
 10
227.5084706909024
 20
84.28537046668182
 30
0.0
 11
235.5084706909023
 21
84.28537046668182
 31
0.0
  0
LINE
  5
EE9
330
1F
100
AcDbEntity
  8
0
  6
Continuous
 62
     7
100
AcDbLine
 10
305.5084706909024
 20
-61.83777469032218
 30
0.0
 11
305.5084706909024
 21
-62.98871808654859
 31
0.0
  0
LINE
  5
EEB
330
1F
100
AcDbEntity
  8
0
  6
DASHED
 62
     2
 48
0.5
100
AcDbLine
 10
-159.7164497834891
 20
-62.98871808654858
 30
0.0
 11
-244.6974644806195
 21
-62.98871808654858
 31
0.0
  0
LINE
  5
EEC
330
1F
100
AcDbEntity
  8
0
  6
DASHED
 62
     2
 48
0.5
100
AcDbLine
 10
-231.1428235463997
 20
-62.98871808654858
 30
0.0
 11
-243.4098974124687
 21
-62.98871808654858
 31
0.0
  0
LINE
  5
EED
330
1F
100
AcDbEntity
  8
0
  6
DASHED
 62
     2
 48
0.5
100
AcDbLine
 10
-188.9554834711252
 20
-62.98871808654858
 30
0.0
 11
-159.7354350863588
 21
-62.98871808654858
 31
0.0
  0
LINE
  5
EEE
330
1F
100
AcDbEntity
  8
0
  6
DASHED
 62
     2
100
AcDbLine
 10
-161.0230021545098
 20
-62.98871808654858
 30
0.0
 11
-173.2900760205789
 21
-62.98871808654858
 31
0.0
  0
LINE
  5
EEF
330
1F
100
AcDbEntity
  8
0
  6
Continuous
 62
     7
100
AcDbLine
 10
257.5084706909024
 20
82.31316870590442
 30
0.0
 11
257.5084706909024
 21
74.56520629676591
 31
0.0
  0
LINE
  5
EF0
330
1F
100
AcDbEntity
  8
0
  6
Continuous
 62
     7
100
AcDbLine
 10
257.5084706909024
 20
74.56520629676591
 30
0.0
 11
297.5084706909024
 21
74.56520629676591
 31
0.0
  0
LINE
  5
EF1
330
1F
100
AcDbEntity
  8
0
  6
Continuous
 62
     7
100
AcDbLine
 10
297.5084706909024
 20
74.56520629676591
 30
0.0
 11
297.5084706909024
 21
81.93581021533834
 31
0.0
  0
LINE
  5
EF2
330
1F
100
AcDbEntity
  8
0
  6
Continuous
 62
     7
100
AcDbLine
 10
297.5084706909024
 20
81.93581021533834
 30
0.0
 11
338.1009190339462
 21
81.55286258946054
 31
0.0
  0
LINE
  5
EF3
330
1F
100
AcDbEntity
  8
0
  6
Continuous
 62
     7
100
AcDbLine
 10
297.5084706909024
 20
81.93581021533834
 30
0.0
 11
257.5084706909024
 21
82.31316870590442
 31
0.0
  0
LINE
  5
EF4
330
1F
100
AcDbEntity
  8
0
  6
Continuous
 62
     7
100
AcDbLine
 10
185.7084706909022
 20
-42.40657781844825
 30
0.0
 11
185.7084706909022
 21
-0.6149776252464053
 31
0.0
  0
LINE
  5
EF5
330
1F
100
AcDbEntity
  8
0
  6
Continuous
 62
     7
100
AcDbLine
 10
236.5084706909024
 20
-46.32590511319472
 30
0.0
 11
236.5084706909024
 21
-34.21638878932257
 31
0.0
  0
LINE
  5
EF6
330
1F
100
AcDbEntity
  8
0
  6
Continuous
 62
     7
100
AcDbLine
 10
241.9083706909023
 20
-49.4740679456003
 30
0.0
 11
241.9083706909023
 21
-44.03184617438151
 31
0.0
  0
LINE
  5
EF7
330
1F
100
AcDbEntity
  8
0
  6
DASHED
 62
     2
 48
0.5
100
AcDbLine
 10
217.5084706909024
 20
-157.6887180865484
 30
0.0
 11
217.5084706909024
 21
-159.9887180865485
 31
0.0
  0
LINE
  5
EF8
330
1F
100
AcDbEntity
  8
0
  6
Continuous
 62
     7
100
AcDbLine
 10
305.5084706909024
 20
-62.98871808654859
 30
0.0
 11
305.5084706909024
 21
-64.83689519300888
 31
0.0
  0
LINE
  5
EF9
330
1F
100
AcDbEntity
  8
0
  6
Continuous
 62
     7
100
AcDbLine
 10
256.9465515425763
 20
-62.98871808654859
 30
0.0
 11
305.5084706909024
 21
-62.98871808654859
 31
0.0
  0
LINE
  5
EFA
330
1F
100
AcDbEntity
  8
0
  6
Continuous
 62
     7
100
AcDbLine
 10
256.3798571365774
 20
-62.30125217668377
 30
0.0
 11
305.5084706909024
 21
-61.83777469032218
 31
0.0
  0
LINE
  5
EFB
330
1F
100
AcDbEntity
  8
0
  6
DASHED
 62
     2
 48
0.5
100
AcDbLine
 10
227.0084706909023
 20
-157.6887180865484
 30
0.0
 11
227.0084706909023
 21
-159.9887180865485
 31
0.0
  0
LINE
  5
EFC
330
1F
100
AcDbEntity
  8
0
  6
DASHED
 62
     2
 48
0.5
100
AcDbLine
 10
238.0084706909023
 20
-157.6887180865484
 30
0.0
 11
238.0084706909023
 21
-159.9887180865485
 31
0.0
  0
LINE
  5
EFD
330
1F
100
AcDbEntity
  8
0
  6
Continuous
 62
     7
100
AcDbLine
 10
262.008470690902
 20
-159.9887180865485
 30
0.0
 11
273.0084706909021
 21
-159.9887180865485
 31
0.0
  0
LINE
  5
EFE
330
1F
100
AcDbEntity
  8
0
  6
Continuous
 62
     7
100
AcDbLine
 10
262.008470690902
 20
-157.6887180865484
 30
0.0
 11
273.0084706909021
 21
-157.6887180865484
 31
0.0
  0
LINE
  5
EFF
330
1F
100
AcDbEntity
  8
0
  6
DASHED
 62
     2
100
AcDbLine
 10
262.008470690902
 20
-157.6887180865484
 30
0.0
 11
262.008470690902
 21
-159.9887180865485
 31
0.0
  0
LINE
  5
F00
330
1F
100
AcDbEntity
  8
0
  6
DASHED
 62
     2
100
AcDbLine
 10
273.0084706909021
 20
-157.6887180865484
 30
0.0
 11
273.0084706909021
 21
-159.9887180865485
 31
0.0
  0
LINE
  5
F01
330
1F
100
AcDbEntity
  8
0
  6
Continuous
 62
     7
100
AcDbLine
 10
297.0084706909021
 20
-159.9887180865485
 30
0.0
 11
302.5084706909021
 21
-159.9887180865485
 31
0.0
  0
LINE
  5
F02
330
1F
100
AcDbEntity
  8
0
  6
Continuous
 62
     7
100
AcDbLine
 10
297.0084706909021
 20
-157.6887180865484
 30
0.0
 11
308.0084706909021
 21
-157.6887180865484
 31
0.0
  0
LINE
  5
F03
330
1F
100
AcDbEntity
  8
0
  6
DASHED
 62
     2
100
AcDbLine
 10
297.0084706909021
 20
-157.6887180865484
 30
0.0
 11
297.0084706909021
 21
-159.9887180865485
 31
0.0
  0
LINE
  5
F04
330
1F
100
AcDbEntity
  8
0
  6
Continuous
 62
     7
100
AcDbLine
 10
308.0084706909021
 20
-159.9887180865485
 30
0.0
 11
317.5084706909022
 21
-159.9887180865485
 31
0.0
  0
LINE
  5
F05
330
1F
100
AcDbEntity
  8
0
  6
Continuous
 62
     7
100
AcDbLine
 10
308.0084706909021
 20
-157.6887180865484
 30
0.0
 11
317.5084706909022
 21
-157.6887180865484
 31
0.0
  0
LINE
  5
F06
330
1F
100
AcDbEntity
  8
0
  6
DASHED
 62
     2
100
AcDbLine
 10
308.0084706909021
 20
-157.6887180865484
 30
0.0
 11
308.0084706909021
 21
-159.9887180865485
 31
0.0
  0
LINE
  5
F07
330
1F
100
AcDbEntity
  8
0
  6
DASH_CENTER
 62
     2
100
AcDbLine
 10
302.5084706909021
 20
-150.4621200119125
 30
0.0
 11
302.5084706909021
 21
-159.9887180865485
 31
0.0
  0
LINE
  5
F08
330
1F
100
AcDbEntity
  8
0
  6
DASH_CENTER
 62
     2
100
AcDbLine
 10
267.5084706909021
 20
-150.4621200119125
 30
0.0
 11
267.5084706909021
 21
-168.7347809197545
 31
0.0
  0
LINE
  5
F09
330
1F
100
AcDbEntity
  8
0
  6
Continuous
 62
     7
100
AcDbLine
 10
317.5084706909022
 20
-159.9887180865485
 30
0.0
 11
317.5084706909022
 21
-157.6887180865484
 31
0.0
  0
LINE
  5
F0A
330
1F
100
AcDbEntity
  8
0
  6
DASHED
 62
     2
 48
0.5
100
AcDbLine
 10
217.5084706909024
 20
-157.6887180865484
 30
0.0
 11
243.1323699917692
 21
-157.6887180865484
 31
0.0
  0
LINE
  5
F0B
330
1F
100
AcDbEntity
  8
0
  6
Continuous
 62
     7
100
AcDbLine
 10
302.5084706909021
 20
-159.9887180865485
 30
0.0
 11
308.0084706909021
 21
-159.9887180865485
 31
0.0
  0
LINE
  5
F0C
330
1F
100
AcDbEntity
  8
0
  6
DASH_CENTER
 62
     2
100
AcDbLine
 10
302.5084706909021
 20
-159.9887180865485
 30
0.0
 11
302.5084706909021
 21
-169.9863330367293
 31
0.0
  0
LINE
  5
F0D
330
1F
100
AcDbEntity
  8
0
  6
Continuous
 62
     7
100
AcDbLine
 10
330.5046554454813
 20
-137.7024423757013
 30
0.0
 11
348.0675025172425
 21
-141.2185610831294
 31
0.0
  0
LINE
  5
F0E
330
1F
100
AcDbEntity
  8
0
  6
Continuous
 62
     7
100
AcDbLine
 10
314.5716907250983
 20
-134.5126295230804
 30
0.0
 11
329.1718576850592
 21
-137.4356134772045
 31
0.0
  0
LINE
  5
F0F
330
1F
100
AcDbEntity
  8
0
  6
Continuous
 62
     7
100
AcDbLine
 10
332.4677221330163
 20
-127.8970168785445
 30
0.0
 11
350.0305692047776
 21
-131.4131355859723
 31
0.0
  0
LINE
  5
F10
330
1F
100
AcDbEntity
  8
0
  6
Continuous
 62
     7
100
AcDbLine
 10
313.2457487731592
 20
-124.0487376190303
 30
0.0
 11
314.5716907250983
 21
-134.5126295230804
 31
0.0
  0
LINE
  5
F11
330
1F
100
AcDbEntity
  8
0
  6
Continuous
 62
     7
100
AcDbLine
 10
313.2457487731592
 20
-124.0487376190303
 30
0.0
 11
331.1349243725945
 21
-127.6301879800473
 31
0.0
  0
LINE
  5
F12
330
1F
100
AcDbEntity
  8
0
  6
Continuous
 62
     7
100
AcDbLine
 10
368.1230585574852
 20
-142.9234137326074
 30
0.0
 11
368.1636205632541
 21
-142.7208084272884
 31
0.0
  0
LINE
  5
F13
330
1F
100
AcDbEntity
  8
0
  6
Continuous
 62
     7
100
AcDbLine
 10
368.1230585574852
 20
-142.9234137326074
 30
0.0
 11
373.0257713060636
 21
-143.9049470763742
 31
0.0
  0
LINE
  5
F14
330
1F
100
AcDbEntity
  8
0
  6
Continuous
 62
     7
100
AcDbLine
 10
368.1636205632541
 20
-142.7208084272884
 30
0.0
 11
368.2034639512783
 21
-142.5217925837104
 31
0.0
  0
LINE
  5
F15
330
1F
100
AcDbEntity
  8
0
  6
Continuous
 62
     7
100
AcDbLine
 10
368.1636205632541
 20
-142.7208084272884
 30
0.0
 11
373.0663333118335
 21
-143.7023417710553
 31
0.0
  0
LINE
  5
F16
330
1F
100
AcDbEntity
  8
0
  6
Continuous
 62
     7
100
AcDbLine
 10
368.2034639512783
 20
-142.5217925837104
 30
0.0
 11
368.2368470335652
 21
-142.3550456625203
 31
0.0
  0
LINE
  5
F17
330
1F
100
AcDbEntity
  8
0
  6
Continuous
 62
     7
100
AcDbLine
 10
368.2034639512783
 20
-142.5217925837104
 30
0.0
 11
373.1061766998562
 21
-143.5033259274784
 31
0.0
  0
LINE
  5
F18
330
1F
100
AcDbEntity
  8
0
  6
Continuous
 62
     7
100
AcDbLine
 10
368.2368470335652
 20
-142.3550456625203
 30
0.0
 11
368.2687946938567
 21
-142.1954686064923
 31
0.0
  0
LINE
  5
F19
330
1F
100
AcDbEntity
  8
0
  6
Continuous
 62
     7
100
AcDbLine
 10
368.2368470335652
 20
-142.3550456625203
 30
0.0
 11
373.1395597821444
 21
-143.3365790062885
 31
0.0
  0
LINE
  5
F1A
330
1F
100
AcDbEntity
  8
0
  6
Continuous
 62
     7
100
AcDbLine
 10
368.2687946938567
 20
-142.1954686064923
 30
0.0
 11
368.3018202807655
 21
-142.0305073578523
 31
0.0
  0
LINE
  5
F1B
330
1F
100
AcDbEntity
  8
0
  6
Continuous
 62
     7
100
AcDbLine
 10
368.2687946938567
 20
-142.1954686064923
 30
0.0
 11
373.1715074424343
 21
-143.1770019502594
 31
0.0
  0
LINE
  5
F1C
330
1F
100
AcDbEntity
  8
0
  6
Continuous
 62
     7
100
AcDbLine
 10
368.3018202807655
 20
-142.0305073578523
 30
0.0
 11
368.3463310571494
 21
-141.8081781295984
 31
0.0
  0
LINE
  5
F1D
330
1F
100
AcDbEntity
  8
0
  6
Continuous
 62
     7
100
AcDbLine
 10
368.3018202807655
 20
-142.0305073578523
 30
0.0
 11
373.2045330293434
 21
-143.0120407016192
 31
0.0
  0
LINE
  5
F1E
330
1F
100
AcDbEntity
  8
0
  6
Continuous
 62
     7
100
AcDbLine
 10
368.3463310571494
 20
-141.8081781295984
 30
0.0
 11
368.3868912494234
 21
-141.6055818825993
 31
0.0
  0
LINE
  5
F1F
330
1F
100
AcDbEntity
  8
0
  6
Continuous
 62
     7
100
AcDbLine
 10
368.3463310571494
 20
-141.8081781295984
 30
0.0
 11
373.2490438057274
 21
-142.7897114733653
 31
0.0
  0
LINE
  5
F20
330
1F
100
AcDbEntity
  8
0
  6
Continuous
 62
     7
100
AcDbLine
 10
368.3868912494234
 20
-141.6055818825993
 30
0.0
 11
368.4202761452064
 21
-141.4388259030893
 31
0.0
  0
LINE
  5
F21
330
1F
100
AcDbEntity
  8
0
  6
Continuous
 62
     7
100
AcDbLine
 10
368.3868912494234
 20
-141.6055818825993
 30
0.0
 11
373.2896039980027
 21
-142.5871152263674
 31
0.0
  0
LINE
  5
F22
330
1F
100
AcDbEntity
  8
0
  6
Continuous
 62
     7
100
AcDbLine
 10
368.4202761452064
 20
-141.4388259030893
 30
0.0
 11
368.4586822977374
 21
-141.2469889829932
 31
0.0
  0
LINE
  5
F23
330
1F
100
AcDbEntity
  8
0
  6
Continuous
 62
     7
100
AcDbLine
 10
368.4202761452064
 20
-141.4388259030893
 30
0.0
 11
373.3229888937841
 21
-142.4203592468565
 31
0.0
  0
LINE
  5
F24
330
1F
100
AcDbEntity
  8
0
  6
Continuous
 62
     7
100
AcDbLine
 10
368.4586822977374
 20
-141.2469889829932
 30
0.0
 11
368.5107294929824
 21
-140.9870156980604
 31
0.0
  0
LINE
  5
F25
330
1F
100
AcDbEntity
  8
0
  6
Continuous
 62
     7
100
AcDbLine
 10
368.4586822977374
 20
-141.2469889829932
 30
0.0
 11
373.3613950463163
 21
-142.2285223267605
 31
0.0
  0
LINE
  5
F26
330
1F
100
AcDbEntity
  8
0
  6
Continuous
 62
     7
100
AcDbLine
 10
368.5107294929824
 20
-140.9870156980604
 30
0.0
 11
368.5617335209465
 21
-140.7322529844785
 31
0.0
  0
LINE
  5
F27
330
1F
100
AcDbEntity
  8
0
  6
Continuous
 62
     7
100
AcDbLine
 10
368.5107294929824
 20
-140.9870156980604
 30
0.0
 11
373.4134422415603
 21
-141.9685490418274
 31
0.0
  0
LINE
  5
F28
330
1F
100
AcDbEntity
  8
0
  6
Continuous
 62
     7
100
AcDbLine
 10
368.8144055729442
 20
-139.4701680044743
 30
0.0
 11
368.7580401896993
 21
-139.7517104347635
 31
0.0
  0
LINE
  5
F29
330
1F
100
AcDbEntity
  8
0
  6
Continuous
 62
     7
100
AcDbLine
 10
368.8144055729442
 20
-139.4701680044743
 30
0.0
 11
373.7171183215235
 21
-140.4517013482415
 31
0.0
  0
LINE
  5
F2A
330
1F
100
AcDbEntity
  8
0
  6
Continuous
 62
     7
100
AcDbLine
 10
368.9102485538154
 20
-138.9914368363883
 30
0.0
 11
368.8680569796152
 21
-139.2021817591452
 31
0.0
  0
LINE
  5
F2B
330
1F
100
AcDbEntity
  8
0
  6
Continuous
 62
     7
100
AcDbLine
 10
368.9102485538154
 20
-138.9914368363883
 30
0.0
 11
373.812961302393
 21
-139.9729701801554
 31
0.0
  0
LINE
  5
F2C
330
1F
100
AcDbEntity
  8
0
  6
Continuous
 62
     7
100
AcDbLine
 10
369.0075251431884
 20
-138.5055448614614
 30
0.0
 11
368.9593968430594
 21
-138.7459434501683
 31
0.0
  0
LINE
  5
F2D
330
1F
100
AcDbEntity
  8
0
  6
Continuous
 62
     7
100
AcDbLine
 10
369.0075251431884
 20
-138.5055448614614
 30
0.0
 11
373.9102378917676
 21
-139.4870782052292
 31
0.0
  0
LINE
  5
F2E
330
1F
100
AcDbEntity
  8
0
  6
Continuous
 62
     7
100
AcDbLine
 10
369.1891613374544
 20
-137.5982806397413
 30
0.0
 11
369.1435690074615
 21
-137.8260121772463
 31
0.0
  0
LINE
  5
F2F
330
1F
100
AcDbEntity
  8
0
  6
Continuous
 62
     7
100
AcDbLine
 10
369.1891613374544
 20
-137.5982806397413
 30
0.0
 11
374.0918740860323
 21
-138.5798139835082
 31
0.0
  0
LINE
  5
F30
330
1F
100
AcDbEntity
  8
0
  6
Continuous
 62
     7
100
AcDbLine
 10
369.1435690074615
 20
-137.8260121772463
 30
0.0
 11
369.1051592279413
 21
-138.0178672139834
 31
0.0
  0
LINE
  5
F31
330
1F
100
AcDbEntity
  8
0
  6
Continuous
 62
     7
100
AcDbLine
 10
369.1435690074615
 20
-137.8260121772463
 30
0.0
 11
374.0462817560403
 21
-138.8075455210145
 31
0.0
  0
LINE
  5
F32
330
1F
100
AcDbEntity
  8
0
  6
Continuous
 62
     7
100
AcDbLine
 10
369.1051592279413
 20
-138.0178672139834
 30
0.0
 11
369.0560114337166
 21
-138.2633581276013
 31
0.0
  0
LINE
  5
F33
330
1F
100
AcDbEntity
  8
0
  6
Continuous
 62
     7
100
AcDbLine
 10
369.1051592279413
 20
-138.0178672139834
 30
0.0
 11
374.0078719765195
 21
-138.9994005577515
 31
0.0
  0
LINE
  5
F34
330
1F
100
AcDbEntity
  8
0
  6
Continuous
 62
     7
100
AcDbLine
 10
368.7580401896993
 20
-139.7517104347635
 30
0.0
 11
373.6607529382784
 21
-140.7332437785304
 31
0.0
  0
LINE
  5
F35
330
1F
100
AcDbEntity
  8
0
  6
Continuous
 62
     7
100
AcDbLine
 10
368.8680569796152
 20
-139.2021817591452
 30
0.0
 11
368.8144055729442
 21
-139.4701680044743
 31
0.0
  0
LINE
  5
F36
330
1F
100
AcDbEntity
  8
0
  6
Continuous
 62
     7
100
AcDbLine
 10
368.8680569796152
 20
-139.2021817591452
 30
0.0
 11
373.7707697281934
 21
-140.1837151029133
 31
0.0
  0
LINE
  5
F37
330
1F
100
AcDbEntity
  8
0
  6
Continuous
 62
     7
100
AcDbLine
 10
369.0560114337166
 20
-138.2633581276013
 30
0.0
 11
369.0075251431884
 21
-138.5055448614614
 31
0.0
  0
LINE
  5
F38
330
1F
100
AcDbEntity
  8
0
  6
Continuous
 62
     7
100
AcDbLine
 10
369.0560114337166
 20
-138.2633581276013
 30
0.0
 11
373.9587241822953
 21
-139.2448914713692
 31
0.0
  0
LINE
  5
F39
330
1F
100
AcDbEntity
  8
0
  6
Continuous
 62
     7
100
AcDbLine
 10
368.9593968430594
 20
-138.7459434501683
 30
0.0
 11
368.9102485538154
 21
-138.9914368363883
 31
0.0
  0
LINE
  5
F3A
330
1F
100
AcDbEntity
  8
0
  6
Continuous
 62
     7
100
AcDbLine
 10
368.9593968430594
 20
-138.7459434501683
 30
0.0
 11
373.8621095916386
 21
-139.7274767939364
 31
0.0
  0
LINE
  5
F3B
330
1F
100
AcDbEntity
  8
0
  6
Continuous
 62
     7
100
AcDbLine
 10
369.2488068615834
 20
-137.3003540604734
 30
0.0
 11
369.1891613374544
 21
-137.5982806397413
 31
0.0
  0
LINE
  5
F3C
330
1F
100
AcDbEntity
  8
0
  6
Continuous
 62
     7
100
AcDbLine
 10
369.2488068615834
 20
-137.3003540604734
 30
0.0
 11
374.1515196101611
 21
-138.2818874042414
 31
0.0
  0
LINE
  5
F3D
330
1F
100
AcDbEntity
  8
0
  6
Continuous
 62
     7
100
AcDbLine
 10
368.7580401896993
 20
-139.7517104347635
 30
0.0
 11
368.6598868553235
 21
-140.2419817096204
 31
0.0
  0
LINE
  5
F3E
330
1F
100
AcDbEntity
  8
0
  6
Continuous
 62
     7
100
AcDbLine
 10
368.0709668490624
 20
-143.1836093587673
 30
0.0
 11
368.1230585574852
 21
-142.9234137326074
 31
0.0
  0
LINE
  5
F3F
330
1F
100
AcDbEntity
  8
0
  6
Continuous
 62
     7
100
AcDbLine
 10
368.0709668490624
 20
-143.1836093587673
 30
0.0
 11
372.9736795976405
 21
-144.1651427025355
 31
0.0
  0
LINE
  5
F40
330
1F
100
AcDbEntity
  8
0
  6
Continuous
 62
     7
100
AcDbLine
 10
368.5617335209465
 20
-140.7322529844785
 30
0.0
 11
368.6598868553235
 21
-140.2419817096204
 31
0.0
  0
LINE
  5
F41
330
1F
100
AcDbEntity
  8
0
  6
Continuous
 62
     7
100
AcDbLine
 10
368.5617335209465
 20
-140.7322529844785
 30
0.0
 11
373.4644462695245
 21
-141.7137863282464
 31
0.0
  0
LINE
  5
F42
330
1F
100
AcDbEntity
  8
0
  6
Continuous
 62
     7
100
AcDbLine
 10
367.9728135146853
 20
-143.6738806336255
 30
0.0
 11
368.0709668490624
 21
-143.1836093587673
 31
0.0
  0
LINE
  5
F43
330
1F
100
AcDbEntity
  8
0
  6
Continuous
 62
     7
100
AcDbLine
 10
349.0490358610092
 20
-136.3158483345513
 30
0.0
 11
348.3619625203726
 21
-139.7477472585553
 31
0.0
  0
LINE
  5
F44
330
1F
100
AcDbEntity
  8
0
  6
Continuous
 62
     7
100
AcDbLine
 10
348.3619625203726
 20
-139.7477472585553
 30
0.0
 11
367.9728135146853
 21
-143.6738806336255
 31
0.0
  0
LINE
  5
F45
330
1F
100
AcDbEntity
  8
0
  6
Continuous
 62
     7
100
AcDbLine
 10
349.0490358610092
 20
-136.3158483345513
 30
0.0
 11
349.7361092016463
 21
-132.8839494105463
 31
0.0
  0
LINE
  5
F46
330
1F
100
AcDbEntity
  8
0
  6
Continuous
 62
     7
100
AcDbLine
 10
349.0490358610092
 20
-136.3158483345513
 30
0.0
 11
368.6598868553235
 21
-140.2419817096204
 31
0.0
  0
LINE
  5
F47
330
1F
100
AcDbEntity
  8
0
  6
Continuous
 62
     7
100
AcDbLine
 10
369.3469601959594
 20
-136.8100827856165
 30
0.0
 11
369.2488068615834
 21
-137.3003540604734
 31
0.0
  0
LINE
  5
F48
330
1F
100
AcDbEntity
  8
0
  6
Continuous
 62
     7
100
AcDbLine
 10
349.7361092016463
 20
-132.8839494105463
 30
0.0
 11
350.0305692047776
 21
-131.4131355859723
 31
0.0
  0
LINE
  5
F49
330
1F
100
AcDbEntity
  8
0
  6
Continuous
 62
     7
100
AcDbLine
 10
349.7361092016463
 20
-132.8839494105463
 30
0.0
 11
369.3469601959594
 21
-136.8100827856165
 31
0.0
  0
LINE
  5
F4A
330
1F
100
AcDbEntity
  8
0
  6
Continuous
 62
     7
100
AcDbLine
 10
348.0675025172425
 20
-141.2185610831294
 30
0.0
 11
348.3619625203726
 21
-139.7477472585553
 31
0.0
  0
LINE
  5
F4B
330
1F
100
AcDbEntity
  8
0
  6
DASHED
 62
     2
 48
0.5
100
AcDbLine
 10
271.545404003367
 20
-115.7002414012954
 30
0.0
 11
313.2457487731592
 21
-124.0487376190303
 31
0.0
  0
LINE
  5
F4C
330
1F
100
AcDbEntity
  8
0
  6
DASHED
 62
     2
 48
0.5
100
AcDbLine
 10
269.5823373158325
 20
-125.5056668984513
 30
0.0
 11
314.5716907250983
 21
-134.5126295230804
 31
0.0
  0
LINE
  5
F4D
330
1F
100
AcDbEntity
  8
0
  6
DASHED
 62
     2
 48
0.5
100
AcDbLine
 10
264.0871099431852
 20
-105.9887180865483
 30
0.0
 11
239.0848211657064
 21
-105.9887180865483
 31
0.0
  0
LINE
  5
F4E
330
1F
100
AcDbEntity
  8
0
  6
DASHED
 62
     2
 48
0.5
100
AcDbLine
 10
239.0848211657064
 20
-93.98871808654844
 30
0.0
 11
239.0848211657064
 21
-105.9887180865483
 31
0.0
  0
LINE
  5
F4F
330
1F
100
AcDbEntity
  8
0
  6
DASHED
 62
     2
 48
0.5
100
AcDbLine
 10
264.0871099431852
 20
-105.9887180865483
 30
0.0
 11
264.0871099431852
 21
-93.98871808654844
 31
0.0
  0
LINE
  5
F50
330
1F
100
AcDbEntity
  8
0
  6
DASHED
 62
     2
 48
0.5
100
AcDbLine
 10
239.0848211657064
 20
-93.98871808654844
 30
0.0
 11
264.0871099431852
 21
-93.98871808654844
 31
0.0
  0
LINE
  5
F53
330
1F
100
AcDbEntity
  8
0
  6
DASHED
 62
     2
 48
0.5
100
AcDbLine
 10
253.508470690902
 20
-86.45773172410933
 30
0.0
 11
253.508470690902
 21
-105.8948159041383
 31
0.0
  0
LINE
  5
F54
330
1F
100
AcDbEntity
  8
0
  6
DASHED
 62
     2
 48
0.5
100
AcDbLine
 10
250.52219143594
 20
-56.66356156681731
 30
0.0
 11
261.4810292008253
 21
-79.11092349549736
 31
0.0
  0
LINE
  5
F55
330
1F
100
AcDbEntity
  8
0
  6
DASHED
 62
     2
 48
0.5
100
AcDbLine
 10
241.820832029669
 20
-61.83604266818034
 30
0.0
 11
252.3522900215181
 21
-81.79009210140833
 31
0.0
  0
LINE
  5
F56
330
1F
100
AcDbEntity
  8
0
  6
DASHED
 62
     2
 48
0.5
100
AcDbLine
 10
239.5084706909023
 20
-18.83556111505923
 30
0.0
 11
239.5084706909023
 21
-52.50076342277623
 31
0.0
  0
LINE
  5
F57
330
1F
100
AcDbEntity
  8
0
  6
DASHED
 62
     2
 48
0.5
100
AcDbLine
 10
249.508470690902
 20
-18.83556111505923
 30
0.0
 11
249.508470690902
 21
-52.27644575436818
 31
0.0
  0
LINE
  5
F58
330
1F
100
AcDbEntity
  8
0
  6
DASHED
 62
     2
 48
0.5
100
AcDbLine
 10
243.3756489602111
 20
-28.08518779462825
 30
0.0
 11
230.5084706909023
 21
-28.08518779462825
 31
0.0
  0
LINE
  5
F59
330
1F
100
AcDbEntity
  8
0
  6
DASHED
 62
     2
 48
0.5
100
AcDbLine
 10
228.5084706909024
 20
-9.653078402944254
 30
0.0
 11
243.3756489602111
 21
-9.653078402944254
 31
0.0
  0
LINE
  5
F5A
330
1F
100
AcDbEntity
  8
0
  6
Continuous
 62
     7
100
AcDbLine
 10
-252.2164497834892
 20
-157.4628066397788
 30
0.0
 11
-275.7164497834893
 21
-157.4628066397788
 31
0.0
  0
LINE
  5
F5B
330
1F
100
AcDbEntity
  8
0
  6
Continuous
 62
     7
100
AcDbLine
 10
-275.7164497834893
 20
-157.4628066397788
 30
0.0
 11
-275.7164497834893
 21
-159.762806639779
 31
0.0
  0
LINE
  5
F5C
330
1F
100
AcDbEntity
  8
0
  6
Continuous
 62
     7
100
AcDbLine
 10
-275.7164497834893
 20
-159.762806639779
 30
0.0
 11
-251.9164497834891
 21
-159.762806639779
 31
0.0
  0
LINE
  5
F5D
330
1F
100
AcDbEntity
  8
0
  6
Continuous
 62
     7
100
AcDbLine
 10
-247.9164497834891
 20
-154.762806639779
 30
0.0
 11
-247.9164497834891
 21
-155.762806639779
 31
0.0
  0
LINE
  5
F5E
330
1F
100
AcDbEntity
  8
0
  6
Continuous
 62
     7
100
AcDbLine
 10
-237.916449783489
 20
-144.762806639779
 30
0.0
 11
-233.9809191245126
 21
-144.762806639779
 31
0.0
  0
LINE
  5
F5F
330
1F
100
AcDbEntity
  8
0
  6
DASH_CENTER
 62
     2
100
AcDbLine
 10
-202.3761932994479
 20
-64.98854796641641
 30
0.0
 11
-202.2164497834892
 21
-170.1441726502189
 31
0.0
  0
LINE
  5
F60
330
1F
100
AcDbEntity
  8
0
  6
DASH_CENTER
 62
     2
100
AcDbLine
 10
-262.2164497834892
 20
-150.223611075244
 30
0.0
 11
-262.2164497834892
 21
-166.7749612410548
 31
0.0
  0
LINE
  5
F61
330
1F
100
AcDbEntity
  8
0
  6
Continuous
 62
     7
100
AcDbLine
 10
-128.71644978349
 20
-157.4628066397788
 30
0.0
 11
-152.2164497834891
 21
-157.4628066397788
 31
0.0
  0
LINE
  5
F62
330
1F
100
AcDbEntity
  8
0
  6
Continuous
 62
     7
100
AcDbLine
 10
-128.71644978349
 20
-159.762806639779
 30
0.0
 11
-128.71644978349
 21
-157.4628066397788
 31
0.0
  0
LINE
  5
F63
330
1F
100
AcDbEntity
  8
0
  6
Continuous
 62
     7
100
AcDbLine
 10
-152.516449783489
 20
-159.762806639779
 30
0.0
 11
-128.71644978349
 21
-159.762806639779
 31
0.0
  0
LINE
  5
F64
330
1F
100
AcDbEntity
  8
0
  6
Continuous
 62
     7
100
AcDbLine
 10
-156.516449783489
 20
-155.762806639779
 30
0.0
 11
-156.516449783489
 21
-154.762806639779
 31
0.0
  0
LINE
  5
F65
330
1F
100
AcDbEntity
  8
0
  6
DASH_CENTER
 62
     2
100
AcDbLine
 10
-142.2164497834891
 20
-166.7749612410548
 30
0.0
 11
-142.2164497834891
 21
-150.223611075244
 31
0.0
  0
LINE
  5
F66
330
1F
100
AcDbEntity
  8
0
  6
CENTER_DASH_DASH
 62
     2
100
AcDbLine
 10
-250.3319037378921
 20
-137.588370488196
 30
0.0
 11
-250.3319037378921
 21
-137.5721114090258
 31
0.0
  0
LINE
  5
F67
330
1F
100
AcDbEntity
  8
0
  6
DASH_CENTER
 62
     2
100
AcDbLine
 10
-262.2164497834892
 20
10.01128191345124
 30
0.0
 11
-271.2164497834893
 21
10.01128191345131
 31
0.0
  0
LINE
  5
F68
330
1F
100
AcDbEntity
  8
0
  6
DASHED
 62
     2
 48
0.5
100
AcDbLine
 10
-273.9769112850702
 20
-14.79151345975272
 30
0.0
 11
-275.1663257017852
 21
-15.29638992568478
 31
0.0
  0
LINE
  5
F69
330
1F
100
AcDbEntity
  8
0
  6
Continuous
 62
     2
100
AcDbLine
 10
-274.8257442522932
 20
-9.720019790480664
 30
0.0
 11
-274.1358262097551
 21
-9.427166956174755
 31
0.0
  0
LINE
  5
F6A
330
1F
100
AcDbEntity
  8
0
  6
DASHED
 62
     2
 48
0.5
100
AcDbLine
 10
-276.1317197392803
 20
-32.01755721832873
 30
0.0
 11
-275.8848696442522
 21
-45.00049254031283
 31
0.0
  0
LINE
  5
F6B
330
1F
100
AcDbEntity
  8
0
  6
DASHED
 62
     2
 48
0.5
100
AcDbLine
 10
-271.2590144168921
 20
-24.50143846020873
 30
0.0
 11
-270.0696000001772
 21
-23.99656199427668
 31
0.0
  0
LINE
  5
F6C
330
1F
100
AcDbEntity
  8
0
  6
DASHED
 62
     2
 48
0.5
100
AcDbLine
 10
-286.1299126771572
 20
-32.20765713145385
 30
0.0
 11
-285.8815049548421
 21
-45.27251494302674
 31
0.0
  0
LINE
  5
F6D
330
1F
100
AcDbEntity
  8
0
  6
DASHED
 62
     2
 48
0.5
100
AcDbLine
 10
-282.4786512718202
 20
-56.05720156352083
 30
0.0
 11
-262.5790369063953
 21
-85.63250384453677
 31
0.0
  0
LINE
  5
F6E
330
1F
100
AcDbEntity
  8
0
  6
DASHED
 62
     2
 48
0.5
100
AcDbLine
 10
-274.1411699381031
 20
-50.45515493284292
 30
0.0
 11
-254.358361966377
 21
-79.38410635097891
 31
0.0
  0
LINE
  5
F6F
330
1F
100
AcDbEntity
  8
0
  6
Continuous
 62
     2
100
AcDbLine
 10
-267.0111216825071
 20
-28.13011685952972
 30
0.0
 11
-266.3730614223271
 21
-27.85927634785876
 31
0.0
  0
LINE
  5
F70
330
1F
100
AcDbEntity
  8
0
  6
DASHED
 62
     2
 48
0.5
100
AcDbLine
 10
-262.2164497834892
 20
-93.76280663977892
 30
0.0
 11
-250.2164497834892
 21
-93.76280663977892
 31
0.0
  0
LINE
  5
F71
330
1F
100
AcDbEntity
  8
0
  6
DASHED
 62
     2
100
AcDbLine
 10
-250.2164497834892
 20
-93.76280663977892
 30
0.0
 11
-250.2164497834892
 21
-105.7628066397789
 31
0.0
  0
LINE
  5
F72
330
1F
100
AcDbEntity
  8
0
  6
DASHED
 62
     2
 48
0.5
100
AcDbLine
 10
-262.2164497834892
 20
-105.7628066397789
 30
0.0
 11
-250.2164497834892
 21
-105.7628066397789
 31
0.0
  0
LINE
  5
F73
330
1F
100
AcDbEntity
  8
0
  6
DASHED
 62
     2
 48
0.5
100
AcDbLine
 10
-262.2164497834892
 20
-93.76280663977892
 30
0.0
 11
-262.2164497834892
 21
-105.7628066397789
 31
0.0
  0
LINE
  5
F74
330
1F
100
AcDbEntity
  8
0
  6
DASHED
 62
     2
 48
0.5
100
AcDbLine
 10
-261.2164497834893
 20
-90.09845842323484
 30
0.0
 11
-261.2164497834893
 21
-105.6022934202799
 31
0.0
  0
LINE
  5
F75
330
1F
100
AcDbEntity
  8
0
  6
DASHED
 62
     2
 48
0.5
100
AcDbLine
 10
-251.2164497834893
 20
-89.54467850115696
 30
0.0
 11
-251.2164497834893
 21
-105.6022934202799
 31
0.0
  0
LINE
  5
F76
330
1F
100
AcDbEntity
  8
0
  6
DASHED
 62
     2
 48
0.5
100
AcDbLine
 10
-258.734642366347
 20
-120.2355334330029
 30
0.0
 11
-263.8627857278796
 21
-123.9088286893068
 31
0.0
  0
LINE
  5
F77
330
1F
100
AcDbEntity
  8
0
  6
Continuous
 62
     7
100
AcDbLine
 10
161.7084706909023
 20
48.1753902766254
 30
0.0
 11
161.7084706909023
 21
58.80164981532328
 31
0.0
  0
LINE
  5
F78
330
1F
100
AcDbEntity
  8
0
  6
Continuous
 62
     7
100
AcDbLine
 10
161.7084706909023
 20
84.56935559988052
 30
0.0
 11
161.7084706909023
 21
85.04521398264051
 31
0.0
  0
LINE
  5
F79
330
1F
100
AcDbEntity
  8
0
  6
Continuous
 62
     7
100
AcDbLine
 10
161.7084706909023
 20
84.56935559988052
 30
0.0
 11
161.7084706909023
 21
82.24511398264054
 31
0.0
  0
LINE
  5
F7A
330
1F
100
AcDbEntity
  8
0
  6
Continuous
 62
     7
100
AcDbLine
 10
161.7084706909023
 20
79.34701398264042
 30
0.0
 11
161.7084706909023
 21
84.56935559988052
 31
0.0
  0
LINE
  5
F7B
330
1F
100
AcDbEntity
  8
0
  6
Continuous
 62
     7
100
AcDbLine
 10
161.7084706909023
 20
72.84521398264041
 30
0.0
 11
161.7084706909023
 21
78.94511398264036
 31
0.0
  0
LINE
  5
F7C
330
1F
100
AcDbEntity
  8
0
  6
Continuous
 62
     7
100
AcDbLine
 10
160.2084706909022
 20
78.94511398264036
 30
0.0
 11
160.2084706909022
 21
85.04521398264051
 31
0.0
  0
LINE
  5
F7D
330
1F
100
AcDbEntity
  8
0
  6
Continuous
 62
     7
100
AcDbLine
 10
160.2084706909022
 20
72.84521398264041
 30
0.0
 11
160.2084706909022
 21
78.54321398264051
 31
0.0
  0
LINE
  5
F7E
330
1F
100
AcDbEntity
  8
0
  6
Continuous
 62
     7
100
AcDbLine
 10
160.2084706909022
 20
78.94511398264036
 30
0.0
 11
161.7084706909023
 21
79.34701398264042
 31
0.0
  0
LINE
  5
F7F
330
1F
100
AcDbEntity
  8
0
  6
Continuous
 62
     7
100
AcDbLine
 10
160.2084706909022
 20
78.54321398264051
 30
0.0
 11
161.7084706909023
 21
78.94511398264036
 31
0.0
  0
LINE
  5
F80
330
1F
100
AcDbEntity
  8
0
  6
Continuous
 62
     7
100
AcDbLine
 10
160.2084706909022
 20
85.04521398264051
 30
0.0
 11
161.7084706909023
 21
85.04521398264051
 31
0.0
  0
LINE
  5
F81
330
1F
100
AcDbEntity
  8
0
  6
Continuous
 62
     7
100
AcDbLine
 10
160.2084706909022
 20
72.84521398264041
 30
0.0
 11
161.7084706909023
 21
72.84521398264041
 31
0.0
  0
LINE
  5
F82
330
1F
100
AcDbEntity
  8
0
  6
Continuous
 62
     7
100
AcDbLine
 10
160.2084706909022
 20
73.69511398264034
 30
0.0
 11
160.2084706909022
 21
84.19511398264031
 31
0.0
  0
LINE
  5
F83
330
1F
100
AcDbEntity
  8
0
  6
Continuous
 62
     7
100
AcDbLine
 10
156.3085706909023
 20
75.77738355158671
 30
0.0
 11
156.3085706909023
 21
82.11294441323696
 31
0.0
  0
LINE
  5
F84
330
1F
100
AcDbEntity
  8
0
  6
Continuous
 62
     7
100
AcDbLine
 10
160.2084706909022
 20
73.69511398264034
 30
0.0
 11
158.04293722136
 21
73.88461691151525
 31
0.0
  0
LINE
  5
F85
330
1F
100
AcDbEntity
  8
0
  6
Continuous
 62
     7
100
AcDbLine
 10
160.2084706909022
 20
84.19511398264031
 30
0.0
 11
158.0430239631623
 21
84.00571864196436
 31
0.0
  0
LINE
  5
F86
330
1F
100
AcDbEntity
  8
0
  6
Continuous
 62
     7
100
AcDbLine
 10
161.7084706909023
 20
75.64511398264041
 30
0.0
 11
161.7084706909023
 21
73.01128191345156
 31
0.0
  0
LINE
  5
F87
330
1F
100
AcDbEntity
  8
0
  6
Continuous
 62
     7
100
AcDbLine
 10
161.7084706909023
 20
74.34701398264039
 30
0.0
 11
161.7084706909023
 21
84.56935559988052
 31
0.0
  0
LINE
  5
F88
330
1F
100
AcDbEntity
  8
0
  6
DASH_CENTER
 62
     2
100
AcDbLine
 10
133.5084706909023
 20
-103.9887180865486
 30
0.0
 11
261.5084706909024
 21
-103.9887180865486
 31
0.0
  0
LINE
  5
F89
330
1F
100
AcDbEntity
  8
0
  6
Continuous
 62
     7
100
AcDbLine
 10
205.0084706909024
 20
-100.4887180865486
 30
0.0
 11
205.0084706909024
 21
-64.64408694073665
 31
0.0
  0
LINE
  5
F8B
330
1F
100
AcDbEntity
  8
0
  6
Continuous
 62
     7
100
AcDbLine
 10
208.7005017125806
 20
-50.33222097080304
 30
0.0
 11
208.2762376438686
 21
-50.75648503951499
 31
0.0
  0
LINE
  5
F8C
330
1F
100
AcDbEntity
  8
0
  6
Continuous
 62
     7
100
AcDbLine
 10
205.1649678066479
 20
-51.18074910822687
 30
0.0
 11
204.7407037379359
 21
-50.75648503951499
 31
0.0
  0
LINE
  5
F8D
330
1F
100
AcDbEntity
  8
0
  6
Continuous
 62
     7
100
AcDbLine
 10
204.316439669224
 20
-47.64521520229416
 30
0.0
 11
205.1649678066478
 21
-46.79668706487028
 31
0.0
  0
LINE
  5
F8E
330
1F
100
AcDbEntity
  8
0
  6
Continuous
 62
     7
100
AcDbLine
 10
208.0641056095127
 20
-49.69582486773521
 30
0.0
 11
208.7005017125806
 21
-50.33222097080304
 31
0.0
  0
LINE
  5
F8F
330
1F
100
AcDbEntity
  8
0
  6
Continuous
 62
     7
100
AcDbLine
 10
205.8013639097155
 20
-50.54435300515905
 30
0.0
 11
205.1649678066479
 21
-51.18074910822687
 31
0.0
  0
LINE
  5
F90
330
1F
100
AcDbEntity
  8
0
  6
Continuous
 62
     7
100
AcDbLine
 10
204.9528357722918
 20
-48.28161130536212
 30
0.0
 11
204.316439669224
 21
-47.64521520229416
 31
0.0
  0
LINE
  5
F91
330
1F
100
AcDbEntity
  8
0
  6
Continuous
 62
     7
100
AcDbLine
 10
208.7005017125806
 20
-47.64521520229416
 30
0.0
 11
208.0641056095127
 21
-48.28161130536195
 31
0.0
  0
LINE
  5
F92
330
1F
100
AcDbEntity
  8
0
  6
Continuous
 62
     7
100
AcDbLine
 10
207.8519735751568
 20
-51.18074910822687
 30
0.0
 11
207.2155774720886
 21
-50.54435300515887
 31
0.0
  0
LINE
  5
F93
330
1F
100
AcDbEntity
  8
0
  6
Continuous
 62
     7
100
AcDbLine
 10
204.316439669224
 20
-50.33222097080307
 30
0.0
 11
204.9528357722918
 21
-49.69582486773507
 31
0.0
  0
LINE
  5
F94
330
1F
100
AcDbEntity
  8
0
  6
Continuous
 62
     7
100
AcDbLine
 10
208.2762376438686
 20
-50.75648503951499
 30
0.0
 11
207.8519735751568
 21
-51.18074910822687
 31
0.0
  0
LINE
  5
F95
330
1F
100
AcDbEntity
  8
0
  6
Continuous
 62
     7
100
AcDbLine
 10
204.7407037379359
 20
-50.75648503951499
 30
0.0
 11
204.316439669224
 21
-50.33222097080307
 31
0.0
  0
LINE
  5
F96
330
1F
100
AcDbEntity
  8
0
  6
Continuous
 62
     7
100
AcDbLine
 10
207.8519735751568
 20
-46.79668706487028
 30
0.0
 11
208.7005017125806
 21
-47.64521520229416
 31
0.0
  0
LINE
  5
F97
330
1F
100
AcDbEntity
  8
0
  6
Continuous
 62
     7
100
AcDbLine
 10
207.2155774720886
 20
-47.43308316793831
 30
0.0
 11
207.8519735751568
 21
-46.79668706487028
 31
0.0
  0
LINE
  5
F98
330
1F
100
AcDbEntity
  8
0
  6
Continuous
 62
     7
100
AcDbLine
 10
205.1649678066478
 20
-46.79668706487028
 30
0.0
 11
205.8013639097155
 21
-47.43308316793815
 31
0.0
  0
LINE
  5
FC9
330
1F
100
AcDbEntity
  8
0
  6
Continuous
 62
     7
100
AcDbLine
 10
239.5084706909027
 20
-159.9887180865485
 30
0.0
 11
297.0084706909021
 21
-159.9887180865485
 31
0.0
  0
LINE
  5
FCA
330
1F
100
AcDbEntity
  8
0
  6
Continuous
 62
     7
100
AcDbLine
 10
243.1323699917692
 20
-157.6887180865484
 30
0.0
 11
297.0084706909021
 21
-157.6887180865484
 31
0.0
  0
LINE
  5
FCB
330
1F
100
AcDbEntity
  8
0
  6
DASHED
 62
     2
 48
0.5
100
AcDbLine
 10
239.5084706909027
 20
-159.9887180865485
 30
0.0
 11
217.5084706909024
 21
-159.9887180865485
 31
0.0
  0
LINE
  5
FCC
330
1F
100
AcDbEntity
  8
0
  6
Continuous
 62
     7
100
AcDbLine
 10
305.5084706909024
 20
-64.83689519300888
 30
0.0
 11
317.5084706909022
 21
-157.6887180865484
 31
0.0
  0
LINE
  5
FCD
330
1F
100
AcDbEntity
  8
0
  6
Continuous
 62
     7
100
AcDbLine
 10
-7.216449783489029
 20
-38.98871808654906
 30
0.0
 11
-6.216449783489027
 21
-38.98871808654906
 31
0.0
  0
LINE
  5
FCE
330
1F
100
AcDbEntity
  8
0
  6
Continuous
 62
     7
100
AcDbLine
 10
-7.216449783489029
 20
-168.9887180865493
 30
0.0
 11
-6.216449783489027
 21
-168.9887180865493
 31
0.0
  0
LINE
  5
FCF
330
1F
100
AcDbEntity
  8
0
  6
Continuous
 62
     7
100
AcDbLine
 10
-6.216449783489027
 20
-38.98871808654906
 30
0.0
 11
-6.216449783489027
 21
-168.9887180865493
 31
0.0
  0
LINE
  5
FD0
330
1F
100
AcDbEntity
  8
0
  6
Continuous
 62
     7
100
AcDbLine
 10
-6.216449783489027
 20
-54.6129597037887
 30
0.0
 11
-6.216449783489027
 21
-55.08881808654866
 31
0.0
  0
LINE
  5
FD1
330
1F
100
AcDbEntity
  8
0
  6
Continuous
 62
     7
100
AcDbLine
 10
-6.216449783489027
 20
-54.6129597037887
 30
0.0
 11
-6.216449783489027
 21
-52.28871808654867
 31
0.0
  0
LINE
  5
FD2
330
1F
100
AcDbEntity
  8
0
  6
Continuous
 62
     7
100
AcDbLine
 10
-6.216449783489027
 20
-49.39061808654856
 30
0.0
 11
-6.216449783489027
 21
-54.6129597037887
 31
0.0
  0
LINE
  5
FD3
330
1F
100
AcDbEntity
  8
0
  6
Continuous
 62
     7
100
AcDbLine
 10
-6.216449783489027
 20
-42.88881808654858
 30
0.0
 11
-6.216449783489027
 21
-48.98871808654858
 31
0.0
  0
LINE
  5
FD4
330
1F
100
AcDbEntity
  8
0
  6
Continuous
 62
     7
100
AcDbLine
 10
-2.316549783489103
 20
-45.82101808654857
 30
0.0
 11
-2.316549783489103
 21
-52.1565180865487
 31
0.0
  0
LINE
  5
FD5
330
1F
100
AcDbEntity
  8
0
  6
Continuous
 62
     7
100
AcDbLine
 10
-6.216449783489027
 20
-43.73871808654858
 30
0.0
 11
-4.050949783488885
 21
-43.92821808654868
 31
0.0
  0
LINE
  5
FD6
330
1F
100
AcDbEntity
  8
0
  6
Continuous
 62
     7
100
AcDbLine
 10
-6.216449783489027
 20
-54.23871808654859
 30
0.0
 11
-4.050949783488885
 21
-54.04931808654857
 31
0.0
  0
LINE
  5
FD7
330
1F
100
AcDbEntity
  8
0
  6
CENTER_DASH_DASH
 62
   171
100
AcDbLine
 10
-6.100995829085997
 20
-55.98871808654854
 30
0.0
 11
-6.100995829085997
 21
-56.00497716571867
 31
0.0
  0
LINE
  5
FD8
330
1F
100
AcDbEntity
  8
0
  6
Continuous
 62
     7
100
AcDbLine
 10
-6.216449783489027
 20
-56.0030844779406
 30
0.0
 11
-6.216449783489027
 21
-54.6129597037887
 31
0.0
  0
LINE
  5
FD9
330
1F
100
AcDbEntity
  8
0
  6
Continuous
 62
     7
100
AcDbLine
 10
-6.216449783489027
 20
-45.68871808654857
 30
0.0
 11
-6.216449783489027
 21
-42.98871808654858
 31
0.0
  0
LINE
  5
FDA
330
1F
100
AcDbEntity
  8
0
  6
Continuous
 62
     7
100
AcDbLine
 10
-6.216449783489027
 20
-44.39061808654857
 30
0.0
 11
-6.216449783489027
 21
-54.6129597037887
 31
0.0
  0
LINE
  5
FDB
330
1F
100
AcDbEntity
  8
0
  6
Continuous
 62
     7
100
AcDbLine
 10
-21.91644978348904
 20
-44.48871808654858
 30
0.0
 11
-21.91644978348904
 21
-46.48871808654859
 31
0.0
  0
LINE
  5
FDC
330
1F
100
AcDbEntity
  8
0
  6
Continuous
 62
     7
100
AcDbLine
 10
-21.91644978348904
 20
-44.48871808654858
 30
0.0
 11
-17.21644978348902
 21
-44.48871808654858
 31
0.0
  0
LINE
  5
FDD
330
1F
100
AcDbEntity
  8
0
  6
Continuous
 62
     7
100
AcDbLine
 10
-17.21644978348902
 20
-44.48871808654858
 30
0.0
 11
-17.21644978348902
 21
-40.98871808654904
 31
0.0
  0
LINE
  5
FDE
330
1F
100
AcDbEntity
  8
0
  6
Continuous
 62
     7
100
AcDbLine
 10
-21.91644978348904
 20
-46.73871808654857
 30
0.0
 11
-17.21644978348902
 21
-46.73871808654857
 31
0.0
  0
LINE
  5
FDF
330
1F
100
AcDbEntity
  8
0
  6
Continuous
 62
     7
100
AcDbLine
 10
-21.91644978348904
 20
-46.73871808654857
 30
0.0
 11
-21.91644978348904
 21
-46.88871808654858
 31
0.0
  0
LINE
  5
FE0
330
1F
100
AcDbEntity
  8
0
  6
Continuous
 62
     7
100
AcDbLine
 10
-17.21644978348902
 20
-46.73871808654857
 30
0.0
 11
-17.21644978348902
 21
-44.48871808654858
 31
0.0
  0
LINE
  5
FE1
330
1F
100
AcDbEntity
  8
0
  6
Continuous
 62
     7
100
AcDbLine
 10
-21.91644978348904
 20
-51.23871808654858
 30
0.0
 11
-17.21644978348902
 21
-51.23871808654858
 31
0.0
  0
LINE
  5
FE2
330
1F
100
AcDbEntity
  8
0
  6
Continuous
 62
     7
100
AcDbLine
 10
-21.91644978348904
 20
-51.23871808654858
 30
0.0
 11
-21.91644978348904
 21
-51.48871808654857
 31
0.0
  0
LINE
  5
FE3
330
1F
100
AcDbEntity
  8
0
  6
Continuous
 62
     7
100
AcDbLine
 10
-17.21644978348902
 20
-51.23871808654858
 30
0.0
 11
-17.21644978348902
 21
-46.73871808654857
 31
0.0
  0
LINE
  5
FE4
330
1F
100
AcDbEntity
  8
0
  6
Continuous
 62
     7
100
AcDbLine
 10
-21.91644978348904
 20
-53.48871808654857
 30
0.0
 11
-17.21644978348902
 21
-53.48871808654857
 31
0.0
  0
LINE
  5
FE5
330
1F
100
AcDbEntity
  8
0
  6
Continuous
 62
     7
100
AcDbLine
 10
-17.21644978348902
 20
-53.48871808654857
 30
0.0
 11
-17.21644978348902
 21
-51.23871808654858
 31
0.0
  0
LINE
  5
FE6
330
1F
100
AcDbEntity
  8
0
  6
Continuous
 62
     7
100
AcDbLine
 10
-21.91644978348904
 20
-46.48871808654859
 30
0.0
 11
-21.91644978348904
 21
-46.73871808654857
 31
0.0
  0
LINE
  5
FE7
330
1F
100
AcDbEntity
  8
0
  6
Continuous
 62
     7
100
AcDbLine
 10
-21.91644978348904
 20
-51.48871808654857
 30
0.0
 11
-21.91644978348904
 21
-53.48871808654857
 31
0.0
  0
LINE
  5
FE8
330
1F
100
AcDbEntity
  8
0
  6
Continuous
 62
     7
100
AcDbLine
 10
-22.31644978348903
 20
-46.48871808654859
 30
0.0
 11
-21.91644978348904
 21
-46.48871808654859
 31
0.0
  0
LINE
  5
FE9
330
1F
100
AcDbEntity
  8
0
  6
Continuous
 62
     7
100
AcDbLine
 10
-22.31644978348903
 20
-46.48871808654859
 30
0.0
 11
-22.71644978348903
 21
-46.88871808654858
 31
0.0
  0
LINE
  5
FEA
330
1F
100
AcDbEntity
  8
0
  6
Continuous
 62
     7
100
AcDbLine
 10
-22.71644978348903
 20
-51.08871808654858
 30
0.0
 11
-22.71644978348903
 21
-46.88871808654858
 31
0.0
  0
LINE
  5
FEB
330
1F
100
AcDbEntity
  8
0
  6
Continuous
 62
     7
100
AcDbLine
 10
-22.31644978348903
 20
-51.48871808654857
 30
0.0
 11
-21.91644978348904
 21
-51.48871808654857
 31
0.0
  0
LINE
  5
FEC
330
1F
100
AcDbEntity
  8
0
  6
Continuous
 62
     7
100
AcDbLine
 10
-22.71644978348903
 20
-51.08871808654858
 30
0.0
 11
-22.31644978348903
 21
-51.48871808654857
 31
0.0
  0
LINE
  5
FED
330
1F
100
AcDbEntity
  8
0
  6
Continuous
 62
     2
100
AcDbLine
 10
-22.71644978348903
 20
-46.88871808654858
 30
0.0
 11
-21.91644978348904
 21
-46.88871808654858
 31
0.0
  0
LINE
  5
FEE
330
1F
100
AcDbEntity
  8
0
  6
Continuous
 62
     7
100
AcDbLine
 10
-21.91644978348904
 20
-46.88871808654858
 30
0.0
 11
-21.91644978348904
 21
-51.08871808654858
 31
0.0
  0
LINE
  5
FEF
330
1F
100
AcDbEntity
  8
0
  6
Continuous
 62
     2
100
AcDbLine
 10
-22.71644978348903
 20
-51.08871808654858
 30
0.0
 11
-21.91644978348904
 21
-51.08871808654858
 31
0.0
  0
LINE
  5
FF0
330
1F
100
AcDbEntity
  8
0
  6
Continuous
 62
     7
100
AcDbLine
 10
-21.91644978348904
 20
-51.08871808654858
 30
0.0
 11
-21.91644978348904
 21
-51.23871808654858
 31
0.0
  0
LINE
  5
FF1
330
1F
100
AcDbEntity
  8
0
  6
Continuous
 62
     2
100
AcDbLine
 10
-22.31644978348903
 20
-46.48871808654859
 30
0.0
 11
-22.31644978348903
 21
-51.48871808654857
 31
0.0
  0
LINE
  5
FF2
330
1F
100
AcDbEntity
  8
0
  6
Continuous
 62
     7
100
AcDbLine
 10
-21.91644978348904
 20
-99.48871808654912
 30
0.0
 11
-21.91644978348904
 21
-101.4887180865492
 31
0.0
  0
LINE
  5
FF3
330
1F
100
AcDbEntity
  8
0
  6
Continuous
 62
     7
100
AcDbLine
 10
-21.91644978348904
 20
-99.48871808654912
 30
0.0
 11
-17.21644978348902
 21
-99.48871808654912
 31
0.0
  0
LINE
  5
FF4
330
1F
100
AcDbEntity
  8
0
  6
Continuous
 62
     7
100
AcDbLine
 10
-21.91644978348904
 20
-101.7387180865491
 30
0.0
 11
-17.21644978348902
 21
-101.7387180865491
 31
0.0
  0
LINE
  5
FF5
330
1F
100
AcDbEntity
  8
0
  6
Continuous
 62
     7
100
AcDbLine
 10
-21.91644978348904
 20
-101.7387180865491
 30
0.0
 11
-21.91644978348904
 21
-101.8887180865491
 31
0.0
  0
LINE
  5
FF6
330
1F
100
AcDbEntity
  8
0
  6
Continuous
 62
     7
100
AcDbLine
 10
-17.21644978348902
 20
-101.7387180865491
 30
0.0
 11
-17.21644978348902
 21
-99.48871808654912
 31
0.0
  0
LINE
  5
FF7
330
1F
100
AcDbEntity
  8
0
  6
Continuous
 62
     7
100
AcDbLine
 10
-21.91644978348904
 20
-106.238718086549
 30
0.0
 11
-17.21644978348902
 21
-106.238718086549
 31
0.0
  0
LINE
  5
FF8
330
1F
100
AcDbEntity
  8
0
  6
Continuous
 62
     7
100
AcDbLine
 10
-21.91644978348904
 20
-106.238718086549
 30
0.0
 11
-21.91644978348904
 21
-106.4887180865491
 31
0.0
  0
LINE
  5
FF9
330
1F
100
AcDbEntity
  8
0
  6
Continuous
 62
     7
100
AcDbLine
 10
-17.21644978348902
 20
-106.238718086549
 30
0.0
 11
-17.21644978348902
 21
-101.7387180865491
 31
0.0
  0
LINE
  5
FFA
330
1F
100
AcDbEntity
  8
0
  6
Continuous
 62
     7
100
AcDbLine
 10
-21.91644978348904
 20
-108.4887180865491
 30
0.0
 11
-17.21644978348902
 21
-108.4887180865491
 31
0.0
  0
LINE
  5
FFB
330
1F
100
AcDbEntity
  8
0
  6
Continuous
 62
     7
100
AcDbLine
 10
-17.21644978348902
 20
-108.4887180865491
 30
0.0
 11
-17.21644978348902
 21
-106.238718086549
 31
0.0
  0
LINE
  5
FFC
330
1F
100
AcDbEntity
  8
0
  6
Continuous
 62
     7
100
AcDbLine
 10
-21.91644978348904
 20
-101.4887180865492
 30
0.0
 11
-21.91644978348904
 21
-101.7387180865491
 31
0.0
  0
LINE
  5
FFD
330
1F
100
AcDbEntity
  8
0
  6
Continuous
 62
     7
100
AcDbLine
 10
-21.91644978348904
 20
-106.4887180865491
 30
0.0
 11
-21.91644978348904
 21
-108.4887180865491
 31
0.0
  0
LINE
  5
FFE
330
1F
100
AcDbEntity
  8
0
  6
Continuous
 62
     7
100
AcDbLine
 10
-22.31644978348903
 20
-101.4887180865492
 30
0.0
 11
-21.91644978348904
 21
-101.4887180865492
 31
0.0
  0
LINE
  5
FFF
330
1F
100
AcDbEntity
  8
0
  6
Continuous
 62
     7
100
AcDbLine
 10
-22.31644978348903
 20
-101.4887180865492
 30
0.0
 11
-22.71644978348903
 21
-101.8887180865491
 31
0.0
  0
LINE
  5
1000
330
1F
100
AcDbEntity
  8
0
  6
Continuous
 62
     7
100
AcDbLine
 10
-22.71644978348903
 20
-106.0887180865491
 30
0.0
 11
-22.71644978348903
 21
-101.8887180865491
 31
0.0
  0
LINE
  5
1001
330
1F
100
AcDbEntity
  8
0
  6
Continuous
 62
     7
100
AcDbLine
 10
-22.31644978348903
 20
-106.4887180865491
 30
0.0
 11
-21.91644978348904
 21
-106.4887180865491
 31
0.0
  0
LINE
  5
1002
330
1F
100
AcDbEntity
  8
0
  6
Continuous
 62
     7
100
AcDbLine
 10
-22.71644978348903
 20
-106.0887180865491
 30
0.0
 11
-22.31644978348903
 21
-106.4887180865491
 31
0.0
  0
LINE
  5
1003
330
1F
100
AcDbEntity
  8
0
  6
Continuous
 62
     2
100
AcDbLine
 10
-22.71644978348903
 20
-101.8887180865491
 30
0.0
 11
-21.91644978348904
 21
-101.8887180865491
 31
0.0
  0
LINE
  5
1004
330
1F
100
AcDbEntity
  8
0
  6
Continuous
 62
     7
100
AcDbLine
 10
-21.91644978348904
 20
-101.8887180865491
 30
0.0
 11
-21.91644978348904
 21
-106.0887180865491
 31
0.0
  0
LINE
  5
1005
330
1F
100
AcDbEntity
  8
0
  6
Continuous
 62
     2
100
AcDbLine
 10
-22.71644978348903
 20
-106.0887180865491
 30
0.0
 11
-21.91644978348904
 21
-106.0887180865491
 31
0.0
  0
LINE
  5
1006
330
1F
100
AcDbEntity
  8
0
  6
Continuous
 62
     7
100
AcDbLine
 10
-21.91644978348904
 20
-106.0887180865491
 30
0.0
 11
-21.91644978348904
 21
-106.238718086549
 31
0.0
  0
LINE
  5
1007
330
1F
100
AcDbEntity
  8
0
  6
Continuous
 62
     2
100
AcDbLine
 10
-22.31644978348903
 20
-101.4887180865492
 30
0.0
 11
-22.31644978348903
 21
-106.4887180865491
 31
0.0
  0
LINE
  5
1008
330
1F
100
AcDbEntity
  8
0
  6
Continuous
 62
     7
100
AcDbLine
 10
-21.91644978348904
 20
-161.4887180865496
 30
0.0
 11
-21.91644978348904
 21
-163.4887180865496
 31
0.0
  0
LINE
  5
1009
330
1F
100
AcDbEntity
  8
0
  6
Continuous
 62
     7
100
AcDbLine
 10
-17.21644978348902
 20
-163.4887180865496
 30
0.0
 11
-21.91644978348904
 21
-163.4887180865496
 31
0.0
  0
LINE
  5
100A
330
1F
100
AcDbEntity
  8
0
  6
Continuous
 62
     7
100
AcDbLine
 10
-17.21644978348902
 20
-166.9887180865492
 30
0.0
 11
-17.21644978348902
 21
-163.4887180865496
 31
0.0
  0
LINE
  5
100B
330
1F
100
AcDbEntity
  8
0
  6
Continuous
 62
     7
100
AcDbLine
 10
-17.21644978348902
 20
-161.2387180865496
 30
0.0
 11
-21.91644978348904
 21
-161.2387180865496
 31
0.0
  0
LINE
  5
100C
330
1F
100
AcDbEntity
  8
0
  6
Continuous
 62
     7
100
AcDbLine
 10
-21.91644978348904
 20
-161.0887180865496
 30
0.0
 11
-21.91644978348904
 21
-161.2387180865496
 31
0.0
  0
LINE
  5
100D
330
1F
100
AcDbEntity
  8
0
  6
Continuous
 62
     7
100
AcDbLine
 10
-17.21644978348902
 20
-163.4887180865496
 30
0.0
 11
-17.21644978348902
 21
-161.2387180865496
 31
0.0
  0
LINE
  5
100E
330
1F
100
AcDbEntity
  8
0
  6
Continuous
 62
     7
100
AcDbLine
 10
-17.21644978348902
 20
-156.7387180865496
 30
0.0
 11
-21.91644978348904
 21
-156.7387180865496
 31
0.0
  0
LINE
  5
100F
330
1F
100
AcDbEntity
  8
0
  6
Continuous
 62
     7
100
AcDbLine
 10
-21.91644978348904
 20
-156.4887180865496
 30
0.0
 11
-21.91644978348904
 21
-156.7387180865496
 31
0.0
  0
LINE
  5
1010
330
1F
100
AcDbEntity
  8
0
  6
Continuous
 62
     7
100
AcDbLine
 10
-17.21644978348902
 20
-161.2387180865496
 30
0.0
 11
-17.21644978348902
 21
-156.7387180865496
 31
0.0
  0
LINE
  5
1011
330
1F
100
AcDbEntity
  8
0
  6
Continuous
 62
     7
100
AcDbLine
 10
-17.21644978348902
 20
-154.4887180865496
 30
0.0
 11
-21.91644978348904
 21
-154.4887180865496
 31
0.0
  0
LINE
  5
1012
330
1F
100
AcDbEntity
  8
0
  6
Continuous
 62
     7
100
AcDbLine
 10
-17.21644978348902
 20
-156.7387180865496
 30
0.0
 11
-17.21644978348902
 21
-154.4887180865496
 31
0.0
  0
LINE
  5
1013
330
1F
100
AcDbEntity
  8
0
  6
Continuous
 62
     7
100
AcDbLine
 10
-21.91644978348904
 20
-161.2387180865496
 30
0.0
 11
-21.91644978348904
 21
-161.4887180865496
 31
0.0
  0
LINE
  5
1014
330
1F
100
AcDbEntity
  8
0
  6
Continuous
 62
     7
100
AcDbLine
 10
-21.91644978348904
 20
-154.4887180865496
 30
0.0
 11
-21.91644978348904
 21
-156.4887180865496
 31
0.0
  0
LINE
  5
1015
330
1F
100
AcDbEntity
  8
0
  6
Continuous
 62
     7
100
AcDbLine
 10
-21.91644978348904
 20
-161.4887180865496
 30
0.0
 11
-22.31644978348903
 21
-161.4887180865496
 31
0.0
  0
LINE
  5
1016
330
1F
100
AcDbEntity
  8
0
  6
Continuous
 62
     7
100
AcDbLine
 10
-22.71644978348903
 20
-161.0887180865496
 30
0.0
 11
-22.31644978348903
 21
-161.4887180865496
 31
0.0
  0
LINE
  5
1017
330
1F
100
AcDbEntity
  8
0
  6
Continuous
 62
     7
100
AcDbLine
 10
-22.71644978348903
 20
-161.0887180865496
 30
0.0
 11
-22.71644978348903
 21
-156.8887180865496
 31
0.0
  0
LINE
  5
1018
330
1F
100
AcDbEntity
  8
0
  6
Continuous
 62
     7
100
AcDbLine
 10
-21.91644978348904
 20
-156.4887180865496
 30
0.0
 11
-22.31644978348903
 21
-156.4887180865496
 31
0.0
  0
LINE
  5
1019
330
1F
100
AcDbEntity
  8
0
  6
Continuous
 62
     7
100
AcDbLine
 10
-22.31644978348903
 20
-156.4887180865496
 30
0.0
 11
-22.71644978348903
 21
-156.8887180865496
 31
0.0
  0
LINE
  5
101A
330
1F
100
AcDbEntity
  8
0
  6
Continuous
 62
     2
100
AcDbLine
 10
-21.91644978348904
 20
-161.0887180865496
 30
0.0
 11
-22.71644978348903
 21
-161.0887180865496
 31
0.0
  0
LINE
  5
101B
330
1F
100
AcDbEntity
  8
0
  6
Continuous
 62
     7
100
AcDbLine
 10
-21.91644978348904
 20
-156.8887180865496
 30
0.0
 11
-21.91644978348904
 21
-161.0887180865496
 31
0.0
  0
LINE
  5
101C
330
1F
100
AcDbEntity
  8
0
  6
Continuous
 62
     2
100
AcDbLine
 10
-21.91644978348904
 20
-156.8887180865496
 30
0.0
 11
-22.71644978348903
 21
-156.8887180865496
 31
0.0
  0
LINE
  5
101D
330
1F
100
AcDbEntity
  8
0
  6
Continuous
 62
     7
100
AcDbLine
 10
-21.91644978348904
 20
-156.7387180865496
 30
0.0
 11
-21.91644978348904
 21
-156.8887180865496
 31
0.0
  0
LINE
  5
101E
330
1F
100
AcDbEntity
  8
0
  6
Continuous
 62
     2
100
AcDbLine
 10
-22.31644978348903
 20
-156.4887180865496
 30
0.0
 11
-22.31644978348903
 21
-161.4887180865496
 31
0.0
  0
LINE
  5
101F
330
1F
100
AcDbEntity
  8
0
  6
DASHED
 62
     2
100
AcDbLine
 10
-161.0230021545091
 20
-62.76280663977868
 30
0.0
 11
-173.290076020579
 21
-62.76280663977868
 31
0.0
  0
LINE
  5
1020
330
1F
100
AcDbEntity
  8
0
  6
DASHED
 62
     2
 48
0.5
100
AcDbLine
 10
-172.9664497834892
 20
-66.60937506615799
 30
0.0
 11
-172.7770497834888
 21
-68.77487506615804
 31
0.0
  0
LINE
  5
1021
330
1F
100
AcDbEntity
  8
0
  6
DASHED
 62
     2
 48
0.5
100
AcDbLine
 10
-162.4664497834891
 20
-66.60937506615799
 30
0.0
 11
-162.655949783489
 21
-68.77487506615804
 31
0.0
  0
LINE
  5
1022
330
1F
100
AcDbEntity
  8
0
  6
DASHED
 62
     2
 48
0.5
100
AcDbLine
 10
-164.5487497834889
 20
-70.5092750661581
 30
0.0
 11
-170.884249783489
 21
-70.5092750661581
 31
0.0
  0
LINE
  5
1023
330
1F
100
AcDbEntity
  8
0
  6
DASHED
 62
     2
 48
0.5
100
AcDbLine
 10
-162.4664497834891
 20
-66.60937506615799
 30
0.0
 11
-172.9664497834892
 21
-66.60937506615799
 31
0.0
  0
LINE
  5
1024
330
1F
100
AcDbEntity
  8
0
  6
DASHED
 62
     2
 48
0.5
100
AcDbLine
 10
-161.6165497834889
 20
-66.60937506615799
 30
0.0
 11
-161.6165497834889
 21
-65.10937506615798
 31
0.0
  0
LINE
  5
1025
330
1F
100
AcDbEntity
  8
0
  6
DASHED
 62
     2
 48
0.5
100
AcDbLine
 10
-173.8165497834889
 20
-66.60937506615799
 30
0.0
 11
-173.8165497834889
 21
-65.10937506615798
 31
0.0
  0
LINE
  5
1026
330
1F
100
AcDbEntity
  8
0
  6
DASHED
 62
     2
 48
0.5
100
AcDbLine
 10
-167.314549783489
 20
-66.60937506615799
 30
0.0
 11
-167.7164497834892
 21
-65.10937506615798
 31
0.0
  0
LINE
  5
1027
330
1F
100
AcDbEntity
  8
0
  6
DASHED
 62
     2
 48
0.5
100
AcDbLine
 10
-167.7164497834892
 20
-66.60937506615799
 30
0.0
 11
-168.1183497834889
 21
-65.10937506615798
 31
0.0
  0
LINE
  5
1028
330
1F
100
AcDbEntity
  8
0
  6
DASHED
 62
     2
 48
0.5
100
AcDbLine
 10
-161.6165497834889
 20
-66.60937506615799
 30
0.0
 11
-167.314549783489
 21
-66.60937506615799
 31
0.0
  0
LINE
  5
1029
330
1F
100
AcDbEntity
  8
0
  6
DASHED
 62
     2
 48
0.5
100
AcDbLine
 10
-167.7164497834892
 20
-66.60937506615799
 30
0.0
 11
-173.8165497834889
 21
-66.60937506615799
 31
0.0
  0
LINE
  5
102A
330
1F
100
AcDbEntity
  8
0
  6
DASHED
 62
     2
 48
0.5
100
AcDbLine
 10
-188.9554834711248
 20
-62.76280663977868
 30
0.0
 11
-174.7164497834891
 21
-62.76280663977868
 31
0.0
  0
LINE
  5
102B
330
1F
100
AcDbEntity
  8
0
  6
DASHED
 62
     2
 48
0.5
100
AcDbLine
 10
-231.1428235463991
 20
-62.76280663977868
 30
0.0
 11
-243.4098974124681
 21
-62.76280663977868
 31
0.0
  0
LINE
  5
102C
330
1F
100
AcDbEntity
  8
0
  6
DASHED
 62
     2
 48
0.5
100
AcDbLine
 10
-231.5748952640289
 20
-68.80398033264455
 30
0.0
 11
-231.3854952640291
 21
-66.63848033264447
 31
0.0
  0
LINE
  5
102D
330
1F
100
AcDbEntity
  8
0
  6
DASHED
 62
     2
 48
0.5
100
AcDbLine
 10
-241.6959952640291
 20
-68.80398033264455
 30
0.0
 11
-241.8854952640291
 21
-66.63848033264447
 31
0.0
  0
LINE
  5
102E
330
1F
100
AcDbEntity
  8
0
  6
DASHED
 62
     2
 48
0.5
100
AcDbLine
 10
-233.4676952640288
 20
-70.53838033264459
 30
0.0
 11
-239.8031952640291
 21
-70.53838033264459
 31
0.0
  0
LINE
  5
102F
330
1F
100
AcDbEntity
  8
0
  6
DASHED
 62
     2
 48
0.5
100
AcDbLine
 10
-231.3854952640291
 20
-66.63848033264447
 30
0.0
 11
-241.8854952640291
 21
-66.63848033264447
 31
0.0
  0
LINE
  5
1030
330
1F
100
AcDbEntity
  8
0
  6
DASHED
 62
     2
 48
0.5
100
AcDbLine
 10
-242.7353952640288
 20
-65.13848033264448
 30
0.0
 11
-242.7353952640288
 21
-66.63848033264447
 31
0.0
  0
LINE
  5
1031
330
1F
100
AcDbEntity
  8
0
  6
DASHED
 62
     2
 48
0.5
100
AcDbLine
 10
-230.5353952640289
 20
-65.13848033264448
 30
0.0
 11
-230.5353952640289
 21
-66.63848033264447
 31
0.0
  0
LINE
  5
1032
330
1F
100
AcDbEntity
  8
0
  6
DASHED
 62
     2
 48
0.5
100
AcDbLine
 10
-236.635495264029
 20
-65.13848033264448
 30
0.0
 11
-237.0373952640289
 21
-66.63848033264447
 31
0.0
  0
LINE
  5
1033
330
1F
100
AcDbEntity
  8
0
  6
DASHED
 62
     2
 48
0.5
100
AcDbLine
 10
-236.2335952640289
 20
-65.13848033264448
 30
0.0
 11
-236.635495264029
 21
-66.63848033264447
 31
0.0
  0
LINE
  5
1034
330
1F
100
AcDbEntity
  8
0
  6
DASHED
 62
     2
 48
0.5
100
AcDbLine
 10
-237.0373952640289
 20
-66.63848033264447
 30
0.0
 11
-242.7353952640288
 21
-66.63848033264447
 31
0.0
  0
LINE
  5
1035
330
1F
100
AcDbEntity
  8
0
  6
DASHED
 62
     2
 48
0.5
100
AcDbLine
 10
-230.5353952640289
 20
-66.63848033264447
 30
0.0
 11
-236.635495264029
 21
-66.63848033264447
 31
0.0
  0
LINE
  5
1036
330
1F
100
AcDbEntity
  8
0
  6
DASHED
 62
     2
 48
0.5
100
AcDbLine
 10
-174.7164497834891
 20
-62.76280663977868
 30
0.0
 11
-244.6974644806193
 21
-62.76280663977868
 31
0.0
  0
LINE
  5
1039
330
1F
100
AcDbEntity
  8
0
  6
Continuous
 62
     7
100
AcDbLine
 10
-174.7164497834891
 20
-62.76280663977868
 30
0.0
 11
-174.7164497834891
 21
-65.13848033264448
 31
0.0
  0
LINE
  5
103A
330
1F
100
AcDbEntity
  8
0
  6
DASHED
 62
     2
100
AcDbLine
 10
-174.7164497834891
 20
-62.76280663977868
 30
0.0
 11
-159.735435086359
 21
-62.76280663977868
 31
0.0
  0
LINE
  5
103B
330
1F
100
AcDbEntity
  8
0
  6
DASHED
 62
     2
100
AcDbLine
 10
-174.7164497834891
 20
-62.76280663977868
 30
0.0
 11
-159.7164497834891
 21
-62.76280663977868
 31
0.0
  0
LINE
  5
103C
330
1F
100
AcDbEntity
  8
0
  6
DASHED
 62
     7
100
AcDbLine
 10
-174.7164497834891
 20
-62.76280663977868
 30
0.0
 11
-158.2164497834891
 21
-62.76280663977868
 31
0.0
  0
LINE
  5
103D
330
1F
100
AcDbEntity
  8
0
  6
DASHED
 62
     2
 48
0.5
100
AcDbLine
 10
-174.7164497834891
 20
-65.13848033264448
 30
0.0
 11
-158.5247655020331
 21
-65.07115700609064
 31
0.0
  0
LINE
  5
103E
330
1F
100
AcDbEntity
  8
0
  6
DASHED
 62
     2
 48
0.5
100
AcDbLine
 10
-247.9164497834891
 20
-67.07113971822163
 30
0.0
 11
-247.9164497834891
 21
-141.4887180865487
 31
0.0
  0
LINE
  5
103F
330
1F
100
AcDbEntity
  8
0
  6
DASHED
 62
     2
 48
0.5
100
AcDbLine
 10
-250.2164497834892
 20
-141.4887180865487
 30
0.0
 11
-250.2164497834892
 21
-66.76280663977866
 31
0.0
  0
LINE
  5
1040
330
1F
100
AcDbEntity
  8
0
  6
DASHED
 62
     2
 48
0.5
100
AcDbLine
 10
-154.2164497834891
 20
-144.9887180865494
 30
0.0
 11
-154.2164497834891
 21
-66.76280663977866
 31
0.0
  0
LINE
  5
1041
330
1F
100
AcDbEntity
  8
0
  6
Continuous
 62
     7
100
AcDbLine
 10
-154.2164497834891
 20
-144.9887180865494
 30
0.0
 11
-156.5164497834891
 21
-144.9887180865491
 31
0.0
  0
LINE
  5
1043
330
1F
100
AcDbEntity
  8
0
  6
Continuous
 62
     7
100
AcDbLine
 10
-164.4028762802434
 20
-144.9887180865491
 30
0.0
 11
-171.5733428914002
 21
-144.9887180865491
 31
0.0
  0
LINE
  5
1044
330
1F
100
AcDbEntity
  8
0
  6
Continuous
 62
     7
100
AcDbLine
 10
-250.2164497834892
 20
-141.4887180865487
 30
0.0
 11
-250.2164497834892
 21
-155.4628066397788
 31
0.0
  0
LINE
  5
1045
330
1F
100
AcDbEntity
  8
0
  6
DASHED
 62
     2
 48
0.5
100
AcDbLine
 10
-247.9164497834891
 20
-141.4887180865487
 30
0.0
 11
-247.9164497834891
 21
-154.762806639779
 31
0.0
  0
LINE
  5
1046
330
1F
100
AcDbEntity
  8
0
  6
Continuous
 62
     7
100
AcDbLine
 10
-154.2164497834891
 20
-144.9887180865494
 30
0.0
 11
-154.2164497834891
 21
-155.4628066397788
 31
0.0
  0
LINE
  5
1047
330
1F
100
AcDbEntity
  8
0
  6
DASHED
 62
     2
 48
0.5
100
AcDbLine
 10
-156.5164497834891
 20
-144.9887180865491
 30
0.0
 11
-156.5164497834891
 21
-67.07113971822163
 31
0.0
  0
LINE
  5
1048
330
1F
100
AcDbEntity
  8
0
  6
Continuous
 62
     7
100
AcDbLine
 10
-156.5164497834891
 20
-144.9887180865491
 30
0.0
 11
-164.4028762802434
 21
-144.9887180865491
 31
0.0
  0
LINE
  5
1049
330
1F
100
AcDbEntity
  8
0
  6
DASHED
 62
     2
100
AcDbLine
 10
-156.5164497834891
 20
-144.9887180865491
 30
0.0
 11
-156.516449783489
 21
-154.762806639779
 31
0.0
  0
LINE
  5
104A
330
1F
100
AcDbEntity
  8
0
  6
DASH_CENTER
 62
     2
100
AcDbLine
 10
-290.7162767743849
 20
-130.8432547999398
 30
0.0
 11
-316.4982917746423
 21
-149.3109431467158
 31
0.0
  0
LINE
  5
104B
330
1F
100
AcDbEntity
  8
0
  6
DASH_CENTER
 62
     2
100
AcDbLine
 10
-283.7454414151507
 20
-138.15079886639
 30
0.0
 11
-310.6750654317853
 21
-157.4405209315619
 31
0.0
  0
LINE
  5
104C
330
1F
100
AcDbEntity
  8
0
  6
DASHED
 62
     2
 48
0.5
100
AcDbLine
 10
-290.7162767743849
 20
-130.8432547999398
 30
0.0
 11
-264.5578687092041
 21
-112.1059556481568
 31
0.0
  0
LINE
  5
104D
330
1F
100
AcDbEntity
  8
0
  6
DASHED
 62
     2
 48
0.5
100
AcDbLine
 10
-283.7454414151507
 20
-138.15079886639
 30
0.0
 11
-263.8627857278796
 21
-123.9088286893068
 31
0.0
  0
LINE
  5
104E
330
1F
100
AcDbEntity
  8
0
  6
DASHED
 62
     2
100
AcDbLine
 10
-263.8627857278796
 20
-123.9088286893068
 30
0.0
 11
-264.477645021345
 21
-124.3492531405659
 31
0.0
  0
LINE
  5
104F
330
1F
100
AcDbEntity
  8
0
  6
DASHED
 62
     2
100
AcDbLine
 10
138.8873965169073
 20
68.01128191345156
 30
0.0
 11
125.7084706909021
 21
68.01128191345156
 31
0.0
  0
LINE
  5
1050
330
1F
100
AcDbEntity
  8
0
  6
Continuous
 62
     7
100
AcDbLine
 10
125.7084706909021
 20
68.01128191345156
 30
0.0
 11
125.7084706909021
 21
69.51128191345155
 31
0.0
  0
LINE
  5
1051
330
1F
100
AcDbEntity
  8
0
  6
DASHED
 62
     2
100
AcDbLine
 10
141.7219222173743
 20
-47.98871808654852
 30
0.0
 11
125.7084706909021
 21
-47.98871808654852
 31
0.0
  0
LINE
  5
1052
330
1F
100
AcDbEntity
  8
0
  6
Continuous
 62
     7
100
AcDbLine
 10
125.7084706909021
 20
-47.98871808654852
 30
0.0
 11
125.7084706909021
 21
68.01128191345156
 31
0.0
  0
LINE
  5
1053
330
1F
100
AcDbEntity
  8
0
  6
DASH_CENTER
 62
     2
100
AcDbLine
 10
0.8023244310926093
 20
-158.9887180865496
 30
0.0
 11
-33.33783080492501
 21
-158.9887180865496
 31
0.0
  0
LINE
  5
1054
330
1F
100
AcDbEntity
  8
0
  6
DASH_CENTER
 62
     2
100
AcDbLine
 10
1.507164452406179
 20
-103.9887180865491
 30
0.0
 11
-23.51380080798332
 21
-103.9887180865491
 31
0.0
  0
LINE
  5
1055
330
1F
100
AcDbEntity
  8
0
  6
DASH_CENTER
 62
     2
100
AcDbLine
 10
1.154744441749377
 20
-48.98871808654858
 30
0.0
 11
-33.33783080492501
 21
-48.98871808654858
 31
0.0
  0
LINE
  5
1058
330
1F
100
AcDbEntity
  8
0
  6
DASH_CENTER
 62
     2
100
AcDbLine
 10
261.5084706909024
 20
-103.9887180865486
 30
0.0
 11
283.5084706909024
 21
-103.9887180865487
 31
0.0
  0
LINE
  5
1059
330
1F
100
AcDbEntity
  8
0
  6
Continuous
 62
     7
100
AcDbLine
 10
-6.216449783489027
 20
-109.6129597037892
 30
0.0
 11
-6.216449783489027
 21
-110.0888180865492
 31
0.0
  0
LINE
  5
105A
330
1F
100
AcDbEntity
  8
0
  6
Continuous
 62
     7
100
AcDbLine
 10
-6.216449783489027
 20
-109.6129597037892
 30
0.0
 11
-6.216449783489027
 21
-107.2887180865492
 31
0.0
  0
LINE
  5
105B
330
1F
100
AcDbEntity
  8
0
  6
Continuous
 62
     7
100
AcDbLine
 10
-6.216449783489027
 20
-104.3906180865491
 30
0.0
 11
-6.216449783489027
 21
-109.6129597037892
 31
0.0
  0
LINE
  5
105C
330
1F
100
AcDbEntity
  8
0
  6
Continuous
 62
     7
100
AcDbLine
 10
-6.216449783489027
 20
-97.88881808654908
 30
0.0
 11
-6.216449783489027
 21
-103.9887180865491
 31
0.0
  0
LINE
  5
105D
330
1F
100
AcDbEntity
  8
0
  6
Continuous
 62
     7
100
AcDbLine
 10
-2.316549783489103
 20
-100.8210180865491
 30
0.0
 11
-2.316549783489103
 21
-107.1565180865492
 31
0.0
  0
LINE
  5
105E
330
1F
100
AcDbEntity
  8
0
  6
Continuous
 62
     7
100
AcDbLine
 10
-6.216449783489027
 20
-98.73871808654911
 30
0.0
 11
-4.050949783488885
 21
-98.92821808654922
 31
0.0
  0
LINE
  5
105F
330
1F
100
AcDbEntity
  8
0
  6
Continuous
 62
     7
100
AcDbLine
 10
-6.216449783489027
 20
-109.2387180865491
 30
0.0
 11
-4.050949783488885
 21
-109.0493180865491
 31
0.0
  0
LINE
  5
1060
330
1F
100
AcDbEntity
  8
0
  6
CENTER_DASH_DASH
 62
   171
100
AcDbLine
 10
-6.100995829085997
 20
-110.9887180865491
 30
0.0
 11
-6.100995829085997
 21
-111.0049771657192
 31
0.0
  0
LINE
  5
1061
330
1F
100
AcDbEntity
  8
0
  6
Continuous
 62
     7
100
AcDbLine
 10
-6.216449783489027
 20
-111.0030844779411
 30
0.0
 11
-6.216449783489027
 21
-109.6129597037892
 31
0.0
  0
LINE
  5
1062
330
1F
100
AcDbEntity
  8
0
  6
Continuous
 62
     7
100
AcDbLine
 10
-6.216449783489027
 20
-100.6887180865491
 30
0.0
 11
-6.216449783489027
 21
-97.9887180865491
 31
0.0
  0
LINE
  5
1063
330
1F
100
AcDbEntity
  8
0
  6
Continuous
 62
     7
100
AcDbLine
 10
-6.216449783489027
 20
-99.3906180865491
 30
0.0
 11
-6.216449783489027
 21
-109.6129597037892
 31
0.0
  0
LINE
  5
1064
330
1F
100
AcDbEntity
  8
0
  6
Continuous
 62
     7
100
AcDbLine
 10
-6.216449783489027
 20
-164.6129597037897
 30
0.0
 11
-6.216449783489027
 21
-165.0888180865497
 31
0.0
  0
LINE
  5
1065
330
1F
100
AcDbEntity
  8
0
  6
Continuous
 62
     7
100
AcDbLine
 10
-6.216449783489027
 20
-164.6129597037897
 30
0.0
 11
-6.216449783489027
 21
-162.2887180865497
 31
0.0
  0
LINE
  5
1066
330
1F
100
AcDbEntity
  8
0
  6
Continuous
 62
     7
100
AcDbLine
 10
-6.216449783489027
 20
-159.3906180865496
 30
0.0
 11
-6.216449783489027
 21
-164.6129597037897
 31
0.0
  0
LINE
  5
1067
330
1F
100
AcDbEntity
  8
0
  6
Continuous
 62
     7
100
AcDbLine
 10
-6.216449783489027
 20
-152.8888180865496
 30
0.0
 11
-6.216449783489027
 21
-158.9887180865496
 31
0.0
  0
LINE
  5
1068
330
1F
100
AcDbEntity
  8
0
  6
Continuous
 62
     7
100
AcDbLine
 10
-2.316549783489103
 20
-155.8210180865496
 30
0.0
 11
-2.316549783489103
 21
-162.1565180865497
 31
0.0
  0
LINE
  5
1069
330
1F
100
AcDbEntity
  8
0
  6
Continuous
 62
     7
100
AcDbLine
 10
-6.216449783489027
 20
-153.7387180865496
 30
0.0
 11
-4.050949783488885
 21
-153.9282180865497
 31
0.0
  0
LINE
  5
106A
330
1F
100
AcDbEntity
  8
0
  6
Continuous
 62
     7
100
AcDbLine
 10
-6.216449783489027
 20
-164.2387180865496
 30
0.0
 11
-4.050949783488885
 21
-164.0493180865496
 31
0.0
  0
LINE
  5
106B
330
1F
100
AcDbEntity
  8
0
  6
CENTER_DASH_DASH
 62
   171
100
AcDbLine
 10
-6.100995829085997
 20
-165.9887180865495
 30
0.0
 11
-6.100995829085997
 21
-166.0049771657197
 31
0.0
  0
LINE
  5
106C
330
1F
100
AcDbEntity
  8
0
  6
Continuous
 62
     7
100
AcDbLine
 10
-6.216449783489027
 20
-166.0030844779416
 30
0.0
 11
-6.216449783489027
 21
-164.6129597037897
 31
0.0
  0
LINE
  5
106D
330
1F
100
AcDbEntity
  8
0
  6
Continuous
 62
     7
100
AcDbLine
 10
-6.216449783489027
 20
-155.6887180865496
 30
0.0
 11
-6.216449783489027
 21
-152.9887180865496
 31
0.0
  0
LINE
  5
106E
330
1F
100
AcDbEntity
  8
0
  6
Continuous
 62
     7
100
AcDbLine
 10
-6.216449783489027
 20
-154.3906180865496
 30
0.0
 11
-6.216449783489027
 21
-164.6129597037897
 31
0.0
  0
LINE
  5
106F
330
1F
100
AcDbEntity
  8
0
  6
Continuous
 62
     7
100
AcDbLine
 10
161.7084706909023
 20
-56.89349539889176
 30
0.0
 11
161.7084706909023
 21
-52.98871808654854
 31
0.0
  0
LINE
  5
1070
330
1F
100
AcDbEntity
  8
0
  6
Continuous
 62
     7
100
AcDbLine
 10
161.7084706909021
 20
15.63552353069164
 30
0.0
 11
161.7084706909021
 21
16.11138191345159
 31
0.0
  0
LINE
  5
1071
330
1F
100
AcDbEntity
  8
0
  6
Continuous
 62
     7
100
AcDbLine
 10
161.7084706909021
 20
15.63552353069164
 30
0.0
 11
161.7084706909021
 21
13.31128191345166
 31
0.0
  0
LINE
  5
1072
330
1F
100
AcDbEntity
  8
0
  6
Continuous
 62
     7
100
AcDbLine
 10
161.7084706909021
 20
10.41318191345155
 30
0.0
 11
161.7084706909021
 21
15.63552353069164
 31
0.0
  0
LINE
  5
1073
330
1F
100
AcDbEntity
  8
0
  6
Continuous
 62
     7
100
AcDbLine
 10
161.7084706909021
 20
3.911381913451528
 30
0.0
 11
161.7084706909021
 21
10.01128191345147
 31
0.0
  0
LINE
  5
1074
330
1F
100
AcDbEntity
  8
0
  6
Continuous
 62
     7
100
AcDbLine
 10
160.2084706909022
 20
10.01128191345147
 30
0.0
 11
160.2084706909022
 21
16.11138191345159
 31
0.0
  0
LINE
  5
1075
330
1F
100
AcDbEntity
  8
0
  6
Continuous
 62
     7
100
AcDbLine
 10
160.2084706909022
 20
3.911381913451528
 30
0.0
 11
160.2084706909022
 21
9.609381913451622
 31
0.0
  0
LINE
  5
1076
330
1F
100
AcDbEntity
  8
0
  6
Continuous
 62
     7
100
AcDbLine
 10
160.2084706909022
 20
10.01128191345147
 30
0.0
 11
161.7084706909021
 21
10.41318191345155
 31
0.0
  0
LINE
  5
1077
330
1F
100
AcDbEntity
  8
0
  6
Continuous
 62
     7
100
AcDbLine
 10
160.2084706909022
 20
9.609381913451622
 30
0.0
 11
161.7084706909021
 21
10.01128191345147
 31
0.0
  0
LINE
  5
1078
330
1F
100
AcDbEntity
  8
0
  6
Continuous
 62
     7
100
AcDbLine
 10
160.2084706909022
 20
16.11138191345159
 30
0.0
 11
161.7084706909021
 21
16.11138191345159
 31
0.0
  0
LINE
  5
1079
330
1F
100
AcDbEntity
  8
0
  6
Continuous
 62
     7
100
AcDbLine
 10
160.2084706909022
 20
3.911381913451528
 30
0.0
 11
161.7084706909021
 21
3.911381913451528
 31
0.0
  0
LINE
  5
107A
330
1F
100
AcDbEntity
  8
0
  6
Continuous
 62
     7
100
AcDbLine
 10
160.2084706909022
 20
4.76128191345146
 30
0.0
 11
160.2084706909022
 21
15.26128191345148
 31
0.0
  0
LINE
  5
107B
330
1F
100
AcDbEntity
  8
0
  6
Continuous
 62
     7
100
AcDbLine
 10
156.3085706909023
 20
6.84355148239782
 30
0.0
 11
156.3085706909023
 21
13.1791123440481
 31
0.0
  0
LINE
  5
107C
330
1F
100
AcDbEntity
  8
0
  6
Continuous
 62
     7
100
AcDbLine
 10
160.2084706909022
 20
4.76128191345146
 30
0.0
 11
158.04293722136
 21
4.950784842326366
 31
0.0
  0
LINE
  5
107D
330
1F
100
AcDbEntity
  8
0
  6
Continuous
 62
     7
100
AcDbLine
 10
160.2084706909022
 20
15.26128191345148
 30
0.0
 11
158.0430239631623
 21
15.07188657277549
 31
0.0
  0
LINE
  5
107E
330
1F
100
AcDbEntity
  8
0
  6
Continuous
 62
     7
100
AcDbLine
 10
161.7084706909021
 20
6.711281913451515
 30
0.0
 11
161.7084706909021
 21
4.011281913451457
 31
0.0
  0
LINE
  5
107F
330
1F
100
AcDbEntity
  8
0
  6
Continuous
 62
     7
100
AcDbLine
 10
161.7084706909021
 20
5.413181913451531
 30
0.0
 11
161.7084706909021
 21
15.63552353069164
 31
0.0
  0
LINE
  5
1080
330
1F
100
AcDbEntity
  8
0
  6
Continuous
 62
     7
100
AcDbLine
 10
160.2084706909022
 20
-58.36734151810221
 30
0.0
 11
160.2084706909022
 21
-52.82265015573744
 31
0.0
  0
LINE
  5
1081
330
1F
100
AcDbEntity
  8
0
  6
Continuous
 62
     7
100
AcDbLine
 10
161.1968993911726
 20
-57.38548315216324
 30
0.0
 11
160.2084706909022
 21
-57.12065015573755
 31
0.0
  0
LINE
  5
1082
330
1F
100
AcDbEntity
  8
0
  6
Continuous
 62
     7
100
AcDbLine
 10
161.7084706909023
 20
-52.82265015573744
 30
0.0
 11
160.2084706909022
 21
-52.82265015573744
 31
0.0
  0
LINE
  5
1083
330
1F
100
AcDbEntity
  8
0
  6
Continuous
 62
     7
100
AcDbLine
 10
156.3085706909023
 20
-62.09035015573755
 30
0.0
 11
156.3085706909023
 21
-55.75481972468371
 31
0.0
  0
LINE
  5
1084
330
1F
100
AcDbEntity
  8
0
  6
Continuous
 62
     7
100
AcDbLine
 10
158.04293722136
 20
-53.86205308461225
 30
0.0
 11
160.2084706909022
 21
-53.67255015573735
 31
0.0
  0
LINE
  5
1085
330
1F
100
AcDbEntity
  8
0
  6
Continuous
 62
     7
100
AcDbLine
 10
161.7084706909023
 20
-52.98871808654853
 30
0.0
 11
161.7084706909023
 21
-55.62255015573743
 31
0.0
  0
LINE
  5
1086
330
1F
100
AcDbEntity
  8
0
  6
Continuous
 62
     7
100
AcDbLine
 10
160.8746031926044
 20
-57.70102925736014
 30
0.0
 11
160.2084706909022
 21
-57.52255015573738
 31
0.0
  0
LINE
  5
1087
330
1F
100
AcDbEntity
  8
0
  6
DASH_CENTER
 62
     2
100
AcDbLine
 10
169.7084706909022
 20
10.01128191345148
 30
0.0
 11
131.3429732932672
 21
10.01128191345148
 31
0.0
  0
LINE
  5
1088
330
1F
100
AcDbEntity
  8
0
  6
Continuous
 62
     7
100
AcDbLine
 10
169.7084706909022
 20
-50.40924440492323
 30
0.0
 11
169.7084706909022
 21
-0.6149776252464053
 31
0.0
  0
LINE
  5
1089
330
1F
100
AcDbEntity
  8
0
  6
Continuous
 62
     7
100
AcDbLine
 10
165.7084706909022
 20
5.010511175591269
 30
0.0
 11
165.7084706909022
 21
-53.07614164725894
 31
0.0
  0
LINE
  5
108A
330
1F
100
AcDbEntity
  8
0
  6
DASH_CENTER
 62
     2
100
AcDbLine
 10
-202.2164497834892
 20
-56.55488601735966
 30
0.0
 11
-202.2164497834892
 21
191.4205831125098
 31
0.0
  0
LINE
  5
108C
330
1F
100
AcDbEntity
  8
0
  6
DASHED
 62
     2
 48
0.5
100
AcDbLine
 10
-256.9724015005452
 20
27.56222922576014
 30
0.0
 11
-256.9724015005452
 21
-6.999950821702421
 31
0.0
  0
LINE
  5
108D
330
1F
100
AcDbEntity
  8
0
  6
DASHED
 62
     2
 48
0.5
100
AcDbLine
 10
-251.9724015005452
 20
38.83133168318618
 30
0.0
 11
-251.9724015005452
 21
-18.80876785628398
 31
0.0
  0
LINE
  5
108E
330
1F
100
AcDbEntity
  8
0
  6
DASHED
 62
     2
 48
0.5
100
AcDbLine
 10
-246.9724015005451
 20
46.11051716713158
 30
0.0
 11
-246.9724015005451
 21
-26.08795334022939
 31
0.0
  0
LINE
  5
108F
330
1F
100
AcDbEntity
  8
0
  6
DASHED
 62
     2
 48
0.5
100
AcDbLine
 10
-241.9724015005451
 20
51.55299953647585
 30
0.0
 11
-241.9724015005451
 21
-31.99995082170246
 31
0.0
  0
LINE
  5
1090
330
1F
100
AcDbEntity
  8
0
  6
DASHED
 62
     2
 48
0.5
100
AcDbLine
 10
-236.9724015005452
 20
55.81820082579104
 30
0.0
 11
-236.9724015005452
 21
-35.79563699888884
 31
0.0
  0
LINE
  5
1091
330
1F
100
AcDbEntity
  8
0
  6
DASHED
 62
     2
 48
0.5
100
AcDbLine
 10
-231.9724015005451
 20
59.21324668532016
 30
0.0
 11
-231.9724015005451
 21
-39.19068285841797
 31
0.0
  0
LINE
  5
1092
330
1F
100
AcDbEntity
  8
0
  6
DASHED
 62
     2
 48
0.5
100
AcDbLine
 10
-226.9724015005452
 20
61.90918991158531
 30
0.0
 11
-226.9724015005452
 21
-41.99995082170247
 31
0.0
  0
LINE
  5
1093
330
1F
100
AcDbEntity
  8
0
  6
DASHED
 62
     2
 48
0.5
100
AcDbLine
 10
-221.9724015005451
 20
64.01084090936663
 30
0.0
 11
-221.9724015005451
 21
-43.98827708246445
 31
0.0
  0
LINE
  5
1094
330
1F
100
AcDbEntity
  8
0
  6
DASHED
 62
     2
 48
0.5
100
AcDbLine
 10
-216.9724015005451
 20
65.58566350176857
 30
0.0
 11
-216.9724015005451
 21
-45.56309967486638
 31
0.0
  0
LINE
  5
1095
330
1F
100
AcDbEntity
  8
0
  6
DASHED
 62
     2
 48
0.5
100
AcDbLine
 10
-211.9724015005451
 20
66.67759824065274
 30
0.0
 11
-211.9724015005451
 21
-46.65503441375053
 31
0.0
  0
LINE
  5
1096
330
1F
100
AcDbEntity
  8
0
  6
DASHED
 62
     2
 48
0.5
100
AcDbLine
 10
-206.9724015005451
 20
67.3142567338305
 30
0.0
 11
-206.9724015005451
 21
-47.29169290692831
 31
0.0
  0
LINE
  5
1097
330
1F
100
AcDbEntity
  8
0
  6
DASHED
 62
     2
100
AcDbLine
 10
-201.9724015005451
 20
67.51076400186295
 30
0.0
 11
-201.9724015005451
 21
-47.48820017496073
 31
0.0
  0
LINE
  5
1098
330
1F
100
AcDbEntity
  8
0
  6
DASHED
 62
     2
 48
0.5
100
AcDbLine
 10
-196.9724015005451
 20
67.27165178307519
 30
0.0
 11
-196.9724015005451
 21
-47.24908795617297
 31
0.0
  0
LINE
  5
1099
330
1F
100
AcDbEntity
  8
0
  6
DASHED
 62
     2
 48
0.5
100
AcDbLine
 10
-191.9724015005451
 20
66.59139745572189
 30
0.0
 11
-191.9724015005451
 21
-46.56883362881965
 31
0.0
  0
LINE
  5
109A
330
1F
100
AcDbEntity
  8
0
  6
DASHED
 62
     2
 48
0.5
100
AcDbLine
 10
-186.9724015005451
 20
65.45376555142739
 30
0.0
 11
-186.9724015005451
 21
-45.43120172452519
 31
0.0
  0
LINE
  5
109B
330
1F
100
AcDbEntity
  8
0
  6
DASHED
 62
     2
 48
0.5
100
AcDbLine
 10
-181.9724015005451
 20
63.82975930846689
 30
0.0
 11
-181.9724015005451
 21
-43.80719548156473
 31
0.0
  0
LINE
  5
109C
330
1F
100
AcDbEntity
  8
0
  6
DASHED
 62
     2
 48
0.5
100
AcDbLine
 10
-176.9724015005451
 20
61.67353144140319
 30
0.0
 11
-176.9724015005451
 21
-41.65096761450097
 31
0.0
  0
LINE
  5
109D
330
1F
100
AcDbEntity
  8
0
  6
DASHED
 62
     2
 48
0.5
100
AcDbLine
 10
-171.9724015005451
 20
58.91473315627181
 30
0.0
 11
-171.9724015005451
 21
-38.89216932936962
 31
0.0
  0
LINE
  5
109E
330
1F
100
AcDbEntity
  8
0
  6
DASHED
 62
     2
 48
0.5
100
AcDbLine
 10
-166.9724015005449
 20
55.44372693492779
 30
0.0
 11
-166.9724015005449
 21
-35.42116310802558
 31
0.0
  0
LINE
  5
109F
330
1F
100
AcDbEntity
  8
0
  6
DASHED
 62
     2
 48
0.5
100
AcDbLine
 10
-161.9724015005449
 20
51.08032838156453
 30
0.0
 11
-161.9724015005449
 21
-31.05776455466234
 31
0.0
  0
LINE
  5
10A0
330
1F
100
AcDbEntity
  8
0
  6
DASHED
 62
     2
 48
0.5
100
AcDbLine
 10
-156.972401500545
 20
45.49685778549547
 30
0.0
 11
-156.972401500545
 21
-25.47429395859326
 31
0.0
  0
LINE
  5
10A1
330
1F
100
AcDbEntity
  8
0
  6
DASHED
 62
     2
 48
0.5
100
AcDbLine
 10
-151.9724015005449
 20
36.51828985953783
 30
0.0
 11
-151.9724015005449
 21
-17.94914748491785
 31
0.0
  0
LINE
  5
10A2
330
1F
100
AcDbEntity
  8
0
  6
DASHED
 62
     2
 48
0.5
100
AcDbLine
 10
-146.972401500545
 20
25.95948335786897
 30
0.0
 11
-146.972401500545
 21
-4.837177238780129
 31
0.0
  0
LINE
  5
10A3
330
1F
100
AcDbEntity
  8
0
  6
DASHED
 62
     2
 48
0.5
100
AcDbLine
 10
-224.5422318247063
 20
63.00004917829767
 30
0.0
 11
-179.8906677422723
 21
63.00004917829767
 31
0.0
  0
LINE
  5
10A4
330
1F
100
AcDbEntity
  8
0
  6
DASHED
 62
     2
 48
0.5
100
AcDbLine
 10
-233.8918063939585
 20
58.00004917829764
 30
0.0
 11
-170.5410931730201
 21
58.00004917829764
 31
0.0
  0
LINE
  5
10A5
330
1F
100
AcDbEntity
  8
0
  6
DASHED
 62
     2
 48
0.5
100
AcDbLine
 10
-240.4030428371889
 20
53.00004917829764
 30
0.0
 11
-161.9724015005449
 21
53.00004917829764
 31
0.0
  0
LINE
  5
10A6
330
1F
100
AcDbEntity
  8
0
  6
DASHED
 62
     2
 48
0.5
100
AcDbLine
 10
-245.380133149223
 20
48.00004917829763
 30
0.0
 11
-159.0527664177554
 21
48.00004917829763
 31
0.0
  0
LINE
  5
10A7
330
1F
100
AcDbEntity
  8
0
  6
DASHED
 62
     2
 48
0.5
100
AcDbLine
 10
-249.3120040784096
 20
43.00004917829762
 30
0.0
 11
-155.1208954885688
 21
43.00004917829762
 31
0.0
  0
LINE
  5
10A8
330
1F
100
AcDbEntity
  8
0
  6
DASHED
 62
     2
 48
0.5
100
AcDbLine
 10
-252.4447177906012
 20
38.00004917829762
 30
0.0
 11
-151.9724015005449
 21
38.00004917829762
 31
0.0
  0
LINE
  5
10A9
330
1F
100
AcDbEntity
  8
0
  6
DASHED
 62
     2
 48
0.5
100
AcDbLine
 10
-254.9209712180183
 20
33.00004917829762
 30
0.0
 11
-149.5119283489603
 21
33.00004917829762
 31
0.0
  0
LINE
  5
10AA
330
1F
100
AcDbEntity
  8
0
  6
DASHED
 62
     2
 48
0.5
100
AcDbLine
 10
-255.8257977982322
 20
28.00004917829761
 30
0.0
 11
-147.602767868687
 21
28.00004917829761
 31
0.0
  0
LINE
  5
10AB
330
1F
100
AcDbEntity
  8
0
  6
DASHED
 62
     2
 48
0.5
100
AcDbLine
 10
-258.2302152785856
 20
23.0000491782976
 30
0.0
 11
-146.2026842883928
 21
23.0000491782976
 31
0.0
  0
LINE
  5
10AC
330
1F
100
AcDbEntity
  8
0
  6
DASHED
 62
     2
 48
0.5
100
AcDbLine
 10
-259.1587855064654
 20
18.0000491782976
 30
0.0
 11
-145.2741140605131
 21
18.0000491782976
 31
0.0
  0
LINE
  5
10AD
330
1F
100
AcDbEntity
  8
0
  6
DASHED
 62
     2
 48
0.5
100
AcDbLine
 10
-259.6387213358809
 20
13.0000491782976
 30
0.0
 11
-144.7941782310978
 21
13.0000491782976
 31
0.0
  0
LINE
  5
10AE
330
1F
100
AcDbEntity
  8
0
  6
DASHED
 62
     2
 48
0.5
100
AcDbLine
 10
-259.6812646086068
 20
8.000049178297592
 30
0.0
 11
-144.7516349583717
 21
8.000049178297592
 31
0.0
  0
LINE
  5
10AF
330
1F
100
AcDbEntity
  8
0
  6
DASHED
 62
     2
 48
0.5
100
AcDbLine
 10
-259.2873934898404
 20
3.000049178297587
 30
0.0
 11
-145.1455060771379
 21
3.000049178297587
 31
0.0
  0
LINE
  5
10B0
330
1F
100
AcDbEntity
  8
0
  6
DASHED
 62
     2
 48
0.5
100
AcDbLine
 10
-258.4479381879586
 20
-1.999950821702416
 30
0.0
 11
-145.771241221563
 21
-1.999950821702416
 31
0.0
  0
LINE
  5
10B1
330
1F
100
AcDbEntity
  8
0
  6
DASHED
 62
     2
 48
0.5
100
AcDbLine
 10
-256.9724015005452
 20
-6.999950821702421
 30
0.0
 11
-146.972401500545
 21
-6.999950821702421
 31
0.0
  0
LINE
  5
10B2
330
1F
100
AcDbEntity
  8
0
  6
DASHED
 62
     2
 48
0.5
100
AcDbLine
 10
-255.3366496464313
 20
-11.99995082170242
 30
0.0
 11
-149.0962499205472
 21
-11.99995082170242
 31
0.0
  0
LINE
  5
10B3
330
1F
100
AcDbEntity
  8
0
  6
DASHED
 62
     2
 48
0.5
100
AcDbLine
 10
-252.9770970028399
 20
-16.99995082170242
 30
0.0
 11
-150.449432303898
 21
-16.99995082170242
 31
0.0
  0
LINE
  5
10B4
330
1F
100
AcDbEntity
  8
0
  6
DASHED
 62
     2
 48
0.5
100
AcDbLine
 10
-249.9818240495394
 20
-21.99995082170244
 30
0.0
 11
-154.4510755174392
 21
-21.99995082170244
 31
0.0
  0
LINE
  5
10B5
330
1F
100
AcDbEntity
  8
0
  6
DASHED
 62
     2
 48
0.5
100
AcDbLine
 10
-158.2116926381041
 20
-26.99995082170245
 30
0.0
 11
-246.2212069288741
 21
-26.99995082170245
 31
0.0
  0
LINE
  5
10B6
330
1F
100
AcDbEntity
  8
0
  6
DASHED
 62
     2
 48
0.5
100
AcDbLine
 10
-241.9724015005451
 20
-31.99995082170246
 30
0.0
 11
-162.956975461069
 21
-31.99995082170246
 31
0.0
  0
LINE
  5
10B7
330
1F
100
AcDbEntity
  8
0
  6
DASHED
 62
     2
 48
0.5
100
AcDbLine
 10
-169.1076292560039
 20
-36.99995082170246
 30
0.0
 11
-235.3252703109745
 21
-36.99995082170246
 31
0.0
  0
LINE
  5
10B8
330
1F
100
AcDbEntity
  8
0
  6
DASHED
 62
     2
 48
0.5
100
AcDbLine
 10
-226.9724015005452
 20
-41.99995082170247
 30
0.0
 11
-176.9724015005451
 21
-41.99995082170247
 31
0.0
  0
LINE
  5
10B9
330
1F
100
AcDbEntity
  8
0
  6
DASH_CENTER
 62
     2
100
AcDbLine
 10
232.5084706909028
 20
-149.9442932302305
 30
0.0
 11
232.5084706909023
 21
-168.2341600729645
 31
0.0
  0
LINE
  5
10BA
330
1F
100
AcDbEntity
  8
0
  6
DOTTED
 62
     2
 48
0.5
100
AcDbLine
 10
-251.7146050440819
 20
-135.8636138361634
 30
0.0
 11
-251.7146050440822
 21
-123.6629066397788
 31
0.0
  0
LINE
  5
10BB
330
1F
100
AcDbEntity
  8
0
  6
DOTTED
 62
     2
 48
0.5
100
AcDbLine
 10
-250.2127603046748
 20
-135.8631596801241
 30
0.0
 11
-251.7109155652677
 21
-135.8636127204692
 31
0.0
  0
LINE
  5
10BC
330
1F
100
AcDbEntity
  8
0
  6
DOTTED
 62
     2
 48
0.5
100
AcDbLine
 10
-251.7146050440822
 20
-123.6629066397788
 30
0.0
 11
-250.2164497834892
 21
-123.6624535994335
 31
0.0
  0
LINE
  5
10BD
330
1F
100
AcDbEntity
  8
0
  6
DOTTED
 62
     2
 48
0.5
100
AcDbLine
 10
-255.6145050440813
 20
-132.9306066397791
 30
0.0
 11
-255.6145050440814
 21
-126.5951066397792
 31
0.0
  0
LINE
  5
10BE
330
1F
100
AcDbEntity
  8
0
  6
DOTTED
 62
     2
 48
0.5
100
AcDbLine
 10
-253.880105044082
 20
-134.8234066397791
 30
0.0
 11
-251.7146050440814
 21
-135.0128066397784
 31
0.0
  0
LINE
  5
10BF
330
1F
100
AcDbEntity
  8
0
  6
DOTTED
 62
     2
 48
0.5
100
AcDbLine
 10
-253.8801050440814
 20
-124.702306639779
 30
0.0
 11
-251.7146050440817
 21
-124.5128066397785
 31
0.0
  0
ELLIPSE
  5
10CE
330
1F
100
AcDbEntity
  8
60
  6
Continuous
 62
     7
100
AcDbEllipse
 10
211.5086706909011
 20
-113.9887180865486
 30
0.0
 11
-19.79897071314672
 21
19.79897071314673
 31
0.0
210
0.0
220
0.0
230
1.0
 40
0.9999999999999991
 41
3.366084949924267
 42
4.216742806944937
  0
ELLIPSE
  5
10CF
330
1F
100
AcDbEntity
  8
0
  6
Continuous
 62
     7
100
AcDbEllipse
 10
206.5084706909023
 20
-103.9887180865487
 30
0.0
 11
-26.87005768508919
 21
26.87005768508919
 31
0.0
210
0.0
220
0.0
230
1.0
 40
0.9999999999999985
 41
2.395678432727298
 42
3.212645091956674
  0
ELLIPSE
  5
10D1
330
1F
100
AcDbEntity
  8
60
  6
Continuous
 62
     7
100
AcDbEllipse
 10
211.5086706909011
 20
-113.9887180865486
 30
0.0
 11
-19.7989707131459
 21
19.7989707131459
 31
0.0
210
0.0
220
0.0
230
1.0
 40
0.9999999999999976
 41
4.35022858765495
 42
5.004315521179449
  0
ELLIPSE
  5
10D2
330
1F
100
AcDbEntity
  8
60
  6
Continuous
 62
     7
100
AcDbEllipse
 10
229.5086397367879
 20
-80.52226629110233
 30
0.0
 11
7.071045924096895
 21
7.071045924096895
 31
0.0
210
0.0
220
0.0
230
1.0
 40
0.9999999999999952
 41
2.356199669753004
 42
3.433528053146501
  0
ELLIPSE
  5
10D3
330
1F
100
AcDbEntity
  8
0
  6
Continuous
 62
     7
100
AcDbEllipse
 10
206.5084706909023
 20
-103.9887180865487
 30
0.0
 11
26.87005768508401
 21
26.87005768508401
 31
0.0
210
0.0
220
0.0
230
1.0
 40
0.9999999999998575
 41
0.626839882759819
 42
0.6534365557376443
  0
ELLIPSE
  5
10DC
330
1F
100
AcDbEntity
  8
0
  6
DASH_CENTER
 62
     2
100
AcDbEllipse
 10
-202.3761932994478
 20
9.945113982640274
 30
0.0
 11
-48.79036790187167
 21
48.79036790187167
 31
0.0
210
0.0
220
0.0
230
1.0
 40
0.9999999999999992
 41
3.763689093551801
 42
4.111353367023022
  0
ELLIPSE
  5
10DD
330
1F
100
AcDbEntity
  8
0
  6
DASH_CENTER
 62
     2
100
AcDbEllipse
 10
-202.3761932994478
 20
9.945113982640274
 30
0.0
 11
48.79036790187168
 21
48.79036790187168
 31
0.0
210
0.0
220
0.0
230
1.0
 40
0.9999999999999987
 41
3.761194743201162
 42
4.08064032674374
  0
ELLIPSE
  5
10DE
330
1F
100
AcDbEntity
  8
0
  6
DASH_CENTER
 62
     2
100
AcDbEllipse
 10
-202.3761932994478
 20
9.945113982640274
 30
0.0
 11
-48.79036790187161
 21
48.79036790187161
 31
0.0
210
0.0
220
0.0
230
1.0
 40
0.999999999999998
 41
0.6116462451938342
 42
0.9444634844113707
  0
ELLIPSE
  5
10DF
330
1F
100
AcDbEntity
  8
0
  6
DASH_CENTER
 62
     2
100
AcDbEllipse
 10
-202.3761932994478
 20
9.945113982640274
 30
0.0
 11
-48.79036790187162
 21
48.79036790187162
 31
0.0
210
0.0
220
0.0
230
1.0
 40
0.9999999999999996
 41
-1.014645140611756
 42
-0.5963576645507334
  0
ELLIPSE
  5
10E3
330
1F
100
AcDbEntity
  8
0
  6
Continuous
 62
     7
100
AcDbEllipse
 10
-202.2164497834892
 20
10.01128191345148
 30
0.0
 11
111.7228714274745
 21
111.7228714274745
 31
0.0
210
0.0
220
0.0
230
1.0
 40
1.0
 41
3.486319818208527
 42
4.367661815765953
  0
ELLIPSE
  5
10EC
330
1F
100
AcDbEntity
  8
0
  6
Continuous
 62
     7
100
AcDbEllipse
 10
206.5084706909023
 20
124.0112819134516
 30
0.0
 11
-28.99137802864858
 21
28.99137802864858
 31
0.0
210
0.0
220
0.0
230
1.0
 40
0.9999999999999982
 41
-1.147619867187904
 42
-0.7853981633974492
  0
ELLIPSE
  5
10EF
330
1F
100
AcDbEntity
  8
0
  6
Continuous
 62
     7
100
AcDbEllipse
 10
-202.2164497834892
 20
10.01128191345148
 30
0.0
 11
-79.90306627407979
 21
79.90306627407979
 31
0.0
210
0.0
220
0.0
230
1.0
 40
0.9999999999999978
 41
-1.184586084008125
 42
-0.8891468133487101
  0
ELLIPSE
  5
10F0
330
1F
100
AcDbEntity
  8
0
  6
Continuous
 62
     7
100
AcDbEllipse
 10
-202.2164497834892
 20
10.01128191345148
 30
0.0
 11
-76.36753236814666
 21
76.36753236814666
 31
0.0
210
0.0
220
0.0
230
1.0
 40
0.9999999999999992
 41
-0.8575106144595782
 42
-0.6632251157578449
  0
ELLIPSE
  5
10F1
330
1F
100
AcDbEntity
  8
0
  6
Continuous
 62
     7
100
AcDbEllipse
 10
-202.2164497834892
 20
10.01128191345148
 30
0.0
 11
-72.83199846221413
 21
72.83199846221413
 31
0.0
210
0.0
220
0.0
230
1.0
 40
0.9999999999999996
 41
-1.154521967512829
 42
-0.4650480429736457
  0
ELLIPSE
  5
10F4
330
1F
100
AcDbEntity
  8
0
  6
Continuous
 62
     7
100
AcDbEllipse
 10
240.0085009840659
 20
-44.03187923433108
 30
0.0
 11
1.343481463956423
 21
1.343481463956423
 31
0.0
210
0.0
220
0.0
230
1.0
 40
0.9999999999999944
 41
5.497804544033021
 42
6.981276624216605
  0
ELLIPSE
  5
10F5
330
1F
100
AcDbEntity
  8
0
  6
DASHED
 62
     2
 48
0.5
100
AcDbEllipse
 10
-202.2164497834892
 20
9.785370466681724
 30
0.0
 11
52.67945519839781
 21
52.67945519839781
 31
0.0
210
0.0
220
0.0
230
1.0
 40
0.9999999999999998
 41
4.871378340970119
 42
6.10769296772662
  0
ELLIPSE
  5
10F6
330
1F
100
AcDbEntity
  8
0
  6
DASHED
 62
     2
 48
0.5
100
AcDbEllipse
 10
-145.3093932759659
 20
66.65099528901112
 30
0.0
 11
-5.303300858899085
 21
5.303300858899085
 31
0.0
210
0.0
220
0.0
230
1.0
 40
0.9999999999999992
 41
3.525373855392208
 42
5.868035412822419
  0
ELLIPSE
  5
10F7
330
1F
100
AcDbEntity
  8
0
  6
DASHED
 62
     2
 48
0.5
100
AcDbEllipse
 10
-258.8561631590488
 20
66.91833842097482
 30
0.0
 11
-5.303300858899096
 21
5.303300858899096
 31
0.0
210
0.0
220
0.0
230
1.0
 40
0.999999999999996
 41
-1.18701512499248
 42
1.155646432437732
  0
ELLIPSE
  5
10F8
330
1F
100
AcDbEntity
  8
0
  6
DASHED
 62
     2
 48
0.5
100
AcDbEllipse
 10
-259.1235062910125
 20
-46.62843146210814
 30
0.0
 11
-5.303300858899175
 21
5.303300858899175
 31
0.0
210
0.0
220
0.0
230
1.0
 40
0.9999999999999934
 41
0.3837812018024211
 42
2.726442759232605
  0
ELLIPSE
  5
10F9
330
1F
100
AcDbEntity
  8
0
  6
DASHED
 62
     2
 48
0.5
100
AcDbEllipse
 10
-145.5767364079295
 20
-46.89577459407176
 30
0.0
 11
-5.303300858899125
 21
5.303300858899125
 31
0.0
210
0.0
220
0.0
230
1.0
 40
0.9999999999999984
 41
1.954577528597314
 42
4.297239086027524
  0
ELLIPSE
  5
10FA
330
1F
100
AcDbEntity
  8
0
  6
DASHED
 62
     2
 48
0.5
100
AcDbEllipse
 10
-202.2164497834892
 20
9.785370466681724
 30
0.0
 11
52.67945519839792
 21
52.67945519839792
 31
0.0
210
0.0
220
0.0
230
1.0
 40
0.9999999999999998
 41
1.736683536187219
 42
2.620168315344694
  0
ELLIPSE
  5
10FB
330
1F
100
AcDbEntity
  8
0
  6
DASHED
 62
     2
100
AcDbEllipse
 10
-202.2164497834892
 20
9.785370466681724
 30
0.0
 11
52.67945519839792
 21
52.67945519839792
 31
0.0
210
0.0
220
0.0
230
1.0
 40
0.9999999999999968
 41
2.620168315344693
 42
2.889438511855813
  0
ELLIPSE
  5
10FC
330
1F
100
AcDbEntity
  8
0
  6
DASHED
 62
     2
100
AcDbEllipse
 10
-202.2164497834892
 20
10.01128191345148
 30
0.0
 11
53.74011537017771
 21
53.74011537017771
 31
0.0
210
0.0
220
0.0
230
1.0
 40
1.0
 41
2.63497253679202
 42
2.880267899510058
  0
ELLIPSE
  5
10FD
330
1F
100
AcDbEntity
  8
0
  6
DASHED
 62
     2
 48
0.5
100
AcDbEllipse
 10
-202.2164497834892
 20
9.785370466681724
 30
0.0
 11
-52.67945519839782
 21
52.67945519839782
 31
0.0
210
0.0
220
0.0
230
1.0
 40
0.9999999999999996
 41
-1.392165666854793
 42
-0.1823071119903083
  0
ELLIPSE
  5
10FE
330
1F
100
AcDbEntity
  8
0
  6
DASHED
 62
     2
100
AcDbEllipse
 10
-202.2164497834892
 20
9.785370466681724
 30
0.0
 11
-52.67945519840187
 21
52.67945519840187
 31
0.0
210
0.0
220
0.0
230
1.0
 40
0.9999999999999264
 41
1.318642185060936
 42
1.40907940530851
  0
ELLIPSE
  5
10FF
330
1F
100
AcDbEntity
  8
0
  6
DASHED
 62
     2
100
AcDbEllipse
 10
-202.2164497834892
 20
9.785370466681724
 30
0.0
 11
-52.67945519844396
 21
52.67945519844396
 31
0.0
210
0.0
220
0.0
230
1.0
 40
0.9999999999991475
 41
1.731726329483878
 42
1.749426986734845
  0
ELLIPSE
  5
1103
330
1F
100
AcDbEntity
  8
0
  6
Continuous
 62
     7
100
AcDbEllipse
 10
336.2228292488584
 20
-131.1984060631985
 30
0.0
 11
-3.53553390593251
 21
3.53553390593251
 31
0.0
210
0.0
220
0.0
230
1.0
 40
0.9999999999999838
 41
0.0642095172476465
 42
1.11140706844449
  0
ELLIPSE
  5
1104
330
1F
100
AcDbEntity
  8
0
  6
Continuous
 62
     7
100
AcDbEllipse
 10
325.4167505692166
 20
-134.1342242925504
 30
0.0
 11
3.53553390593293
 21
3.53553390593293
 31
0.0
210
0.0
220
0.0
230
1.0
 40
0.9999999999999895
 41
4.776598497632443
 42
5.823796048829143
  0
ELLIPSE
  5
1105
330
1F
100
AcDbEntity
  8
0
  6
Continuous
 62
     7
100
AcDbEllipse
 10
335.2412959050913
 20
-136.1011188117763
 30
0.0
 11
-3.535533905932734
 21
3.535533905932734
 31
0.0
210
0.0
220
0.0
230
1.0
 40
0.9999999999999944
 41
0.0642095172480157
 42
1.111407068444504
  0
ELLIPSE
  5
1106
330
1F
100
AcDbEntity
  8
0
  6
Continuous
 62
     7
100
AcDbEllipse
 10
327.7310816734055
 20
-129.4983404424695
 30
0.0
 11
-3.535533905932885
 21
3.535533905932885
 31
0.0
210
0.0
220
0.0
230
1.0
 40
0.9999999999999952
 41
3.205802170837528
 42
4.252999722034238
  0
ELLIPSE
  5
1107
330
1F
100
AcDbEntity
  8
0
  6
Continuous
 62
     7
100
AcDbEllipse
 10
333.9084981446693
 20
-135.8342899132793
 30
0.0
 11
-3.535533905932521
 21
3.535533905932521
 31
0.0
210
0.0
220
0.0
230
1.0
 40
0.9999999999999927
 41
0.0642095172476436
 42
1.111407068444498
  0
ELLIPSE
  5
1108
330
1F
100
AcDbEntity
  8
0
  6
Continuous
 62
     7
100
AcDbEllipse
 10
326.3982839129841
 20
-129.2315115439724
 30
0.0
 11
-3.535533905932719
 21
3.535533905932719
 31
0.0
210
0.0
220
0.0
230
1.0
 40
0.9999999999999984
 41
3.205802170837752
 42
4.252999722034311
  0
ELLIPSE
  5
1109
330
1F
100
AcDbEntity
  8
0
  6
DASHED
 62
     2
 48
0.5
100
AcDbEllipse
 10
243.3756489602111
 20
-18.86913309878637
 30
0.0
 11
6.51673477121592
 21
6.51673477121592
 31
0.0
210
0.0
220
0.0
230
1.0
 40
1.0
 41
3.926990816987241
 42
5.497787143782136
  0
ELLIPSE
  5
110A
330
1F
100
AcDbEntity
  8
0
  6
DASHED
 62
     2
 48
0.5
100
AcDbEllipse
 10
243.3756489602111
 20
-18.86913309878637
 30
0.0
 11
6.516734771216093
 21
6.516734771216093
 31
0.0
210
0.0
220
0.0
230
1.0
 40
0.9999999999999984
 41
5.497787143782136
 42
7.068583470577033
  0
ELLIPSE
  5
110B
330
1F
100
AcDbEntity
  8
0
  6
DASHED
 62
     2
 48
0.5
100
AcDbEllipse
 10
244.508470690902
 20
-18.83556111505923
 30
0.0
 11
3.535533905932743
 21
3.535533905932743
 31
0.0
210
0.0
220
0.0
230
1.0
 40
0.9999999999999994
 41
5.497787143782136
 42
8.63937979737193
  0
ELLIPSE
  5
110C
330
1F
100
AcDbEntity
  8
0
  6
DASHED
 62
     2
100
AcDbEllipse
 10
-202.2164497834892
 20
10.23719336022118
 30
0.0
 11
-53.74011537018059
 21
53.74011537018059
 31
0.0
210
0.0
220
0.0
230
1.0
 40
0.999999999999958
 41
1.120986866061905
 42
1.252660916650415
  0
ELLIPSE
  5
110D
330
1F
100
AcDbEntity
  8
0
  6
DASHED
 62
     2
100
AcDbEllipse
 10
-202.2164497834892
 20
10.23719336022118
 30
0.0
 11
53.7401153701745
 21
53.7401153701745
 31
0.0
210
0.0
220
0.0
230
1.0
 40
0.9999999999998387
 41
2.634972536791953
 42
2.691783192856723
  0
ELLIPSE
  5
110E
330
1F
100
AcDbEntity
  8
0
  6
DASHED
 62
     2
100
AcDbEllipse
 10
-202.2164497834892
 20
10.01128191345148
 30
0.0
 11
-52.67945519840496
 21
52.67945519840496
 31
0.0
210
0.0
220
0.0
230
1.0
 40
0.9999999999998664
 41
1.318642185060955
 42
1.409079405308523
  0
ELLIPSE
  5
110F
330
1F
100
AcDbEntity
  8
0
  6
DASHED
 62
     2
100
AcDbEllipse
 10
-202.2164497834892
 20
10.01128191345148
 30
0.0
 11
52.67945519839774
 21
52.67945519839774
 31
0.0
210
0.0
220
0.0
230
1.0
 40
0.9999999999999843
 41
2.620168315344693
 42
2.889438511855816
  0
ELLIPSE
  5
1110
330
1F
100
AcDbEntity
  8
0
  6
Continuous
 62
     2
100
AcDbEllipse
 10
-318.5626956307872
 20
-153.8648685653769
 30
0.0
 11
3.535533905932497
 21
3.535533905932497
 31
0.0
210
0.0
220
0.0
230
1.0
 40
0.9999999999999824
 41
5.595771162384765
 42
6.642968713581496
  0
ELLIPSE
  5
1111
330
1F
100
AcDbEntity
  8
0
  6
DASH_CENTER
 62
     2
100
AcDbEllipse
 10
-311.5222747470681
 20
-148.8218066204768
 30
0.0
 11
-3.535533905933468
 21
3.535533905933468
 31
0.0
210
0.0
220
0.0
230
1.0
 40
0.9999999999999808
 41
0.8833821820002899
 42
1.930579733196668
  0
ELLIPSE
  5
1112
330
1F
100
AcDbEntity
  8
0
  6
DASH_CENTER
 62
     2
100
AcDbEllipse
 10
-308.6106615756403
 20
-152.8865955129
 30
0.0
 11
-3.535533905933249
 21
3.535533905933249
 31
0.0
210
0.0
220
0.0
230
1.0
 40
0.9999999999999836
 41
0.8833821820002874
 42
1.93057973319686
  0
ELLIPSE
  5
1119
330
1F
100
AcDbEntity
  8
0
  6
Continuous
 62
     7
100
AcDbEllipse
 10
206.5084706909023
 20
-103.9887180865487
 30
0.0
 11
45.96194077713219
 21
45.96194077713219
 31
0.0
210
0.0
220
0.0
230
1.0
 40
0.9999999999998648
 41
4.459494915289131
 42
4.525540164610136
  0
ELLIPSE
  5
111A
330
1F
100
AcDbEntity
  8
0
  6
Continuous
 62
     7
100
AcDbEllipse
 10
-4.216469300155006
 20
-45.82099678622833
 30
0.0
 11
-1.343516684705676
 21
1.343516684705676
 31
0.0
210
0.0
220
0.0
230
1.0
 40
0.9999999999999992
 41
3.926979606407538
 42
5.410456276346327
  0
ELLIPSE
  5
111B
330
1F
100
AcDbEntity
  8
0
  6
Continuous
 62
     7
100
AcDbEllipse
 10
-4.216419490325505
 20
-52.15648502659911
 30
0.0
 11
-1.343481463956429
 21
1.343481463956429
 31
0.0
210
0.0
220
0.0
230
1.0
 40
0.9999999999999943
 41
2.443501336552774
 42
3.926973416736353
  0
ELLIPSE
  5
111C
330
1F
100
AcDbEntity
  8
0
  6
DASHED
 62
     2
 48
0.5
100
AcDbEllipse
 10
-170.8842167235393
 20
-68.60940535932157
 30
0.0
 11
1.343481463956503
 21
1.343481463956503
 31
0.0
210
0.0
220
0.0
230
1.0
 40
0.999999999999996
 41
2.443501336552726
 42
3.926973416736298
  0
ELLIPSE
  5
111D
330
1F
100
AcDbEntity
  8
0
  6
DASHED
 62
     2
 48
0.5
100
AcDbEllipse
 10
-164.5487284831689
 20
-68.60935554949207
 30
0.0
 11
1.343516684705742
 21
1.343516684705742
 31
0.0
210
0.0
220
0.0
230
1.0
 40
0.9999999999999984
 41
3.926979606407593
 42
5.410456276346375
  0
ELLIPSE
  5
111E
330
1F
100
AcDbEntity
  8
0
  6
DASHED
 62
     2
 48
0.5
100
AcDbEllipse
 10
-233.4677283239785
 20
-68.63851062580812
 30
0.0
 11
-1.343481463956451
 21
1.343481463956451
 31
0.0
210
0.0
220
0.0
230
1.0
 40
0.9999999999999801
 41
2.356211890443312
 42
3.839683970626891
  0
ELLIPSE
  5
111F
330
1F
100
AcDbEntity
  8
0
  6
DASHED
 62
     2
 48
0.5
100
AcDbEllipse
 10
-239.8032165643492
 20
-68.63846081597848
 30
0.0
 11
-1.34351668470581
 21
1.34351668470581
 31
0.0
210
0.0
220
0.0
230
1.0
 40
0.9999999999999964
 41
0.8727290308332618
 42
2.356205700772056
  0
ELLIPSE
  5
1120
330
1F
100
AcDbEntity
  8
0
  6
Continuous
 62
     7
100
AcDbEllipse
 10
-166.516449783489
 20
-154.762806639779
 30
0.0
 11
7.071067811865256
 21
7.071067811865256
 31
0.0
210
0.0
220
0.0
230
1.0
 40
0.9999999999999987
 41
5.623502936634544
 42
6.855619995657121
  0
ELLIPSE
  5
1122
330
1F
100
AcDbEntity
  8
0
  6
Continuous
 62
     7
100
AcDbEllipse
 10
-271.3761932994479
 20
9.945113982640414
 30
0.0
 11
-3.181980515339471
 21
3.181980515339471
 31
0.0
210
0.0
220
0.0
230
1.0
 40
0.9999999999999989
 41
3.926990816987227
 42
6.02138591938042
  0
ELLIPSE
  5
1123
330
1F
100
AcDbEntity
  8
0
  6
Continuous
 62
     7
100
AcDbEllipse
 10
-271.3761932994479
 20
9.945113982640414
 30
0.0
 11
3.181980515339393
 21
3.181980515339393
 31
0.0
210
0.0
220
0.0
230
1.0
 40
1.0
 41
1.308996938995728
 42
5.497787143782124
  0
ELLIPSE
  5
1127
330
1F
100
AcDbEntity
  8
0
  6
Continuous
 62
     7
100
AcDbEllipse
 10
-4.216469300155006
 20
-100.8209967862288
 30
0.0
 11
1.343516684705676
 21
1.343516684705676
 31
0.0
210
0.0
220
0.0
230
1.0
 40
1.0
 41
5.497775933202431
 42
6.981252603141222
  0
ELLIPSE
  5
1128
330
1F
100
AcDbEntity
  8
0
  6
Continuous
 62
     7
100
AcDbEllipse
 10
-4.216419490325515
 20
-107.1564850265996
 30
0.0
 11
1.343481463956438
 21
1.343481463956438
 31
0.0
210
0.0
220
0.0
230
1.0
 40
1.0
 41
4.014297663347673
 42
5.497769743531242
  0
ELLIPSE
  5
1129
330
1F
100
AcDbEntity
  8
0
  6
Continuous
 62
     7
100
AcDbEllipse
 10
-4.216469300155006
 20
-155.8209967862295
 30
0.0
 11
-1.343516684705695
 21
1.343516684705695
 31
0.0
210
0.0
220
0.0
230
1.0
 40
0.9999999999999841
 41
3.926979606407551
 42
5.410456276346316
  0
ELLIPSE
  5
112A
330
1F
100
AcDbEntity
  8
0
  6
Continuous
 62
     7
100
AcDbEllipse
 10
-4.216419490325525
 20
-162.1564850266001
 30
0.0
 11
-1.343481463956438
 21
1.343481463956438
 31
0.0
210
0.0
220
0.0
230
1.0
 40
0.9999999999999934
 41
2.443501336552779
 42
3.926973416736348
  0
ELLIPSE
  5
112F
330
1F
100
AcDbEntity
  8
0
  6
Continuous
 62
     7
100
AcDbEllipse
 10
158.2084706909023
 20
-62.09035015573755
 30
0.0
 11
-1.343502884254706
 21
1.343502884254706
 31
0.0
210
0.0
220
0.0
230
1.0
 40
0.9999999999998914
 41
0.7853981633975025
 42
1.062281742140117
  0
ELLIPSE
  5
1144
330
1F
100
AcDbEntity
  8
0
  6
Continuous
 62
     7
100
AcDbEllipse
 10
-202.2164497834892
 20
10.01128191345148
 30
0.0
 11
-40.65863991822921
 21
40.65863991822924
 31
0.0
210
0.0
220
0.0
230
0.9999999999999998
 40
0.9999999999999843
 41
-0.8767259072488171
 42
-0.7896424941048275
  0
ELLIPSE
  5
1146
330
1F
100
AcDbEntity
  8
0
  6
Continuous
 62
     7
100
AcDbEllipse
 10
-202.2164497834892
 20
10.01128191345148
 30
0.0
 11
-40.65863991822801
 21
40.65863991822801
 31
0.0
210
0.0
220
0.0
230
1.0
 40
0.9999999999999795
 41
-0.9645116996617922
 42
-0.8767259072488196
  0
ELLIPSE
  5
1148
330
1F
100
AcDbEntity
  8
0
  6
Continuous
 62
     7
100
AcDbEllipse
 10
-202.2164497834892
 20
10.01128191345148
 30
0.0
 11
-40.65863991822861
 21
40.65863991822861
 31
0.0
210
0.0
220
0.0
230
1.0
 40
0.9999999999999655
 41
-1.053720193280375
 42
-0.9645116996617987
  0
ELLIPSE
  5
1183
330
1F
100
AcDbEntity
  8
0
  6
DOTTED
 62
     2
 48
0.5
100
AcDbEllipse
 10
-253.7145855274161
 20
-126.5950853394582
 30
0.0
 11
1.34351668470562
 21
1.34351668470562
 31
0.0
210
0.0
220
0.0
230
1.0
 40
0.999999999999996
 41
0.8727290308330278
 42
2.356205700772129
  0
ELLIPSE
  5
1184
330
1F
100
AcDbEntity
  8
0
  6
DOTTED
 62
     2
 48
0.5
100
AcDbEllipse
 10
-253.7146353372455
 20
-132.9305735798297
 30
0.0
 11
-1.343481463956311
 21
1.343481463956311
 31
0.0
210
0.0
220
0.0
230
1.0
 40
0.9999999999999907
 41
0.7854155636484224
 42
2.268887643832167
  0
ELLIPSE
  5
1185
330
1F
100
AcDbEntity
  8
0
  6
Continuous
 62
     2
100
AcDbEllipse
 10
-186.9724015005447
 20
-15.96948020008191
 30
0.0
 11
1.767766952966378
 21
1.767766952966378
 31
0.0
210
0.0
220
0.0
230
1.0
 40
0.9999999999999925
 41
5.497787143782134
 42
11.78097245096172
  0
ELLIPSE
  5
1186
330
1F
100
AcDbEntity
  8
0
  6
Continuous
 62
     2
100
AcDbEllipse
 10
-186.9724015005447
 20
-15.96948020008191
 30
0.0
 11
-1.48492424049187
 21
1.48492424049187
 31
0.0
210
0.0
220
0.0
230
1.0
 40
0.9999999999999932
 41
3.926990816987244
 42
10.21017612416683
  0
ELLIPSE
  5
1187
330
1F
100
AcDbEntity
  8
0
  6
Continuous
 62
     2
100
AcDbEllipse
 10
-216.9724015005448
 20
-15.96948020008217
 30
0.0
 11
1.76776695296638
 21
1.76776695296638
 31
0.0
210
0.0
220
0.0
230
1.0
 40
0.9999999999999925
 41
5.497787143782134
 42
11.78097245096172
  0
ELLIPSE
  5
1188
330
1F
100
AcDbEntity
  8
0
  6
Continuous
 62
     2
100
AcDbEllipse
 10
-216.9724015005448
 20
-15.96948020008217
 30
0.0
 11
1.484924240491828
 21
1.484924240491828
 31
0.0
210
0.0
220
0.0
230
1.0
 40
0.9999999999999975
 41
5.497787143782136
 42
11.78097245096172
  0
ELLIPSE
  5
1189
330
1F
100
AcDbEntity
  8
0
  6
Continuous
 62
     2
100
AcDbEllipse
 10
-231.9724015005451
 20
10.01128191345082
 30
0.0
 11
1.767766952966374
 21
1.767766952966374
 31
0.0
210
0.0
220
0.0
230
1.0
 40
0.9999999999999927
 41
5.497787143782134
 42
11.78097245096172
  0
ELLIPSE
  5
118A
330
1F
100
AcDbEntity
  8
0
  6
Continuous
 62
     2
100
AcDbEllipse
 10
-231.9724015005451
 20
10.01128191345082
 30
0.0
 11
-1.484924240491912
 21
1.484924240491912
 31
0.0
210
0.0
220
0.0
230
1.0
 40
0.9999999999999985
 41
3.926990816987241
 42
10.21017612416683
  0
ELLIPSE
  5
118B
330
1F
100
AcDbEntity
  8
0
  6
Continuous
 62
     2
100
AcDbEllipse
 10
-216.9724015005453
 20
35.9920440269841
 30
0.0
 11
1.767766952966374
 21
1.767766952966374
 31
0.0
210
0.0
220
0.0
230
1.0
 40
0.9999999999999927
 41
5.497787143782134
 42
11.78097245096172
  0
ELLIPSE
  5
118C
330
1F
100
AcDbEntity
  8
0
  6
Continuous
 62
     2
100
AcDbEllipse
 10
-216.9724015005453
 20
35.9920440269841
 30
0.0
 11
1.48492424049183
 21
1.48492424049183
 31
0.0
210
0.0
220
0.0
230
1.0
 40
0.9999999999999968
 41
5.497787143782136
 42
11.78097245096172
  0
ELLIPSE
  5
118D
330
1F
100
AcDbEntity
  8
0
  6
Continuous
 62
     2
100
AcDbEllipse
 10
-186.9724015005454
 20
35.99204402698442
 30
0.0
 11
1.767766952966374
 21
1.767766952966374
 31
0.0
210
0.0
220
0.0
230
1.0
 40
0.9999999999999927
 41
5.497787143782134
 42
11.78097245096172
  0
ELLIPSE
  5
118E
330
1F
100
AcDbEntity
  8
0
  6
Continuous
 62
     2
100
AcDbEllipse
 10
-186.9724015005454
 20
35.99204402698442
 30
0.0
 11
1.484924240491853
 21
1.484924240491853
 31
0.0
210
0.0
220
0.0
230
1.0
 40
0.9999999999999991
 41
5.497787143782136
 42
11.78097245096172
  0
ELLIPSE
  5
1191
330
1F
100
AcDbEntity
  8
0
  6
Continuous
 62
     2
100
AcDbEllipse
 10
-171.9724015005452
 20
10.01128191345147
 30
0.0
 11
1.767766952966374
 21
1.767766952966374
 31
0.0
210
0.0
220
0.0
230
1.0
 40
0.9999999999999927
 41
5.497787143782134
 42
11.78097245096172
  0
ELLIPSE
  5
1192
330
1F
100
AcDbEntity
  8
0
  6
Continuous
 62
     2
100
AcDbEllipse
 10
-171.9724015005452
 20
10.01128191345147
 30
0.0
 11
1.484924240491841
 21
1.484924240491841
 31
0.0
210
0.0
220
0.0
230
1.0
 40
0.9999999999999811
 41
5.497787143782129
 42
11.78097245096171
  0
ELLIPSE
  5
1194
330
1F
100
AcDbEntity
  8
0
  6
Continuous
 62
     7
100
AcDbEllipse
 10
-202.3761932994478
 20
-59.05488601735967
 30
0.0
 11
3.181980515339477
 21
3.181980515339477
 31
0.0
210
0.0
220
0.0
230
1.0
 40
0.9999999999999978
 41
5.497787143782136
 42
11.78097245096172
  0
ELLIPSE
  5
1195
330
1F
100
AcDbEntity
  8
0
  6
Continuous
 62
     7
100
AcDbEllipse
 10
-133.3761932994477
 20
9.945113982640245
 30
0.0
 11
-3.181980515339466
 21
3.181980515339466
 31
0.0
210
0.0
220
0.0
230
1.0
 40
0.9999999999999992
 41
3.926990816987241
 42
10.21017612416683
  0
ELLIPSE
  5
1196
330
1F
100
AcDbEntity
  8
0
  6
Continuous
 62
     7
100
AcDbEllipse
 10
-202.3761932994478
 20
78.94511398264038
 30
0.0
 11
-3.181980515339501
 21
3.181980515339501
 31
0.0
210
0.0
220
0.0
230
1.0
 40
0.9999999999999948
 41
3.926990816987244
 42
10.21017612416683
  0
ELLIPSE
  5
11A0
330
1F
100
AcDbEntity
  8
0
  6
DOTTED
 62
     2
100
AcDbEllipse
 10
245.508470690902
 20
-99.98871808654847
 30
0.0
 11
1.484924240492042
 21
1.484924240492042
 31
0.0
210
0.0
220
0.0
230
1.0
 40
0.9999999999999838
 41
5.497787143782129
 42
11.78097245096171
  0
ELLIPSE
  5
11A1
330
1F
100
AcDbEntity
  8
0
  6
DOTTED
 62
     2
100
AcDbEllipse
 10
245.508470690902
 20
-99.98871808654847
 30
0.0
 11
-1.767766952966371
 21
1.767766952966371
 31
0.0
210
0.0
220
0.0
230
1.0
 40
0.9999999999999969
 41
3.926990816987243
 42
10.21017612416683
  0
ELLIPSE
  5
11AB
330
1F
100
AcDbEntity
  8
0
  6
Continuous
 62
     7
100
AcDbEllipse
 10
213.0084706909021
 20
-82.71706614134966
 30
0.0
 11
-0.3535533905932832
 21
0.3535533905932832
 31
0.0
210
0.0
220
0.0
230
1.0
 40
0.9999999999999925
 41
2.356194490192338
 42
3.926990816987244
  0
ELLIPSE
  5
11AC
330
1F
100
AcDbEntity
  8
0
  6
Continuous
 62
     7
100
AcDbEllipse
 10
213.0084706909021
 20
-81.41706614134971
 30
0.0
 11
0.3535533905932832
 21
0.3535533905932832
 31
0.0
210
0.0
220
0.0
230
1.0
 40
0.9999999999999925
 41
5.497787143782134
 42
7.068583470577037
  0
ELLIPSE
  5
11AD
330
1F
100
AcDbEntity
  8
0
  6
Continuous
 62
     7
100
AcDbEllipse
 10
213.0084706909021
 20
-80.62093202698264
 30
0.0
 11
-0.3535533905932885
 21
0.3535533905932886
 31
0.0
210
0.0
220
0.0
230
1.0
 40
0.9999999999999626
 41
3.92699081698726
 42
5.497787143782118
  0
ELLIPSE
  5
11AE
330
1F
100
AcDbEntity
  8
0
  6
Continuous
 62
     7
100
AcDbEllipse
 10
213.0084706909021
 20
-99.30789125012866
 30
0.0
 11
-0.3535533905932832
 21
0.3535533905932832
 31
0.0
210
0.0
220
0.0
230
1.0
 40
0.9999999999999925
 41
2.356194490192338
 42
3.926990816987244
  0
ELLIPSE
  5
11AF
330
1F
100
AcDbEntity
  8
0
  6
Continuous
 62
     7
100
AcDbEllipse
 10
213.0084706909021
 20
-98.96212737669472
 30
0.0
 11
-0.3535533905932774
 21
0.3535533905932774
 31
0.0
210
0.0
220
0.0
230
1.0
 40
0.9999999999999944
 41
3.926990816987244
 42
5.497787143782135
  0
ELLIPSE
  5
11B0
330
1F
100
AcDbEntity
  8
0
  6
Continuous
 62
     7
100
AcDbEllipse
 10
213.0084706909021
 20
-98.01855100230971
 30
0.0
 11
0.3535533905932832
 21
0.3535533905932832
 31
0.0
210
0.0
220
0.0
230
1.0
 40
0.9999999999999925
 41
5.497787143782134
 42
7.068583470577037
  0
ELLIPSE
  5
11B1
330
1F
100
AcDbEntity
  8
0
  6
Continuous
 62
     7
100
AcDbEllipse
 10
182.0084706909023
 20
-82.71706614134966
 30
0.0
 11
0.3535533905932832
 21
0.3535533905932832
 31
0.0
210
0.0
220
0.0
230
1.0
 40
0.9999999999999925
 41
2.356194490192338
 42
3.926990816987244
  0
ELLIPSE
  5
11B2
330
1F
100
AcDbEntity
  8
0
  6
Continuous
 62
     7
100
AcDbEllipse
 10
182.0084706909023
 20
-81.41706614134971
 30
0.0
 11
-0.3535533905932832
 21
0.3535533905932832
 31
0.0
210
0.0
220
0.0
230
1.0
 40
0.9999999999999925
 41
-0.785398163397452
 42
0.785398163397452
  0
ELLIPSE
  5
11B3
330
1F
100
AcDbEntity
  8
0
  6
Continuous
 62
     7
100
AcDbEllipse
 10
182.0084706909023
 20
-80.62093202698264
 30
0.0
 11
0.3535533905932886
 21
0.3535533905932886
 31
0.0
210
0.0
220
0.0
230
1.0
 40
0.9999999999999628
 41
0.7853981633974666
 42
2.356194490192326
  0
ELLIPSE
  5
11B4
330
1F
100
AcDbEntity
  8
0
  6
Continuous
 62
     7
100
AcDbEllipse
 10
182.0084706909023
 20
-99.30789125012866
 30
0.0
 11
0.3535533905932832
 21
0.3535533905932832
 31
0.0
210
0.0
220
0.0
230
1.0
 40
0.9999999999999925
 41
2.356194490192338
 42
3.926990816987244
  0
ELLIPSE
  5
11B5
330
1F
100
AcDbEntity
  8
0
  6
Continuous
 62
     7
100
AcDbEllipse
 10
182.0084706909023
 20
-98.96212737669472
 30
0.0
 11
0.3535533905932774
 21
0.3535533905932774
 31
0.0
210
0.0
220
0.0
230
1.0
 40
0.9999999999999944
 41
0.785398163397451
 42
2.35619449019234
  0
ELLIPSE
  5
11B6
330
1F
100
AcDbEntity
  8
0
  6
Continuous
 62
     7
100
AcDbEllipse
 10
182.0084706909023
 20
-98.01855100230971
 30
0.0
 11
-0.3535533905932832
 21
0.3535533905932832
 31
0.0
210
0.0
220
0.0
230
1.0
 40
0.9999999999999925
 41
-0.785398163397452
 42
0.785398163397452
  0
ELLIPSE
  5
11B7
330
1F
100
AcDbEntity
  8
0
  6
Continuous
 62
     7
100
AcDbEllipse
 10
-15.21644978348902
 20
-40.98871808654904
 30
0.0
 11
1.414213562373099
 21
1.414213562373099
 31
0.0
210
0.0
220
0.0
230
1.0
 40
0.999999999999996
 41
0.7853981633974503
 42
2.35619449019234
  0
ELLIPSE
  5
11B8
330
1F
100
AcDbEntity
  8
0
  6
Continuous
 62
     7
100
AcDbEllipse
 10
-20.21644978348903
 20
-59.98871808654906
 30
0.0
 11
-2.121320343559644
 21
2.121320343559644
 31
0.0
210
0.0
220
0.0
230
1.0
 40
0.9999999999999992
 41
2.356194490192344
 42
3.926990816987241
  0
ELLIPSE
  5
11B9
330
1F
100
AcDbEntity
  8
0
  6
Continuous
 62
     7
100
AcDbEllipse
 10
-15.21644978348902
 20
-166.9887180865492
 30
0.0
 11
-1.414213562373102
 21
1.414213562373102
 31
0.0
210
0.0
220
0.0
230
1.0
 40
0.9999999999999975
 41
0.7853981633974497
 42
2.356194490192343
  0
ELLIPSE
  5
11BA
330
1F
100
AcDbEntity
  8
0
  6
Continuous
 62
     7
100
AcDbEllipse
 10
-20.21644978348903
 20
-147.9887180865492
 30
0.0
 11
-2.12132034355966
 21
2.12132034355966
 31
0.0
210
0.0
220
0.0
230
1.0
 40
0.9999999999999896
 41
3.926990816987246
 42
5.49778714378213
  0
ELLIPSE
  5
11BB
330
1F
100
AcDbEntity
  8
0
  6
Continuous
 62
     7
100
AcDbEllipse
 10
-131.7761932994477
 20
8.345113982640214
 30
0.0
 11
-0.7071067811865796
 21
0.7071067811865796
 31
0.0
210
0.0
220
0.0
230
1.0
 40
0.9999999999999795
 41
-0.7853981633974584
 42
0.785398163397399
  0
ELLIPSE
  5
11BC
330
1F
100
AcDbEntity
  8
0
  6
Continuous
 62
     7
100
AcDbEllipse
 10
-134.9761932994477
 20
8.345113982640272
 30
0.0
 11
-0.7071067811865575
 21
0.7071067811865575
 31
0.0
210
0.0
220
0.0
230
1.0
 40
0.9999999999999806
 41
3.926990816987221
 42
5.497787143782128
  0
ELLIPSE
  5
11BD
330
1F
100
AcDbEntity
  8
0
  6
Continuous
 62
     7
100
AcDbEllipse
 10
-134.9761932994478
 20
11.54511398264023
 30
0.0
 11
0.7071067811865295
 21
0.7071067811865295
 31
0.0
210
0.0
220
0.0
230
1.0
 40
0.9999999999999968
 41
3.926990816987352
 42
5.497787143782177
  0
ELLIPSE
  5
11BE
330
1F
100
AcDbEntity
  8
0
  6
Continuous
 62
     7
100
AcDbEllipse
 10
-200.7761932994479
 20
-57.45488601735974
 30
0.0
 11
-0.7071067811865426
 21
0.7071067811865426
 31
0.0
210
0.0
220
0.0
230
1.0
 40
0.9999999999999891
 41
0.7853981633974377
 42
2.356194490192337
  0
ELLIPSE
  5
11BF
330
1F
100
AcDbEntity
  8
0
  6
Continuous
 62
     7
100
AcDbEllipse
 10
-272.9761932994478
 20
11.54511398264042
 30
0.0
 11
0.7071067811866238
 21
0.7071067811866238
 31
0.0
210
0.0
220
0.0
230
1.0
 40
0.9999999999999893
 41
3.926990816987025
 42
5.497787143782049
  0
ELLIPSE
  5
11C0
330
1F
100
AcDbEntity
  8
0
  6
Continuous
 62
     7
100
AcDbEllipse
 10
-269.7761932994479
 20
11.54511398264034
 30
0.0
 11
-0.7071067811865564
 21
0.7071067811865564
 31
0.0
210
0.0
220
0.0
230
1.0
 40
0.9999999999999838
 41
0.7853981633973853
 42
2.356194490192335
  0
ELLIPSE
  5
11C1
330
1F
100
AcDbEntity
  8
0
  6
Continuous
 62
     7
100
AcDbEllipse
 10
-131.7761932994477
 20
11.54511398264027
 30
0.0
 11
0.707106781186617
 21
0.707106781186617
 31
0.0
210
0.0
220
0.0
230
1.0
 40
0.9999999999999761
 41
2.35619449019236
 42
3.926990816987157
  0
ELLIPSE
  5
11C2
330
1F
100
AcDbEntity
  8
0
  6
Continuous
 62
     7
100
AcDbEllipse
 10
-272.976193299448
 20
8.345113982640334
 30
0.0
 11
0.7071067811867219
 21
0.7071067811867219
 31
0.0
210
0.0
220
0.0
230
1.0
 40
0.9999999999999642
 41
5.497787143782199
 42
7.0685834705768
  0
ELLIPSE
  5
11C3
330
1F
100
AcDbEntity
  8
0
  6
DASHED
 62
     2
100
AcDbEllipse
 10
-137.954962561443
 20
-34.7505926331892
 30
0.0
 11
-2.828427124746218
 21
2.828427124746218
 31
0.0
210
0.0
220
0.0
230
1.0
 40
0.9999999999999939
 41
0.1786306599401057
 42
1.155646432437725
  0
ELLIPSE
  5
11C4
330
1F
100
AcDbEntity
  8
0
  6
Continuous
 62
     7
100
AcDbEllipse
 10
-203.9761932994479
 20
-60.65488601735975
 30
0.0
 11
-0.7071067811865444
 21
0.7071067811865444
 31
0.0
210
0.0
220
0.0
230
1.0
 40
0.9999999999999927
 41
3.9269908169873
 42
5.497787143782134
  0
ELLIPSE
  5
11C5
330
1F
100
AcDbEntity
  8
0
  6
Continuous
 62
     7
100
AcDbEllipse
 10
-203.9761932994479
 20
-57.4548860173597
 30
0.0
 11
0.707106781186589
 21
0.7071067811865888
 31
0.0
210
0.0
220
0.0
230
1.0
 40
0.9999999999999682
 41
3.926990816987256
 42
5.497787143782081
  0
ELLIPSE
  5
11C6
330
1F
100
AcDbEntity
  8
0
  6
Continuous
 62
     7
100
AcDbEllipse
 10
-200.7761932994479
 20
-60.65488601735968
 30
0.0
 11
0.7071067811865224
 21
0.7071067811865224
 31
0.0
210
0.0
220
0.0
230
1.0
 40
0.9999999999999678
 41
0.7853981633974643
 42
2.356194490192383
  0
ELLIPSE
  5
11C7
330
1F
100
AcDbEntity
  8
0
  6
DASHED
 62
     2
 48
0.5
100
AcDbEllipse
 10
-246.9783243301299
 20
-54.25020530859466
 30
0.0
 11
2.828427124746209
 21
2.828427124746209
 31
0.0
210
0.0
220
0.0
230
1.0
 40
1.0
 41
0.1786306599400923
 42
1.15564643243771
  0
ELLIPSE
  5
11C8
330
1F
100
AcDbEntity
  8
0
  6
Continuous
 62
     7
100
AcDbEllipse
 10
-269.7761932994479
 20
8.345113982640411
 30
0.0
 11
-0.7071067811865203
 21
0.7071067811865203
 31
0.0
210
0.0
220
0.0
230
1.0
 40
0.9999999999999735
 41
-0.7853981633974616
 42
0.7853981633975722
  0
ELLIPSE
  5
11C9
330
1F
100
AcDbEntity
  8
0
  6
Continuous
 62
     7
100
AcDbEllipse
 10
-200.7761932994478
 20
80.5451139826404
 30
0.0
 11
-0.7071067811865513
 21
0.7071067811865514
 31
0.0
210
0.0
220
0.0
230
1.0
 40
0.9999999999999879
 41
0.7853981633974856
 42
2.356194490192336
  0
ELLIPSE
  5
11CA
330
1F
100
AcDbEntity
  8
0
  6
Continuous
 62
     7
100
AcDbEllipse
 10
-200.7761932994478
 20
77.34511398264036
 30
0.0
 11
0.7071067811865336
 21
0.7071067811865336
 31
0.0
210
0.0
220
0.0
230
1.0
 40
0.9999999999999907
 41
0.7853981633974528
 42
2.356194490192371
  0
ELLIPSE
  5
11CB
330
1F
100
AcDbEntity
  8
0
  6
Continuous
 62
     7
100
AcDbEllipse
 10
-203.9761932994478
 20
77.34511398264032
 30
0.0
 11
0.707106781186622
 21
0.7071067811866218
 31
0.0
210
0.0
220
0.0
230
1.0
 40
0.9999999999999779
 41
5.497787143782156
 42
7.068583470576951
  0
ELLIPSE
  5
11CC
330
1F
100
AcDbEntity
  8
0
  6
Continuous
 62
     7
100
AcDbEllipse
 10
-203.9761932994475
 20
80.54511398264038
 30
0.0
 11
0.7071067811865757
 21
0.7071067811865757
 31
0.0
210
0.0
220
0.0
230
1.0
 40
0.9999999999999984
 41
3.926990816987148
 42
5.497787143782105
  0
ELLIPSE
  5
11F4
330
1F
100
AcDbEntity
  8
0
  6
Continuous
 62
     7
100
AcDbEllipse
 10
163.7084706909023
 20
83.01128191345155
 30
0.0
 11
-1.414213562373076
 21
1.414213562373078
 31
0.0
210
0.0
220
0.0
230
1.0
 40
0.9999999999999918
 41
-0.7853981633974524
 42
0.7853981633974523
  0
ELLIPSE
  5
11F8
330
1F
100
AcDbEntity
  8
0
  6
Continuous
 62
     7
100
AcDbEllipse
 10
166.7084706909023
 20
88.01128191345155
 30
0.0
 11
-2.121320343559641
 21
2.121320343559644
 31
0.0
210
0.0
220
0.0
230
0.9999999999999998
 40
0.9999999999999966
 41
2.356194490192343
 42
3.926990816987243
  0
ELLIPSE
  5
11F9
330
1F
100
AcDbEntity
  8
0
  6
Continuous
 62
     7
100
AcDbEllipse
 10
212.5084706909023
 20
150.0112819134516
 30
0.0
 11
-10.60660171779824
 21
10.60660171779824
 31
0.0
210
0.0
220
0.0
230
1.0
 40
0.9999999999999978
 41
3.926990816987241
 42
5.497787143782136
  0
ELLIPSE
  5
11FF
330
1F
100
AcDbEntity
  8
0
  6
DASHED
 62
     2
 48
0.5
100
AcDbEllipse
 10
-137.8698455617341
 20
54.74940637460283
 30
0.0
 11
-2.828427124746223
 21
2.828427124746223
 31
0.0
210
0.0
220
0.0
230
1.0
 40
0.9999999999999975
 41
0.3837812018024216
 42
1.395303987341922
  0
ELLIPSE
  5
1200
330
1F
100
AcDbEntity
  8
0
  6
DASHED
 62
     2
 48
0.5
100
AcDbEllipse
 10
-157.4545752368485
 20
74.27276913549772
 30
0.0
 11
-2.828427124746214
 21
2.828427124746214
 31
0.0
210
0.0
220
0.0
230
1.0
 40
0.9999999999999948
 41
1.74942698673501
 42
2.726442759232633
  0
ELLIPSE
  5
1201
330
1F
100
AcDbEntity
  8
0
  6
DASHED
 62
     2
 48
0.5
100
AcDbEllipse
 10
-246.9545742446406
 20
74.35788613520654
 30
0.0
 11
2.828427124746161
 21
2.828427124746161
 31
0.0
210
0.0
220
0.0
230
1.0
 40
0.9999999999999987
 41
3.525373855392189
 42
4.536896640931733
  0
ELLIPSE
  5
1202
330
1F
100
AcDbEntity
  8
0
  6
DASHED
 62
     2
 48
0.5
100
AcDbEllipse
 10
-266.4779370055354
 20
54.7731564600922
 30
0.0
 11
-2.828427124746145
 21
2.828427124746145
 31
0.0
210
0.0
220
0.0
230
1.0
 40
0.9999999999999912
 41
3.320223313529877
 42
4.297239086027531
  0
ELLIPSE
  5
1203
330
1F
100
AcDbEntity
  8
0
  6
DASHED
 62
     2
 48
0.5
100
AcDbEllipse
 10
-266.5630540052443
 20
-34.72684254769985
 30
0.0
 11
-2.82842712474623
 21
2.82842712474623
 31
0.0
210
0.0
220
0.0
230
1.0
 40
0.9999999999999992
 41
3.525373855392214
 42
4.536896640931733
  0
ELLIPSE
  5
1204
330
1F
100
AcDbEntity
  8
0
  6
DASHED
 62
     2
 48
0.5
100
AcDbEllipse
 10
-157.4783253223378
 20
-54.33532230830355
 30
0.0
 11
-2.828427124746168
 21
2.828427124746168
 31
0.0
210
0.0
220
0.0
230
1.0
 40
0.9999999999999992
 41
-1.187015124992464
 42
-0.1754923394529582
  0
ELLIPSE
  5
1205
330
1F
100
AcDbEntity
  8
0
  6
DASHED
 62
     2
100
AcDbEllipse
 10
-274.5131593495016
 20
-10.68233512001209
 30
0.0
 11
0.5656854249492837
 21
0.5656854249492837
 31
0.0
210
0.0
220
0.0
230
1.0
 40
0.9999999999999785
 41
1.18682389135629
 42
2.634972536792
  0
ELLIPSE
  5
1206
330
1F
100
AcDbEntity
  8
0
  6
DASHED
 62
     2
100
AcDbEllipse
 10
-267.3237065852991
 20
-27.61962442353699
 30
0.0
 11
0.5656854249492403
 21
0.5656854249492403
 31
0.0
210
0.0
220
0.0
230
1.0
 40
0.9999999999999751
 41
2.880267899510068
 42
4.328416544945898
  0
ELLIPSE
  5
1207
330
1F
100
AcDbEntity
  8
0
  6
DASHED
 62
     2
 48
0.5
100
AcDbEllipse
 10
273.5084706909021
 20
-105.8948159041383
 30
0.0
 11
-14.14213562373099
 21
14.14213562373099
 31
0.0
210
0.0
220
0.0
230
1.0
 40
0.9999999999999987
 41
0.785398163397449
 42
2.158604619641093
  0
ELLIPSE
  5
1208
330
1F
100
AcDbEntity
  8
0
  6
DASHED
 62
     2
 48
0.5
100
AcDbEllipse
 10
273.5084706909021
 20
-105.8948159041383
 30
0.0
 11
-7.071067811865493
 21
7.071067811865493
 31
0.0
210
0.0
220
0.0
230
1.0
 40
0.9999999999999984
 41
0.785398163397449
 42
2.158604619641077
  0
ELLIPSE
  5
1209
330
1F
100
AcDbEntity
  8
0
  6
DASHED
 62
     2
 48
0.5
100
AcDbEllipse
 10
243.508470690902
 20
-86.45773172410933
 30
0.0
 11
-7.071067811865567
 21
7.071067811865568
 31
0.0
210
0.0
220
0.0
230
1.0
 40
0.9999999999999923
 41
3.926990816987244
 42
4.412618951456848
  0
ELLIPSE
  5
120A
330
1F
100
AcDbEntity
  8
0
  6
DASHED
 62
     2
 48
0.5
100
AcDbEllipse
 10
243.508470690902
 20
-87.88515512039532
 30
0.0
 11
-14.14213562373114
 21
14.14213562373114
 31
0.0
210
0.0
220
0.0
230
1.0
 40
0.9999999999999923
 41
3.926990816987244
 42
4.381155225543796
  0
ELLIPSE
  5
120B
330
1F
100
AcDbEntity
  8
0
  6
DASHED
 62
     2
100
AcDbEllipse
 10
259.508470690902
 20
-52.27644575436818
 30
0.0
 11
7.071067811865508
 21
7.071067811865508
 31
0.0
210
0.0
220
0.0
230
1.0
 40
0.9999999999999948
 41
2.35619449019234
 42
2.810358898748885
  0
ELLIPSE
  5
120C
330
1F
100
AcDbEntity
  8
0
  6
DASHED
 62
     2
 48
0.5
100
AcDbEllipse
 10
259.508470690902
 20
-52.50076342277623
 30
0.0
 11
-14.14213562373097
 21
14.14213562373097
 31
0.0
210
0.0
220
0.0
230
1.0
 40
0.9999999999999932
 41
0.7853981633974514
 42
1.271026297867124
  0
ELLIPSE
  5
120D
330
1F
100
AcDbEntity
  8
0
  6
Continuous
 62
     7
100
AcDbEllipse
 10
-252.2164497834892
 20
-155.4628066397788
 30
0.0
 11
-1.414213562373101
 21
1.414213562373101
 31
0.0
210
0.0
220
0.0
230
1.0
 40
0.9999999999999735
 41
2.356194490192331
 42
3.926990816987252
  0
ELLIPSE
  5
120E
330
1F
100
AcDbEntity
  8
0
  6
Continuous
 62
     7
100
AcDbEllipse
 10
-251.9164497834891
 20
-155.762806639779
 30
0.0
 11
2.828427124746188
 21
2.828427124746187
 31
0.0
210
0.0
220
0.0
230
1.0
 40
0.9999999999999992
 41
3.926990816987241
 42
5.497787143782136
  0
ELLIPSE
  5
120F
330
1F
100
AcDbEntity
  8
0
  6
Continuous
 62
     7
100
AcDbEllipse
 10
-237.916449783489
 20
-154.762806639779
 30
0.0
 11
7.071067811865487
 21
7.071067811865487
 31
0.0
210
0.0
220
0.0
230
1.0
 40
0.9999999999999984
 41
0.7853981633974491
 42
2.356194490192343
  0
ELLIPSE
  5
1210
330
1F
100
AcDbEntity
  8
0
  6
Continuous
 62
     7
100
AcDbEllipse
 10
-152.2164497834891
 20
-155.4628066397788
 30
0.0
 11
1.414213562373115
 21
1.414213562373115
 31
0.0
210
0.0
220
0.0
230
1.0
 40
0.9999999999999671
 41
2.356194490192326
 42
3.926990816987256
  0
ELLIPSE
  5
1211
330
1F
100
AcDbEntity
  8
0
  6
Continuous
 62
     7
100
AcDbEllipse
 10
-152.516449783489
 20
-155.762806639779
 30
0.0
 11
-2.828427124746189
 21
2.828427124746189
 31
0.0
210
0.0
220
0.0
230
1.0
 40
0.9999999999999987
 41
0.785398163397449
 42
2.356194490192343
  0
ELLIPSE
  5
1212
330
1F
100
AcDbEntity
  8
0
  6
Continuous
 62
     7
100
AcDbEllipse
 10
-166.516449783489
 20
-154.762806639779
 30
0.0
 11
-7.071067811866987
 21
7.071067811866988
 31
0.0
210
0.0
220
0.0
230
1.0
 40
0.9999999999999479
 41
3.926990816987267
 42
4.05270660983967
  0
ELLIPSE
  5
1213
330
1F
100
AcDbEntity
  8
0
  6
DASHED
 62
     2
 48
0.5
100
AcDbEllipse
 10
-269.2164497834892
 20
-105.6022934202799
 30
0.0
 11
5.656854249492443
 21
5.656854249492443
 31
0.0
210
0.0
220
0.0
230
1.0
 40
0.9999999999999978
 41
4.548573611188332
 42
5.497787143782136
  0
ELLIPSE
  5
1214
330
1F
100
AcDbEntity
  8
0
  6
DASHED
 62
     2
 48
0.5
100
AcDbEllipse
 10
-268.1331653889782
 20
-31.86547728782886
 30
0.0
 11
12.72792206135802
 21
12.72792206135802
 31
0.0
210
0.0
220
0.0
230
1.0
 40
0.9999999999999962
 41
1.186823891356146
 42
2.375205626662124
  0
ELLIPSE
  5
1215
330
1F
100
AcDbEntity
  8
0
  6
DASHED
 62
     2
100
AcDbEllipse
 10
-274.5131593495012
 20
-10.45642367324269
 30
0.0
 11
-0.5656854249494666
 21
0.5656854249494666
 31
0.0
210
0.0
220
0.0
230
1.0
 40
0.9999999999999348
 41
-0.3839724354380953
 42
1.06417620999692
  0
ELLIPSE
  5
1216
330
1F
100
AcDbEntity
  8
0
  6
DASHED
 62
     2
 48
0.5
100
AcDbEllipse
 10
-265.8866767063742
 20
-44.81039262718773
 30
0.0
 11
7.071067811865627
 21
7.071067811865627
 31
0.0
210
0.0
220
0.0
230
1.0
 40
0.9999999999999978
 41
2.375205626662133
 42
2.955993079548066
  0
ELLIPSE
  5
1217
330
1F
100
AcDbEntity
  8
0
  6
DASHED
 62
     2
 48
0.5
100
AcDbEllipse
 10
-268.1331653889782
 20
-31.86547728782886
 30
0.0
 11
-5.656854249492733
 21
5.656854249492733
 31
0.0
210
0.0
220
0.0
230
1.0
 40
0.9999999999999893
 41
-0.3839724354388072
 42
0.8044092998672219
  0
ELLIPSE
  5
1218
330
1F
100
AcDbEntity
  8
0
  6
DASHED
 62
     2
 48
0.5
100
AcDbEllipse
 10
-265.8851190790861
 20
-44.89231511677679
 30
0.0
 11
14.1421356237313
 21
14.1421356237313
 31
0.0
210
0.0
220
0.0
230
1.0
 40
1.0
 41
2.375205626662125
 42
2.948462681219596
  0
ELLIPSE
  5
1219
330
1F
100
AcDbEntity
  8
0
  6
DASHED
 62
     2
 48
0.5
100
AcDbEllipse
 10
-269.2164497834892
 20
-90.09845842323484
 30
0.0
 11
5.656854249492336
 21
5.656854249492336
 31
0.0
210
0.0
220
0.0
230
1.0
 40
0.9999999999999786
 41
5.497787143782127
 42
6.09005533480941
  0
ELLIPSE
  5
121A
330
1F
100
AcDbEntity
  8
0
  6
DASHED
 62
     2
 48
0.5
100
AcDbEllipse
 10
-269.2164497834892
 20
-89.54467850115696
 30
0.0
 11
-12.72792206135797
 21
12.72792206135797
 31
0.0
210
0.0
220
0.0
230
1.0
 40
0.9999999999999957
 41
3.926990816987244
 42
4.526789406342905
  0
ELLIPSE
  5
121B
330
1F
100
AcDbEntity
  8
0
  6
DASHED
 62
     2
 48
0.5
100
AcDbEllipse
 10
-269.2164497834892
 20
-105.6022934202799
 30
0.0
 11
-12.72792206135816
 21
12.72792206135816
 31
0.0
210
0.0
220
0.0
230
1.0
 40
0.9999999999999962
 41
2.977777284393452
 42
3.926990816987243
  0
ELLIPSE
  5
1238
330
1F
100
AcDbEntity
  8
0
  6
DASHED
 62
     2
 48
0.5
100
AcDbEllipse
 10
-158.5164497834892
 20
-67.07113971822163
 30
0.0
 11
1.414213562373091
 21
1.414213562373091
 31
0.0
210
0.0
220
0.0
230
1.0
 40
0.9999999999999975
 41
5.497787143782136
 42
7.07274134182916
  0
ELLIPSE
  5
1239
330
1F
100
AcDbEntity
  8
0
  6
DASHED
 62
     2
 48
0.5
100
AcDbEllipse
 10
-158.2164497834891
 20
-66.76280663977866
 30
0.0
 11
-2.828427124746195
 21
2.828427124746195
 31
0.0
210
0.0
220
0.0
230
1.0
 40
0.9999999999999932
 41
3.926990816987244
 42
5.497787143782134
  0
ELLIPSE
  5
123A
330
1F
100
AcDbEntity
  8
0
  6
DASHED
 62
     2
 48
0.5
100
AcDbEllipse
 10
-246.2164497834892
 20
-66.76280663977866
 30
0.0
 11
2.828427124746198
 21
2.828427124746196
 31
0.0
210
0.0
220
0.0
230
1.0
 40
0.9999999999999936
 41
0.7853981633974514
 42
2.356194490192339
  0
ELLIPSE
  5
123B
330
1F
100
AcDbEntity
  8
0
  6
DASHED
 62
     2
 48
0.5
100
AcDbEllipse
 10
-245.916449783489
 20
-67.07113971822163
 30
0.0
 11
-1.414213562372715
 21
1.414213562372715
 31
0.0
210
0.0
220
0.0
230
1.0
 40
0.999999999999979
 41
-0.7895560346494897
 42
0.7853981633974585
  0
ARC
  5
19B7
330
1F
100
AcDbEntity
  8
0
  6
Continuous
 62
     7
100
AcDbCircle
 10
-120.716449783489
 20
151.173422730315
 30
0.0
 40
6.999999999999972
100
AcDbArc
 50
355.0000000000009
 51
124.9999999999996
  0
ARC
  5
19B8
330
1F
100
AcDbEntity
  8
0
  6
Continuous
 62
     7
100
AcDbCircle
 10
-109.3036778663901
 20
143.9374437142033
 30
0.0
 40
5.0
100
AcDbArc
 50
175.0000000000006
 51
235.2485883838343
  0
ARC
  5
19B9
330
1F
100
AcDbEntity
  8
0
  6
Continuous
 62
     7
100
AcDbCircle
 10
-202.2164497834896
 20
10.01128191345128
 30
0.0
 40
158.0000000000005
100
AcDbArc
 50
4.751411616165102
 51
55.24858838383492
  0
ARC
  5
19BA
330
1F
100
AcDbEntity
  8
0
  6
Continuous
 62
     7
100
AcDbCircle
 10
-132.6893773912424
 20
157.4391836300645
 30
0.0
 40
5.0
100
AcDbArc
 50
244.7514116161644
 51
305.0000000000004
  0
ARC
  5
19BB
330
1F
100
AcDbEntity
  8
0
  6
DASH_CENTER
 62
     2
100
AcDbCircle
 10
-202.2164497834892
 20
10.01128191345148
 30
0.0
 40
163.0000000000001
100
AcDbArc
 50
355.0
 51
5.0
  0
LINE
  5
19C4
330
1F
100
AcDbEntity
  8
0
  6
Continuous
 62
     7
100
AcDbLine
 10
-36.25812195130418
 20
3.66712740419453
 30
0.0
 11
-41.88969678284691
 21
1.041080932773184
 31
0.0
  0
LINE
  5
19C5
330
1F
100
AcDbEntity
  8
0
  6
Continuous
 62
     7
100
AcDbLine
 10
-41.88969678284698
 20
18.98148289412901
 30
0.0
 11
-36.25812195130409
 21
16.35543642270755
 31
0.0
  0
LINE
  5
19C6
330
1F
100
AcDbEntity
  8
0
  6
Continuous
 62
     7
100
AcDbLine
 10
-38.61644978348908
 20
7.511281913451057
 30
0.0
 11
-39.21644978348908
 21
7.511281913451057
 31
0.0
  0
LINE
  5
19C7
330
1F
100
AcDbEntity
  8
0
  6
Continuous
 62
     7
100
AcDbLine
 10
-41.71644978348903
 20
9.411281913450977
 30
0.0
 11
-41.71644978348895
 21
10.01128191345103
 31
0.0
  0
LINE
  5
19C8
330
1F
100
AcDbEntity
  8
0
  6
Continuous
 62
     7
100
AcDbLine
 10
-39.8164497834891
 20
12.51128191345108
 30
0.0
 11
-38.61644978348908
 21
12.51128191345108
 31
0.0
  0
LINE
  5
19C9
330
1F
100
AcDbEntity
  8
0
  6
Continuous
 62
     7
100
AcDbLine
 10
-38.61644978348897
 20
8.411281913451087
 30
0.0
 11
-38.61644978348908
 21
7.511281913451057
 31
0.0
  0
LINE
  5
19CA
330
1F
100
AcDbEntity
  8
0
  6
Continuous
 62
     7
100
AcDbLine
 10
-40.81644978348903
 20
9.411281913451034
 30
0.0
 11
-41.71644978348903
 21
9.411281913450977
 31
0.0
  0
LINE
  5
19CB
330
1F
100
AcDbEntity
  8
0
  6
Continuous
 62
     7
100
AcDbLine
 10
-39.81644978348889
 20
11.61128191345137
 30
0.0
 11
-39.8164497834891
 21
12.51128191345108
 31
0.0
  0
LINE
  5
19CC
330
1F
100
AcDbEntity
  8
0
  6
Continuous
 62
     7
100
AcDbLine
 10
-36.71644978348893
 20
9.411281913451063
 30
0.0
 11
-37.61644978348907
 21
9.411281913450977
 31
0.0
  0
LINE
  5
19CD
330
1F
100
AcDbEntity
  8
0
  6
Continuous
 62
     7
100
AcDbLine
 10
-39.81644978348909
 20
7.511281913451057
 30
0.0
 11
-39.81644978348898
 21
8.411281913450908
 31
0.0
  0
LINE
  5
19CE
330
1F
100
AcDbEntity
  8
0
  6
Continuous
 62
     7
100
AcDbLine
 10
-41.71644978348912
 20
10.61128191345108
 30
0.0
 11
-40.81644978348882
 21
10.61128191345114
 31
0.0
  0
LINE
  5
19CF
330
1F
100
AcDbEntity
  8
0
  6
Continuous
 62
     7
100
AcDbLine
 10
-36.71644978348904
 20
10.011281913451
 30
0.0
 11
-36.71644978348893
 21
9.411281913451063
 31
0.0
  0
LINE
  5
19D0
330
1F
100
AcDbEntity
  8
0
  6
Continuous
 62
     7
100
AcDbLine
 10
-39.21644978348908
 20
7.511281913451057
 30
0.0
 11
-39.81644978348909
 21
7.511281913451057
 31
0.0
  0
LINE
  5
19D1
330
1F
100
AcDbEntity
  8
0
  6
Continuous
 62
     7
100
AcDbLine
 10
-41.71644978348895
 20
10.01128191345103
 30
0.0
 11
-41.71644978348912
 21
10.61128191345108
 31
0.0
  0
LINE
  5
19D2
330
1F
100
AcDbEntity
  8
0
  6
DASH_CENTER
 62
     2
100
AcDbLine
 10
-36.71644978348904
 20
10.011281913451
 30
0.0
 11
-43.71644978348911
 21
10.01128191345105
 31
0.0
  0
LINE
  5
19D3
330
1F
100
AcDbEntity
  8
0
  6
DASH_CENTER
 62
     2
100
AcDbLine
 10
-36.71644978348904
 20
10.011281913451
 30
0.0
 11
-45.51644978348924
 21
10.011281913451
 31
0.0
  0
LINE
  5
19D4
330
1F
100
AcDbEntity
  8
0
  6
Continuous
 62
     7
100
AcDbLine
 10
-36.71644978348901
 20
10.61128191345114
 30
0.0
 11
-36.71644978348904
 21
10.011281913451
 31
0.0
  0
LINE
  5
19D5
330
1F
100
AcDbEntity
  8
0
  6
Continuous
 62
     7
100
AcDbLine
 10
-37.61644978348904
 20
10.61128191345108
 30
0.0
 11
-36.71644978348901
 21
10.61128191345114
 31
0.0
  0
LINE
  5
19D6
330
1F
100
AcDbEntity
  8
0
  6
Continuous
 62
     7
100
AcDbLine
 10
-38.61644978348908
 20
12.51128191345108
 30
0.0
 11
-38.6164497834891
 21
11.61128191345111
 31
0.0
  0
LINE
  5
19D7
330
1F
100
AcDbEntity
  8
0
  6
DASH_CENTER
 62
     2
100
AcDbLine
 10
-32.91644978348906
 20
10.01128191345108
 30
0.0
 11
-36.71644978348904
 21
10.011281913451
 31
0.0
  0
LINE
  5
19D8
330
1F
100
AcDbEntity
  8
0
  6
DASH_CENTER
 62
     2
100
AcDbLine
 10
-43.71644978348911
 20
10.01128191345105
 30
0.0
 11
-45.51644978348924
 21
10.011281913451
 31
0.0
  0
ARC
  5
19DE
330
1F
100
AcDbEntity
  8
0
  6
Continuous
 62
     7
100
AcDbCircle
 10
-39.21644978348904
 20
10.011281913451
 30
0.0
 40
6.999999999999972
100
AcDbArc
 50
295.0000000000008
 51
64.99999999999923
  0
ARC
  5
19DF
330
1F
100
AcDbEntity
  8
0
  6
Continuous
 62
     7
100
AcDbCircle
 10
-39.77660547414345
 20
-3.49045800241015
 30
0.0
 40
5.0
100
AcDbArc
 50
115.0000000000008
 51
175.2485883838345
  0
ARC
  5
19E0
330
1F
100
AcDbEntity
  8
0
  6
Continuous
 62
     7
100
AcDbCircle
 10
-202.2164497834896
 20
10.01128191345128
 30
0.0
 40
158.0000000000005
100
AcDbArc
 50
304.7514116161646
 51
355.2485883838346
  0
ARC
  5
19E1
330
1F
100
AcDbEntity
  8
0
  6
Continuous
 62
     7
100
AcDbCircle
 10
-39.77660547414344
 20
23.51302182931227
 30
0.0
 40
5.0
100
AcDbArc
 50
184.7514116161638
 51
245.0000000000006
  0
LINE
  5
19E3
330
1F
100
AcDbEntity
  8
0
  6
Continuous
 62
     7
100
AcDbLine
 10
-124.7314848379468
 20
-136.8849232134356
 30
0.0
 11
-129.8214952094875
 21
-133.3208595817172
 31
0.0
  0
LINE
  5
19E4
330
1F
100
AcDbEntity
  8
0
  6
Continuous
 62
     7
100
AcDbLine
 10
-114.2846513568492
 20
-124.3506586010392
 30
0.0
 11
-113.7430868968472
 21
-130.5407687041792
 31
0.0
  0
ARC
  5
19FD
330
1F
100
AcDbEntity
  8
0
  6
Continuous
 62
     7
100
AcDbCircle
 10
-120.7164497834895
 20
-131.1508589034128
 30
0.0
 40
6.999999999999972
100
AcDbArc
 50
235.0000000000013
 51
4.999999999999813
  0
ARC
  5
19FE
330
1F
100
AcDbEntity
  8
0
  6
Continuous
 62
     7
100
AcDbCircle
 10
-132.6893773912428
 20
-137.4166198031622
 30
0.0
 40
5.0
100
AcDbArc
 50
55.00000000000131
 51
115.2485883838345
  0
ARC
  5
19FF
330
1F
100
AcDbEntity
  8
0
  6
Continuous
 62
     7
100
AcDbCircle
 10
-109.3036778663905
 20
-123.914879887301
 30
0.0
 40
5.0
100
AcDbArc
 50
124.7514116161639
 51
185.0000000000014
  0
LINE
  5
1A01
330
1F
100
AcDbEntity
  8
0
  6
Continuous
 62
     7
100
AcDbLine
 10
-368.174777615675
 20
16.35543642270809
 30
0.0
 11
-362.5432027841322
 21
18.98148289412944
 31
0.0
  0
LINE
  5
1A02
330
1F
100
AcDbEntity
  8
0
  6
Continuous
 62
     7
100
AcDbLine
 10
-362.5432027841321
 20
1.04108093277361
 30
0.0
 11
-368.174777615675
 21
3.667127404195042
 31
0.0
  0
ARC
  5
1A1B
330
1F
100
AcDbEntity
  8
0
  6
Continuous
 62
     7
100
AcDbCircle
 10
-365.2164497834901
 20
10.01128191345165
 30
0.0
 40
6.999999999999971
100
AcDbArc
 50
115.0
 51
245.0
  0
ARC
  5
1A1C
330
1F
100
AcDbEntity
  8
0
  6
Continuous
 62
     7
100
AcDbCircle
 10
-364.6562940928356
 20
23.51302182931281
 30
0.0
 40
4.999999999999999
100
AcDbArc
 50
295.0
 51
355.2485883838344
  0
ARC
  5
1A1D
330
1F
100
AcDbEntity
  8
0
  6
Continuous
 62
     7
100
AcDbCircle
 10
-202.2164497834896
 20
10.01128191345128
 30
0.0
 40
158.0000000000004
100
AcDbArc
 50
124.7514116161646
 51
175.2485883838344
  0
ARC
  5
1A1E
330
1F
100
AcDbEntity
  8
0
  6
Continuous
 62
     7
100
AcDbCircle
 10
-364.6562940928356
 20
-3.490458002409667
 30
0.0
 40
4.999999999999999
100
AcDbArc
 50
4.751411616163937
 51
65.00000000000065
  0
LINE
  5
1A20
330
1F
100
AcDbEntity
  8
0
  6
Continuous
 62
     7
100
AcDbLine
 10
-279.7014147290322
 20
156.9074870403382
 30
0.0
 11
-274.6114043574916
 21
153.3434234086198
 31
0.0
  0
LINE
  5
1A21
330
1F
100
AcDbEntity
  8
0
  6
Continuous
 62
     7
100
AcDbLine
 10
-290.1482482101298
 20
144.3732224279418
 30
0.0
 11
-290.6898126701318
 21
150.5633325310818
 31
0.0
  0
ARC
  5
1A3A
330
1F
100
AcDbEntity
  8
0
  6
Continuous
 62
     7
100
AcDbCircle
 10
-283.7164497834895
 20
151.1734227303153
 30
0.0
 40
6.999999999999971
100
AcDbArc
 50
54.99999999999998
 51
184.9999999999997
  0
ARC
  5
1A3B
330
1F
100
AcDbEntity
  8
0
  6
Continuous
 62
     7
100
AcDbCircle
 10
-271.7435221757362
 20
157.4391836300648
 30
0.0
 40
4.999999999999999
100
AcDbArc
 50
235.0
 51
295.2485883838339
  0
ARC
  5
1A3C
330
1F
100
AcDbEntity
  8
0
  6
Continuous
 62
     7
100
AcDbCircle
 10
-202.2164497834896
 20
10.01128191345128
 30
0.0
 40
158.0000000000004
100
AcDbArc
 50
64.75141161616547
 51
115.2485883838338
  0
ARC
  5
1A3D
330
1F
100
AcDbEntity
  8
0
  6
Continuous
 62
     7
100
AcDbCircle
 10
-295.1292217005886
 20
143.9374437142036
 30
0.0
 40
4.999999999999999
100
AcDbArc
 50
304.7514116161646
 51
5.000000000001365
  0
LINE
  5
1A3F
330
1F
100
AcDbEntity
  8
0
  6
Continuous
 62
     7
100
AcDbLine
 10
-290.6898126701323
 20
-130.5407687041788
 30
0.0
 11
-290.1482482101302
 21
-124.3506586010391
 31
0.0
  0
LINE
  5
1A40
330
1F
100
AcDbEntity
  8
0
  6
Continuous
 62
     7
100
AcDbLine
 10
-274.6114043574919
 20
-133.3208595817169
 30
0.0
 11
-279.7014147290328
 21
-136.8849232134354
 31
0.0
  0
ARC
  5
1A59
330
1F
100
AcDbEntity
  8
0
  6
Continuous
 62
     7
100
AcDbCircle
 10
-283.7164497834901
 20
-131.1508589034124
 30
0.0
 40
6.999999999999971
100
AcDbArc
 50
175.0000000000001
 51
305.0000000000003
  0
ARC
  5
1A5A
330
1F
100
AcDbEntity
  8
0
  6
Continuous
 62
     7
100
AcDbCircle
 10
-295.129221700589
 20
-123.9148798873007
 30
0.0
 40
4.999999999999999
100
AcDbArc
 50
355.0000000000002
 51
55.2485883838347
  0
ARC
  5
1A5B
330
1F
100
AcDbEntity
  8
0
  6
Continuous
 62
     7
100
AcDbCircle
 10
-202.2164497834896
 20
10.01128191345128
 30
0.0
 40
158.0000000000004
100
AcDbArc
 50
184.7514116161638
 51
235.2485883838347
  0
ARC
  5
1A5C
330
1F
100
AcDbEntity
  8
0
  6
Continuous
 62
     7
100
AcDbCircle
 10
-271.7435221757366
 20
-137.4166198031619
 30
0.0
 40
4.999999999999999
100
AcDbArc
 50
64.751411616164
 51
125.0000000000009
  0
CIRCLE
  5
1A62
330
1F
100
AcDbEntity
  8
0
  6
Continuous
 62
     7
100
AcDbCircle
 10
-39.21644978348904
 20
10.011281913451
 30
0.0
 40
4.500000000000019
  0
ARC
  5
1A63
330
1F
100
AcDbEntity
  8
0
  6
Continuous
 62
     7
100
AcDbCircle
 10
-40.81644978348889
 20
11.61128191345113
 30
0.0
 40
1.0
100
AcDbArc
 50
270.0000000000037
 51
0.0000000000135619
  0
ARC
  5
1A64
330
1F
100
AcDbEntity
  8
0
  6
Continuous
 62
     7
100
AcDbCircle
 10
-37.6164497834891
 20
11.61128191345108
 30
0.0
 40
1.0
100
AcDbArc
 50
179.9999999999982
 51
270.0000000000037
  0
ARC
  5
1A65
330
1F
100
AcDbEntity
  8
0
  6
Continuous
 62
     7
100
AcDbCircle
 10
-37.61644978348897
 20
8.411281913450977
 30
0.0
 40
1.0
100
AcDbArc
 50
90.00000000000541
 51
179.9999999999936
  0
ARC
  5
1A66
330
1F
100
AcDbEntity
  8
0
  6
Continuous
 62
     7
100
AcDbCircle
 10
-40.81644978348897
 20
8.411281913451034
 30
0.0
 40
1.0
100
AcDbArc
 50
359.9999999999928
 51
90.0000000000036
  0
ARC
  5
1A67
330
1F
100
AcDbEntity
  8
0
  6
DASH_CENTER
 62
     2
100
AcDbCircle
 10
-202.2164497834895
 20
10.01128191345171
 30
0.0
 40
163.0000000000001
100
AcDbArc
 50
55.0
 51
65.0
  0
LINE
  5
1A68
330
1F
100
AcDbEntity
  8
0
  6
Continuous
 62
     7
100
AcDbLine
 10
-118.251386274028
 20
150.4430379725857
 30
0.0
 11
-118.551386274028
 21
149.923422730315
 31
0.0
  0
LINE
  5
1A69
330
1F
100
AcDbEntity
  8
0
  6
Continuous
 62
     7
100
AcDbLine
 10
-121.4468345412183
 20
148.7083592208539
 30
0.0
 11
-121.966449783489
 21
149.008359220854
 31
0.0
  0
LINE
  5
1A6A
330
1F
100
AcDbEntity
  8
0
  6
Continuous
 62
     7
100
AcDbLine
 10
-123.1815132929502
 20
151.9038074880444
 30
0.0
 11
-122.5815132929502
 21
152.9430379725857
 31
0.0
  0
LINE
  5
1A6B
330
1F
100
AcDbEntity
  8
0
  6
Continuous
 62
     7
100
AcDbLine
 10
-119.0308091374339
 20
150.8930379725858
 30
0.0
 11
-118.251386274028
 21
150.4430379725857
 31
0.0
  0
ARC
  5
1A6C
330
1F
100
AcDbEntity
  8
0
  6
Continuous
 62
     7
100
AcDbCircle
 10
-118.5308091374338
 20
151.7590633763702
 30
0.0
 40
1.0
100
AcDbArc
 50
150.0000000000057
 51
239.9999999999937
  0
LINE
  5
1A6D
330
1F
100
AcDbEntity
  8
0
  6
Continuous
 62
     7
100
AcDbLine
 10
-120.9968345412184
 20
149.48778208426
 30
0.0
 11
-121.4468345412183
 21
148.7083592208539
 31
0.0
  0
ARC
  5
1A6E
330
1F
100
AcDbEntity
  8
0
  6
Continuous
 62
     7
100
AcDbCircle
 10
-120.1308091374339
 20
148.98778208426
 30
0.0
 40
1.0
100
AcDbArc
 50
59.99999999999218
 51
150.0000000000039
  0
LINE
  5
1A6F
330
1F
100
AcDbEntity
  8
0
  6
Continuous
 62
     7
100
AcDbLine
 10
-122.4020904295443
 20
151.4538074880447
 30
0.0
 11
-123.1815132929502
 21
151.9038074880444
 31
0.0
  0
ARC
  5
1A70
330
1F
100
AcDbEntity
  8
0
  6
Continuous
 62
     7
100
AcDbCircle
 10
-122.9020904295441
 20
150.5877820842601
 30
0.0
 40
1.0
100
AcDbArc
 50
330.0000000000039
 51
60.00000000001341
  0
LINE
  5
1A71
330
1F
100
AcDbEntity
  8
0
  6
Continuous
 62
     7
100
AcDbLine
 10
-118.9468345412183
 20
153.0384862397763
 30
0.0
 11
-119.3968345412183
 21
152.2590633763701
 31
0.0
  0
LINE
  5
1A72
330
1F
100
AcDbEntity
  8
0
  6
Continuous
 62
     7
100
AcDbLine
 10
-118.851386274028
 20
149.4038074880444
 30
0.0
 11
-119.6308091374338
 21
149.8538074880444
 31
0.0
  0
LINE
  5
1A73
330
1F
100
AcDbEntity
  8
0
  6
Continuous
 62
     7
100
AcDbLine
 10
-122.4860650257598
 20
149.3083592208539
 30
0.0
 11
-122.0360650257597
 21
150.0877820842602
 31
0.0
  0
LINE
  5
1A74
330
1F
100
AcDbEntity
  8
0
  6
Continuous
 62
     7
100
AcDbLine
 10
-119.466449783489
 20
153.3384862397761
 30
0.0
 11
-118.9468345412183
 21
153.0384862397763
 31
0.0
  0
LINE
  5
1A75
330
1F
100
AcDbEntity
  8
0
  6
Continuous
 62
     7
100
AcDbLine
 10
-118.551386274028
 20
149.923422730315
 30
0.0
 11
-118.851386274028
 21
149.4038074880444
 31
0.0
  0
LINE
  5
1A76
330
1F
100
AcDbEntity
  8
0
  6
Continuous
 62
     7
100
AcDbLine
 10
-121.966449783489
 20
149.008359220854
 30
0.0
 11
-122.4860650257598
 21
149.3083592208539
 31
0.0
  0
LINE
  5
1A77
330
1F
100
AcDbEntity
  8
0
  6
DASH_CENTER
 62
     2
100
AcDbLine
 10
-119.466449783489
 20
153.3384862397761
 30
0.0
 11
-122.9664497834891
 21
147.276308413285
 31
0.0
  0
LINE
  5
1A78
330
1F
100
AcDbEntity
  8
0
  6
DASH_CENTER
 62
     2
100
AcDbLine
 10
-119.466449783489
 20
153.3384862397761
 30
0.0
 11
-123.8664497834891
 21
145.7174626864729
 31
0.0
  0
LINE
  5
1A79
330
1F
100
AcDbEntity
  8
0
  6
Continuous
 62
     7
100
AcDbLine
 10
-119.9860650257598
 20
153.6384862397762
 30
0.0
 11
-119.466449783489
 21
153.3384862397761
 31
0.0
  0
LINE
  5
1A7A
330
1F
100
AcDbEntity
  8
0
  6
Continuous
 62
     7
100
AcDbLine
 10
-120.4360650257597
 20
152.8590633763702
 30
0.0
 11
-119.9860650257598
 21
153.6384862397762
 31
0.0
  0
ARC
  5
1A7B
330
1F
100
AcDbEntity
  8
0
  6
Continuous
 62
     7
100
AcDbCircle
 10
-121.3020904295442
 20
153.3590633763701
 30
0.0
 40
1.0
100
AcDbArc
 50
239.999999999998
 51
330.0000000000039
  0
LINE
  5
1A7C
330
1F
100
AcDbEntity
  8
0
  6
Continuous
 62
     7
100
AcDbLine
 10
-122.5815132929502
 20
152.9430379725857
 30
0.0
 11
-121.8020904295442
 21
152.4930379725857
 31
0.0
  0
LINE
  5
1A7D
330
1F
100
AcDbEntity
  8
0
  6
DASH_CENTER
 62
     2
100
AcDbLine
 10
-117.5664497834891
 20
156.629382774157
 30
0.0
 11
-119.466449783489
 21
153.3384862397761
 31
0.0
  0
LINE
  5
1A7E
330
1F
100
AcDbEntity
  8
0
  6
DASH_CENTER
 62
     2
100
AcDbLine
 10
-122.9664497834891
 20
147.276308413285
 30
0.0
 11
-123.8664497834891
 21
145.7174626864729
 31
0.0
  0
CIRCLE
  5
1A7F
330
1F
100
AcDbEntity
  8
0
  6
Continuous
 62
     7
100
AcDbCircle
 10
-120.716449783489
 20
151.173422730315
 30
0.0
 40
4.500000000000019
  0
ARC
  5
1A80
330
1F
100
AcDbEntity
  8
0
  6
DASH_CENTER
 62
     2
100
AcDbCircle
 10
-202.2164497834899
 20
10.01128191345151
 30
0.0
 40
163.0
100
AcDbArc
 50
115.0
 51
125.0000000000009
  0
LINE
  5
1A81
330
1F
100
AcDbEntity
  8
0
  6
Continuous
 62
     7
100
AcDbLine
 10
-281.8513862740285
 20
152.943037972586
 30
0.0
 11
-281.5513862740285
 21
152.4234227303153
 31
0.0
  0
LINE
  5
1A82
330
1F
100
AcDbEntity
  8
0
  6
Continuous
 62
     7
100
AcDbLine
 10
-281.9468345412188
 20
149.3083592208543
 30
0.0
 11
-282.4664497834896
 21
149.0083592208543
 31
0.0
  0
LINE
  5
1A83
330
1F
100
AcDbEntity
  8
0
  6
Continuous
 62
     7
100
AcDbLine
 10
-285.5815132929507
 20
149.4038074880446
 30
0.0
 11
-286.1815132929507
 21
150.4430379725859
 31
0.0
  0
LINE
  5
1A84
330
1F
100
AcDbEntity
  8
0
  6
Continuous
 62
     7
100
AcDbLine
 10
-282.6308091374345
 20
152.493037972586
 30
0.0
 11
-281.8513862740285
 21
152.943037972586
 31
0.0
  0
ARC
  5
1A85
330
1F
100
AcDbEntity
  8
0
  6
Continuous
 62
     7
100
AcDbCircle
 10
-283.1308091374344
 20
153.3590633763705
 30
0.0
 40
0.9999999999999998
100
AcDbArc
 50
210.0000000000048
 51
299.9999999999925
  0
LINE
  5
1A86
330
1F
100
AcDbEntity
  8
0
  6
Continuous
 62
     7
100
AcDbLine
 10
-282.3968345412189
 20
150.0877820842602
 30
0.0
 11
-281.9468345412188
 21
149.3083592208543
 31
0.0
  0
ARC
  5
1A87
330
1F
100
AcDbEntity
  8
0
  6
Continuous
 62
     7
100
AcDbCircle
 10
-281.5308091374345
 20
150.5877820842603
 30
0.0
 40
0.9999999999999998
100
AcDbArc
 50
119.9999999999924
 51
210.0000000000034
  0
LINE
  5
1A88
330
1F
100
AcDbEntity
  8
0
  6
Continuous
 62
     7
100
AcDbLine
 10
-284.802090429545
 20
149.8538074880446
 30
0.0
 11
-285.5815132929507
 21
149.4038074880446
 31
0.0
  0
ARC
  5
1A89
330
1F
100
AcDbEntity
  8
0
  6
Continuous
 62
     7
100
AcDbCircle
 10
-284.3020904295448
 20
148.9877820842603
 30
0.0
 40
0.9999999999999998
100
AcDbArc
 50
30.00000000000337
 51
120.0000000000142
  0
LINE
  5
1A8A
330
1F
100
AcDbEntity
  8
0
  6
Continuous
 62
     7
100
AcDbLine
 10
-284.446834541219
 20
153.6384862397765
 30
0.0
 11
-283.9968345412188
 21
152.8590633763704
 31
0.0
  0
LINE
  5
1A8B
330
1F
100
AcDbEntity
  8
0
  6
Continuous
 62
     7
100
AcDbLine
 10
-281.2513862740285
 20
151.9038074880446
 30
0.0
 11
-282.0308091374344
 21
151.4538074880448
 31
0.0
  0
LINE
  5
1A8C
330
1F
100
AcDbEntity
  8
0
  6
Continuous
 62
     7
100
AcDbLine
 10
-282.9860650257602
 20
148.7083592208541
 30
0.0
 11
-283.4360650257604
 21
149.4877820842604
 31
0.0
  0
LINE
  5
1A8D
330
1F
100
AcDbEntity
  8
0
  6
Continuous
 62
     7
100
AcDbLine
 10
-284.9664497834895
 20
153.3384862397765
 30
0.0
 11
-284.446834541219
 21
153.6384862397765
 31
0.0
  0
LINE
  5
1A8E
330
1F
100
AcDbEntity
  8
0
  6
Continuous
 62
     7
100
AcDbLine
 10
-281.5513862740285
 20
152.4234227303153
 30
0.0
 11
-281.2513862740285
 21
151.9038074880446
 31
0.0
  0
LINE
  5
1A8F
330
1F
100
AcDbEntity
  8
0
  6
Continuous
 62
     7
100
AcDbLine
 10
-282.4664497834896
 20
149.0083592208543
 30
0.0
 11
-282.9860650257602
 21
148.7083592208541
 31
0.0
  0
LINE
  5
1A90
330
1F
100
AcDbEntity
  8
0
  6
DASH_CENTER
 62
     2
100
AcDbLine
 10
-284.9664497834895
 20
153.3384862397765
 30
0.0
 11
-281.4664497834895
 21
147.2763084132853
 31
0.0
  0
LINE
  5
1A91
330
1F
100
AcDbEntity
  8
0
  6
DASH_CENTER
 62
     2
100
AcDbLine
 10
-284.9664497834895
 20
153.3384862397765
 30
0.0
 11
-280.5664497834894
 21
145.7174626864732
 31
0.0
  0
LINE
  5
1A92
330
1F
100
AcDbEntity
  8
0
  6
Continuous
 62
     7
100
AcDbLine
 10
-285.4860650257604
 20
153.0384862397764
 30
0.0
 11
-284.9664497834895
 21
153.3384862397765
 31
0.0
  0
LINE
  5
1A93
330
1F
100
AcDbEntity
  8
0
  6
Continuous
 62
     7
100
AcDbLine
 10
-285.0360650257603
 20
152.2590633763704
 30
0.0
 11
-285.4860650257604
 21
153.0384862397764
 31
0.0
  0
ARC
  5
1A94
330
1F
100
AcDbEntity
  8
0
  6
Continuous
 62
     7
100
AcDbCircle
 10
-285.9020904295446
 20
151.7590633763703
 30
0.0
 40
0.9999999999999998
100
AcDbArc
 50
299.9999999999997
 51
30.00000000000337
  0
LINE
  5
1A95
330
1F
100
AcDbEntity
  8
0
  6
Continuous
 62
     7
100
AcDbLine
 10
-286.1815132929507
 20
150.4430379725859
 30
0.0
 11
-285.4020904295447
 21
150.8930379725859
 31
0.0
  0
LINE
  5
1A96
330
1F
100
AcDbEntity
  8
0
  6
DASH_CENTER
 62
     2
100
AcDbLine
 10
-286.8664497834896
 20
156.6293827741572
 30
0.0
 11
-284.9664497834895
 21
153.3384862397765
 31
0.0
  0
LINE
  5
1A97
330
1F
100
AcDbEntity
  8
0
  6
DASH_CENTER
 62
     2
100
AcDbLine
 10
-281.4664497834895
 20
147.2763084132853
 30
0.0
 11
-280.5664497834894
 21
145.7174626864732
 31
0.0
  0
CIRCLE
  5
1A98
330
1F
100
AcDbEntity
  8
0
  6
Continuous
 62
     7
100
AcDbCircle
 10
-283.7164497834895
 20
151.1734227303153
 30
0.0
 40
4.500000000000018
  0
ARC
  5
1A99
330
1F
100
AcDbEntity
  8
0
  6
DASH_CENTER
 62
     2
100
AcDbCircle
 10
-202.21644978349
 20
10.01128191345111
 30
0.0
 40
163.0
100
AcDbArc
 50
175.0000000000002
 51
184.9999999999997
  0
LINE
  5
1A9A
330
1F
100
AcDbEntity
  8
0
  6
Continuous
 62
     7
100
AcDbLine
 10
-365.8164497834901
 20
12.51128191345157
 30
0.0
 11
-365.21644978349
 21
12.51128191345159
 31
0.0
  0
LINE
  5
1A9B
330
1F
100
AcDbEntity
  8
0
  6
Continuous
 62
     7
100
AcDbLine
 10
-362.7164497834901
 20
10.61128191345165
 30
0.0
 11
-362.7164497834901
 21
10.01128191345159
 31
0.0
  0
LINE
  5
1A9C
330
1F
100
AcDbEntity
  8
0
  6
Continuous
 62
     7
100
AcDbLine
 10
-364.61644978349
 20
7.51128191345154
 30
0.0
 11
-365.8164497834901
 21
7.51128191345154
 31
0.0
  0
LINE
  5
1A9D
330
1F
100
AcDbEntity
  8
0
  6
Continuous
 62
     7
100
AcDbLine
 10
-365.8164497834901
 20
11.61128191345153
 30
0.0
 11
-365.8164497834901
 21
12.51128191345157
 31
0.0
  0
ARC
  5
1A9E
330
1F
100
AcDbEntity
  8
0
  6
Continuous
 62
     7
100
AcDbCircle
 10
-366.8164497834901
 20
11.61128191345167
 30
0.0
 40
0.9999999999999998
100
AcDbArc
 50
270.0000000000065
 51
359.9999999999935
  0
LINE
  5
1A9F
330
1F
100
AcDbEntity
  8
0
  6
Continuous
 62
     7
100
AcDbLine
 10
-363.6164497834901
 20
10.61128191345159
 30
0.0
 11
-362.7164497834901
 21
10.61128191345165
 31
0.0
  0
ARC
  5
1AA0
330
1F
100
AcDbEntity
  8
0
  6
Continuous
 62
     7
100
AcDbCircle
 10
-363.6164497834901
 20
11.61128191345159
 30
0.0
 40
0.9999999999999998
100
AcDbArc
 50
179.9999999999918
 51
270.0000000000033
  0
LINE
  5
1AA1
330
1F
100
AcDbEntity
  8
0
  6
Continuous
 62
     7
100
AcDbLine
 10
-364.6164497834902
 20
8.411281913451261
 30
0.0
 11
-364.61644978349
 21
7.51128191345154
 31
0.0
  0
ARC
  5
1AA2
330
1F
100
AcDbEntity
  8
0
  6
Continuous
 62
     7
100
AcDbCircle
 10
-363.6164497834902
 20
8.411281913451517
 30
0.0
 40
0.9999999999999998
100
AcDbArc
 50
90.00000000000325
 51
180.000000000013
  0
LINE
  5
1AA3
330
1F
100
AcDbEntity
  8
0
  6
Continuous
 62
     7
100
AcDbLine
 10
-367.7164497834902
 20
10.61128191345156
 30
0.0
 11
-366.81644978349
 21
10.61128191345168
 31
0.0
  0
LINE
  5
1AA4
330
1F
100
AcDbEntity
  8
0
  6
Continuous
 62
     7
100
AcDbLine
 10
-364.61644978349
 20
12.51128191345159
 30
0.0
 11
-364.6164497834901
 21
11.61128191345173
 31
0.0
  0
LINE
  5
1AA5
330
1F
100
AcDbEntity
  8
0
  6
Continuous
 62
     7
100
AcDbLine
 10
-362.71644978349
 20
9.411281913451574
 30
0.0
 11
-363.6164497834902
 21
9.411281913451517
 31
0.0
  0
LINE
  5
1AA6
330
1F
100
AcDbEntity
  8
0
  6
Continuous
 62
     7
100
AcDbLine
 10
-367.7164497834901
 20
10.01128191345162
 30
0.0
 11
-367.7164497834902
 21
10.61128191345156
 31
0.0
  0
LINE
  5
1AA7
330
1F
100
AcDbEntity
  8
0
  6
Continuous
 62
     7
100
AcDbLine
 10
-365.21644978349
 20
12.51128191345159
 30
0.0
 11
-364.61644978349
 21
12.51128191345159
 31
0.0
  0
LINE
  5
1AA8
330
1F
100
AcDbEntity
  8
0
  6
Continuous
 62
     7
100
AcDbLine
 10
-362.7164497834901
 20
10.01128191345159
 30
0.0
 11
-362.71644978349
 21
9.411281913451574
 31
0.0
  0
LINE
  5
1AA9
330
1F
100
AcDbEntity
  8
0
  6
DASH_CENTER
 62
     2
100
AcDbLine
 10
-367.7164497834901
 20
10.01128191345162
 30
0.0
 11
-360.71644978349
 21
10.01128191345157
 31
0.0
  0
LINE
  5
1AAA
330
1F
100
AcDbEntity
  8
0
  6
DASH_CENTER
 62
     2
100
AcDbLine
 10
-367.7164497834901
 20
10.01128191345162
 30
0.0
 11
-358.9164497834898
 21
10.01128191345165
 31
0.0
  0
LINE
  5
1AAB
330
1F
100
AcDbEntity
  8
0
  6
Continuous
 62
     7
100
AcDbLine
 10
-367.7164497834902
 20
9.411281913451489
 30
0.0
 11
-367.7164497834901
 21
10.01128191345162
 31
0.0
  0
LINE
  5
1AAC
330
1F
100
AcDbEntity
  8
0
  6
Continuous
 62
     7
100
AcDbLine
 10
-366.8164497834901
 20
9.411281913451546
 30
0.0
 11
-367.7164497834902
 21
9.411281913451489
 31
0.0
  0
ARC
  5
1AAD
330
1F
100
AcDbEntity
  8
0
  6
Continuous
 62
     7
100
AcDbCircle
 10
-366.81644978349
 20
8.411281913451546
 30
0.0
 40
0.9999999999999998
100
AcDbArc
 50
359.9999999999984
 51
90.00000000000325
  0
LINE
  5
1AAE
330
1F
100
AcDbEntity
  8
0
  6
Continuous
 62
     7
100
AcDbLine
 10
-365.8164497834901
 20
7.51128191345154
 30
0.0
 11
-365.8164497834901
 21
8.411281913451517
 31
0.0
  0
LINE
  5
1AAF
330
1F
100
AcDbEntity
  8
0
  6
DASH_CENTER
 62
     2
100
AcDbLine
 10
-371.51644978349
 20
10.01128191345154
 30
0.0
 11
-367.7164497834901
 21
10.01128191345162
 31
0.0
  0
LINE
  5
1AB0
330
1F
100
AcDbEntity
  8
0
  6
DASH_CENTER
 62
     2
100
AcDbLine
 10
-360.71644978349
 20
10.01128191345157
 30
0.0
 11
-358.9164497834898
 21
10.01128191345165
 31
0.0
  0
CIRCLE
  5
1AB1
330
1F
100
AcDbEntity
  8
0
  6
Continuous
 62
     7
100
AcDbCircle
 10
-365.2164497834901
 20
10.01128191345162
 30
0.0
 40
4.500000000000018
  0
ARC
  5
1AB2
330
1F
100
AcDbEntity
  8
0
  6
DASH_CENTER
 62
     2
100
AcDbCircle
 10
-202.2164497834896
 20
10.01128191345085
 30
0.0
 40
163.0000000000001
100
AcDbArc
 50
234.9999999999992
 51
245.0000000000002
  0
LINE
  5
1AB3
330
1F
100
AcDbEntity
  8
0
  6
Continuous
 62
     7
100
AcDbLine
 10
-286.1815132929511
 20
-130.4204741456831
 30
0.0
 11
-285.8815132929511
 21
-129.9008589034125
 31
0.0
  0
LINE
  5
1AB4
330
1F
100
AcDbEntity
  8
0
  6
Continuous
 62
     7
100
AcDbLine
 10
-282.9860650257607
 20
-128.6857953939514
 30
0.0
 11
-282.4664497834901
 21
-128.9857953939515
 31
0.0
  0
LINE
  5
1AB5
330
1F
100
AcDbEntity
  8
0
  6
Continuous
 62
     7
100
AcDbLine
 10
-281.2513862740289
 20
-131.8812436611418
 30
0.0
 11
-281.8513862740289
 21
-132.9204741456831
 31
0.0
  0
LINE
  5
1AB6
330
1F
100
AcDbEntity
  8
0
  6
Continuous
 62
     7
100
AcDbLine
 10
-285.4020904295451
 20
-130.8704741456832
 30
0.0
 11
-286.1815132929511
 21
-130.4204741456831
 31
0.0
  0
ARC
  5
1AB7
330
1F
100
AcDbEntity
  8
0
  6
Continuous
 62
     7
100
AcDbCircle
 10
-285.9020904295452
 20
-131.7364995494676
 30
0.0
 40
1.0
100
AcDbArc
 50
330.0000000000054
 51
59.99999999999279
  0
LINE
  5
1AB8
330
1F
100
AcDbEntity
  8
0
  6
Continuous
 62
     7
100
AcDbLine
 10
-283.4360650257607
 20
-129.4652182573574
 30
0.0
 11
-282.9860650257607
 21
-128.6857953939514
 31
0.0
  0
ARC
  5
1AB9
330
1F
100
AcDbEntity
  8
0
  6
Continuous
 62
     7
100
AcDbCircle
 10
-284.3020904295451
 20
-128.9652182573574
 30
0.0
 40
1.0
100
AcDbArc
 50
239.9999999999924
 51
330.0000000000041
  0
LINE
  5
1ABA
330
1F
100
AcDbEntity
  8
0
  6
Continuous
 62
     7
100
AcDbLine
 10
-282.0308091374347
 20
-131.4312436611421
 30
0.0
 11
-281.2513862740289
 21
-131.8812436611418
 31
0.0
  0
ARC
  5
1ABB
330
1F
100
AcDbEntity
  8
0
  6
Continuous
 62
     7
100
AcDbCircle
 10
-281.5308091374349
 20
-130.5652182573576
 30
0.0
 40
1.0
100
AcDbArc
 50
150.0000000000041
 51
240.0000000000146
  0
LINE
  5
1ABC
330
1F
100
AcDbEntity
  8
0
  6
Continuous
 62
     7
100
AcDbLine
 10
-285.4860650257608
 20
-133.0159224128737
 30
0.0
 11
-285.0360650257607
 21
-132.2364995494675
 31
0.0
  0
LINE
  5
1ABD
330
1F
100
AcDbEntity
  8
0
  6
Continuous
 62
     7
100
AcDbLine
 10
-285.5815132929511
 20
-129.3812436611418
 30
0.0
 11
-284.8020904295453
 21
-129.8312436611418
 31
0.0
  0
LINE
  5
1ABE
330
1F
100
AcDbEntity
  8
0
  6
Continuous
 62
     7
100
AcDbLine
 10
-281.9468345412193
 20
-129.2857953939513
 30
0.0
 11
-282.3968345412194
 21
-130.0652182573576
 31
0.0
  0
LINE
  5
1ABF
330
1F
100
AcDbEntity
  8
0
  6
Continuous
 62
     7
100
AcDbLine
 10
-284.9664497834901
 20
-133.3159224128736
 30
0.0
 11
-285.4860650257608
 21
-133.0159224128737
 31
0.0
  0
LINE
  5
1AC0
330
1F
100
AcDbEntity
  8
0
  6
Continuous
 62
     7
100
AcDbLine
 10
-285.8815132929511
 20
-129.9008589034125
 30
0.0
 11
-285.5815132929511
 21
-129.3812436611418
 31
0.0
  0
LINE
  5
1AC1
330
1F
100
AcDbEntity
  8
0
  6
Continuous
 62
     7
100
AcDbLine
 10
-282.4664497834901
 20
-128.9857953939515
 30
0.0
 11
-281.9468345412193
 21
-129.2857953939513
 31
0.0
  0
LINE
  5
1AC2
330
1F
100
AcDbEntity
  8
0
  6
DASH_CENTER
 62
     2
100
AcDbLine
 10
-284.9664497834901
 20
-133.3159224128736
 30
0.0
 11
-281.46644978349
 21
-127.2537445863825
 31
0.0
  0
LINE
  5
1AC3
330
1F
100
AcDbEntity
  8
0
  6
DASH_CENTER
 62
     2
100
AcDbLine
 10
-284.9664497834901
 20
-133.3159224128736
 30
0.0
 11
-280.56644978349
 21
-125.6948988595703
 31
0.0
  0
LINE
  5
1AC4
330
1F
100
AcDbEntity
  8
0
  6
Continuous
 62
     7
100
AcDbLine
 10
-284.4468345412193
 20
-133.6159224128737
 30
0.0
 11
-284.9664497834901
 21
-133.3159224128736
 31
0.0
  0
LINE
  5
1AC5
330
1F
100
AcDbEntity
  8
0
  6
Continuous
 62
     7
100
AcDbLine
 10
-283.9968345412194
 20
-132.8364995494676
 30
0.0
 11
-284.4468345412193
 21
-133.6159224128737
 31
0.0
  0
ARC
  5
1AC6
330
1F
100
AcDbEntity
  8
0
  6
Continuous
 62
     7
100
AcDbCircle
 10
-283.1308091374349
 20
-133.3364995494676
 30
0.0
 40
1.0
100
AcDbArc
 50
59.99999999999664
 51
150.0000000000041
  0
LINE
  5
1AC7
330
1F
100
AcDbEntity
  8
0
  6
Continuous
 62
     7
100
AcDbLine
 10
-281.8513862740289
 20
-132.9204741456831
 30
0.0
 11
-282.6308091374348
 21
-132.4704741456832
 31
0.0
  0
LINE
  5
1AC8
330
1F
100
AcDbEntity
  8
0
  6
DASH_CENTER
 62
     2
100
AcDbLine
 10
-286.86644978349
 20
-136.6068189472545
 30
0.0
 11
-284.9664497834901
 21
-133.3159224128736
 31
0.0
  0
LINE
  5
1AC9
330
1F
100
AcDbEntity
  8
0
  6
DASH_CENTER
 62
     2
100
AcDbLine
 10
-281.46644978349
 20
-127.2537445863825
 30
0.0
 11
-280.56644978349
 21
-125.6948988595703
 31
0.0
  0
CIRCLE
  5
1ACA
330
1F
100
AcDbEntity
  8
0
  6
Continuous
 62
     7
100
AcDbCircle
 10
-283.7164497834901
 20
-131.1508589034125
 30
0.0
 40
4.500000000000019
  0
ARC
  5
1ACB
330
1F
100
AcDbEntity
  8
0
  6
DASH_CENTER
 62
     2
100
AcDbCircle
 10
-202.2164497834892
 20
10.01128191345105
 30
0.0
 40
163.0
100
AcDbArc
 50
294.9999999999998
 51
305.0000000000011
  0
LINE
  5
1ACC
330
1F
100
AcDbEntity
  8
0
  6
Continuous
 62
     7
100
AcDbLine
 10
-122.5815132929506
 20
-132.9204741456834
 30
0.0
 11
-122.8815132929506
 21
-132.4008589034127
 31
0.0
  0
LINE
  5
1ACD
330
1F
100
AcDbEntity
  8
0
  6
Continuous
 62
     7
100
AcDbLine
 10
-122.4860650257602
 20
-129.2857953939517
 30
0.0
 11
-121.9664497834894
 21
-128.9857953939518
 31
0.0
  0
LINE
  5
1ACE
330
1F
100
AcDbEntity
  8
0
  6
Continuous
 62
     7
100
AcDbLine
 10
-118.8513862740284
 20
-129.381243661142
 30
0.0
 11
-118.2513862740284
 21
-130.4204741456834
 31
0.0
  0
LINE
  5
1ACF
330
1F
100
AcDbEntity
  8
0
  6
Continuous
 62
     7
100
AcDbLine
 10
-121.8020904295445
 20
-132.4704741456835
 30
0.0
 11
-122.5815132929506
 21
-132.9204741456834
 31
0.0
  0
ARC
  5
1AD0
330
1F
100
AcDbEntity
  8
0
  6
Continuous
 62
     7
100
AcDbCircle
 10
-121.3020904295446
 20
-133.336499549468
 30
0.0
 40
0.9999999999999998
100
AcDbArc
 50
30.00000000000407
 51
119.9999999999924
  0
LINE
  5
1AD1
330
1F
100
AcDbEntity
  8
0
  6
Continuous
 62
     7
100
AcDbLine
 10
-122.0360650257602
 20
-130.0652182573577
 30
0.0
 11
-122.4860650257602
 21
-129.2857953939517
 31
0.0
  0
ARC
  5
1AD2
330
1F
100
AcDbEntity
  8
0
  6
Continuous
 62
     7
100
AcDbCircle
 10
-122.9020904295445
 20
-130.5652182573577
 30
0.0
 40
0.9999999999999998
100
AcDbArc
 50
299.9999999999925
 51
30.00000000000301
  0
LINE
  5
1AD3
330
1F
100
AcDbEntity
  8
0
  6
Continuous
 62
     7
100
AcDbLine
 10
-119.630809137434
 20
-129.8312436611421
 30
0.0
 11
-118.8513862740284
 21
-129.381243661142
 31
0.0
  0
ARC
  5
1AD4
330
1F
100
AcDbEntity
  8
0
  6
Continuous
 62
     7
100
AcDbCircle
 10
-120.1308091374342
 20
-128.9652182573578
 30
0.0
 40
0.9999999999999998
100
AcDbArc
 50
210.000000000003
 51
300.0000000000149
  0
LINE
  5
1AD5
330
1F
100
AcDbEntity
  8
0
  6
Continuous
 62
     7
100
AcDbLine
 10
-119.9860650257601
 20
-133.6159224128739
 30
0.0
 11
-120.4360650257602
 21
-132.8364995494679
 31
0.0
  0
LINE
  5
1AD6
330
1F
100
AcDbEntity
  8
0
  6
Continuous
 62
     7
100
AcDbLine
 10
-123.1815132929506
 20
-131.881243661142
 30
0.0
 11
-122.4020904295446
 21
-131.4312436611422
 31
0.0
  0
LINE
  5
1AD7
330
1F
100
AcDbEntity
  8
0
  6
Continuous
 62
     7
100
AcDbLine
 10
-121.4468345412188
 20
-128.6857953939516
 30
0.0
 11
-120.9968345412187
 21
-129.4652182573578
 31
0.0
  0
LINE
  5
1AD8
330
1F
100
AcDbEntity
  8
0
  6
Continuous
 62
     7
100
AcDbLine
 10
-119.4664497834895
 20
-133.3159224128739
 30
0.0
 11
-119.9860650257601
 21
-133.6159224128739
 31
0.0
  0
LINE
  5
1AD9
330
1F
100
AcDbEntity
  8
0
  6
Continuous
 62
     7
100
AcDbLine
 10
-122.8815132929506
 20
-132.4008589034127
 30
0.0
 11
-123.1815132929506
 21
-131.881243661142
 31
0.0
  0
LINE
  5
1ADA
330
1F
100
AcDbEntity
  8
0
  6
Continuous
 62
     7
100
AcDbLine
 10
-121.9664497834894
 20
-128.9857953939518
 30
0.0
 11
-121.4468345412188
 21
-128.6857953939516
 31
0.0
  0
LINE
  5
1ADB
330
1F
100
AcDbEntity
  8
0
  6
DASH_CENTER
 62
     2
100
AcDbLine
 10
-119.4664497834895
 20
-133.3159224128739
 30
0.0
 11
-122.9664497834895
 21
-127.2537445863827
 31
0.0
  0
LINE
  5
1ADC
330
1F
100
AcDbEntity
  8
0
  6
DASH_CENTER
 62
     2
100
AcDbLine
 10
-119.4664497834895
 20
-133.3159224128739
 30
0.0
 11
-123.8664497834896
 21
-125.6948988595707
 31
0.0
  0
LINE
  5
1ADD
330
1F
100
AcDbEntity
  8
0
  6
Continuous
 62
     7
100
AcDbLine
 10
-118.9468345412187
 20
-133.0159224128738
 30
0.0
 11
-119.4664497834895
 21
-133.3159224128739
 31
0.0
  0
LINE
  5
1ADE
330
1F
100
AcDbEntity
  8
0
  6
Continuous
 62
     7
100
AcDbLine
 10
-119.3968345412188
 20
-132.2364995494678
 30
0.0
 11
-118.9468345412187
 21
-133.0159224128738
 31
0.0
  0
ARC
  5
1ADF
330
1F
100
AcDbEntity
  8
0
  6
Continuous
 62
     7
100
AcDbCircle
 10
-118.5308091374344
 20
-131.7364995494678
 30
0.0
 40
0.9999999999999998
100
AcDbArc
 50
119.9999999999999
 51
210.000000000003
  0
LINE
  5
1AE0
330
1F
100
AcDbEntity
  8
0
  6
Continuous
 62
     7
100
AcDbLine
 10
-118.2513862740284
 20
-130.4204741456834
 30
0.0
 11
-119.0308091374343
 21
-130.8704741456834
 31
0.0
  0
LINE
  5
1AE1
330
1F
100
AcDbEntity
  8
0
  6
DASH_CENTER
 62
     2
100
AcDbLine
 10
-117.5664497834894
 20
-136.6068189472547
 30
0.0
 11
-119.4664497834895
 21
-133.3159224128739
 31
0.0
  0
LINE
  5
1AE2
330
1F
100
AcDbEntity
  8
0
  6
DASH_CENTER
 62
     2
100
AcDbLine
 10
-122.9664497834895
 20
-127.2537445863827
 30
0.0
 11
-123.8664497834896
 21
-125.6948988595707
 31
0.0
  0
CIRCLE
  5
1AE3
330
1F
100
AcDbEntity
  8
0
  6
Continuous
 62
     7
100
AcDbCircle
 10
-120.7164497834895
 20
-131.1508589034128
 30
0.0
 40
4.500000000000018
  0
CIRCLE
  5
1AE4
330
1F
100
AcDbEntity
  8
0
  6
Continuous
 62
     7
100
AcDbCircle
 10
-202.2164497834892
 20
10.01128191345148
 30
0.0
 40
75.0000000000001
  0
CIRCLE
  5
1AE5
330
1F
100
AcDbEntity
  8
0
  6
Continuous
 62
     7
100
AcDbCircle
 10
-202.2164497834892
 20
10.01128191345148
 30
0.0
 40
61.00000000000006
  0
CIRCLE
  5
1AE6
330
1F
100
AcDbEntity
  8
0
  6
Continuous
 62
     7
100
AcDbCircle
 10
-202.2164497834892
 20
10.01128191345148
 30
0.0
 40
57.50000000000011
  0
CIRCLE
  5
1AE7
330
1F
100
AcDbEntity
  8
0
  6
Continuous
 62
     7
100
AcDbCircle
 10
-202.2164497834892
 20
10.01128191345148
 30
0.0
 40
38.0
  0
CIRCLE
  5
1AE8
330
1F
100
AcDbEntity
  8
0
  6
Continuous
 62
     7
100
AcDbCircle
 10
-202.2164497834892
 20
10.01128191345148
 30
0.0
 40
16.50000000000013
  0
CIRCLE
  5
1AE9
330
1F
100
AcDbEntity
  8
0
  6
Continuous
 62
     7
100
AcDbCircle
 10
-201.9724015005452
 20
10.01128191345147
 30
0.0
 40
8.000000000000015
  0
CIRCLE
  5
1AEA
330
1F
100
AcDbEntity
  8
0
  6
Continuous
 62
     7
100
AcDbCircle
 10
206.5084706909023
 20
-103.9887180865487
 30
0.0
 40
65.00000000000004
  0
ARC
  5
1AEB
330
1F
100
AcDbEntity
  8
0
  6
Continuous
 62
     7
100
AcDbCircle
 10
206.5084706909024
 20
-103.9887180865488
 30
0.0
 40
41.50000000000021
100
AcDbArc
 50
95.08350810989727
 51
174.9164918901026
  0
ARC
  5
1AEC
330
1F
100
AcDbEntity
  8
0
  6
Continuous
 62
     7
100
AcDbCircle
 10
206.5084706909025
 20
-103.9887180865491
 30
0.0
 40
38.00000000000021
100
AcDbArc
 50
92.26226326579057
 51
177.7377367342088
  0
ARC
  5
1AED
330
1F
100
AcDbEntity
  8
0
  6
Continuous
 62
     7
100
AcDbCircle
 10
203.0084706909023
 20
-64.6440869407366
 30
0.0
 40
2.0
100
AcDbArc
 50
0.0
 51
95.08350810989609
  0
ARC
  5
1AEE
330
1F
100
AcDbEntity
  8
0
  6
Continuous
 62
     7
100
AcDbCircle
 10
167.1638395450903
 20
-100.4887180865486
 30
0.0
 40
2.0
100
AcDbArc
 50
174.9164918901035
 51
269.9999999999984
  0
ARC
  5
1AEF
330
1F
100
AcDbEntity
  8
0
  6
Continuous
 62
     7
100
AcDbCircle
 10
203.0084706909024
 20
-100.4887180865486
 30
0.0
 40
2.0
100
AcDbArc
 50
270.0
 51
0.0
  0
LINE
  5
1AF4
330
1F
100
AcDbEntity
  8
0
  6
Continuous
 62
     7
100
AcDbLine
 10
205.0084706909023
 20
-107.4887180865486
 30
0.0
 11
205.0084706909023
 21
-143.3333492323607
 31
0.0
  0
ARC
  5
1AF5
330
1F
100
AcDbEntity
  8
0
  6
Continuous
 62
     7
100
AcDbCircle
 10
203.0084706909023
 20
-107.4887180865486
 30
0.0
 40
2.0
100
AcDbArc
 50
0.0
 51
90.0
  0
LINE
  5
1AF6
330
1F
100
AcDbEntity
  8
0
  6
Continuous
 62
     7
100
AcDbLine
 10
203.0084706909023
 20
-105.4887180865486
 30
0.0
 11
167.1638395450903
 21
-105.4887180865486
 31
0.0
  0
ARC
  5
1AF7
330
1F
100
AcDbEntity
  8
0
  6
Continuous
 62
     7
100
AcDbCircle
 10
206.5084706909025
 20
-103.9887180865486
 30
0.0
 40
41.50000000000021
100
AcDbArc
 50
185.0835081098977
 51
264.9164918901023
  0
ARC
  5
1AF8
330
1F
100
AcDbEntity
  8
0
  6
Continuous
 62
     7
100
AcDbCircle
 10
206.5084706909028
 20
-103.9887180865485
 30
0.0
 40
38.00000000000021
100
AcDbArc
 50
182.26226326579
 51
267.7377367342091
  0
ARC
  5
1AF9
330
1F
100
AcDbEntity
  8
0
  6
Continuous
 62
     7
100
AcDbCircle
 10
167.1638395450902
 20
-107.4887180865487
 30
0.0
 40
2.0
100
AcDbArc
 50
90.0
 51
185.0835081098977
  0
ARC
  5
1AFA
330
1F
100
AcDbEntity
  8
0
  6
Continuous
 62
     7
100
AcDbCircle
 10
203.0084706909023
 20
-143.3333492323606
 30
0.0
 40
2.0
100
AcDbArc
 50
264.9164918901039
 51
359.9999999999968
  0
LINE
  5
1AFB
330
1F
100
AcDbEntity
  8
0
  6
Continuous
 62
     7
100
AcDbLine
 10
210.0084706909023
 20
-105.4887180865487
 30
0.0
 11
245.8531018367144
 21
-105.4887180865487
 31
0.0
  0
ARC
  5
1AFC
330
1F
100
AcDbEntity
  8
0
  6
Continuous
 62
     7
100
AcDbCircle
 10
210.0084706909023
 20
-107.4887180865487
 30
0.0
 40
2.0
100
AcDbArc
 50
90.0
 51
180.0
  0
LINE
  5
1AFD
330
1F
100
AcDbEntity
  8
0
  6
Continuous
 62
     7
100
AcDbLine
 10
208.0084706909023
 20
-107.4887180865487
 30
0.0
 11
208.0084706909023
 21
-143.3333492323607
 31
0.0
  0
ARC
  5
1AFE
330
1F
100
AcDbEntity
  8
0
  6
Continuous
 62
     7
100
AcDbCircle
 10
206.5084706909023
 20
-103.9887180865485
 30
0.0
 40
41.50000000000021
100
AcDbArc
 50
275.0835081098977
 51
354.9164918901023
  0
ARC
  5
1AFF
330
1F
100
AcDbEntity
  8
0
  6
Continuous
 62
     7
100
AcDbCircle
 10
206.5084706909022
 20
-103.9887180865482
 30
0.0
 40
38.00000000000021
100
AcDbArc
 50
272.2622632657901
 51
357.7377367342084
  0
ARC
  5
1B00
330
1F
100
AcDbEntity
  8
0
  6
Continuous
 62
     7
100
AcDbCircle
 10
210.0084706909024
 20
-143.3333492323607
 30
0.0
 40
2.0
100
AcDbArc
 50
180.0
 51
275.0835081098977
  0
ARC
  5
1B01
330
1F
100
AcDbEntity
  8
0
  6
Continuous
 62
     7
100
AcDbCircle
 10
245.8531018367143
 20
-107.4887180865487
 30
0.0
 40
2.0
100
AcDbArc
 50
354.9164918901039
 51
89.99999999999674
  0
LINE
  5
1B02
330
1F
100
AcDbEntity
  8
0
  6
Continuous
 62
     7
100
AcDbLine
 10
208.0084706909024
 20
-100.4887180865487
 30
0.0
 11
208.0084706909024
 21
-64.6440869407366
 31
0.0
  0
ARC
  5
1B03
330
1F
100
AcDbEntity
  8
0
  6
Continuous
 62
     7
100
AcDbCircle
 10
210.0084706909024
 20
-100.4887180865487
 30
0.0
 40
2.0
100
AcDbArc
 50
180.0
 51
270.0
  0
LINE
  5
1B04
330
1F
100
AcDbEntity
  8
0
  6
Continuous
 62
     7
100
AcDbLine
 10
210.0084706909024
 20
-102.4887180865487
 30
0.0
 11
245.8531018367144
 21
-102.4887180865487
 31
0.0
  0
ARC
  5
1B05
330
1F
100
AcDbEntity
  8
0
  6
Continuous
 62
     7
100
AcDbCircle
 10
206.5084706909022
 20
-103.9887180865487
 30
0.0
 40
41.50000000000021
100
AcDbArc
 50
5.083508109897723
 51
84.91649189010228
  0
ARC
  5
1B06
330
1F
100
AcDbEntity
  8
0
  6
Continuous
 62
     7
100
AcDbCircle
 10
206.5084706909019
 20
-103.9887180865488
 30
0.0
 40
38.00000000000021
100
AcDbArc
 50
2.262263265789999
 51
87.73773673420993
  0
ARC
  5
1B07
330
1F
100
AcDbEntity
  8
0
  6
Continuous
 62
     7
100
AcDbCircle
 10
245.8531018367144
 20
-100.4887180865486
 30
0.0
 40
2.0
100
AcDbArc
 50
270.0
 51
5.083508109897723
  0
ARC
  5
1B08
330
1F
100
AcDbEntity
  8
0
  6
Continuous
 62
     7
100
AcDbCircle
 10
210.0084706909024
 20
-64.64408694073668
 30
0.0
 40
2.0
100
AcDbArc
 50
84.91649189010228
 51
179.9999999999967
  0
ARC
  5
1B09
330
1F
100
AcDbEntity
  8
0
  6
Continuous
 62
     7
100
AcDbCircle
 10
206.5084706909021
 20
-46.72597638675168
 30
0.0
 40
1.0
100
AcDbArc
 50
224.9999999999943
 51
314.9999999999933
  0
ARC
  5
1B0A
330
1F
100
AcDbEntity
  8
0
  6
Continuous
 62
     7
100
AcDbCircle
 10
204.2457289911052
 20
-48.98871808654861
 30
0.0
 40
1.0
100
AcDbArc
 50
315.0000000000061
 51
44.99999999999522
  0
ARC
  5
1B0B
330
1F
100
AcDbEntity
  8
0
  6
Continuous
 62
     7
100
AcDbCircle
 10
206.5084706909022
 20
-51.25145978634551
 30
0.0
 40
1.0
100
AcDbArc
 50
45.00000000000702
 51
135.0000000000076
  0
ARC
  5
1B0C
330
1F
100
AcDbEntity
  8
0
  6
Continuous
 62
     7
100
AcDbCircle
 10
208.7712123906992
 20
-48.9887180865486
 30
0.0
 40
1.0
100
AcDbArc
 50
134.9999999999933
 51
225.0000000000055
  0
CIRCLE
  5
1B0D
330
1F
100
AcDbEntity
  8
0
  6
Continuous
 62
     7
100
AcDbCircle
 10
206.5084706909023
 20
-48.98871808654861
 30
0.0
 40
4.500000000000019
  0
ARC
  5
1B0E
330
1F
100
AcDbEntity
  8
0
  6
DASH_CENTER
 62
     2
100
AcDbCircle
 10
206.5084706909023
 20
-103.9887180865482
 30
0.0
 40
54.9999999999997
100
AcDbArc
 50
77.0
 51
103.0
  0
LINE
  5
1B0F
330
1F
100
AcDbEntity
  8
0
  6
Continuous
 62
     7
100
AcDbLine
 10
152.8519735751567
 20
-101.7966870648703
 30
0.0
 11
153.2762376438686
 21
-102.2209511335824
 31
0.0
  0
LINE
  5
1B10
330
1F
100
AcDbEntity
  8
0
  6
Continuous
 62
     7
100
AcDbLine
 10
153.7005017125805
 20
-105.3322209708031
 30
0.0
 11
153.2762376438686
 21
-105.7564850395151
 31
0.0
  0
LINE
  5
1B11
330
1F
100
AcDbEntity
  8
0
  6
Continuous
 62
     7
100
AcDbLine
 10
150.1649678066478
 20
-106.180749108227
 30
0.0
 11
149.3164396692239
 21
-105.3322209708032
 31
0.0
  0
LINE
  5
1B12
330
1F
100
AcDbEntity
  8
0
  6
Continuous
 62
     7
100
AcDbLine
 10
152.2155774720888
 20
-102.4330831679383
 30
0.0
 11
152.8519735751567
 21
-101.7966870648703
 31
0.0
  0
LINE
  5
1B13
330
1F
100
AcDbEntity
  8
0
  6
Continuous
 62
     7
100
AcDbLine
 10
153.0641056095127
 20
-104.6958248677354
 30
0.0
 11
153.7005017125805
 21
-105.3322209708031
 31
0.0
  0
LINE
  5
1B14
330
1F
100
AcDbEntity
  8
0
  6
Continuous
 62
     7
100
AcDbLine
 10
150.8013639097157
 20
-105.5443530051591
 30
0.0
 11
150.1649678066478
 21
-106.180749108227
 31
0.0
  0
LINE
  5
1B15
330
1F
100
AcDbEntity
  8
0
  6
Continuous
 62
     7
100
AcDbLine
 10
150.1649678066478
 20
-101.7966870648703
 30
0.0
 11
150.8013639097156
 21
-102.4330831679383
 31
0.0
  0
ARC
  5
1B16
330
1F
100
AcDbEntity
  8
0
  6
Continuous
 62
     7
100
AcDbCircle
 10
151.5084706909022
 20
-101.7259763867518
 30
0.0
 40
1.0
100
AcDbArc
 50
224.9999999999925
 51
315.0000000000046
  0
LINE
  5
1B17
330
1F
100
AcDbEntity
  8
0
  6
Continuous
 62
     7
100
AcDbLine
 10
153.7005017125805
 20
-102.6452152022942
 30
0.0
 11
153.0641056095125
 21
-103.2816113053623
 31
0.0
  0
ARC
  5
1B18
330
1F
100
AcDbEntity
  8
0
  6
Continuous
 62
     7
100
AcDbCircle
 10
153.7712123906992
 20
-103.9887180865488
 30
0.0
 40
1.0
100
AcDbArc
 50
135.000000000008
 51
225.0000000000087
  0
LINE
  5
1B19
330
1F
100
AcDbEntity
  8
0
  6
Continuous
 62
     7
100
AcDbLine
 10
152.8519735751567
 20
-106.180749108227
 30
0.0
 11
152.2155774720887
 21
-105.5443530051591
 31
0.0
  0
ARC
  5
1B1A
330
1F
100
AcDbEntity
  8
0
  6
Continuous
 62
     7
100
AcDbCircle
 10
151.5084706909022
 20
-106.2514597863458
 30
0.0
 40
1.0
100
AcDbArc
 50
45.00000000000575
 51
134.9999999999948
  0
LINE
  5
1B1B
330
1F
100
AcDbEntity
  8
0
  6
Continuous
 62
     7
100
AcDbLine
 10
153.2762376438686
 20
-102.2209511335824
 30
0.0
 11
153.7005017125805
 21
-102.6452152022942
 31
0.0
  0
LINE
  5
1B1C
330
1F
100
AcDbEntity
  8
0
  6
Continuous
 62
     7
100
AcDbLine
 10
153.2762376438686
 20
-105.7564850395151
 30
0.0
 11
152.8519735751567
 21
-106.180749108227
 31
0.0
  0
LINE
  5
1B1D
330
1F
100
AcDbEntity
  8
0
  6
Continuous
 62
     7
100
AcDbLine
 10
149.3164396692239
 20
-102.6452152022942
 30
0.0
 11
150.1649678066478
 21
-101.7966870648703
 31
0.0
  0
LINE
  5
1B1E
330
1F
100
AcDbEntity
  8
0
  6
Continuous
 62
     7
100
AcDbLine
 10
149.9528357722919
 20
-103.2816113053624
 30
0.0
 11
149.3164396692239
 21
-102.6452152022942
 31
0.0
  0
LINE
  5
1B1F
330
1F
100
AcDbEntity
  8
0
  6
Continuous
 62
     7
100
AcDbLine
 10
149.3164396692239
 20
-105.3322209708032
 30
0.0
 11
149.9528357722918
 21
-104.6958248677355
 31
0.0
  0
ARC
  5
1B20
330
1F
100
AcDbEntity
  8
0
  6
Continuous
 62
     7
100
AcDbCircle
 10
149.2457289911053
 20
-103.9887180865489
 30
0.0
 40
1.0
100
AcDbArc
 50
314.9999999999948
 51
44.99999999999252
  0
CIRCLE
  5
1B21
330
1F
100
AcDbEntity
  8
0
  6
Continuous
 62
     7
100
AcDbCircle
 10
151.5084706909022
 20
-103.9887180865487
 30
0.0
 40
4.500000000000019
  0
ARC
  5
1B22
330
1F
100
AcDbEntity
  8
0
  6
DASH_CENTER
 62
     2
100
AcDbCircle
 10
206.5084706909019
 20
-103.9887180865486
 30
0.0
 40
54.9999999999997
100
AcDbArc
 50
166.9999999999993
 51
193.0000000000006
  0
LINE
  5
1B23
330
1F
100
AcDbEntity
  8
0
  6
Continuous
 62
     7
100
AcDbLine
 10
204.316439669224
 20
-157.6452152022943
 30
0.0
 11
204.7407037379361
 21
-157.2209511335823
 31
0.0
  0
LINE
  5
1B24
330
1F
100
AcDbEntity
  8
0
  6
Continuous
 62
     7
100
AcDbLine
 10
207.8519735751568
 20
-156.7966870648704
 30
0.0
 11
208.2762376438688
 21
-157.2209511335823
 31
0.0
  0
LINE
  5
1B25
330
1F
100
AcDbEntity
  8
0
  6
Continuous
 62
     7
100
AcDbLine
 10
208.7005017125806
 20
-160.3322209708031
 30
0.0
 11
207.8519735751569
 21
-161.1807491082271
 31
0.0
  0
LINE
  5
1B26
330
1F
100
AcDbEntity
  8
0
  6
Continuous
 62
     7
100
AcDbLine
 10
204.952835772292
 20
-158.2816113053621
 30
0.0
 11
204.316439669224
 21
-157.6452152022943
 31
0.0
  0
LINE
  5
1B27
330
1F
100
AcDbEntity
  8
0
  6
Continuous
 62
     7
100
AcDbLine
 10
207.2155774720891
 20
-157.4330831679383
 30
0.0
 11
207.8519735751568
 21
-156.7966870648704
 31
0.0
  0
LINE
  5
1B28
330
1F
100
AcDbEntity
  8
0
  6
Continuous
 62
     7
100
AcDbLine
 10
208.0641056095128
 20
-159.6958248677352
 30
0.0
 11
208.7005017125806
 21
-160.3322209708031
 31
0.0
  0
LINE
  5
1B29
330
1F
100
AcDbEntity
  8
0
  6
Continuous
 62
     7
100
AcDbLine
 10
204.316439669224
 20
-160.3322209708031
 30
0.0
 11
204.9528357722919
 21
-159.6958248677354
 31
0.0
  0
ARC
  5
1B2A
330
1F
100
AcDbEntity
  8
0
  6
Continuous
 62
     7
100
AcDbCircle
 10
204.2457289911055
 20
-158.9887180865487
 30
0.0
 40
1.0
100
AcDbArc
 50
314.9999999999919
 51
45.0000000000046
  0
LINE
  5
1B2B
330
1F
100
AcDbEntity
  8
0
  6
Continuous
 62
     7
100
AcDbLine
 10
205.1649678066479
 20
-156.7966870648704
 30
0.0
 11
205.801363909716
 21
-157.4330831679384
 31
0.0
  0
ARC
  5
1B2C
330
1F
100
AcDbEntity
  8
0
  6
Continuous
 62
     7
100
AcDbCircle
 10
206.5084706909025
 20
-156.7259763867518
 30
0.0
 40
1.0
100
AcDbArc
 50
225.0000000000081
 51
315.0000000000092
  0
LINE
  5
1B2D
330
1F
100
AcDbEntity
  8
0
  6
Continuous
 62
     7
100
AcDbLine
 10
208.7005017125806
 20
-157.6452152022943
 30
0.0
 11
208.0641056095128
 21
-158.2816113053622
 31
0.0
  0
ARC
  5
1B2E
330
1F
100
AcDbEntity
  8
0
  6
Continuous
 62
     7
100
AcDbCircle
 10
208.7712123906994
 20
-158.9887180865487
 30
0.0
 40
1.0
100
AcDbArc
 50
135.0000000000057
 51
224.9999999999954
  0
LINE
  5
1B2F
330
1F
100
AcDbEntity
  8
0
  6
Continuous
 62
     7
100
AcDbLine
 10
204.7407037379361
 20
-157.2209511335823
 30
0.0
 11
205.1649678066479
 21
-156.7966870648704
 31
0.0
  0
LINE
  5
1B30
330
1F
100
AcDbEntity
  8
0
  6
Continuous
 62
     7
100
AcDbLine
 10
208.2762376438688
 20
-157.2209511335823
 30
0.0
 11
208.7005017125806
 21
-157.6452152022943
 31
0.0
  0
LINE
  5
1B31
330
1F
100
AcDbEntity
  8
0
  6
Continuous
 62
     7
100
AcDbLine
 10
205.1649678066479
 20
-161.1807491082271
 30
0.0
 11
204.316439669224
 21
-160.3322209708031
 31
0.0
  0
LINE
  5
1B32
330
1F
100
AcDbEntity
  8
0
  6
Continuous
 62
     7
100
AcDbLine
 10
205.8013639097161
 20
-160.544353005159
 30
0.0
 11
205.1649678066479
 21
-161.1807491082271
 31
0.0
  0
LINE
  5
1B33
330
1F
100
AcDbEntity
  8
0
  6
Continuous
 62
     7
100
AcDbLine
 10
207.8519735751569
 20
-161.1807491082271
 30
0.0
 11
207.2155774720891
 21
-160.5443530051592
 31
0.0
  0
ARC
  5
1B34
330
1F
100
AcDbEntity
  8
0
  6
Continuous
 62
     7
100
AcDbCircle
 10
206.5084706909025
 20
-161.2514597863456
 30
0.0
 40
1.0
100
AcDbArc
 50
44.99999999999424
 51
134.9999999999919
  0
CIRCLE
  5
1B35
330
1F
100
AcDbEntity
  8
0
  6
Continuous
 62
     7
100
AcDbCircle
 10
206.5084706909023
 20
-158.9887180865487
 30
0.0
 40
4.500000000000019
  0
ARC
  5
1B36
330
1F
100
AcDbEntity
  8
0
  6
DASH_CENTER
 62
     2
100
AcDbCircle
 10
206.5084706909023
 20
-103.9887180865491
 30
0.0
 40
54.9999999999997
100
AcDbArc
 50
256.9999999999994
 51
283.0000000000006
  0
LINE
  5
1B37
330
1F
100
AcDbEntity
  8
0
  6
Continuous
 62
     7
100
AcDbLine
 10
260.1649678066479
 20
-106.180749108227
 30
0.0
 11
259.740703737936
 21
-105.7564850395149
 31
0.0
  0
LINE
  5
1B38
330
1F
100
AcDbEntity
  8
0
  6
Continuous
 62
     7
100
AcDbLine
 10
259.3164396692241
 20
-102.6452152022942
 30
0.0
 11
259.740703737936
 21
-102.2209511335822
 31
0.0
  0
LINE
  5
1B39
330
1F
100
AcDbEntity
  8
0
  6
Continuous
 62
     7
100
AcDbLine
 10
262.8519735751569
 20
-101.7966870648703
 30
0.0
 11
263.7005017125807
 21
-102.6452152022941
 31
0.0
  0
LINE
  5
1B3A
330
1F
100
AcDbEntity
  8
0
  6
Continuous
 62
     7
100
AcDbLine
 10
260.8013639097158
 20
-105.544353005159
 30
0.0
 11
260.1649678066479
 21
-106.180749108227
 31
0.0
  0
LINE
  5
1B3B
330
1F
100
AcDbEntity
  8
0
  6
Continuous
 62
     7
100
AcDbLine
 10
259.952835772292
 20
-103.2816113053619
 30
0.0
 11
259.3164396692241
 21
-102.6452152022942
 31
0.0
  0
LINE
  5
1B3C
330
1F
100
AcDbEntity
  8
0
  6
Continuous
 62
     7
100
AcDbLine
 10
262.2155774720889
 20
-102.4330831679382
 30
0.0
 11
262.8519735751569
 21
-101.7966870648703
 31
0.0
  0
LINE
  5
1B3D
330
1F
100
AcDbEntity
  8
0
  6
Continuous
 62
     7
100
AcDbLine
 10
262.8519735751569
 20
-106.180749108227
 30
0.0
 11
262.2155774720891
 21
-105.544353005159
 31
0.0
  0
ARC
  5
1B3E
330
1F
100
AcDbEntity
  8
0
  6
Continuous
 62
     7
100
AcDbCircle
 10
261.5084706909024
 20
-106.2514597863455
 30
0.0
 40
1.0
100
AcDbArc
 50
44.99999999999194
 51
135.0000000000046
  0
LINE
  5
1B3F
330
1F
100
AcDbEntity
  8
0
  6
Continuous
 62
     7
100
AcDbLine
 10
259.3164396692241
 20
-105.3322209708031
 30
0.0
 11
259.9528357722921
 21
-104.695824867735
 31
0.0
  0
ARC
  5
1B40
330
1F
100
AcDbEntity
  8
0
  6
Continuous
 62
     7
100
AcDbCircle
 10
259.2457289911055
 20
-103.9887180865485
 30
0.0
 40
1.0
100
AcDbArc
 50
315.0000000000092
 51
45.00000000000921
  0
LINE
  5
1B41
330
1F
100
AcDbEntity
  8
0
  6
Continuous
 62
     7
100
AcDbLine
 10
260.1649678066479
 20
-101.7966870648703
 30
0.0
 11
260.8013639097159
 21
-102.4330831679382
 31
0.0
  0
ARC
  5
1B42
330
1F
100
AcDbEntity
  8
0
  6
Continuous
 62
     7
100
AcDbCircle
 10
261.5084706909024
 20
-101.7259763867516
 30
0.0
 40
1.0
100
AcDbArc
 50
225.0000000000046
 51
314.9999999999954
  0
LINE
  5
1B43
330
1F
100
AcDbEntity
  8
0
  6
Continuous
 62
     7
100
AcDbLine
 10
259.740703737936
 20
-105.7564850395149
 30
0.0
 11
259.3164396692241
 21
-105.3322209708031
 31
0.0
  0
LINE
  5
1B44
330
1F
100
AcDbEntity
  8
0
  6
Continuous
 62
     7
100
AcDbLine
 10
259.740703737936
 20
-102.2209511335822
 30
0.0
 11
260.1649678066479
 21
-101.7966870648703
 31
0.0
  0
LINE
  5
1B45
330
1F
100
AcDbEntity
  8
0
  6
Continuous
 62
     7
100
AcDbLine
 10
263.7005017125807
 20
-105.3322209708031
 30
0.0
 11
262.8519735751569
 21
-106.180749108227
 31
0.0
  0
LINE
  5
1B46
330
1F
100
AcDbEntity
  8
0
  6
Continuous
 62
     7
100
AcDbLine
 10
263.0641056095127
 20
-104.6958248677349
 30
0.0
 11
263.7005017125807
 21
-105.3322209708031
 31
0.0
  0
LINE
  5
1B47
330
1F
100
AcDbEntity
  8
0
  6
Continuous
 62
     7
100
AcDbLine
 10
263.7005017125807
 20
-102.6452152022941
 30
0.0
 11
263.0641056095129
 21
-103.2816113053618
 31
0.0
  0
ARC
  5
1B48
330
1F
100
AcDbEntity
  8
0
  6
Continuous
 62
     7
100
AcDbCircle
 10
263.7712123906993
 20
-103.9887180865485
 30
0.0
 40
1.0
100
AcDbArc
 50
134.9999999999954
 51
224.9999999999919
  0
CIRCLE
  5
1B49
330
1F
100
AcDbEntity
  8
0
  6
Continuous
 62
     7
100
AcDbCircle
 10
261.5084706909024
 20
-103.9887180865487
 30
0.0
 40
4.500000000000019
  0
ARC
  5
1B4A
330
1F
100
AcDbEntity
  8
0
  6
DASH_CENTER
 62
     2
100
AcDbCircle
 10
206.5084706909027
 20
-103.9887180865487
 30
0.0
 40
54.9999999999997
100
AcDbArc
 50
346.999999999999
 51
13.000000000001
  0
ARC
  5
1B4B
330
1F
100
AcDbEntity
  8
0
  6
Continuous
 62
     7
100
AcDbCircle
 10
338.0065836091209
 20
71.55330755797923
 30
0.0
 40
10.0
100
AcDbArc
 50
41.88613944434981
 51
89.4594898128693
  0
ARC
  5
1B4C
330
1F
100
AcDbEntity
  8
0
  6
Continuous
 62
     7
100
AcDbCircle
 10
347.5084706909025
 20
60.95812609750698
 30
0.0
 40
10.0
100
AcDbArc
 50
0.0
 51
41.88613944434981
  0
ARC
  5
1B4D
330
1F
100
AcDbEntity
  8
0
  6
Continuous
 62
     7
100
AcDbCircle
 10
347.5084706909025
 20
-40.93556227060404
 30
0.0
 40
10.0
100
AcDbArc
 50
318.1138605556503
 51
0.0
  0
ARC
  5
1B4E
330
1F
100
AcDbEntity
  8
0
  6
Continuous
 62
     7
100
AcDbCircle
 10
338.0065836091209
 20
-51.5307437310763
 30
0.0
 40
10.0
100
AcDbArc
 50
270.5405101871307
 51
318.1138605556503
  0
ARC
  5
1B51
330
1F
100
AcDbEntity
  8
0
  6
Continuous
 62
     7
100
AcDbCircle
 10
127.2084706909021
 20
69.51128191345155
 30
0.0
 40
1.5
100
AcDbArc
 50
90.0
 51
180.0
  0
ARC
  5
1B52
330
1F
100
AcDbEntity
  8
0
  6
Continuous
 62
     7
100
AcDbCircle
 10
127.2084706909021
 20
-49.48871808654853
 30
0.0
 40
1.5
100
AcDbArc
 50
180.0
 51
270.0
  0
ARC
  5
1B53
330
1F
100
AcDbEntity
  8
0
  6
Continuous
 62
     7
100
AcDbCircle
 10
171.2084706909022
 20
166.5112819134516
 30
0.0
 40
1.5
100
AcDbArc
 50
90.0
 51
180.0
  0
ARC
  5
1B54
330
1F
100
AcDbEntity
  8
0
  6
Continuous
 62
     7
100
AcDbCircle
 10
184.2084706909023
 20
166.5112819134516
 30
0.0
 40
1.5
100
AcDbArc
 50
0.0
 51
90.0
  0
ARC
  5
1B55
330
1F
100
AcDbEntity
  8
0
  6
Continuous
 62
     7
100
AcDbCircle
 10
166.2085706909024
 20
154.3411531613688
 30
0.0
 40
1.9
100
AcDbArc
 50
95.00113692380759
 51
180.0
  0
ARC
  5
1B56
330
1F
100
AcDbEntity
  8
0
  6
Continuous
 62
     7
100
AcDbCircle
 10
166.2085706909024
 20
148.0055922997187
 30
0.0
 40
1.9
100
AcDbArc
 50
180.0
 51
265.0014888247165
  0
ARC
  5
1B57
330
1F
100
AcDbEntity
  8
0
  6
Continuous
 62
     7
100
AcDbCircle
 10
158.2085706909023
 20
82.11294441323696
 30
0.0
 40
1.9
100
AcDbArc
 50
94.99851117527832
 51
180.0
  0
ARC
  5
1B58
330
1F
100
AcDbEntity
  8
0
  6
Continuous
 62
     7
100
AcDbCircle
 10
158.2085706909023
 20
75.77738355158671
 30
0.0
 40
1.9
100
AcDbArc
 50
180.0
 51
264.9988630761931
  0
ARC
  5
1B59
330
1F
100
AcDbEntity
  8
0
  6
Continuous
 62
     7
100
AcDbCircle
 10
240.0083706909023
 20
70.38994043233834
 30
0.0
 40
1.9
100
AcDbArc
 50
0.0
 51
84.99886307619506
  0
ARC
  5
1B5A
330
1F
100
AcDbEntity
  8
0
  6
Continuous
 62
     7
100
AcDbCircle
 10
240.0083706909023
 20
64.05437957068802
 30
0.0
 40
1.9
100
AcDbArc
 50
274.9985111752808
 51
0.0
  0
ARC
  5
1B5B
330
1F
100
AcDbEntity
  8
0
  6
Continuous
 62
     7
100
AcDbCircle
 10
158.2085706909023
 20
13.1791123440481
 30
0.0
 40
1.9
100
AcDbArc
 50
94.99851117527978
 51
180.0
  0
ARC
  5
1B5C
330
1F
100
AcDbEntity
  8
0
  6
Continuous
 62
     7
100
AcDbCircle
 10
158.2085706909023
 20
6.84355148239782
 30
0.0
 40
1.9
100
AcDbArc
 50
180.0
 51
264.9988630761932
  0
ARC
  5
1B5D
330
1F
100
AcDbEntity
  8
0
  6
Continuous
 62
     7
100
AcDbCircle
 10
166.2085706909023
 20
13.17911234404809
 30
0.0
 40
1.9
100
AcDbArc
 50
94.99851117527978
 51
180.0
  0
ARC
  5
1B5E
330
1F
100
AcDbEntity
  8
0
  6
Continuous
 62
     7
100
AcDbCircle
 10
166.2085706909023
 20
6.843551482397831
 30
0.0
 40
1.9
100
AcDbArc
 50
180.0
 51
264.9988630761931
  0
ARC
  5
1B5F
330
1F
100
AcDbEntity
  8
0
  6
Continuous
 62
     7
100
AcDbCircle
 10
158.2085706909023
 20
-55.75481972468371
 30
0.0
 40
1.9
100
AcDbArc
 50
95.00113692380672
 51
180.0
  0
ARC
  5
1B64
330
1F
100
AcDbEntity
  8
0
  6
Continuous
 62
     7
100
AcDbCircle
 10
159.7084706909023
 20
-52.98871808654853
 30
0.0
 40
2.0
100
AcDbArc
 50
0.0
 51
90.0
  0
ARC
  5
1B65
330
1F
100
AcDbEntity
  8
0
  6
Continuous
 62
     7
100
AcDbCircle
 10
159.7084706909023
 20
73.01128191345156
 30
0.0
 40
2.0
100
AcDbArc
 50
270.0
 51
0.0
  0
ARC
  5
1B66
330
1F
100
AcDbEntity
  8
0
  6
Continuous
 62
     7
100
AcDbCircle
 10
235.5084706909023
 20
83.28537046668182
 30
0.0
 40
1.0
100
AcDbArc
 50
0.0
 51
90.0
  0
ENDSEC
  0
SECTION
  2
OBJECTS
  0
DICTIONARY
  5
C
330
0
100
AcDbDictionary
281
     1
  3
ACAD_CIP_PREVIOUS_PRODUCT_INFO
350
191E
  3
ACAD_COLOR
350
A58
  3
ACAD_GROUP
350
D
  3
ACAD_LAYOUT
350
1A
  3
ACAD_MATERIAL
350
A57
  3
ACAD_MLEADERSTYLE
350
191B
  3
ACAD_MLINESTYLE
350
17
  3
ACAD_PLOTSETTINGS
350
19
  3
ACAD_PLOTSTYLENAME
350
E
  3
ACAD_SCALELIST
350
1909
  3
ACAD_TABLESTYLE
350
1907
  3
ACAD_VISUALSTYLE
350
18EE
  3
ACDB_RECOMPOSE_DATA
350
1BE0
  3
AcDbVariableDictionary
350
1925
  3
DWGPROPS
350
1BE1
  0
DICTIONARY
  5
191F
330
10
100
AcDbDictionary
280
     1
281
     1
  3
ADSK_XREC_LAYER_RECONCILED
360
1920
  0
DICTIONARY
  5
1921
330
31
100
AcDbDictionary
280
     1
281
     1
  3
ADSK_XREC_LAYER_RECONCILED
360
1922
  0
DICTIONARY
  5
1923
330
32
100
AcDbDictionary
280
     1
281
     1
  3
ADSK_XREC_LAYER_RECONCILED
360
1924
  0
DICTIONARY
  5
19BE
330
1F
100
AcDbDictionary
280
     1
281
     1
  3
ACAD_SORTENTS
360
19BF
  0
XRECORD
  5
191E
102
{ACAD_REACTORS
330
C
102
}
330
C
100
AcDbXrecord
280
     1
300
ACDLT
300
2012
300
ACDLT_F_S
  0
DICTIONARY
  5
A58
102
{ACAD_REACTORS
330
C
102
}
330
C
100
AcDbDictionary
281
     1
  0
DICTIONARY
  5
D
102
{ACAD_REACTORS
330
C
102
}
330
C
100
AcDbDictionary
281
     1
  0
DICTIONARY
  5
1A
102
{ACAD_REACTORS
330
C
102
}
330
C
100
AcDbDictionary
281
     1
  3
Layout1
350
1E
  3
Layout2
350
26
  3
Model
350
22
  0
DICTIONARY
  5
A57
102
{ACAD_REACTORS
330
C
102
}
330
C
100
AcDbDictionary
281
     1
  3
ByBlock
350
18DE
  3
ByLayer
350
18D6
  3
Global
350
18E6
  0
DICTIONARY
  5
191B
102
{ACAD_REACTORS
330
C
102
}
330
C
100
AcDbDictionary
281
     1
  3
Standard
350
191C
  0
DICTIONARY
  5
17
102
{ACAD_REACTORS
330
C
102
}
330
C
100
AcDbDictionary
281
     1
  3
Standard
350
18
  0
DICTIONARY
  5
19
102
{ACAD_REACTORS
330
C
102
}
330
C
100
AcDbDictionary
281
     1
  0
ACDBDICTIONARYWDFLT
  5
E
102
{ACAD_REACTORS
330
C
102
}
330
C
100
AcDbDictionary
281
     1
  3
Normal
350
F
100
AcDbDictionaryWithDefault
340
F
  0
DICTIONARY
  5
1909
102
{ACAD_REACTORS
330
C
102
}
330
C
100
AcDbDictionary
281
     1
  3
A0
350
190A
  3
A1
350
190B
  3
A2
350
190C
  3
A3
350
190D
  3
A4
350
190E
  3
A5
350
190F
  3
A6
350
1910
  3
A7
350
1911
  3
A8
350
1912
  3
A9
350
1913
  3
B0
350
1914
  3
B1
350
1915
  3
B2
350
1916
  3
B3
350
1917
  3
B4
350
1918
  3
B5
350
1919
  3
B6
350
191A
  0
DICTIONARY
  5
1907
102
{ACAD_REACTORS
330
C
102
}
330
C
100
AcDbDictionary
281
     1
  3
Standard
350
1908
  0
DICTIONARY
  5
18EE
102
{ACAD_REACTORS
330
C
102
}
330
C
100
AcDbDictionary
281
     1
  3
2dWireframe
350
18F4
  3
Basic
350
18F3
  3
Brighten
350
18FA
  3
ColorChange
350
18FE
  3
Conceptual
350
18F7
  3
Dim
350
18F9
  3
EdgeColorOff
350
1906
  3
Facepattern
350
18FD
  3
Flat
350
18EF
  3
FlatWithEdges
350
18F0
  3
Gouraud
350
18F1
  3
GouraudWithEdges
350
18F2
  3
Hidden
350
18F6
  3
JitterOff
350
1904
  3
Linepattern
350
18FC
  3
OverhangOff
350
1905
  3
Realistic
350
18F8
  3
Shaded
350
1903
  3
Shaded with edges
350
1902
  3
Shades of Gray
350
18FF
  3
Sketchy
350
1900
  3
Thicken
350
18FB
  3
Wireframe
350
18F5
  3
X-Ray
350
1901
  0
XRECORD
  5
1BE0
102
{ACAD_REACTORS
330
C
102
}
330
C
100
AcDbXrecord
280
     1
 90
        1
330
1908
  0
DICTIONARY
  5
1925
102
{ACAD_REACTORS
330
C
102
}
330
C
100
AcDbDictionary
281
     1
  3
CANNOSCALE
350
1928
  3
CMLEADERSTYLE
350
1927
  3
CTABLESTYLE
350
1926
  3
DIMASSOC
350
192C
  3
INDEXCTL
350
192A
  3
SORTENTS
350
1929
  3
XCLIPFRAME
350
1BA4
  0
XRECORD
  5
1BE1
102
{ACAD_REACTORS
330
C
102
}
330
C
100
AcDbXrecord
280
     1
  1
DWGPROPS COOKIE
  2

  3

  4

  6

  7

  8
to.oishi
  9

300
=
301
=
302
=
303
=
304
=
305
=
306
=
307
=
308
=
309
=
 40
0.1213863541666667
 41
2455106.661234085
 42
2458859.732106875
  1

 90
        0
  0
XRECORD
  5
1920
102
{ACAD_REACTORS
330
191F
102
}
330
191F
100
AcDbXrecord
280
     1
290
     1
  0
XRECORD
  5
1922
102
{ACAD_REACTORS
330
1921
102
}
330
1921
100
AcDbXrecord
280
     1
290
     1
  0
XRECORD
  5
1924
102
{ACAD_REACTORS
330
1923
102
}
330
1923
100
AcDbXrecord
280
     1
290
     1
  0
SORTENTSTABLE
  5
19BF
102
{ACAD_REACTORS
330
19BE
102
}
330
19BE
100
AcDbSortentsTable
330
1F
331
1B38
  5
1B4E
331
1080
  5
109E
331
1091
  5
10B0
331
F48
  5
F5D
331
DC0
  5
DC3
331
1B49
  5
1B65
331
10A2
  5
10C5
331
F59
  5
F6C
331
DD1
  5
DD5
331
1A3A
  5
1A77
331
1183
  5
11B7
331
F6A
  5
F7D
331
DE2
  5
DE9
331
1A63
  5
1A21
331
FD3
  5
FED
331
10B3
  5
10F0
331
1A74
  5
1A8F
331
1194
  5
11C5
331
F7B
  5
F8F
331
DF3
  5
DFA
331
FE4
  5
FFE
331
1A85
  5
1AA0
331
1A5C
  5
1A80
331
E04
  5
E0B
331
FF5
  5
100F
331
E15
  5
E1C
331
1A96
  5
1AB1
331
11B6
  5
11F9
331
1B56
  5
DBD
331
D7D
  5
D7E
331
FFE
  5
1018
331
11C7
  5
1212
331
1AA7
  5
1AC2
331
10EF
  5
1113
331
EA6
  5
EB1
331
E1E
  5
E25
331
100F
  5
1029
331
1AB8
  5
1AD3
331
1020
  5
103C
331
EB7
  5
EC3
331
1AC9
  5
1AE4
331
1111
  5
1189
331
1031
  5
104E
331
19D2
  5
1A59
331
1AE3
  5
1B02
331
1203
  5
1225
331
1122
  5
1198
331
1053
  5
1070
331
1214
  5
19CE
331
EFB
  5
F0E
331
ED9
  5
EEC
331
EC8
  5
ED6
331
1AF4
  5
1B0E
331
1B05
  5
1B1F
331
1064
  5
107F
331
1B16
  5
1B2C
331
F15
  5
F28
331
1144
  5
11B4
331
1B27
  5
1B3D
331
F8F
  5
FD5
331
F26
  5
F39
331
F37
  5
F4A
331
DAF
  5
DB0
331
D9F
  5
DA0
331
D8E
  5
D8F
331
D6C
  5
D6C
331
AD2
  5
AD2
331
AC1
  5
AC1
331
1070
  5
108C
331
1B28
  5
1B3E
331
F90
  5
FD6
331
1B39
  5
1B51
331
1081
  5
109F
331
F38
  5
F4B
331
1092
  5
10B1
331
F49
  5
F5E
331
DC1
  5
DC5
331
DB0
  5
DB1
331
1B4A
  5
1B66
331
10A3
  5
10C6
331
F5A
  5
F6D
331
DD2
  5
DD6
331
1A3B
  5
1A78
331
1184
  5
11B8
331
F6B
  5
F7E
331
DE3
  5
DEA
331
1A64
  5
1A62
331
FD4
  5
FEE
331
10B4
  5
10F3
331
1A75
  5
1A90
331
1195
  5
11C6
331
F7C
  5
F90
331
DF4
  5
DFB
331
FE5
  5
FFF
331
1A86
  5
1AA1
331
E05
  5
E0C
331
FF6
  5
1010
331
1A97
  5
1AB2
331
11B7
  5
11FA
331
1B57
  5
F99
331
E16
  5
E1D
331
D7E
  5
D7F
331
FFF
  5
1019
331
11C8
  5
1213
331
1AA8
  5
1AC3
331
10F0
  5
1114
331
1010
  5
102A
331
EA7
  5
EB2
331
E1F
  5
E26
331
1AB9
  5
1AD4
331
1021
  5
103D
331
EB8
  5
EC4
331
1ACA
  5
1AE5
331
1112
  5
118C
331
1032
  5
104F
331
19D3
  5
1A5A
331
1123
  5
1199
331
1043
  5
105F
331
1AE4
  5
1B03
331
1204
  5
1226
331
EEB
  5
EFE
331
EDA
  5
EED
331
EC9
  5
ED7
331
1AF5
  5
1B0F
331
1215
  5
19CF
331
EFC
  5
F0F
331
1B06
  5
1B20
331
1B17
  5
1B2D
331
F16
  5
F29
331
1065
  5
1080
331
F27
  5
F3A
331
1054
  5
1071
331
D8F
  5
D90
331
D6D
  5
D6D
331
AD3
  5
AD3
331
AC2
  5
AC2
331
1238
  5
19D6
331
1B18
  5
1B2E
331
F80
  5
F94
331
1071
  5
108D
331
F28
  5
F3B
331
1B29
  5
1B3F
331
F91
  5
FD7
331
DA0
  5
DA1
331
1B3A
  5
1B52
331
1082
  5
10A0
331
F39
  5
F4C
331
1093
  5
10B2
331
F4A
  5
F5F
331
DC2
  5
DC6
331
DB1
  5
DB2
331
1B4B
  5
EDA
331
10A4
  5
10C7
331
F5B
  5
F6E
331
DD3
  5
DD9
331
1A3C
  5
1A79
331
1185
  5
11B9
331
F6C
  5
F7F
331
DE4
  5
DEB
331
1A65
  5
1A1C
331
FD5
  5
FEF
331
10B5
  5
10F4
331
1A76
  5
1A91
331
1196
  5
11C7
331
F7D
  5
F91
331
DF5
  5
DFC
331
FE6
  5
1000
331
1A87
  5
1AA2
331
E06
  5
E0D
331
FF7
  5
1011
331
1A98
  5
1AB3
331
11B8
  5
11FB
331
1B58
  5
F98
331
E17
  5
E1E
331
D7F
  5
D80
331
1000
  5
101A
331
11C9
  5
1214
331
1AA9
  5
1AC4
331
10F1
  5
1115
331
1011
  5
102B
331
EA8
  5
EB3
331
E20
  5
E27
331
1ABA
  5
1AD5
331
1022
  5
103E
331
EB9
  5
EC5
331
1ACB
  5
1AE6
331
1033
  5
1050
331
19D4
  5
1A5B
331
11F4
  5
121A
331
1044
  5
1060
331
1AE5
  5
1B04
331
1205
  5
1227
331
EEC
  5
EFF
331
EDB
  5
EEE
331
ECA
  5
ED8
331
1216
  5
19D0
331
EFD
  5
F10
331
1AF6
  5
1B10
331
1B07
  5
1B21
331
1066
  5
1081
331
F17
  5
F2A
331
1146
  5
11B5
331
1055
  5
1072
331
D90
  5
D91
331
D6E
  5
D6E
331
AD4
  5
AD4
331
AC3
  5
AC3
331
1B08
  5
1B22
331
1239
  5
19D7
331
F18
  5
F2B
331
1B19
  5
1B2F
331
F81
  5
F95
331
1072
  5
108E
331
F29
  5
F3C
331
1B2A
  5
1B40
331
F92
  5
FD9
331
DA1
  5
DA2
331
1B3B
  5
1B53
331
1083
  5
10A1
331
F3A
  5
F4D
331
1A1B
  5
1A71
331
1094
  5
10B3
331
F4B
  5
F60
331
DC3
  5
DC7
331
DB2
  5
DB3
331
1B4C
  5
EE0
331
10A5
  5
10CE
331
F5C
  5
F6F
331
DD4
  5
DDA
331
1A3D
  5
1A7A
331
1186
  5
11BA
331
F6D
  5
F80
331
DE5
  5
DEC
331
1A66
  5
1A1E
331
FD6
  5
FF0
331
10B6
  5
10F5
331
1A77
  5
1A92
331
F7E
  5
F92
331
DF6
  5
DFD
331
FE7
  5
1001
331
1A88
  5
1AA3
331
E07
  5
E0E
331
D6F
  5
D70
331
1A99
  5
1AB4
331
11B9
  5
11FC
331
1B59
  5
ECF
331
1001
  5
101B
331
1AAA
  5
1AC5
331
11CA
  5
1217
331
1012
  5
102C
331
EA9
  5
EB4
331
E21
  5
E28
331
1ABB
  5
1AD6
331
1103
  5
1128
331
1023
  5
103F
331
EBA
  5
EC6
331
1ACC
  5
1AE7
331
19C4
  5
19FD
331
1034
  5
1051
331
19D5
  5
1A5C
331
1045
  5
1061
331
1AE6
  5
1B05
331
1206
  5
19BC
331
EED
  5
F00
331
EDC
  5
EEF
331
ECB
  5
ED9
331
1AF7
  5
1B11
331
1217
  5
19D1
331
1067
  5
1082
331
EFE
  5
F11
331
D91
  5
D92
331
D80
  5
D81
331
AC4
  5
AC4
331
1218
  5
19D2
331
1AF8
  5
1B12
331
1148
  5
11B6
331
1068
  5
1083
331
1B09
  5
FE2
331
F08
  5
F1B
331
123A
  5
19D8
331
F19
  5
F2C
331
1B1A
  5
1B30
331
F82
  5
F96
331
1073
  5
108F
331
F2A
  5
F3D
331
1B2B
  5
1B41
331
F93
  5
FDB
331
DA2
  5
DA3
331
1B3C
  5
1B54
331
1084
  5
10A3
331
F3B
  5
F4E
331
1A1C
  5
1A72
331
1095
  5
10B4
331
F4C
  5
F61
331
DC4
  5
DC8
331
DB3
  5
DB4
331
1B4D
  5
EDE
331
10A6
  5
10D3
331
F5D
  5
F70
331
DD5
  5
DDB
331
1187
  5
11BB
331
F6E
  5
F81
331
1A67
  5
1A82
331
10B7
  5
10F6
331
FD7
  5
FF1
331
DE6
  5
DED
331
1A78
  5
1A93
331
F7F
  5
F93
331
DF7
  5
DFE
331
FE8
  5
1002
331
1A89
  5
1AA4
331
E08
  5
E0F
331
D70
  5
D71
331
1A9A
  5
1AB5
331
11BA
  5
11FD
331
1B5A
  5
ED1
331
1002
  5
101C
331
1AAB
  5
1AC6
331
11CB
  5
1218
331
1013
  5
102D
331
EAA
  5
EB5
331
E22
  5
E29
331
1ABC
  5
1AD7
331
1104
  5
1129
331
1024
  5
1040
331
EBB
  5
EC7
331
1ACD
  5
1AE8
331
19C5
  5
19FE
331
1035
  5
1052
331
19D6
  5
1A63
331
1046
  5
1062
331
1AE7
  5
1B06
331
1207
  5
19BD
331
EEE
  5
F01
331
EDD
  5
EF0
331
ECC
  5
EDB
331
EFF
  5
F12
331
D92
  5
D93
331
D81
  5
D82
331
AC5
  5
AC5
331
1AE8
  5
1B07
331
1208
  5
19C0
331
1058
  5
1073
331
1AF9
  5
1B13
331
1219
  5
19D3
331
F00
  5
F13
331
1B0A
  5
FDC
331
F09
  5
F1C
331
1069
  5
1084
331
123B
  5
19D9
331
F1A
  5
F2D
331
1B1B
  5
1B31
331
F83
  5
F97
331
1074
  5
1090
331
F2B
  5
F3E
331
1B2C
  5
1B42
331
F94
  5
FDD
331
DA3
  5
DA4
331
1B3D
  5
1B55
331
1085
  5
10A4
331
F3C
  5
F4F
331
1A1D
  5
1A73
331
1096
  5
10B5
331
F4D
  5
F62
331
DC5
  5
DC9
331
DB4
  5
DB5
331
1B4E
  5
EDC
331
10A7
  5
10D5
331
F5E
  5
F71
331
DD6
  5
DDC
331
1A3F
  5
1A7B
331
1188
  5
11BC
331
F6F
  5
F82
331
DE7
  5
DEE
331
1A68
  5
1A83
331
FD8
  5
FF2
331
10B8
  5
10F7
331
1A79
  5
1A94
331
DF8
  5
DFF
331
FE9
  5
1003
331
1A8A
  5
1AA5
331
E09
  5
E10
331
D71
  5
D72
331
1A9B
  5
1AB6
331
11BB
  5
11FE
331
1B5B
  5
1099
331
1003
  5
101D
331
11CC
  5
1219
331
1AAC
  5
1AC7
331
10F4
  5
1116
331
1014
  5
102E
331
EAB
  5
EB6
331
E23
  5
E79
331
1ABD
  5
1AD8
331
1105
  5
112A
331
1025
  5
1041
331
EBC
  5
EC8
331
1ACE
  5
1AE9
331
19C6
  5
19FF
331
1036
  5
1053
331
19D7
  5
1A64
331
1127
  5
119A
331
1047
  5
1063
331
EEF
  5
F02
331
EDE
  5
EF1
331
ECD
  5
EDD
331
D93
  5
D94
331
D82
  5
D83
331
AC6
  5
AC6
331
19D8
  5
1A65
331
11F8
  5
121B
331
1AD8
  5
1AF7
331
1128
  5
11AC
331
1048
  5
1064
331
1AE9
  5
1B08
331
1209
  5
19C1
331
EF0
  5
F03
331
1059
  5
1074
331
1AFA
  5
1B14
331
121A
  5
19D4
331
F01
  5
F14
331
106A
  5
1085
331
1B0B
  5
FDA
331
F0A
  5
F1D
331
E79
  5
EA9
331
1B1C
  5
1B32
331
F84
  5
F9A
331
F1B
  5
F2E
331
1075
  5
1091
331
F2C
  5
F3F
331
1B2D
  5
1B43
331
F95
  5
FDE
331
DA4
  5
DA5
331
1B3E
  5
1B56
331
1086
  5
10A6
331
F3D
  5
F50
331
1A1E
  5
1A74
331
1097
  5
10B6
331
F4E
  5
F63
331
DC6
  5
DCA
331
DB5
  5
DB6
331
10A8
  5
10D6
331
F5F
  5
F72
331
DD7
  5
DDD
331
1A40
  5
1A7C
331
1189
  5
11BD
331
F70
  5
F83
331
DE8
  5
DEF
331
1A69
  5
1A84
331
FD9
  5
FF3
331
10B9
  5
10F8
331
1A7A
  5
1A95
331
DF9
  5
E00
331
FEA
  5
1004
331
1A8B
  5
1AA6
331
11AB
  5
11CA
331
E0A
  5
E11
331
D72
  5
D73
331
1A9C
  5
1AB7
331
11BC
  5
11FF
331
1B5C
  5
1098
331
1004
  5
101E
331
1AAD
  5
1AC8
331
10F5
  5
1117
331
1015
  5
102F
331
EAC
  5
EB7
331
E24
  5
E7A
331
1ABE
  5
1AD9
331
1106
  5
112B
331
1026
  5
1043
331
EBD
  5
EC9
331
1ACF
  5
1AEA
331
19C7
  5
1A01
331
EDF
  5
EF2
331
ECE
  5
EDF
331
D94
  5
D95
331
D83
  5
D84
331
AC7
  5
AC7
331
1AD0
  5
1AEB
331
19C8
  5
1A02
331
11F9
  5
121C
331
1AD9
  5
1AF8
331
1129
  5
11AD
331
1049
  5
1065
331
1AEA
  5
1B09
331
120A
  5
19C4
331
EF1
  5
F04
331
EE0
  5
EF3
331
105A
  5
1075
331
1AFB
  5
1B15
331
121B
  5
19D5
331
F02
  5
F15
331
106B
  5
1086
331
1B0C
  5
FD8
331
F0B
  5
F1E
331
E7A
  5
EAA
331
1B1D
  5
1B33
331
F85
  5
F9B
331
F1C
  5
F2F
331
19FD
  5
1A6C
331
1076
  5
1092
331
F2D
  5
F40
331
1B2E
  5
1B44
331
F96
  5
FDF
331
DA5
  5
DA6
331
1B3F
  5
1B57
331
1087
  5
10A7
331
F3E
  5
F53
331
1098
  5
10B7
331
F4F
  5
F64
331
DC7
  5
DCB
331
DB6
  5
DB7
331
10A9
  5
10D7
331
F60
  5
F73
331
FC9
  5
FE3
331
DD8
  5
DDE
331
118A
  5
11BE
331
F71
  5
F84
331
1A6A
  5
1A85
331
10BA
  5
10F9
331
FDA
  5
FF4
331
DE9
  5
DF0
331
1A7B
  5
1A96
331
DFA
  5
E01
331
FEB
  5
1005
331
11AC
  5
11CB
331
1A8C
  5
1AA7
331
10DC
  5
110B
331
E0B
  5
E12
331
D73
  5
D74
331
1A9D
  5
1AB8
331
11BD
  5
1200
331
1B5D
  5
DD8
331
1005
  5
101F
331
1AAE
  5
1AC9
331
10F6
  5
1118
331
1016
  5
1030
331
EAD
  5
EB8
331
E25
  5
EA4
331
19B7
  5
19DE
331
1ABF
  5
1ADA
331
1107
  5
112C
331
1027
  5
1044
331
EBE
  5
ECA
331
ECF
  5
EE1
331
D95
  5
D96
331
D84
  5
D85
331
AC8
  5
AC8
331
19B8
  5
19DF
331
1AC0
  5
1ADB
331
1108
  5
112D
331
1028
  5
1045
331
19C9
  5
1A1B
331
1AD1
  5
1AEC
331
1119
  5
118D
331
1039
  5
1054
331
ED0
  5
EE2
331
1ADA
  5
1AF9
331
112A
  5
11AE
331
104A
  5
1066
331
1AEB
  5
1B0A
331
120B
  5
19C5
331
EF2
  5
F05
331
EE1
  5
EF4
331
1AFC
  5
1B16
331
F03
  5
F16
331
105B
  5
1076
331
1B0D
  5
1B23
331
F0C
  5
F1F
331
106C
  5
1087
331
1B1E
  5
1B34
331
F86
  5
F9C
331
F1D
  5
F30
331
19FE
  5
1A6D
331
1077
  5
1093
331
F2E
  5
F41
331
1B2F
  5
1B45
331
F97
  5
FE0
331
DA6
  5
DA7
331
1B40
  5
1B58
331
1088
  5
10A8
331
F3F
  5
F54
331
1A20
  5
1A75
331
1099
  5
10B8
331
F50
  5
F65
331
DC8
  5
DCC
331
DB7
  5
DB8
331
10AA
  5
10DA
331
F61
  5
F74
331
FCA
  5
FE4
331
DD9
  5
DE0
331
118B
  5
11BF
331
F72
  5
F85
331
1A6B
  5
1A86
331
10BB
  5
10FA
331
FDB
  5
FF5
331
DEA
  5
DF1
331
1A7C
  5
1A97
331
DFB
  5
E02
331
FEC
  5
1006
331
11AD
  5
11CC
331
1A8D
  5
1AA8
331
10DD
  5
110C
331
E0C
  5
E13
331
D74
  5
D75
331
1A9E
  5
1AB9
331
11BE
  5
1202
331
1B5E
  5
DD7
331
1006
  5
1020
331
1AAF
  5
1ACA
331
10F7
  5
111A
331
1017
  5
1031
331
EAE
  5
EB9
331
E26
  5
EA5
331
EBF
  5
ECB
331
D96
  5
D97
331
D85
  5
D86
331
AC9
  5
AC9
331
1AB0
  5
1ACB
331
10F8
  5
111E
331
1018
  5
1032
331
19B9
  5
19E0
331
1AC1
  5
1ADC
331
1109
  5
1131
331
1029
  5
1046
331
EC0
  5
ECC
331
19CA
  5
1A1D
331
1AD2
  5
1AED
331
111A
  5
118E
331
103A
  5
1055
331
1ADB
  5
1AFA
331
104B
  5
1067
331
1AEC
  5
1B0B
331
120C
  5
19C6
331
EF3
  5
F06
331
EE2
  5
EF5
331
ED1
  5
EE3
331
1AFD
  5
1B17
331
F04
  5
F17
331
105C
  5
1077
331
1B0E
  5
1B24
331
F0D
  5
F20
331
1B1F
  5
1B35
331
F87
  5
F9E
331
F1E
  5
F31
331
106D
  5
1088
331
19FF
  5
1A6E
331
1078
  5
1094
331
F2F
  5
F42
331
1B30
  5
1B46
331
F98
  5
FE1
331
DA7
  5
DA8
331
1B41
  5
1B59
331
1089
  5
10A9
331
F40
  5
F55
331
1A21
  5
1A76
331
109A
  5
10B9
331
10AB
  5
10DC
331
F62
  5
F75
331
FCB
  5
FE5
331
DDA
  5
DE1
331
DC9
  5
DCD
331
118C
  5
11C0
331
F73
  5
F86
331
1A6C
  5
1A87
331
10BC
  5
10FB
331
DEB
  5
DF2
331
DB8
  5
DB9
331
FDC
  5
FF6
331
1A7D
  5
1A98
331
DFC
  5
E03
331
FED
  5
1007
331
11AE
  5
11CD
331
1A8E
  5
1AA9
331
10DE
  5
110D
331
E0D
  5
E14
331
D75
  5
D76
331
1A9F
  5
1ABA
331
11BF
  5
1203
331
1B5F
  5
10A2
331
1007
  5
1021
331
EAF
  5
EBA
331
E27
  5
EA6
331
D97
  5
D98
331
D86
  5
D87
331
D64
  5
D64
331
1AA0
  5
1ABB
331
11C0
  5
1204
331
1008
  5
1022
331
1AB1
  5
1ACC
331
10F9
  5
111F
331
1019
  5
1033
331
EB0
  5
EBC
331
E28
  5
EA7
331
19BA
  5
19E3
331
1AC2
  5
1ADD
331
110A
  5
1132
331
102A
  5
1047
331
EC1
  5
ECD
331
19CB
  5
1A20
331
1AD3
  5
1AEE
331
111B
  5
118F
331
103B
  5
1058
331
1ADC
  5
1AFB
331
104C
  5
1068
331
1AED
  5
1B0C
331
120D
  5
19C7
331
EF4
  5
F07
331
EE3
  5
EF6
331
ED2
  5
EE4
331
D98
  5
D99
331
1AFE
  5
1B18
331
F05
  5
F18
331
1B0F
  5
1B25
331
F0E
  5
F21
331
19E0
  5
1A68
331
1B20
  5
1B36
331
F88
  5
F9F
331
F1F
  5
F32
331
106E
  5
1089
331
1B31
  5
1B47
331
1079
  5
1095
331
F30
  5
F43
331
DA8
  5
DA9
331
1B42
  5
1B5A
331
108A
  5
10AA
331
F41
  5
F56
331
109B
  5
10BA
331
10AC
  5
10DD
331
F63
  5
F76
331
FCC
  5
FE6
331
DDB
  5
DE2
331
DCA
  5
DCE
331
118D
  5
11C1
331
F74
  5
F87
331
1A6D
  5
1A88
331
10BD
  5
10FC
331
DEC
  5
DF3
331
DB9
  5
DBA
331
105D
  5
1078
331
FDD
  5
FF7
331
1A7E
  5
1A99
331
10CE
  5
10FF
331
DFD
  5
E04
331
FEE
  5
1008
331
11AF
  5
11CE
331
1A8F
  5
1AAA
331
10DF
  5
110E
331
E0E
  5
E15
331
D76
  5
D77
331
D87
  5
D88
331
D65
  5
D65
331
1A90
  5
1AAB
331
11B0
  5
11CF
331
FF8
  5
1012
331
1AA1
  5
1ABC
331
11C1
  5
1205
331
EA0
  5
EAB
331
E18
  5
E1F
331
D88
  5
D89
331
1009
  5
1023
331
1AB2
  5
1ACD
331
10FA
  5
1120
331
101A
  5
1034
331
EB1
  5
EBD
331
E29
  5
EA8
331
19BB
  5
19E4
331
1AC3
  5
1ADE
331
110B
  5
1133
331
102B
  5
1048
331
EC2
  5
ECE
331
19CC
  5
1A3A
331
1AD4
  5
1AEF
331
111C
  5
1190
331
103C
  5
1059
331
1ADD
  5
1AFC
331
104D
  5
1069
331
1AEE
  5
1B0D
331
120E
  5
19C8
331
EF5
  5
F08
331
EE4
  5
EF7
331
ED3
  5
EE5
331
1AFF
  5
1B19
331
F06
  5
F19
331
1B10
  5
1B26
331
F0F
  5
F22
331
19E1
  5
1A69
331
1B21
  5
1B37
331
F89
  5
FA0
331
F20
  5
F33
331
106F
  5
108A
331
1A01
  5
1A6F
331
1B32
  5
1B48
331
107A
  5
1096
331
F31
  5
F44
331
DA9
  5
DAA
331
1B43
  5
1B5B
331
F42
  5
F57
331
109C
  5
10BB
331
F53
  5
F66
331
10AD
  5
10DE
331
F64
  5
F77
331
DDC
  5
DE3
331
DCB
  5
DCF
331
DBA
  5
DBB
331
105E
  5
1079
331
D99
  5
D9A
331
FCD
  5
FE7
331
118E
  5
11C2
331
F75
  5
F88
331
1A6E
  5
1A89
331
10BE
  5
10FD
331
DED
  5
DF4
331
FDE
  5
FF8
331
1A7F
  5
1A9A
331
10CF
  5
1100
331
DFE
  5
E05
331
FEF
  5
1009
331
E0F
  5
E16
331
D77
  5
D78
331
D66
  5
D66
331
AED
  5
AED
331
1A80
  5
1A9B
331
11A0
  5
11C8
331
FF0
  5
100A
331
1A91
  5
1AAC
331
11B1
  5
11D0
331
1B51
  5
106D
331
E10
  5
E17
331
D78
  5
D79
331
FF9
  5
1013
331
1AA2
  5
1ABD
331
11C2
  5
120D
331
EA1
  5
EAC
331
E19
  5
E20
331
100A
  5
1024
331
1AB3
  5
1ACE
331
10FB
  5
1121
331
101B
  5
1035
331
EB2
  5
EBE
331
1AC4
  5
1ADF
331
110C
  5
1148
331
102C
  5
1049
331
19CD
  5
1A3B
331
1AD5
  5
1AF4
331
111D
  5
1191
331
103D
  5
105A
331
ED4
  5
EE6
331
EC3
  5
ED0
331
1ADE
  5
1AFD
331
19DE
  5
1A66
331
104E
  5
106A
331
120F
  5
19C9
331
EF6
  5
F09
331
EE5
  5
EF8
331
105F
  5
107A
331
1B00
  5
1B1A
331
F07
  5
F1A
331
1B11
  5
1B27
331
F10
  5
F23
331
1B22
  5
1B38
331
F21
  5
F34
331
1A02
  5
1A70
331
1B33
  5
1B49
331
107B
  5
1097
331
F32
  5
F45
331
DAA
  5
DAB
331
1B44
  5
1B5C
331
108C
  5
10AB
331
F43
  5
F58
331
109D
  5
10BC
331
F54
  5
F67
331
10AE
  5
10E3
331
F65
  5
F78
331
FCE
  5
FE8
331
DDD
  5
DE4
331
DCC
  5
DD0
331
1A6F
  5
1A8A
331
10BF
  5
10FE
331
F76
  5
F89
331
DEE
  5
DF5
331
DBB
  5
DBC
331
1AEF
  5
D6F
331
D9A
  5
D9B
331
D89
  5
D8A
331
FDF
  5
FF9
331
DFF
  5
E06
331
D67
  5
D67
331
1A70
  5
1A8B
331
FE0
  5
FFA
331
11A1
  5
11C9
331
1A81
  5
1A9C
331
10D1
  5
1108
331
E00
  5
E07
331
FF1
  5
100B
331
E11
  5
E18
331
1A92
  5
1AAD
331
11B2
  5
11F5
331
1B52
  5
DDF
331
D79
  5
D7A
331
FFA
  5
1014
331
1AA3
  5
1ABE
331
11C3
  5
120E
331
EA2
  5
EAD
331
E1A
  5
E21
331
100B
  5
1025
331
1AB4
  5
1ACF
331
10FC
  5
1122
331
101C
  5
1036
331
EB3
  5
EBF
331
1AC5
  5
1AE0
331
110D
  5
114A
331
102D
  5
104A
331
19CE
  5
1A3C
331
1AD6
  5
1AF5
331
111E
  5
1192
331
103E
  5
105B
331
ED5
  5
EE7
331
EC4
  5
ED2
331
19DF
  5
1A67
331
11FF
  5
121E
331
1ADF
  5
1AFE
331
112F
  5
11AF
331
104F
  5
106B
331
1210
  5
19CA
331
EF7
  5
F0A
331
EE6
  5
EF9
331
1B01
  5
1B1B
331
1B12
  5
1B28
331
F11
  5
F24
331
1060
  5
107B
331
19E3
  5
1A6A
331
1B23
  5
1B39
331
F8B
  5
FA1
331
1B34
  5
1B4A
331
107C
  5
109A
331
F33
  5
F46
331
1B45
  5
1B5D
331
108D
  5
10AC
331
F44
  5
F59
331
DBC
  5
DBF
331
109E
  5
10BD
331
F55
  5
F68
331
10AF
  5
10E4
331
F66
  5
F79
331
FCF
  5
FE9
331
DDE
  5
DE5
331
DCD
  5
DD1
331
DAB
  5
DAC
331
F77
  5
F8A
331
DEF
  5
DF6
331
F22
  5
F35
331
D9B
  5
D9C
331
D8A
  5
D8B
331
D68
  5
D68
331
10B0
  5
10E5
331
FD0
  5
FEA
331
1A71
  5
1A8C
331
1191
  5
11C3
331
F78
  5
F8B
331
DF0
  5
DF7
331
FE1
  5
FFB
331
1A59
  5
1A7D
331
1A82
  5
1A9D
331
10D2
  5
1109
331
E01
  5
E08
331
FF2
  5
100C
331
E12
  5
E19
331
11B3
  5
11F6
331
1A93
  5
1AAE
331
10E3
  5
110F
331
1B53
  5
DC4
331
D7A
  5
D7B
331
FFB
  5
1015
331
11C4
  5
120F
331
1B64
  5
10A5
331
1AA4
  5
1ABF
331
10EC
  5
1110
331
EA3
  5
EAE
331
E1B
  5
E22
331
100C
  5
1026
331
1AB5
  5
1AD0
331
10FD
  5
1123
331
101D
  5
1039
331
EB4
  5
EC0
331
1AC6
  5
1AE1
331
110E
  5
114C
331
102E
  5
104B
331
19CF
  5
1A3D
331
1AD7
  5
1AF6
331
111F
  5
1196
331
103F
  5
105C
331
ED6
  5
EE8
331
EC5
  5
ED3
331
1AE0
  5
1AFF
331
1200
  5
121F
331
1050
  5
106C
331
1211
  5
19CB
331
EF8
  5
F0B
331
EE7
  5
EFA
331
1B02
  5
1B1C
331
1B13
  5
1B29
331
F12
  5
F25
331
1061
  5
107C
331
19E4
  5
1A6B
331
1B24
  5
1B3A
331
F8C
  5
FD2
331
1B35
  5
1B4B
331
107D
  5
109B
331
F34
  5
F47
331
1B46
  5
1B5E
331
108E
  5
10AD
331
F45
  5
F5A
331
DBD
  5
DC0
331
109F
  5
10BE
331
F56
  5
F69
331
F67
  5
F7A
331
DDF
  5
DE6
331
DCE
  5
DD2
331
DAC
  5
DAD
331
F23
  5
F36
331
D9C
  5
D9D
331
D8B
  5
D8C
331
D69
  5
D69
331
10A0
  5
10BF
331
10B1
  5
10E6
331
F68
  5
F7B
331
FD1
  5
FEB
331
DE0
  5
DE7
331
1A72
  5
1A8D
331
1192
  5
11C4
331
F79
  5
F8C
331
DF1
  5
DF8
331
FE2
  5
FFC
331
1A5A
  5
1A7E
331
1A83
  5
1A9E
331
10D3
  5
110A
331
E02
  5
E09
331
FF3
  5
100D
331
1A94
  5
1AAF
331
11B4
  5
11F7
331
1B54
  5
EBB
331
E13
  5
E1A
331
D7B
  5
D7C
331
FFC
  5
1016
331
1AA5
  5
1AC0
331
11C5
  5
1210
331
1B65
  5
F9D
331
EA4
  5
EAF
331
E1C
  5
E23
331
100D
  5
1027
331
1AB6
  5
1AD1
331
10FE
  5
1125
331
101E
  5
103A
331
EB5
  5
EC1
331
1AC7
  5
1AE2
331
110F
  5
1184
331
102F
  5
104C
331
19D0
  5
1A3F
331
1120
  5
1197
331
1040
  5
105D
331
ED7
  5
EE9
331
EC6
  5
ED4
331
1AE1
  5
1B00
331
1201
  5
1220
331
1051
  5
106E
331
1212
  5
19CC
331
EF9
  5
F0C
331
EE8
  5
EFB
331
1B03
  5
1B1D
331
1B14
  5
1B2A
331
F13
  5
F26
331
1062
  5
107D
331
1B25
  5
1B3B
331
F8D
  5
FD3
331
1B36
  5
1B4C
331
107E
  5
109C
331
F35
  5
F48
331
1B47
  5
1B5F
331
108F
  5
10AE
331
F46
  5
F5B
331
DBE
  5
DC1
331
F57
  5
F6A
331
DCF
  5
DD3
331
DAD
  5
DAE
331
F24
  5
F37
331
D9D
  5
D9E
331
D8C
  5
D8D
331
D6A
  5
D6A
331
1090
  5
10AF
331
1B48
  5
1B64
331
10A1
  5
10C4
331
F58
  5
F6B
331
1A62
  5
1A81
331
10B2
  5
10E7
331
F69
  5
F7C
331
FD2
  5
FEC
331
DE1
  5
DE8
331
DD0
  5
DD4
331
1A73
  5
1A8E
331
F7A
  5
F8D
331
FE3
  5
FFD
331
DF2
  5
DF9
331
1A84
  5
1A9F
331
1A5B
  5
1A7F
331
E03
  5
E0A
331
FF4
  5
100E
331
E14
  5
E1B
331
1A95
  5
1AB0
331
11B5
  5
11F8
331
1B55
  5
DBE
331
D7C
  5
D7D
331
FFD
  5
1017
331
1AA6
  5
1AC1
331
11C6
  5
1211
331
1B66
  5
EFC
331
EA5
  5
EB0
331
E1D
  5
E24
331
100E
  5
1028
331
1AB7
  5
1AD2
331
10FF
  5
1127
331
101F
  5
103B
331
EB6
  5
EC2
331
1AC8
  5
1AE3
331
1110
  5
1188
331
1030
  5
104D
331
19D1
  5
1A40
331
1041
  5
105E
331
1AE2
  5
1B01
331
1202
  5
1224
331
EE9
  5
EFD
331
ED8
  5
EEB
331
EC7
  5
ED5
331
1213
  5
19CD
331
EFA
  5
F0D
331
1052
  5
106F
331
1B04
  5
1B1E
331
1B15
  5
1B2B
331
F14
  5
F27
331
1063
  5
107E
331
1B26
  5
1B3C
331
F8E
  5
FD4
331
1B37
  5
1B4D
331
107F
  5
109D
331
F36
  5
F49
331
F47
  5
F5C
331
DBF
  5
DC2
331
DAE
  5
DAF
331
F25
  5
F38
331
D9E
  5
D9F
331
D8D
  5
D8E
331
AC0
  5
AC0
  0
LAYOUT
  5
1E
102
{ACAD_XDICTIONARY
360
1BE2
102
}
102
{ACAD_REACTORS
330
1A
102
}
330
1A
100
AcDbPlotSettings
  1

  2

  4

  6

 40
0.0
 41
0.0
 42
0.0
 43
0.0
 44
0.0
 45
0.0
 46
0.0
 47
0.0
 48
0.0
 49
0.0
140
0.0
141
0.0
142
1.0
143
1.0
 70
   688
 72
     0
 73
     0
 74
     5
  7
P社図面.ctb
 75
    16
147
1.0
148
0.0
149
0.0
100
AcDbLayout
  1
Layout1
 70
     1
 71
     1
 10
0.0
 20
0.0
 11
12.0
 21
9.0
 12
0.0
 22
0.0
 32
0.0
 14
1.000000000000000E+20
 24
1.000000000000000E+20
 34
1.000000000000000E+20
 15
-1.000000000000000E+20
 25
-1.000000000000000E+20
 35
-1.000000000000000E+20
146
0.0
 13
0.0
 23
0.0
 33
0.0
 16
1.0
 26
0.0
 36
0.0
 17
0.0
 27
1.0
 37
0.0
 76
     0
330
1B
  0
LAYOUT
  5
26
102
{ACAD_XDICTIONARY
360
1BE6
102
}
102
{ACAD_REACTORS
330
1A
102
}
330
1A
100
AcDbPlotSettings
  1

  2

  4

  6

 40
0.0
 41
0.0
 42
0.0
 43
0.0
 44
0.0
 45
0.0
 46
0.0
 47
0.0
 48
0.0
 49
0.0
140
0.0
141
0.0
142
1.0
143
1.0
 70
   688
 72
     0
 73
     0
 74
     5
  7
P社図面.ctb
 75
    16
147
1.0
148
0.0
149
0.0
100
AcDbLayout
  1
Layout2
 70
     1
 71
     2
 10
0.0
 20
0.0
 11
0.0
 21
0.0
 12
0.0
 22
0.0
 32
0.0
 14
0.0
 24
0.0
 34
0.0
 15
0.0
 25
0.0
 35
0.0
146
0.0
 13
0.0
 23
0.0
 33
0.0
 16
1.0
 26
0.0
 36
0.0
 17
0.0
 27
1.0
 37
0.0
 76
     0
330
23
  0
LAYOUT
  5
22
102
{ACAD_XDICTIONARY
360
1BE4
102
}
102
{ACAD_REACTORS
330
1A
102
}
330
1A
100
AcDbPlotSettings
  1

  2
Acrobat Distiller
  4
A3
  6

 40
3.174999952316282
 41
3.174999952316282
 42
3.17498779296875
 43
3.17498779296875
 44
297.0318298339844
 45
420.1583251953125
 46
0.0
 47
0.0
 48
0.0
 49
0.0
140
0.0
141
0.0
142
1.0
143
1.979296968291564
 70
 11952
 72
     1
 73
     1
 74
     1
  7
P社図面.ctb
 75
     0
147
0.5052298952709215
148
428.024791977424
149
286.0176547229163
100
AcDbLayout
  1
Model
 70
     1
 71
     0
 10
0.0
 20
0.0
 11
0.0
 21
0.0
 12
0.0
 22
0.0
 32
0.0
 14
-427.9997999999998
 24
-286.0002
 34
0.0
 15
390.9998
 25
285.9998
 35
0.0
146
0.0
 13
0.0
 23
0.0
 33
0.0
 16
1.0
 26
0.0
 36
0.0
 17
0.0
 27
1.0
 37
0.0
 76
     0
330
1F
331
18D0
  0
MATERIAL
  5
18DE
102
{ACAD_XDICTIONARY
360
18DF
102
}
102
{ACAD_REACTORS
330
A57
102
}
330
A57
100
AcDbMaterial
  1
ByBlock
 72
     0
 43
0.0208333333333333
 43
0.0
 43
0.0
 43
0.0
 43
0.0
 43
0.0208333333333333
 43
0.0
 43
0.0
 43
0.0
 43
0.0
 43
1.0
 43
0.0
 43
0.0
 43
0.0
 43
0.0
 43
1.0
 77
     0
 47
0.0208333333333333
 47
0.0
 47
0.0
 47
0.0
 47
0.0
 47
0.0208333333333333
 47
0.0
 47
0.0
 47
0.0
 47
0.0
 47
1.0
 47
0.0
 47
0.0
 47
0.0
 47
0.0
 47
1.0
171
     0
 49
0.0208333333333333
 49
0.0
 49
0.0
 49
0.0
 49
0.0
 49
0.0208333333333333
 49
0.0
 49
0.0
 49
0.0
 49
0.0
 49
1.0
 49
0.0
 49
0.0
 49
0.0
 49
0.0
 49
1.0
175
     0
142
0.0208333333333333
142
0.0
142
0.0
142
0.0
142
0.0
142
0.0208333333333333
142
0.0
142
0.0
142
0.0
142
0.0
142
1.0
142
0.0
142
0.0
142
0.0
142
0.0
142
1.0
179
     0
144
0.0208333333333333
144
0.0
144
0.0
144
0.0
144
0.0
144
0.0208333333333333
144
0.0
144
0.0
144
0.0
144
0.0
144
1.0
144
0.0
144
0.0
144
0.0
144
0.0
144
1.0
147
0.0208333333333333
147
0.0
147
0.0
147
0.0
147
0.0
147
0.0208333333333333
147
0.0
147
0.0
147
0.0
147
0.0
147
1.0
147
0.0
147
0.0
147
0.0
147
0.0
147
1.0
  0
MATERIAL
  5
18D6
102
{ACAD_XDICTIONARY
360
18D7
102
}
102
{ACAD_REACTORS
330
A57
102
}
330
A57
100
AcDbMaterial
  1
ByLayer
 72
     0
 43
0.0208333333333333
 43
0.0
 43
0.0
 43
0.0
 43
0.0
 43
0.0208333333333333
 43
0.0
 43
0.0
 43
0.0
 43
0.0
 43
1.0
 43
0.0
 43
0.0
 43
0.0
 43
0.0
 43
1.0
 77
     0
 47
0.0208333333333333
 47
0.0
 47
0.0
 47
0.0
 47
0.0
 47
0.0208333333333333
 47
0.0
 47
0.0
 47
0.0
 47
0.0
 47
1.0
 47
0.0
 47
0.0
 47
0.0
 47
0.0
 47
1.0
171
     0
 49
0.0208333333333333
 49
0.0
 49
0.0
 49
0.0
 49
0.0
 49
0.0208333333333333
 49
0.0
 49
0.0
 49
0.0
 49
0.0
 49
1.0
 49
0.0
 49
0.0
 49
0.0
 49
0.0
 49
1.0
175
     0
142
0.0208333333333333
142
0.0
142
0.0
142
0.0
142
0.0
142
0.0208333333333333
142
0.0
142
0.0
142
0.0
142
0.0
142
1.0
142
0.0
142
0.0
142
0.0
142
0.0
142
1.0
179
     0
144
0.0208333333333333
144
0.0
144
0.0
144
0.0
144
0.0
144
0.0208333333333333
144
0.0
144
0.0
144
0.0
144
0.0
144
1.0
144
0.0
144
0.0
144
0.0
144
0.0
144
1.0
147
0.0208333333333333
147
0.0
147
0.0
147
0.0
147
0.0
147
0.0208333333333333
147
0.0
147
0.0
147
0.0
147
0.0
147
1.0
147
0.0
147
0.0
147
0.0
147
0.0
147
1.0
  0
MATERIAL
  5
18E6
102
{ACAD_XDICTIONARY
360
18E7
102
}
102
{ACAD_REACTORS
330
A57
102
}
330
A57
100
AcDbMaterial
  1
Global
 72
     0
 43
0.0208333333333333
 43
0.0
 43
0.0
 43
0.0
 43
0.0
 43
0.0208333333333333
 43
0.0
 43
0.0
 43
0.0
 43
0.0
 43
1.0
 43
0.0
 43
0.0
 43
0.0
 43
0.0
 43
1.0
 77
     0
 47
0.0208333333333333
 47
0.0
 47
0.0
 47
0.0
 47
0.0
 47
0.0208333333333333
 47
0.0
 47
0.0
 47
0.0
 47
0.0
 47
1.0
 47
0.0
 47
0.0
 47
0.0
 47
0.0
 47
1.0
171
     0
 49
0.0208333333333333
 49
0.0
 49
0.0
 49
0.0
 49
0.0
 49
0.0208333333333333
 49
0.0
 49
0.0
 49
0.0
 49
0.0
 49
1.0
 49
0.0
 49
0.0
 49
0.0
 49
0.0
 49
1.0
175
     0
142
0.0208333333333333
142
0.0
142
0.0
142
0.0
142
0.0
142
0.0208333333333333
142
0.0
142
0.0
142
0.0
142
0.0
142
1.0
142
0.0
142
0.0
142
0.0
142
0.0
142
1.0
179
     0
144
0.0208333333333333
144
0.0
144
0.0
144
0.0
144
0.0
144
0.0208333333333333
144
0.0
144
0.0
144
0.0
144
0.0
144
1.0
144
0.0
144
0.0
144
0.0
144
0.0
144
1.0
147
0.0208333333333333
147
0.0
147
0.0
147
0.0
147
0.0
147
0.0208333333333333
147
0.0
147
0.0
147
0.0
147
0.0
147
1.0
147
0.0
147
0.0
147
0.0
147
0.0
147
1.0
  0
MLEADERSTYLE
  5
191C
102
{ACAD_REACTORS
330
191B
102
}
330
191B
100
AcDbMLeaderStyle
170
     2
171
     1
172
     0
 90
        2
 40
0.0
 41
0.0
173
     1
 91
-1056964608
340
14
 92
       -2
290
     1
 42
2.0
291
     1
 43
0.36
  3
Standard
 44
4.0
300

342
11
174
     1
178
     6
175
     1
176
     0
 93
-1056964608
 45
4.0
292
     0
297
     0
 46
4.0
 94
-1056964608
 47
1.0
 49
1.0
140
1.0
293
     1
141
0.0
294
     1
177
     0
142
1.0
295
     0
296
     0
143
0.125
1001
ACAD_MLEADERVER
1070
     2
  0
MLINESTYLE
  5
18
102
{ACAD_REACTORS
330
17
102
}
330
17
100
AcDbMlineStyle
  2
STANDARD
 70
     0
  3

 62
   256
 51
90.0
 52
90.0
 71
     2
 49
0.5
 62
   256
  6
BYLAYER
 49
-0.5
 62
   256
  6
BYLAYER
  0
ACDBPLACEHOLDER
  5
F
102
{ACAD_REACTORS
330
E
102
}
330
E
  0
SCALE
  5
190A
102
{ACAD_REACTORS
330
1909
102
}
330
1909
100
AcDbScale
 70
     0
300
1:1
140
1.0
141
1.0
290
     1
  0
SCALE
  5
190B
102
{ACAD_REACTORS
330
1909
102
}
330
1909
100
AcDbScale
 70
     0
300
1:2
140
1.0
141
2.0
290
     0
  0
SCALE
  5
190C
102
{ACAD_REACTORS
330
1909
102
}
330
1909
100
AcDbScale
 70
     0
300
1:4
140
1.0
141
4.0
290
     0
  0
SCALE
  5
190D
102
{ACAD_REACTORS
330
1909
102
}
330
1909
100
AcDbScale
 70
     0
300
1:5
140
1.0
141
5.0
290
     0
  0
SCALE
  5
190E
102
{ACAD_REACTORS
330
1909
102
}
330
1909
100
AcDbScale
 70
     0
300
1:8
140
1.0
141
8.0
290
     0
  0
SCALE
  5
190F
102
{ACAD_REACTORS
330
1909
102
}
330
1909
100
AcDbScale
 70
     0
300
1:10
140
1.0
141
10.0
290
     0
  0
SCALE
  5
1910
102
{ACAD_REACTORS
330
1909
102
}
330
1909
100
AcDbScale
 70
     0
300
1:16
140
1.0
141
16.0
290
     0
  0
SCALE
  5
1911
102
{ACAD_REACTORS
330
1909
102
}
330
1909
100
AcDbScale
 70
     0
300
1:20
140
1.0
141
20.0
290
     0
  0
SCALE
  5
1912
102
{ACAD_REACTORS
330
1909
102
}
330
1909
100
AcDbScale
 70
     0
300
1:30
140
1.0
141
30.0
290
     0
  0
SCALE
  5
1913
102
{ACAD_REACTORS
330
1909
102
}
330
1909
100
AcDbScale
 70
     0
300
1:40
140
1.0
141
40.0
290
     0
  0
SCALE
  5
1914
102
{ACAD_REACTORS
330
1909
102
}
330
1909
100
AcDbScale
 70
     0
300
1:50
140
1.0
141
50.0
290
     0
  0
SCALE
  5
1915
102
{ACAD_REACTORS
330
1909
102
}
330
1909
100
AcDbScale
 70
     0
300
1:100
140
1.0
141
100.0
290
     0
  0
SCALE
  5
1916
102
{ACAD_REACTORS
330
1909
102
}
330
1909
100
AcDbScale
 70
     0
300
2:1
140
2.0
141
1.0
290
     0
  0
SCALE
  5
1917
102
{ACAD_REACTORS
330
1909
102
}
330
1909
100
AcDbScale
 70
     0
300
4:1
140
4.0
141
1.0
290
     0
  0
SCALE
  5
1918
102
{ACAD_REACTORS
330
1909
102
}
330
1909
100
AcDbScale
 70
     0
300
8:1
140
8.0
141
1.0
290
     0
  0
SCALE
  5
1919
102
{ACAD_REACTORS
330
1909
102
}
330
1909
100
AcDbScale
 70
     0
300
10:1
140
10.0
141
1.0
290
     0
  0
SCALE
  5
191A
102
{ACAD_REACTORS
330
1909
102
}
330
1909
100
AcDbScale
 70
     0
300
100:1
140
100.0
141
1.0
290
     0
  0
TABLESTYLE
  5
1908
102
{ACAD_XDICTIONARY
360
192E
102
}
102
{ACAD_REACTORS
330
1907
102
}
330
1907
100
AcDbTableStyle
  3
Standard
 70
     0
 71
     0
 40
1.5
 41
1.5
280
     0
281
     0
  7
Standard
140
4.5
170
     2
 62
     0
 63
     7
283
     0
274
    -2
284
     1
 64
     0
275
    -2
285
     1
 65
     0
276
    -2
286
     1
 66
     0
277
    -2
287
     1
 67
     0
278
    -2
288
     1
 68
     0
279
    -2
289
     1
 69
     0
  7
Standard
140
6.0
170
     5
 62
     0
 63
     7
283
     0
274
    -2
284
     1
 64
     0
275
    -2
285
     1
 65
     0
276
    -2
286
     1
 66
     0
277
    -2
287
     1
 67
     0
278
    -2
288
     1
 68
     0
279
    -2
289
     1
 69
     0
  7
Standard
140
4.5
170
     5
 62
     0
 63
     7
283
     0
274
    -2
284
     1
 64
     0
275
    -2
285
     1
 65
     0
276
    -2
286
     1
 66
     0
277
    -2
287
     1
 67
     0
278
    -2
288
     1
 68
     0
279
    -2
289
     1
 69
     0
  0
VISUALSTYLE
  5
18F4
102
{ACAD_XDICTIONARY
360
1BF2
102
}
102
{ACAD_REACTORS
330
18EE
102
}
330
18EE
100
AcDbVisualStyle
  2

 70
     4
 71
     0
 72
     2
 73
     0
 90
        0
 40
-0.6
 41
-30.0
 62
     5
 63
     7
 74
     1
 91
        4
 64
     7
 65
   257
 75
     1
175
     1
 42
1.0
 92
        0
 66
   257
 43
1.0
 76
     1
 77
     6
 78
     2
 67
     7
 79
     5
170
     0
171
     0
290
     0
174
     0
 93
        1
 44
0.0
173
     0
291
     0
 45
0.0
1001
ACAD
1000
AcDbSavedByObjectVersion
1070
     0
  0
VISUALSTYLE
  5
18F3
102
{ACAD_XDICTIONARY
360
1BF0
102
}
102
{ACAD_REACTORS
330
18EE
102
}
330
18EE
100
AcDbVisualStyle
  2

 70
     7
 71
     1
 72
     0
 73
     1
 90
        0
 40
-0.6
 41
-30.0
 62
     5
 63
     7
 74
     0
 91
        4
 64
     7
 65
   257
 75
     1
175
     1
 42
1.0
 92
        8
 66
     7
 43
1.0
 76
     1
 77
     6
 78
     2
 67
     7
 79
     5
170
     0
171
     0
290
     0
174
     0
 93
        1
 44
0.0
173
     0
291
     1
 45
0.0
1001
ACAD
1000
AcDbSavedByObjectVersion
1070
     0
  0
VISUALSTYLE
  5
18FA
102
{ACAD_XDICTIONARY
360
1BFE
102
}
102
{ACAD_REACTORS
330
18EE
102
}
330
18EE
100
AcDbVisualStyle
  2

 70
    12
 71
     2
 72
     2
 73
     0
 90
        0
 40
-0.6
 41
-30.0
 62
     5
 63
     7
 74
     1
 91
        4
 64
     7
 65
   257
 75
     1
175
     1
 42
1.0
 92
        8
 66
     7
 43
1.0
 76
     1
 77
     6
 78
     2
 67
     7
 79
     5
170
     0
171
     0
290
     0
174
     0
 93
        1
 44
50.0
173
     0
291
     1
 45
0.0
1001
ACAD
1000
AcDbSavedByObjectVersion
1070
     0
  0
VISUALSTYLE
  5
18FE
102
{ACAD_XDICTIONARY
360
1C06
102
}
102
{ACAD_REACTORS
330
18EE
102
}
330
18EE
100
AcDbVisualStyle
  2

 70
    16
 71
     2
 72
     2
 73
     3
 90
        0
 40
-0.6
 41
-30.0
 62
     5
 63
     8
 74
     1
 91
        4
 64
     7
 65
   257
 75
     1
175
     1
 42
1.0
 92
        8
 66
     8
 43
1.0
 76
     1
 77
     6
 78
     2
 67
     7
 79
     5
170
     0
171
     0
290
     0
174
     0
 93
        1
 44
0.0
173
     0
291
     1
 45
0.0
1001
ACAD
1000
AcDbSavedByObjectVersion
1070
     0
  0
VISUALSTYLE
  5
18F7
102
{ACAD_XDICTIONARY
360
1BF8
102
}
102
{ACAD_REACTORS
330
18EE
102
}
330
18EE
100
AcDbVisualStyle
  2

 70
     9
 71
     3
 72
     2
 73
     0
 90
        0
 40
-0.6
 41
-30.0
 62
     5
 63
     7
 74
     2
 91
        2
 64
     7
 65
   257
 75
     1
175
     1
 42
179.0
 92
        8
 66
     7
 43
1.0
 76
     1
 77
     6
 78
     2
 67
     7
 79
     3
170
     0
171
     0
290
     0
174
     0
 93
        1
 44
0.0
173
     0
291
     0
 45
0.0
1001
ACAD
1000
AcDbSavedByObjectVersion
1070
     0
  0
VISUALSTYLE
  5
18F9
102
{ACAD_XDICTIONARY
360
1BFC
102
}
102
{ACAD_REACTORS
330
18EE
102
}
330
18EE
100
AcDbVisualStyle
  2

 70
    11
 71
     2
 72
     2
 73
     0
 90
        0
 40
-0.6
 41
-30.0
 62
     5
 63
     7
 74
     1
 91
        4
 64
     7
 65
   257
 75
     1
175
     1
 42
1.0
 92
        8
 66
     7
 43
1.0
 76
     1
 77
     6
 78
     2
 67
     7
 79
     5
170
     0
171
     0
290
     0
174
     0
 93
        1
 44
-50.0
173
     0
291
     1
 45
0.0
1001
ACAD
1000
AcDbSavedByObjectVersion
1070
     0
  0
VISUALSTYLE
  5
1906
102
{ACAD_XDICTIONARY
360
1C16
102
}
102
{ACAD_REACTORS
330
18EE
102
}
330
18EE
100
AcDbVisualStyle
  2

 70
    22
 71
     2
 72
     2
 73
     0
 90
        0
 40
-0.6
 41
-30.0
 62
     5
 63
     7
 74
     1
 91
        4
 64
     7
 65
   257
 75
     1
175
     1
 42
1.0
 92
        8
 66
     7
 43
1.0
 76
     1
 77
     6
 78
     2
 67
     7
 79
     5
170
     0
171
     0
290
     0
174
     0
 93
        1
 44
0.0
173
     0
291
     1
 45
0.0
1001
ACAD
1000
AcDbSavedByObjectVersion
1070
     0
  0
VISUALSTYLE
  5
18FD
102
{ACAD_XDICTIONARY
360
1C04
102
}
102
{ACAD_REACTORS
330
18EE
102
}
330
18EE
100
AcDbVisualStyle
  2

 70
    15
 71
     2
 72
     2
 73
     0
 90
        0
 40
-0.6
 41
-30.0
 62
     5
 63
     7
 74
     1
 91
        4
 64
     7
 65
   257
 75
     1
175
     1
 42
1.0
 92
        8
 66
     7
 43
1.0
 76
     1
 77
     6
 78
     2
 67
     7
 79
     5
170
     0
171
     0
290
     0
174
     0
 93
        1
 44
0.0
173
     0
291
     1
 45
0.0
1001
ACAD
1000
AcDbSavedByObjectVersion
1070
     0
  0
VISUALSTYLE
  5
18EF
102
{ACAD_XDICTIONARY
360
1BE8
102
}
102
{ACAD_REACTORS
330
18EE
102
}
330
18EE
100
AcDbVisualStyle
  2

 70
     0
 71
     2
 72
     1
 73
     1
 90
        2
 40
-0.6
 41
30.0
 62
     5
 63
     7
 74
     0
 91
        0
 64
     7
 65
   257
 75
     1
175
     1
 42
1.0
 92
        8
 66
     7
 43
1.0
 76
     1
 77
     6
 78
     2
 67
     7
 79
     5
170
     0
171
     0
290
     0
174
     0
 93
       13
 44
0.0
173
     0
291
     1
 45
0.0
1001
ACAD
1000
AcDbSavedByObjectVersion
1070
     0
  0
VISUALSTYLE
  5
18F0
102
{ACAD_XDICTIONARY
360
1BEA
102
}
102
{ACAD_REACTORS
330
18EE
102
}
330
18EE
100
AcDbVisualStyle
  2

 70
     1
 71
     2
 72
     1
 73
     1
 90
        2
 40
-0.6
 41
30.0
 62
     5
 63
     7
 74
     1
 91
        0
 64
     7
 65
   257
 75
     1
175
     1
 42
1.0
 92
        0
 66
   257
 43
1.0
 76
     1
 77
     6
 78
     2
 67
     7
 79
     5
170
     0
171
     0
290
     0
174
     0
 93
       13
 44
0.0
173
     0
291
     1
 45
0.0
1001
ACAD
1000
AcDbSavedByObjectVersion
1070
     0
  0
VISUALSTYLE
  5
18F1
102
{ACAD_XDICTIONARY
360
1BEC
102
}
102
{ACAD_REACTORS
330
18EE
102
}
330
18EE
100
AcDbVisualStyle
  2

 70
     2
 71
     2
 72
     2
 73
     1
 90
        2
 40
-0.6
 41
30.0
 62
     5
 63
     7
 74
     0
 91
        0
 64
     7
 65
   257
 75
     1
175
     1
 42
1.0
 92
        0
 66
     7
 43
1.0
 76
     1
 77
     6
 78
     2
 67
     7
 79
     5
170
     0
171
     0
290
     0
174
     0
 93
       13
 44
0.0
173
     0
291
     1
 45
0.0
1001
ACAD
1000
AcDbSavedByObjectVersion
1070
     0
  0
VISUALSTYLE
  5
18F2
102
{ACAD_XDICTIONARY
360
1BEE
102
}
102
{ACAD_REACTORS
330
18EE
102
}
330
18EE
100
AcDbVisualStyle
  2

 70
     3
 71
     2
 72
     2
 73
     1
 90
        2
 40
-0.6
 41
30.0
 62
     5
 63
     7
 74
     1
 91
        0
 64
     7
 65
   257
 75
     1
175
     1
 42
1.0
 92
        0
 66
   257
 43
1.0
 76
     1
 77
     6
 78
     2
 67
     7
 79
     5
170
     0
171
     0
290
     0
174
     0
 93
       13
 44
0.0
173
     0
291
     1
 45
0.0
1001
ACAD
1000
AcDbSavedByObjectVersion
1070
     0
  0
VISUALSTYLE
  5
18F6
102
{ACAD_XDICTIONARY
360
1BF6
102
}
102
{ACAD_REACTORS
330
18EE
102
}
330
18EE
100
AcDbVisualStyle
  2

 70
     6
 71
     1
 72
     2
 73
     2
 90
        0
 40
-0.6
 41
-30.0
 62
     5
 63
     7
 74
     2
 91
        2
 64
     7
 65
   257
 75
     2
175
     1
 42
40.0
 92
        0
 66
   257
 43
1.0
 76
     1
 77
     6
 78
     2
 67
     7
 79
     3
170
     0
171
     0
290
     0
174
     0
 93
        1
 44
0.0
173
     0
291
     0
 45
0.0
1001
ACAD
1000
AcDbSavedByObjectVersion
1070
     0
  0
VISUALSTYLE
  5
1904
102
{ACAD_XDICTIONARY
360
1C12
102
}
102
{ACAD_REACTORS
330
18EE
102
}
330
18EE
100
AcDbVisualStyle
  2

 70
    20
 71
     2
 72
     2
 73
     0
 90
        0
 40
-0.6
 41
-30.0
 62
     5
 63
     7
 74
     1
 91
        4
 64
     7
 65
   257
 75
     1
175
     1
 42
1.0
 92
       10
 66
     7
 43
1.0
 76
     1
 77
     6
 78
     2
 67
     7
 79
     5
170
     0
171
     0
290
     0
174
     0
 93
        1
 44
0.0
173
     0
291
     1
 45
0.0
1001
ACAD
1000
AcDbSavedByObjectVersion
1070
     0
  0
VISUALSTYLE
  5
18FC
102
{ACAD_XDICTIONARY
360
1C02
102
}
102
{ACAD_REACTORS
330
18EE
102
}
330
18EE
100
AcDbVisualStyle
  2

 70
    14
 71
     2
 72
     2
 73
     0
 90
        0
 40
-0.6
 41
-30.0
 62
     5
 63
     7
 74
     1
 91
        4
 64
     7
 65
   257
 75
     7
175
     7
 42
1.0
 92
        8
 66
     7
 43
1.0
 76
     1
 77
     6
 78
     2
 67
     7
 79
     5
170
     0
171
     0
290
     0
174
     0
 93
        1
 44
0.0
173
     0
291
     1
 45
0.0
1001
ACAD
1000
AcDbSavedByObjectVersion
1070
     0
  0
VISUALSTYLE
  5
1905
102
{ACAD_XDICTIONARY
360
1C14
102
}
102
{ACAD_REACTORS
330
18EE
102
}
330
18EE
100
AcDbVisualStyle
  2

 70
    21
 71
     2
 72
     2
 73
     0
 90
        0
 40
-0.6
 41
-30.0
 62
     5
 63
     7
 74
     1
 91
        4
 64
     7
 65
   257
 75
     1
175
     1
 42
1.0
 92
        9
 66
     7
 43
1.0
 76
     1
 77
     6
 78
     2
 67
     7
 79
     5
170
     0
171
     0
290
     0
174
     0
 93
        1
 44
0.0
173
     0
291
     1
 45
0.0
1001
ACAD
1000
AcDbSavedByObjectVersion
1070
     0
  0
VISUALSTYLE
  5
18F8
102
{ACAD_XDICTIONARY
360
1BFA
102
}
102
{ACAD_REACTORS
330
18EE
102
}
330
18EE
100
AcDbVisualStyle
  2

 70
     8
 71
     2
 72
     3
 73
     0
 90
        2
 40
-0.6
 41
30.0
 62
     5
 63
     7
 74
     0
 91
        0
 64
     7
 65
   257
 75
     1
175
     1
 42
1.0
 92
        8
 66
   257
 43
1.0
 76
     1
 77
     6
 78
     2
 67
     7
 79
     3
170
     0
171
     0
290
     0
174
     0
 93
       13
 44
0.0
173
     0
291
     0
 45
0.0
1001
ACAD
1000
AcDbSavedByObjectVersion
1070
     0
  0
VISUALSTYLE
  5
1903
102
{ACAD_XDICTIONARY
360
1C10
102
}
102
{ACAD_REACTORS
330
18EE
102
}
330
18EE
100
AcDbVisualStyle
  2

 70
    27
 71
     2
 72
     2
 73
     1
 90
        2
 40
-0.6
 41
30.0
 62
     5
 63
     7
 74
     0
 91
        4
 64
     7
 65
   257
 75
     1
175
     1
 42
1.0
 92
        8
 66
   257
 43
1.0
 76
     1
 77
     6
 78
     2
 67
     8
 79
     3
170
     0
171
     0
290
     0
174
     0
 93
        5
 44
0.0
173
     0
291
     0
 45
0.0
1001
ACAD
1000
AcDbSavedByObjectVersion
1070
     0
  0
VISUALSTYLE
  5
1902
102
{ACAD_XDICTIONARY
360
1C0E
102
}
102
{ACAD_REACTORS
330
18EE
102
}
330
18EE
100
AcDbVisualStyle
  2

 70
    26
 71
     2
 72
     2
 73
     1
 90
        2
 40
-0.6
 41
30.0
 62
     5
 63
     7
 74
     1
 91
       10
 64
     7
 65
   257
 75
     2
175
     1
 42
1.0
 92
        8
 66
   257
 43
1.0
 76
     1
 77
     6
 78
     2
 67
     7
 79
     3
170
     0
171
     0
290
     0
174
     0
 93
        5
 44
0.0
173
     0
291
     0
 45
0.0
1001
ACAD
1000
AcDbSavedByObjectVersion
1070
     0
  0
VISUALSTYLE
  5
18FF
102
{ACAD_XDICTIONARY
360
1C08
102
}
102
{ACAD_REACTORS
330
18EE
102
}
330
18EE
100
AcDbVisualStyle
  2

 70
    23
 71
     2
 72
     2
 73
     3
 90
        0
 40
-0.6
 41
-30.0
 62
     5
 63
     7
 74
     2
 91
        2
 64
     7
 65
     7
 75
     1
175
     1
 42
40.0
 92
        8
 66
     7
 43
1.0
 76
     1
 77
     6
 78
     2
 67
     7
 79
     3
170
     0
171
     0
290
     0
174
     0
 93
        1
 44
0.0
173
     0
291
     0
 45
0.0
1001
ACAD
1000
AcDbSavedByObjectVersion
1070
     0
  0
VISUALSTYLE
  5
1900
102
{ACAD_XDICTIONARY
360
1C0A
102
}
102
{ACAD_REACTORS
330
18EE
102
}
330
18EE
100
AcDbVisualStyle
  2

 70
    24
 71
     1
 72
     2
 73
     2
 90
        0
 40
-0.6
 41
-30.0
 62
     5
 63
     7
 74
     2
 91
        2
 64
     7
 65
     7
 75
     1
175
     1
 42
40.0
 92
       11
 66
     7
 43
1.0
 76
     1
 77
     6
 78
     2
 67
     7
 79
     6
170
     0
171
     0
290
     0
174
     0
 93
        1
 44
0.0
173
     0
291
     0
 45
0.0
1001
ACAD
1000
AcDbSavedByObjectVersion
1070
     0
  0
VISUALSTYLE
  5
18FB
102
{ACAD_XDICTIONARY
360
1C00
102
}
102
{ACAD_REACTORS
330
18EE
102
}
330
18EE
100
AcDbVisualStyle
  2

 70
    13
 71
     2
 72
     2
 73
     0
 90
        0
 40
-0.6
 41
-30.0
 62
     5
 63
     7
 74
     1
 91
        4
 64
     7
 65
   257
 75
     1
175
     1
 42
1.0
 92
       12
 66
     7
 43
1.0
 76
     1
 77
     6
 78
     2
 67
     7
 79
     5
170
     0
171
     0
290
     0
174
     0
 93
        1
 44
0.0
173
     0
291
     1
 45
0.0
1001
ACAD
1000
AcDbSavedByObjectVersion
1070
     0
  0
VISUALSTYLE
  5
18F5
102
{ACAD_XDICTIONARY
360
1BF4
102
}
102
{ACAD_REACTORS
330
18EE
102
}
330
18EE
100
AcDbVisualStyle
  2

 70
     5
 71
     0
 72
     2
 73
     0
 90
        0
 40
-0.6
 41
-30.0
 62
     5
 63
     7
 74
     1
 91
        4
 64
     7
 65
   257
 75
     1
175
     1
 42
1.0
 92
        0
 66
   257
 43
1.0
 76
     1
 77
     6
 78
     2
 67
     7
 79
     3
170
     0
171
     0
290
     0
174
     0
 93
        1
 44
0.0
173
     0
291
     0
 45
0.0
1001
ACAD
1000
AcDbSavedByObjectVersion
1070
     0
  0
VISUALSTYLE
  5
1901
102
{ACAD_XDICTIONARY
360
1C0C
102
}
102
{ACAD_REACTORS
330
18EE
102
}
330
18EE
100
AcDbVisualStyle
  2

 70
    25
 71
     2
 72
     2
 73
     1
 90
        1
 40
0.5
 41
-30.0
 62
     5
 63
     7
 74
     1
 91
        0
 64
     7
 65
   257
 75
     1
175
     1
 42
1.0
 92
        8
 66
     7
 43
1.0
 76
     1
 77
     6
 78
     2
 67
     7
 79
     3
170
     0
171
     0
290
     0
174
     0
 93
       13
 44
0.0
173
     0
291
     0
 45
0.0
1001
ACAD
1000
AcDbSavedByObjectVersion
1070
     0
  0
DICTIONARYVAR
  5
1928
102
{ACAD_REACTORS
330
1925
102
}
330
1925
100
DictionaryVariables
280
     0
  1
1:1
  0
DICTIONARYVAR
  5
1927
102
{ACAD_REACTORS
330
1925
102
}
330
1925
100
DictionaryVariables
280
     0
  1
STANDARD
  0
DICTIONARYVAR
  5
1926
102
{ACAD_REACTORS
330
1925
102
}
330
1925
100
DictionaryVariables
280
     0
  1
STANDARD
  0
DICTIONARYVAR
  5
192C
102
{ACAD_REACTORS
330
1925
102
}
330
1925
100
DictionaryVariables
280
     0
  1
1
  0
DICTIONARYVAR
  5
192A
102
{ACAD_REACTORS
330
1925
102
}
330
1925
100
DictionaryVariables
280
     0
  1
0
  0
DICTIONARYVAR
  5
1929
102
{ACAD_REACTORS
330
1925
102
}
330
1925
100
DictionaryVariables
280
     0
  1
127
  0
DICTIONARYVAR
  5
1BA4
102
{ACAD_REACTORS
330
1925
102
}
330
1925
100
DictionaryVariables
280
     0
  1
2
  0
DICTIONARY
  5
1BE2
330
1E
100
AcDbDictionary
280
     1
281
     1
  3
ACAD_XREC_ROUNDTRIP
360
1BE3
  0
DICTIONARY
  5
1BE6
330
26
100
AcDbDictionary
280
     1
281
     1
  3
ACAD_XREC_ROUNDTRIP
360
1BE7
  0
DICTIONARY
  5
1BE4
330
22
100
AcDbDictionary
280
     1
281
     1
  3
ACAD_XREC_ROUNDTRIP
360
1BE5
  0
DICTIONARY
  5
18DF
330
18DE
100
AcDbDictionary
280
     1
281
     1
  3
ACAD_XREC_ROUNDTRIP
360
1939
  3
BUMPTILE
360
18E1
  3
DIFFUSETILE
360
18E0
  3
OPACITYTILE
360
18E4
  3
REFLECTIONTILE
360
18E3
  3
REFRACTIONTILE
360
18E5
  3
SPECULARTILE
360
18E2
  0
DICTIONARY
  5
18D7
330
18D6
100
AcDbDictionary
280
     1
281
     1
  3
ACAD_XREC_ROUNDTRIP
360
1938
  3
BUMPTILE
360
18D9
  3
DIFFUSETILE
360
18D8
  3
OPACITYTILE
360
18DC
  3
REFLECTIONTILE
360
18DB
  3
REFRACTIONTILE
360
18DD
  3
SPECULARTILE
360
18DA
  0
DICTIONARY
  5
18E7
330
18E6
100
AcDbDictionary
280
     1
281
     1
  3
ACAD_XREC_ROUNDTRIP
360
193A
  3
BUMPTILE
360
18E9
  3
DIFFUSETILE
360
18E8
  3
OPACITYTILE
360
18EC
  3
REFLECTIONTILE
360
18EB
  3
REFRACTIONTILE
360
18ED
  3
SPECULARTILE
360
18EA
  0
DICTIONARY
  5
192E
330
1908
100
AcDbDictionary
280
     1
281
     1
  3
ACAD_ROUNDTRIP_2008_TABLESTYLE_CELLSTYLEMAP
360
1BDF
  3
ACAD_XREC_ROUNDTRIP
360
1C18
  0
DICTIONARY
  5
1BF2
330
18F4
100
AcDbDictionary
280
     1
281
     1
  3
ACAD_XREC_ROUNDTRIP
360
1BF3
  0
DICTIONARY
  5
1BF0
330
18F3
100
AcDbDictionary
280
     1
281
     1
  3
ACAD_XREC_ROUNDTRIP
360
1BF1
  0
DICTIONARY
  5
1BFE
330
18FA
100
AcDbDictionary
280
     1
281
     1
  3
ACAD_XREC_ROUNDTRIP
360
1BFF
  0
DICTIONARY
  5
1C06
330
18FE
100
AcDbDictionary
280
     1
281
     1
  3
ACAD_XREC_ROUNDTRIP
360
1C07
  0
DICTIONARY
  5
1BF8
330
18F7
100
AcDbDictionary
280
     1
281
     1
  3
ACAD_XREC_ROUNDTRIP
360
1BF9
  0
DICTIONARY
  5
1BFC
330
18F9
100
AcDbDictionary
280
     1
281
     1
  3
ACAD_XREC_ROUNDTRIP
360
1BFD
  0
DICTIONARY
  5
1C16
330
1906
100
AcDbDictionary
280
     1
281
     1
  3
ACAD_XREC_ROUNDTRIP
360
1C17
  0
DICTIONARY
  5
1C04
330
18FD
100
AcDbDictionary
280
     1
281
     1
  3
ACAD_XREC_ROUNDTRIP
360
1C05
  0
DICTIONARY
  5
1BE8
330
18EF
100
AcDbDictionary
280
     1
281
     1
  3
ACAD_XREC_ROUNDTRIP
360
1BE9
  0
DICTIONARY
  5
1BEA
330
18F0
100
AcDbDictionary
280
     1
281
     1
  3
ACAD_XREC_ROUNDTRIP
360
1BEB
  0
DICTIONARY
  5
1BEC
330
18F1
100
AcDbDictionary
280
     1
281
     1
  3
ACAD_XREC_ROUNDTRIP
360
1BED
  0
DICTIONARY
  5
1BEE
330
18F2
100
AcDbDictionary
280
     1
281
     1
  3
ACAD_XREC_ROUNDTRIP
360
1BEF
  0
DICTIONARY
  5
1BF6
330
18F6
100
AcDbDictionary
280
     1
281
     1
  3
ACAD_XREC_ROUNDTRIP
360
1BF7
  0
DICTIONARY
  5
1C12
330
1904
100
AcDbDictionary
280
     1
281
     1
  3
ACAD_XREC_ROUNDTRIP
360
1C13
  0
DICTIONARY
  5
1C02
330
18FC
100
AcDbDictionary
280
     1
281
     1
  3
ACAD_XREC_ROUNDTRIP
360
1C03
  0
DICTIONARY
  5
1C14
330
1905
100
AcDbDictionary
280
     1
281
     1
  3
ACAD_XREC_ROUNDTRIP
360
1C15
  0
DICTIONARY
  5
1BFA
330
18F8
100
AcDbDictionary
280
     1
281
     1
  3
ACAD_XREC_ROUNDTRIP
360
1BFB
  0
DICTIONARY
  5
1C10
330
1903
100
AcDbDictionary
280
     1
281
     1
  3
ACAD_XREC_ROUNDTRIP
360
1C11
  0
DICTIONARY
  5
1C0E
330
1902
100
AcDbDictionary
280
     1
281
     1
  3
ACAD_XREC_ROUNDTRIP
360
1C0F
  0
DICTIONARY
  5
1C08
330
18FF
100
AcDbDictionary
280
     1
281
     1
  3
ACAD_XREC_ROUNDTRIP
360
1C09
  0
DICTIONARY
  5
1C0A
330
1900
100
AcDbDictionary
280
     1
281
     1
  3
ACAD_XREC_ROUNDTRIP
360
1C0B
  0
DICTIONARY
  5
1C00
330
18FB
100
AcDbDictionary
280
     1
281
     1
  3
ACAD_XREC_ROUNDTRIP
360
1C01
  0
DICTIONARY
  5
1BF4
330
18F5
100
AcDbDictionary
280
     1
281
     1
  3
ACAD_XREC_ROUNDTRIP
360
1BF5
  0
DICTIONARY
  5
1C0C
330
1901
100
AcDbDictionary
280
     1
281
     1
  3
ACAD_XREC_ROUNDTRIP
360
1C0D
  0
XRECORD
  5
1BE3
102
{ACAD_REACTORS
330
1BE2
102
}
330
1BE2
100
AcDbXrecord
280
     1
102
SHADEPLOT
 70
     0
102
SHADEPLOTRESLEVEL
 70
     2
102
SHADEPLOTCUSTOMDPI
 70
   300
  0
XRECORD
  5
1BE7
102
{ACAD_REACTORS
330
1BE6
102
}
330
1BE6
100
AcDbXrecord
280
     1
102
SHADEPLOT
 70
     0
102
SHADEPLOTRESLEVEL
 70
     2
102
SHADEPLOTCUSTOMDPI
 70
   300
  0
XRECORD
  5
1BE5
102
{ACAD_REACTORS
330
1BE4
102
}
330
1BE4
100
AcDbXrecord
280
     1
102
SHADEPLOT
 70
     0
102
SHADEPLOTRESLEVEL
 70
     2
102
SHADEPLOTCUSTOMDPI
 70
   300
  0
XRECORD
  5
1939
102
{ACAD_REACTORS
330
18DF
102
}
330
18DF
100
AcDbXrecord
280
     1
102
MATERIAL
148
0.0
149
0.0
149
0.0
 93
        0
 94
      127
282
     0
 72
     0
 77
     0
171
     0
175
     0
179
     0
273
     0
  0
XRECORD
  5
18E1
102
{ACAD_REACTORS
330
18DF
102
}
330
18DF
100
AcDbXrecord
280
     1
270
     1
271
     1
  0
XRECORD
  5
18E0
102
{ACAD_REACTORS
330
18DF
102
}
330
18DF
100
AcDbXrecord
280
     1
270
     1
271
     1
  0
XRECORD
  5
18E4
102
{ACAD_REACTORS
330
18DF
102
}
330
18DF
100
AcDbXrecord
280
     1
270
     1
271
     1
  0
XRECORD
  5
18E3
102
{ACAD_REACTORS
330
18DF
102
}
330
18DF
100
AcDbXrecord
280
     1
270
     1
271
     1
  0
XRECORD
  5
18E5
102
{ACAD_REACTORS
330
18DF
102
}
330
18DF
100
AcDbXrecord
280
     1
270
     1
271
     1
  0
XRECORD
  5
18E2
102
{ACAD_REACTORS
330
18DF
102
}
330
18DF
100
AcDbXrecord
280
     1
270
     1
271
     1
  0
XRECORD
  5
1938
102
{ACAD_REACTORS
330
18D7
102
}
330
18D7
100
AcDbXrecord
280
     1
102
MATERIAL
148
0.0
149
0.0
149
0.0
 93
        0
 94
      127
282
     0
 72
     0
 77
     0
171
     0
175
     0
179
     0
273
     0
  0
XRECORD
  5
18D9
102
{ACAD_REACTORS
330
18D7
102
}
330
18D7
100
AcDbXrecord
280
     1
270
     1
271
     1
  0
XRECORD
  5
18D8
102
{ACAD_REACTORS
330
18D7
102
}
330
18D7
100
AcDbXrecord
280
     1
270
     1
271
     1
  0
XRECORD
  5
18DC
102
{ACAD_REACTORS
330
18D7
102
}
330
18D7
100
AcDbXrecord
280
     1
270
     1
271
     1
  0
XRECORD
  5
18DB
102
{ACAD_REACTORS
330
18D7
102
}
330
18D7
100
AcDbXrecord
280
     1
270
     1
271
     1
  0
XRECORD
  5
18DD
102
{ACAD_REACTORS
330
18D7
102
}
330
18D7
100
AcDbXrecord
280
     1
270
     1
271
     1
  0
XRECORD
  5
18DA
102
{ACAD_REACTORS
330
18D7
102
}
330
18D7
100
AcDbXrecord
280
     1
270
     1
271
     1
  0
XRECORD
  5
193A
102
{ACAD_REACTORS
330
18E7
102
}
330
18E7
100
AcDbXrecord
280
     1
102
MATERIAL
148
0.0
149
0.0
149
0.0
 93
        0
 94
      127
282
     0
 72
     0
 77
     0
171
     0
175
     0
179
     0
273
     0
  0
XRECORD
  5
18E9
102
{ACAD_REACTORS
330
18E7
102
}
330
18E7
100
AcDbXrecord
280
     1
270
     1
271
     1
  0
XRECORD
  5
18E8
102
{ACAD_REACTORS
330
18E7
102
}
330
18E7
100
AcDbXrecord
280
     1
270
     1
271
     1
  0
XRECORD
  5
18EC
102
{ACAD_REACTORS
330
18E7
102
}
330
18E7
100
AcDbXrecord
280
     1
270
     1
271
     1
  0
XRECORD
  5
18EB
102
{ACAD_REACTORS
330
18E7
102
}
330
18E7
100
AcDbXrecord
280
     1
270
     1
271
     1
  0
XRECORD
  5
18ED
102
{ACAD_REACTORS
330
18E7
102
}
330
18E7
100
AcDbXrecord
280
     1
270
     1
271
     1
  0
XRECORD
  5
18EA
102
{ACAD_REACTORS
330
18E7
102
}
330
18E7
100
AcDbXrecord
280
     1
270
     1
271
     1
  0
CELLSTYLEMAP
  5
1BDF
102
{ACAD_REACTORS
330
192E
102
}
330
192E
100
AcDbCellStyleMap
 90
        3
300
CELLSTYLE
  1
TABLEFORMAT_BEGIN
 90
        5
170
     1
 91
        0
 92
    32768
 62
   257
 93
        1
300
CONTENTFORMAT
  1
CONTENTFORMAT_BEGIN
 90
        0
 91
        0
 92
      512
 93
        0
300

 40
0.0
140
1.0
 94
        5
 62
     0
340
11
144
6.0
309
CONTENTFORMAT_END
171
     1
301
MARGIN
  1
CELLMARGIN_BEGIN
 40
1.5
 40
1.5
 40
1.5
 40
1.5
 40
0.18
 40
0.18
309
CELLMARGIN_END
 94
        6
 95
        1
302
GRIDFORMAT
  1
GRIDFORMAT_BEGIN
 90
        0
 91
        1
 62
     0
 92
       -2
340
0
 93
        0
 40
1.125
309
GRIDFORMAT_END
 95
        2
302
GRIDFORMAT
  1
GRIDFORMAT_BEGIN
 90
        0
 91
        1
 62
     0
 92
       -2
340
0
 93
        0
 40
1.125
309
GRIDFORMAT_END
 95
        4
302
GRIDFORMAT
  1
GRIDFORMAT_BEGIN
 90
        0
 91
        1
 62
     0
 92
       -2
340
0
 93
        0
 40
1.125
309
GRIDFORMAT_END
 95
        8
302
GRIDFORMAT
  1
GRIDFORMAT_BEGIN
 90
        0
 91
        1
 62
     0
 92
       -2
340
0
 93
        0
 40
1.125
309
GRIDFORMAT_END
 95
       16
302
GRIDFORMAT
  1
GRIDFORMAT_BEGIN
 90
        0
 91
        1
 62
     0
 92
       -2
340
0
 93
        0
 40
1.125
309
GRIDFORMAT_END
 95
       32
302
GRIDFORMAT
  1
GRIDFORMAT_BEGIN
 90
        0
 91
        1
 62
     0
 92
       -2
340
0
 93
        0
 40
1.125
309
GRIDFORMAT_END
309
TABLEFORMAT_END
  1
CELLSTYLE_BEGIN
 90
        1
 91
        1
300
_TITLE
309
CELLSTYLE_END
300
CELLSTYLE
  1
TABLEFORMAT_BEGIN
 90
        5
170
     1
 91
        0
 92
        0
 62
   257
 93
        1
300
CONTENTFORMAT
  1
CONTENTFORMAT_BEGIN
 90
        0
 91
        0
 92
      512
 93
        0
300

 40
0.0
140
1.0
 94
        5
 62
     0
340
11
144
4.5
309
CONTENTFORMAT_END
171
     1
301
MARGIN
  1
CELLMARGIN_BEGIN
 40
1.5
 40
1.5
 40
1.5
 40
1.5
 40
0.18
 40
0.18
309
CELLMARGIN_END
 94
        6
 95
        1
302
GRIDFORMAT
  1
GRIDFORMAT_BEGIN
 90
        0
 91
        1
 62
     0
 92
       -2
340
0
 93
        0
 40
1.125
309
GRIDFORMAT_END
 95
        2
302
GRIDFORMAT
  1
GRIDFORMAT_BEGIN
 90
        0
 91
        1
 62
     0
 92
       -2
340
0
 93
        0
 40
1.125
309
GRIDFORMAT_END
 95
        4
302
GRIDFORMAT
  1
GRIDFORMAT_BEGIN
 90
        0
 91
        1
 62
     0
 92
       -2
340
0
 93
        0
 40
1.125
309
GRIDFORMAT_END
 95
        8
302
GRIDFORMAT
  1
GRIDFORMAT_BEGIN
 90
        0
 91
        1
 62
     0
 92
       -2
340
0
 93
        0
 40
1.125
309
GRIDFORMAT_END
 95
       16
302
GRIDFORMAT
  1
GRIDFORMAT_BEGIN
 90
        0
 91
        1
 62
     0
 92
       -2
340
0
 93
        0
 40
1.125
309
GRIDFORMAT_END
 95
       32
302
GRIDFORMAT
  1
GRIDFORMAT_BEGIN
 90
        0
 91
        1
 62
     0
 92
       -2
340
0
 93
        0
 40
1.125
309
GRIDFORMAT_END
309
TABLEFORMAT_END
  1
CELLSTYLE_BEGIN
 90
        2
 91
        1
300
_HEADER
309
CELLSTYLE_END
300
CELLSTYLE
  1
TABLEFORMAT_BEGIN
 90
        5
170
     1
 91
        0
 92
        0
 62
   257
 93
        1
300
CONTENTFORMAT
  1
CONTENTFORMAT_BEGIN
 90
        0
 91
        0
 92
      512
 93
        0
300

 40
0.0
140
1.0
 94
        2
 62
     0
340
11
144
4.5
309
CONTENTFORMAT_END
171
     1
301
MARGIN
  1
CELLMARGIN_BEGIN
 40
1.5
 40
1.5
 40
1.5
 40
1.5
 40
0.18
 40
0.18
309
CELLMARGIN_END
 94
        6
 95
        1
302
GRIDFORMAT
  1
GRIDFORMAT_BEGIN
 90
        0
 91
        1
 62
     0
 92
       -2
340
0
 93
        0
 40
1.125
309
GRIDFORMAT_END
 95
        2
302
GRIDFORMAT
  1
GRIDFORMAT_BEGIN
 90
        0
 91
        1
 62
     0
 92
       -2
340
0
 93
        0
 40
1.125
309
GRIDFORMAT_END
 95
        4
302
GRIDFORMAT
  1
GRIDFORMAT_BEGIN
 90
        0
 91
        1
 62
     0
 92
       -2
340
0
 93
        0
 40
1.125
309
GRIDFORMAT_END
 95
        8
302
GRIDFORMAT
  1
GRIDFORMAT_BEGIN
 90
        0
 91
        1
 62
     0
 92
       -2
340
0
 93
        0
 40
1.125
309
GRIDFORMAT_END
 95
       16
302
GRIDFORMAT
  1
GRIDFORMAT_BEGIN
 90
        0
 91
        1
 62
     0
 92
       -2
340
0
 93
        0
 40
1.125
309
GRIDFORMAT_END
 95
       32
302
GRIDFORMAT
  1
GRIDFORMAT_BEGIN
 90
        0
 91
        1
 62
     0
 92
       -2
340
0
 93
        0
 40
1.125
309
GRIDFORMAT_END
309
TABLEFORMAT_END
  1
CELLSTYLE_BEGIN
 90
        3
 91
        2
300
_DATA
309
CELLSTYLE_END
  0
XRECORD
  5
1C18
102
{ACAD_REACTORS
330
192E
102
}
330
192E
100
AcDbXrecord
280
     1
102
ACAD_ROUNDTRIP_PRE2007_TABLESTYLE
 90
      512
 91
        0
  1

 92
      512
 93
        0
  2

 94
      512
 95
        0
  3

  0
XRECORD
  5
1BF3
102
{ACAD_REACTORS
330
1BF2
102
}
330
1BF2
100
AcDbXrecord
280
     1
102
RTVSPropertyOp0
 70
     1
102
RTVSPropertyOp1
 70
     1
102
RTVSPropertyOp2
 70
     1
102
RTVSPropertyOp3
 70
     1
102
RTVSPropertyOp4
 70
     1
102
RTVSPropertyOp5
 70
     1
102
RTVSPropertyOp6
 70
     1
102
RTVSPropertyOp7
 70
     1
102
RTVSPropertyOp8
 70
     1
102
RTVSPropertyOp9
 70
     1
102
RTVSPropertyOp10
 70
     1
102
RTVSPropertyOp11
 70
     1
102
RTVSPropertyOp12
 70
     1
102
RTVSPropertyOp13
 70
     1
102
RTVSPropertyOp14
 70
     1
102
RTVSPropertyOp15
 70
     1
102
RTVSPropertyOp16
 70
     1
102
RTVSPropertyOp17
 70
     1
102
RTVSPropertyOp18
 70
     1
102
RTVSPropertyOp19
 70
     1
102
RTVSPropertyOp20
 70
     1
102
RTVSPropertyOp21
 70
     1
102
RTVSPropertyOp22
 70
     1
102
RTVSPropertyOp23
 70
     1
102
RTVSPropertyOp24
 70
     1
102
RTVSPropertyOp25
 70
     1
102
RTVSPropertyOp26
 70
     1
102
RTVSPropertyOp27
 70
     1
102
RTVSPropertyOp28
 70
     1
102
RTVSPropertyOp29
 70
     1
102
RTVSPropertyOp30
 70
     1
102
RTVSPropertyOp31
 70
     1
102
RTVSPropertyOp32
 70
     1
  0
XRECORD
  5
1BF1
102
{ACAD_REACTORS
330
1BF0
102
}
330
1BF0
100
AcDbXrecord
280
     1
102
RTVSPropertyOp0
 70
     1
102
RTVSPropertyOp1
 70
     1
102
RTVSPropertyOp2
 70
     1
102
RTVSPropertyOp3
 70
     1
102
RTVSPropertyOp4
 70
     1
102
RTVSPropertyOp5
 70
     1
102
RTVSPropertyOp6
 70
     1
102
RTVSPropertyOp7
 70
     1
102
RTVSPropertyOp8
 70
     1
102
RTVSPropertyOp9
 70
     1
102
RTVSPropertyOp10
 70
     1
102
RTVSPropertyOp11
 70
     1
102
RTVSPropertyOp12
 70
     1
102
RTVSPropertyOp13
 70
     1
102
RTVSPropertyOp14
 70
     1
102
RTVSPropertyOp15
 70
     1
102
RTVSPropertyOp16
 70
     1
102
RTVSPropertyOp17
 70
     1
102
RTVSPropertyOp18
 70
     1
102
RTVSPropertyOp19
 70
     1
102
RTVSPropertyOp20
 70
     1
102
RTVSPropertyOp21
 70
     1
102
RTVSPropertyOp22
 70
     1
102
RTVSPropertyOp23
 70
     1
102
RTVSPropertyOp24
 70
     1
102
RTVSPropertyOp25
 70
     1
102
RTVSPropertyOp26
 70
     1
102
RTVSPropertyOp27
 70
     1
102
RTVSPropertyOp28
 70
     1
102
RTVSPropertyOp29
 70
     1
102
RTVSPropertyOp30
 70
     1
102
RTVSPropertyOp31
 70
     1
102
RTVSPropertyOp32
 70
     1
  0
XRECORD
  5
1BFF
102
{ACAD_REACTORS
330
1BFE
102
}
330
1BFE
100
AcDbXrecord
280
     1
102
RTVSPropertyOp0
 70
     1
102
RTVSPropertyOp1
 70
     1
102
RTVSPropertyOp2
 70
     1
102
RTVSPropertyOp3
 70
     1
102
RTVSPropertyOp4
 70
     1
102
RTVSPropertyOp5
 70
     1
102
RTVSPropertyOp6
 70
     1
102
RTVSPropertyOp7
 70
     1
102
RTVSPropertyOp8
 70
     1
102
RTVSPropertyOp9
 70
     1
102
RTVSPropertyOp10
 70
     1
102
RTVSPropertyOp11
 70
     1
102
RTVSPropertyOp12
 70
     1
102
RTVSPropertyOp13
 70
     1
102
RTVSPropertyOp14
 70
     1
102
RTVSPropertyOp15
 70
     1
102
RTVSPropertyOp16
 70
     1
102
RTVSPropertyOp17
 70
     1
102
RTVSPropertyOp18
 70
     1
102
RTVSPropertyOp19
 70
     1
102
RTVSPropertyOp20
 70
     1
102
RTVSPropertyOp21
 70
     1
102
RTVSPropertyOp22
 70
     1
102
RTVSPropertyOp23
 70
     1
102
RTVSPropertyOp24
 70
     1
102
RTVSPropertyOp25
 70
     1
102
RTVSPropertyOp26
 70
     1
102
RTVSPropertyOp27
 70
     1
102
RTVSPropertyOp28
 70
     1
102
RTVSPropertyOp29
 70
     1
102
RTVSPropertyOp30
 70
     1
102
RTVSPropertyOp31
 70
     1
102
RTVSPropertyOp32
 70
     1
  0
XRECORD
  5
1C07
102
{ACAD_REACTORS
330
1C06
102
}
330
1C06
100
AcDbXrecord
280
     1
102
RTVSPropertyOp0
 70
     1
102
RTVSPropertyOp1
 70
     1
102
RTVSPropertyOp2
 70
     1
102
RTVSPropertyOp3
 70
     1
102
RTVSPropertyOp4
 70
     1
102
RTVSPropertyOp5
 70
     1
102
RTVSPropertyOp6
 70
     1
102
RTVSPropertyOp7
 70
     1
102
RTVSPropertyOp8
 70
     1
102
RTVSPropertyOp9
 70
     1
102
RTVSPropertyOp10
 70
     1
102
RTVSPropertyOp11
 70
     1
102
RTVSPropertyOp12
 70
     1
102
RTVSPropertyOp13
 70
     1
102
RTVSPropertyOp14
 70
     1
102
RTVSPropertyOp15
 70
     1
102
RTVSPropertyOp16
 70
     1
102
RTVSPropertyOp17
 70
     1
102
RTVSPropertyOp18
 70
     1
102
RTVSPropertyOp19
 70
     1
102
RTVSPropertyOp20
 70
     1
102
RTVSPropertyOp21
 70
     1
102
RTVSPropertyOp22
 70
     1
102
RTVSPropertyOp23
 70
     1
102
RTVSPropertyOp24
 70
     1
102
RTVSPropertyOp25
 70
     1
102
RTVSPropertyOp26
 70
     1
102
RTVSPropertyOp27
 70
     1
102
RTVSPropertyOp28
 70
     1
102
RTVSPropertyOp29
 70
     1
102
RTVSPropertyOp30
 70
     1
102
RTVSPropertyOp31
 70
     1
102
RTVSPropertyOp32
 70
     1
  0
XRECORD
  5
1BF9
102
{ACAD_REACTORS
330
1BF8
102
}
330
1BF8
100
AcDbXrecord
280
     1
102
RTVSPropertyOp0
 70
     1
102
RTVSPropertyOp1
 70
     1
102
RTVSPropertyOp2
 70
     1
102
RTVSPropertyOp3
 70
     1
102
RTVSPropertyOp4
 70
     1
102
RTVSPropertyOp5
 70
     1
102
RTVSPropertyOp6
 70
     1
102
RTVSPropertyOp7
 70
     1
102
RTVSPropertyOp8
 70
     1
102
RTVSPropertyOp9
 70
     1
102
RTVSPropertyOp10
 70
     1
102
RTVSPropertyOp11
 70
     1
102
RTVSPropertyOp12
 70
     1
102
RTVSPropertyOp13
 70
     1
102
RTVSPropertyOp14
 70
     1
102
RTVSPropertyOp15
 70
     1
102
RTVSPropertyOp16
 70
     1
102
RTVSPropertyOp17
 70
     1
102
RTVSPropertyOp18
 70
     1
102
RTVSPropertyOp19
 70
     1
102
RTVSPropertyOp20
 70
     1
102
RTVSPropertyOp21
 70
     1
102
RTVSPropertyOp22
 70
     1
102
RTVSPropertyOp23
 70
     1
102
RTVSPropertyOp24
 70
     1
102
RTVSPropertyOp25
 70
     1
102
RTVSPropertyOp26
 70
     1
102
RTVSPropertyOp27
 70
     1
102
RTVSPropertyOp28
 70
     1
102
RTVSPropertyOp29
 70
     1
102
RTVSPropertyOp30
 70
     1
102
RTVSPropertyOp31
 70
     1
102
RTVSPropertyOp32
 70
     1
  0
XRECORD
  5
1BFD
102
{ACAD_REACTORS
330
1BFC
102
}
330
1BFC
100
AcDbXrecord
280
     1
102
RTVSPropertyOp0
 70
     1
102
RTVSPropertyOp1
 70
     1
102
RTVSPropertyOp2
 70
     1
102
RTVSPropertyOp3
 70
     1
102
RTVSPropertyOp4
 70
     1
102
RTVSPropertyOp5
 70
     1
102
RTVSPropertyOp6
 70
     1
102
RTVSPropertyOp7
 70
     1
102
RTVSPropertyOp8
 70
     1
102
RTVSPropertyOp9
 70
     1
102
RTVSPropertyOp10
 70
     1
102
RTVSPropertyOp11
 70
     1
102
RTVSPropertyOp12
 70
     1
102
RTVSPropertyOp13
 70
     1
102
RTVSPropertyOp14
 70
     1
102
RTVSPropertyOp15
 70
     1
102
RTVSPropertyOp16
 70
     1
102
RTVSPropertyOp17
 70
     1
102
RTVSPropertyOp18
 70
     1
102
RTVSPropertyOp19
 70
     1
102
RTVSPropertyOp20
 70
     1
102
RTVSPropertyOp21
 70
     1
102
RTVSPropertyOp22
 70
     1
102
RTVSPropertyOp23
 70
     1
102
RTVSPropertyOp24
 70
     1
102
RTVSPropertyOp25
 70
     1
102
RTVSPropertyOp26
 70
     1
102
RTVSPropertyOp27
 70
     1
102
RTVSPropertyOp28
 70
     1
102
RTVSPropertyOp29
 70
     1
102
RTVSPropertyOp30
 70
     1
102
RTVSPropertyOp31
 70
     1
102
RTVSPropertyOp32
 70
     1
  0
XRECORD
  5
1C17
102
{ACAD_REACTORS
330
1C16
102
}
330
1C16
100
AcDbXrecord
280
     1
102
RTVSPropertyOp0
 70
     0
102
RTVSPropertyOp1
 70
     0
102
RTVSPropertyOp2
 70
     0
102
RTVSPropertyOp3
 70
     0
102
RTVSPropertyOp4
 70
     0
102
RTVSPropertyOp5
 70
     0
102
RTVSPropertyOp6
 70
     0
102
RTVSPropertyOp7
 70
     0
102
RTVSPropertyOp8
 70
     0
102
RTVSPropertyOp9
 70
     0
102
RTVSPropertyOp10
 70
     0
102
RTVSPropertyOp11
 70
     0
102
RTVSPropertyOp12
 70
     0
102
RTVSPropertyOp13
 70
     0
102
RTVSPropertyOp14
 70
     2
102
RTVSPropertyOp15
 70
     0
102
RTVSPropertyOp16
 70
     0
102
RTVSPropertyOp17
 70
     0
102
RTVSPropertyOp18
 70
     0
102
RTVSPropertyOp19
 70
     0
102
RTVSPropertyOp20
 70
     0
102
RTVSPropertyOp21
 70
     0
102
RTVSPropertyOp22
 70
     0
102
RTVSPropertyOp23
 70
     0
102
RTVSPropertyOp24
 70
     0
102
RTVSPropertyOp25
 70
     0
102
RTVSPropertyOp26
 70
     0
102
RTVSPropertyOp27
 70
     0
102
RTVSPropertyOp28
 70
     0
102
RTVSPropertyOp29
 70
     0
102
RTVSPropertyOp30
 70
     0
102
RTVSPropertyOp31
 70
     0
102
RTVSPropertyOp32
 70
     0
  0
XRECORD
  5
1C05
102
{ACAD_REACTORS
330
1C04
102
}
330
1C04
100
AcDbXrecord
280
     1
102
RTVSPropertyOp0
 70
     1
102
RTVSPropertyOp1
 70
     1
102
RTVSPropertyOp2
 70
     1
102
RTVSPropertyOp3
 70
     1
102
RTVSPropertyOp4
 70
     1
102
RTVSPropertyOp5
 70
     1
102
RTVSPropertyOp6
 70
     1
102
RTVSPropertyOp7
 70
     1
102
RTVSPropertyOp8
 70
     1
102
RTVSPropertyOp9
 70
     1
102
RTVSPropertyOp10
 70
     1
102
RTVSPropertyOp11
 70
     1
102
RTVSPropertyOp12
 70
     1
102
RTVSPropertyOp13
 70
     1
102
RTVSPropertyOp14
 70
     1
102
RTVSPropertyOp15
 70
     1
102
RTVSPropertyOp16
 70
     1
102
RTVSPropertyOp17
 70
     1
102
RTVSPropertyOp18
 70
     1
102
RTVSPropertyOp19
 70
     1
102
RTVSPropertyOp20
 70
     1
102
RTVSPropertyOp21
 70
     1
102
RTVSPropertyOp22
 70
     1
102
RTVSPropertyOp23
 70
     1
102
RTVSPropertyOp24
 70
     1
102
RTVSPropertyOp25
 70
     1
102
RTVSPropertyOp26
 70
     1
102
RTVSPropertyOp27
 70
     1
102
RTVSPropertyOp28
 70
     1
102
RTVSPropertyOp29
 70
     1
102
RTVSPropertyOp30
 70
     1
102
RTVSPropertyOp31
 70
     1
102
RTVSPropertyOp32
 70
     1
  0
XRECORD
  5
1BE9
102
{ACAD_REACTORS
330
1BE8
102
}
330
1BE8
100
AcDbXrecord
280
     1
102
RTVSPropertyOp0
 70
     1
102
RTVSPropertyOp1
 70
     1
102
RTVSPropertyOp2
 70
     1
102
RTVSPropertyOp3
 70
     1
102
RTVSPropertyOp4
 70
     1
102
RTVSPropertyOp5
 70
     1
102
RTVSPropertyOp6
 70
     1
102
RTVSPropertyOp7
 70
     1
102
RTVSPropertyOp8
 70
     1
102
RTVSPropertyOp9
 70
     1
102
RTVSPropertyOp10
 70
     1
102
RTVSPropertyOp11
 70
     1
102
RTVSPropertyOp12
 70
     1
102
RTVSPropertyOp13
 70
     1
102
RTVSPropertyOp14
 70
     1
102
RTVSPropertyOp15
 70
     1
102
RTVSPropertyOp16
 70
     1
102
RTVSPropertyOp17
 70
     1
102
RTVSPropertyOp18
 70
     1
102
RTVSPropertyOp19
 70
     1
102
RTVSPropertyOp20
 70
     1
102
RTVSPropertyOp21
 70
     1
102
RTVSPropertyOp22
 70
     1
102
RTVSPropertyOp23
 70
     1
102
RTVSPropertyOp24
 70
     1
102
RTVSPropertyOp25
 70
     1
102
RTVSPropertyOp26
 70
     1
102
RTVSPropertyOp27
 70
     1
102
RTVSPropertyOp28
 70
     1
102
RTVSPropertyOp29
 70
     1
102
RTVSPropertyOp30
 70
     1
102
RTVSPropertyOp31
 70
     1
102
RTVSPropertyOp32
 70
     1
  0
XRECORD
  5
1BEB
102
{ACAD_REACTORS
330
1BEA
102
}
330
1BEA
100
AcDbXrecord
280
     1
102
RTVSPropertyOp0
 70
     1
102
RTVSPropertyOp1
 70
     1
102
RTVSPropertyOp2
 70
     1
102
RTVSPropertyOp3
 70
     1
102
RTVSPropertyOp4
 70
     1
102
RTVSPropertyOp5
 70
     1
102
RTVSPropertyOp6
 70
     1
102
RTVSPropertyOp7
 70
     1
102
RTVSPropertyOp8
 70
     1
102
RTVSPropertyOp9
 70
     1
102
RTVSPropertyOp10
 70
     1
102
RTVSPropertyOp11
 70
     1
102
RTVSPropertyOp12
 70
     1
102
RTVSPropertyOp13
 70
     1
102
RTVSPropertyOp14
 70
     1
102
RTVSPropertyOp15
 70
     1
102
RTVSPropertyOp16
 70
     1
102
RTVSPropertyOp17
 70
     1
102
RTVSPropertyOp18
 70
     1
102
RTVSPropertyOp19
 70
     1
102
RTVSPropertyOp20
 70
     1
102
RTVSPropertyOp21
 70
     1
102
RTVSPropertyOp22
 70
     1
102
RTVSPropertyOp23
 70
     1
102
RTVSPropertyOp24
 70
     1
102
RTVSPropertyOp25
 70
     1
102
RTVSPropertyOp26
 70
     1
102
RTVSPropertyOp27
 70
     1
102
RTVSPropertyOp28
 70
     1
102
RTVSPropertyOp29
 70
     1
102
RTVSPropertyOp30
 70
     1
102
RTVSPropertyOp31
 70
     1
102
RTVSPropertyOp32
 70
     1
  0
XRECORD
  5
1BED
102
{ACAD_REACTORS
330
1BEC
102
}
330
1BEC
100
AcDbXrecord
280
     1
102
RTVSPropertyOp0
 70
     1
102
RTVSPropertyOp1
 70
     1
102
RTVSPropertyOp2
 70
     1
102
RTVSPropertyOp3
 70
     1
102
RTVSPropertyOp4
 70
     1
102
RTVSPropertyOp5
 70
     1
102
RTVSPropertyOp6
 70
     1
102
RTVSPropertyOp7
 70
     1
102
RTVSPropertyOp8
 70
     1
102
RTVSPropertyOp9
 70
     1
102
RTVSPropertyOp10
 70
     1
102
RTVSPropertyOp11
 70
     1
102
RTVSPropertyOp12
 70
     1
102
RTVSPropertyOp13
 70
     1
102
RTVSPropertyOp14
 70
     1
102
RTVSPropertyOp15
 70
     1
102
RTVSPropertyOp16
 70
     1
102
RTVSPropertyOp17
 70
     1
102
RTVSPropertyOp18
 70
     1
102
RTVSPropertyOp19
 70
     1
102
RTVSPropertyOp20
 70
     1
102
RTVSPropertyOp21
 70
     1
102
RTVSPropertyOp22
 70
     1
102
RTVSPropertyOp23
 70
     1
102
RTVSPropertyOp24
 70
     1
102
RTVSPropertyOp25
 70
     1
102
RTVSPropertyOp26
 70
     1
102
RTVSPropertyOp27
 70
     1
102
RTVSPropertyOp28
 70
     1
102
RTVSPropertyOp29
 70
     1
102
RTVSPropertyOp30
 70
     1
102
RTVSPropertyOp31
 70
     1
102
RTVSPropertyOp32
 70
     1
  0
XRECORD
  5
1BEF
102
{ACAD_REACTORS
330
1BEE
102
}
330
1BEE
100
AcDbXrecord
280
     1
102
RTVSPropertyOp0
 70
     1
102
RTVSPropertyOp1
 70
     1
102
RTVSPropertyOp2
 70
     1
102
RTVSPropertyOp3
 70
     1
102
RTVSPropertyOp4
 70
     1
102
RTVSPropertyOp5
 70
     1
102
RTVSPropertyOp6
 70
     1
102
RTVSPropertyOp7
 70
     1
102
RTVSPropertyOp8
 70
     1
102
RTVSPropertyOp9
 70
     1
102
RTVSPropertyOp10
 70
     1
102
RTVSPropertyOp11
 70
     1
102
RTVSPropertyOp12
 70
     1
102
RTVSPropertyOp13
 70
     1
102
RTVSPropertyOp14
 70
     1
102
RTVSPropertyOp15
 70
     1
102
RTVSPropertyOp16
 70
     1
102
RTVSPropertyOp17
 70
     1
102
RTVSPropertyOp18
 70
     1
102
RTVSPropertyOp19
 70
     1
102
RTVSPropertyOp20
 70
     1
102
RTVSPropertyOp21
 70
     1
102
RTVSPropertyOp22
 70
     1
102
RTVSPropertyOp23
 70
     1
102
RTVSPropertyOp24
 70
     1
102
RTVSPropertyOp25
 70
     1
102
RTVSPropertyOp26
 70
     1
102
RTVSPropertyOp27
 70
     1
102
RTVSPropertyOp28
 70
     1
102
RTVSPropertyOp29
 70
     1
102
RTVSPropertyOp30
 70
     1
102
RTVSPropertyOp31
 70
     1
102
RTVSPropertyOp32
 70
     1
  0
XRECORD
  5
1BF7
102
{ACAD_REACTORS
330
1BF6
102
}
330
1BF6
100
AcDbXrecord
280
     1
102
RTVSPropertyOp0
 70
     1
102
RTVSPropertyOp1
 70
     1
102
RTVSPropertyOp2
 70
     1
102
RTVSPropertyOp3
 70
     1
102
RTVSPropertyOp4
 70
     1
102
RTVSPropertyOp5
 70
     1
102
RTVSPropertyOp6
 70
     1
102
RTVSPropertyOp7
 70
     1
102
RTVSPropertyOp8
 70
     1
102
RTVSPropertyOp9
 70
     1
102
RTVSPropertyOp10
 70
     1
102
RTVSPropertyOp11
 70
     1
102
RTVSPropertyOp12
 70
     1
102
RTVSPropertyOp13
 70
     1
102
RTVSPropertyOp14
 70
     1
102
RTVSPropertyOp15
 70
     1
102
RTVSPropertyOp16
 70
     1
102
RTVSPropertyOp17
 70
     1
102
RTVSPropertyOp18
 70
     1
102
RTVSPropertyOp19
 70
     1
102
RTVSPropertyOp20
 70
     1
102
RTVSPropertyOp21
 70
     1
102
RTVSPropertyOp22
 70
     1
102
RTVSPropertyOp23
 70
     1
102
RTVSPropertyOp24
 70
     1
102
RTVSPropertyOp25
 70
     1
102
RTVSPropertyOp26
 70
     1
102
RTVSPropertyOp27
 70
     1
102
RTVSPropertyOp28
 70
     1
102
RTVSPropertyOp29
 70
     1
102
RTVSPropertyOp30
 70
     1
102
RTVSPropertyOp31
 70
     1
102
RTVSPropertyOp32
 70
     1
  0
XRECORD
  5
1C13
102
{ACAD_REACTORS
330
1C12
102
}
330
1C12
100
AcDbXrecord
280
     1
102
RTVSPropertyOp0
 70
     0
102
RTVSPropertyOp1
 70
     0
102
RTVSPropertyOp2
 70
     0
102
RTVSPropertyOp3
 70
     0
102
RTVSPropertyOp4
 70
     0
102
RTVSPropertyOp5
 70
     0
102
RTVSPropertyOp6
 70
     0
102
RTVSPropertyOp7
 70
     0
102
RTVSPropertyOp8
 70
     0
102
RTVSPropertyOp9
 70
     0
102
RTVSPropertyOp10
 70
     0
102
RTVSPropertyOp11
 70
     0
102
RTVSPropertyOp12
 70
     0
102
RTVSPropertyOp13
 70
     0
102
RTVSPropertyOp14
 70
     2
102
RTVSPropertyOp15
 70
     0
102
RTVSPropertyOp16
 70
     0
102
RTVSPropertyOp17
 70
     0
102
RTVSPropertyOp18
 70
     0
102
RTVSPropertyOp19
 70
     0
102
RTVSPropertyOp20
 70
     0
102
RTVSPropertyOp21
 70
     0
102
RTVSPropertyOp22
 70
     0
102
RTVSPropertyOp23
 70
     0
102
RTVSPropertyOp24
 70
     0
102
RTVSPropertyOp25
 70
     0
102
RTVSPropertyOp26
 70
     0
102
RTVSPropertyOp27
 70
     0
102
RTVSPropertyOp28
 70
     0
102
RTVSPropertyOp29
 70
     0
102
RTVSPropertyOp30
 70
     0
102
RTVSPropertyOp31
 70
     0
102
RTVSPropertyOp32
 70
     0
  0
XRECORD
  5
1C03
102
{ACAD_REACTORS
330
1C02
102
}
330
1C02
100
AcDbXrecord
280
     1
102
RTVSPropertyOp0
 70
     1
102
RTVSPropertyOp1
 70
     1
102
RTVSPropertyOp2
 70
     1
102
RTVSPropertyOp3
 70
     1
102
RTVSPropertyOp4
 70
     1
102
RTVSPropertyOp5
 70
     1
102
RTVSPropertyOp6
 70
     1
102
RTVSPropertyOp7
 70
     1
102
RTVSPropertyOp8
 70
     1
102
RTVSPropertyOp9
 70
     1
102
RTVSPropertyOp10
 70
     1
102
RTVSPropertyOp11
 70
     1
102
RTVSPropertyOp12
 70
     1
102
RTVSPropertyOp13
 70
     1
102
RTVSPropertyOp14
 70
     1
102
RTVSPropertyOp15
 70
     1
102
RTVSPropertyOp16
 70
     1
102
RTVSPropertyOp17
 70
     1
102
RTVSPropertyOp18
 70
     1
102
RTVSPropertyOp19
 70
     1
102
RTVSPropertyOp20
 70
     1
102
RTVSPropertyOp21
 70
     1
102
RTVSPropertyOp22
 70
     1
102
RTVSPropertyOp23
 70
     1
102
RTVSPropertyOp24
 70
     1
102
RTVSPropertyOp25
 70
     1
102
RTVSPropertyOp26
 70
     1
102
RTVSPropertyOp27
 70
     1
102
RTVSPropertyOp28
 70
     1
102
RTVSPropertyOp29
 70
     1
102
RTVSPropertyOp30
 70
     1
102
RTVSPropertyOp31
 70
     1
102
RTVSPropertyOp32
 70
     1
  0
XRECORD
  5
1C15
102
{ACAD_REACTORS
330
1C14
102
}
330
1C14
100
AcDbXrecord
280
     1
102
RTVSPropertyOp0
 70
     0
102
RTVSPropertyOp1
 70
     0
102
RTVSPropertyOp2
 70
     0
102
RTVSPropertyOp3
 70
     0
102
RTVSPropertyOp4
 70
     0
102
RTVSPropertyOp5
 70
     0
102
RTVSPropertyOp6
 70
     0
102
RTVSPropertyOp7
 70
     0
102
RTVSPropertyOp8
 70
     0
102
RTVSPropertyOp9
 70
     0
102
RTVSPropertyOp10
 70
     0
102
RTVSPropertyOp11
 70
     0
102
RTVSPropertyOp12
 70
     0
102
RTVSPropertyOp13
 70
     0
102
RTVSPropertyOp14
 70
     2
102
RTVSPropertyOp15
 70
     0
102
RTVSPropertyOp16
 70
     0
102
RTVSPropertyOp17
 70
     0
102
RTVSPropertyOp18
 70
     0
102
RTVSPropertyOp19
 70
     0
102
RTVSPropertyOp20
 70
     0
102
RTVSPropertyOp21
 70
     0
102
RTVSPropertyOp22
 70
     0
102
RTVSPropertyOp23
 70
     0
102
RTVSPropertyOp24
 70
     0
102
RTVSPropertyOp25
 70
     0
102
RTVSPropertyOp26
 70
     0
102
RTVSPropertyOp27
 70
     0
102
RTVSPropertyOp28
 70
     0
102
RTVSPropertyOp29
 70
     0
102
RTVSPropertyOp30
 70
     0
102
RTVSPropertyOp31
 70
     0
102
RTVSPropertyOp32
 70
     0
  0
XRECORD
  5
1BFB
102
{ACAD_REACTORS
330
1BFA
102
}
330
1BFA
100
AcDbXrecord
280
     1
102
RTVSPropertyOp0
 70
     1
102
RTVSPropertyOp1
 70
     1
102
RTVSPropertyOp2
 70
     1
102
RTVSPropertyOp3
 70
     1
102
RTVSPropertyOp4
 70
     1
102
RTVSPropertyOp5
 70
     1
102
RTVSPropertyOp6
 70
     1
102
RTVSPropertyOp7
 70
     1
102
RTVSPropertyOp8
 70
     1
102
RTVSPropertyOp9
 70
     1
102
RTVSPropertyOp10
 70
     1
102
RTVSPropertyOp11
 70
     1
102
RTVSPropertyOp12
 70
     1
102
RTVSPropertyOp13
 70
     1
102
RTVSPropertyOp14
 70
     1
102
RTVSPropertyOp15
 70
     1
102
RTVSPropertyOp16
 70
     1
102
RTVSPropertyOp17
 70
     1
102
RTVSPropertyOp18
 70
     1
102
RTVSPropertyOp19
 70
     1
102
RTVSPropertyOp20
 70
     1
102
RTVSPropertyOp21
 70
     1
102
RTVSPropertyOp22
 70
     1
102
RTVSPropertyOp23
 70
     1
102
RTVSPropertyOp24
 70
     1
102
RTVSPropertyOp25
 70
     1
102
RTVSPropertyOp26
 70
     1
102
RTVSPropertyOp27
 70
     1
102
RTVSPropertyOp28
 70
     1
102
RTVSPropertyOp29
 70
     1
102
RTVSPropertyOp30
 70
     1
102
RTVSPropertyOp31
 70
     1
102
RTVSPropertyOp32
 70
     1
  0
XRECORD
  5
1C11
102
{ACAD_REACTORS
330
1C10
102
}
330
1C10
100
AcDbXrecord
280
     1
102
RTVSPropertyOp0
 70
     1
102
RTVSPropertyOp1
 70
     1
102
RTVSPropertyOp2
 70
     1
102
RTVSPropertyOp3
 70
     1
102
RTVSPropertyOp4
 70
     1
102
RTVSPropertyOp5
 70
     1
102
RTVSPropertyOp6
 70
     1
102
RTVSPropertyOp7
 70
     1
102
RTVSPropertyOp8
 70
     1
102
RTVSPropertyOp9
 70
     1
102
RTVSPropertyOp10
 70
     1
102
RTVSPropertyOp11
 70
     1
102
RTVSPropertyOp12
 70
     1
102
RTVSPropertyOp13
 70
     1
102
RTVSPropertyOp14
 70
     1
102
RTVSPropertyOp15
 70
     1
102
RTVSPropertyOp16
 70
     1
102
RTVSPropertyOp17
 70
     1
102
RTVSPropertyOp18
 70
     1
102
RTVSPropertyOp19
 70
     1
102
RTVSPropertyOp20
 70
     1
102
RTVSPropertyOp21
 70
     1
102
RTVSPropertyOp22
 70
     1
102
RTVSPropertyOp23
 70
     1
102
RTVSPropertyOp24
 70
     1
102
RTVSPropertyOp25
 70
     1
102
RTVSPropertyOp26
 70
     1
102
RTVSPropertyOp27
 70
     1
102
RTVSPropertyOp28
 70
     1
102
RTVSPropertyOp29
 70
     1
102
RTVSPropertyOp30
 70
     1
102
RTVSPropertyOp31
 70
     1
102
RTVSPropertyOp32
 70
     1
  0
XRECORD
  5
1C0F
102
{ACAD_REACTORS
330
1C0E
102
}
330
1C0E
100
AcDbXrecord
280
     1
102
RTVSPropertyOp0
 70
     1
102
RTVSPropertyOp1
 70
     1
102
RTVSPropertyOp2
 70
     1
102
RTVSPropertyOp3
 70
     1
102
RTVSPropertyOp4
 70
     1
102
RTVSPropertyOp5
 70
     1
102
RTVSPropertyOp6
 70
     1
102
RTVSPropertyOp7
 70
     1
102
RTVSPropertyOp8
 70
     1
102
RTVSPropertyOp9
 70
     1
102
RTVSPropertyOp10
 70
     1
102
RTVSPropertyOp11
 70
     1
102
RTVSPropertyOp12
 70
     1
102
RTVSPropertyOp13
 70
     1
102
RTVSPropertyOp14
 70
     1
102
RTVSPropertyOp15
 70
     1
102
RTVSPropertyOp16
 70
     1
102
RTVSPropertyOp17
 70
     1
102
RTVSPropertyOp18
 70
     1
102
RTVSPropertyOp19
 70
     1
102
RTVSPropertyOp20
 70
     1
102
RTVSPropertyOp21
 70
     1
102
RTVSPropertyOp22
 70
     1
102
RTVSPropertyOp23
 70
     1
102
RTVSPropertyOp24
 70
     1
102
RTVSPropertyOp25
 70
     1
102
RTVSPropertyOp26
 70
     1
102
RTVSPropertyOp27
 70
     1
102
RTVSPropertyOp28
 70
     1
102
RTVSPropertyOp29
 70
     1
102
RTVSPropertyOp30
 70
     1
102
RTVSPropertyOp31
 70
     1
102
RTVSPropertyOp32
 70
     1
  0
XRECORD
  5
1C09
102
{ACAD_REACTORS
330
1C08
102
}
330
1C08
100
AcDbXrecord
280
     1
102
RTVSPropertyOp0
 70
     1
102
RTVSPropertyOp1
 70
     1
102
RTVSPropertyOp2
 70
     1
102
RTVSPropertyOp3
 70
     1
102
RTVSPropertyOp4
 70
     1
102
RTVSPropertyOp5
 70
     1
102
RTVSPropertyOp6
 70
     1
102
RTVSPropertyOp7
 70
     1
102
RTVSPropertyOp8
 70
     1
102
RTVSPropertyOp9
 70
     1
102
RTVSPropertyOp10
 70
     1
102
RTVSPropertyOp11
 70
     1
102
RTVSPropertyOp12
 70
     1
102
RTVSPropertyOp13
 70
     1
102
RTVSPropertyOp14
 70
     1
102
RTVSPropertyOp15
 70
     1
102
RTVSPropertyOp16
 70
     1
102
RTVSPropertyOp17
 70
     1
102
RTVSPropertyOp18
 70
     1
102
RTVSPropertyOp19
 70
     1
102
RTVSPropertyOp20
 70
     1
102
RTVSPropertyOp21
 70
     1
102
RTVSPropertyOp22
 70
     1
102
RTVSPropertyOp23
 70
     1
102
RTVSPropertyOp24
 70
     1
102
RTVSPropertyOp25
 70
     1
102
RTVSPropertyOp26
 70
     1
102
RTVSPropertyOp27
 70
     1
102
RTVSPropertyOp28
 70
     1
102
RTVSPropertyOp29
 70
     1
102
RTVSPropertyOp30
 70
     1
102
RTVSPropertyOp31
 70
     1
102
RTVSPropertyOp32
 70
     1
  0
XRECORD
  5
1C0B
102
{ACAD_REACTORS
330
1C0A
102
}
330
1C0A
100
AcDbXrecord
280
     1
102
RTVSPropertyOp0
 70
     1
102
RTVSPropertyOp1
 70
     1
102
RTVSPropertyOp2
 70
     1
102
RTVSPropertyOp3
 70
     1
102
RTVSPropertyOp4
 70
     1
102
RTVSPropertyOp5
 70
     1
102
RTVSPropertyOp6
 70
     1
102
RTVSPropertyOp7
 70
     1
102
RTVSPropertyOp8
 70
     1
102
RTVSPropertyOp9
 70
     1
102
RTVSPropertyOp10
 70
     1
102
RTVSPropertyOp11
 70
     1
102
RTVSPropertyOp12
 70
     1
102
RTVSPropertyOp13
 70
     1
102
RTVSPropertyOp14
 70
     1
102
RTVSPropertyOp15
 70
     1
102
RTVSPropertyOp16
 70
     1
102
RTVSPropertyOp17
 70
     1
102
RTVSPropertyOp18
 70
     1
102
RTVSPropertyOp19
 70
     1
102
RTVSPropertyOp20
 70
     1
102
RTVSPropertyOp21
 70
     1
102
RTVSPropertyOp22
 70
     1
102
RTVSPropertyOp23
 70
     1
102
RTVSPropertyOp24
 70
     1
102
RTVSPropertyOp25
 70
     1
102
RTVSPropertyOp26
 70
     1
102
RTVSPropertyOp27
 70
     1
102
RTVSPropertyOp28
 70
     1
102
RTVSPropertyOp29
 70
     1
102
RTVSPropertyOp30
 70
     1
102
RTVSPropertyOp31
 70
     1
102
RTVSPropertyOp32
 70
     1
  0
XRECORD
  5
1C01
102
{ACAD_REACTORS
330
1C00
102
}
330
1C00
100
AcDbXrecord
280
     1
102
RTVSPropertyOp0
 70
     1
102
RTVSPropertyOp1
 70
     1
102
RTVSPropertyOp2
 70
     1
102
RTVSPropertyOp3
 70
     1
102
RTVSPropertyOp4
 70
     1
102
RTVSPropertyOp5
 70
     1
102
RTVSPropertyOp6
 70
     1
102
RTVSPropertyOp7
 70
     1
102
RTVSPropertyOp8
 70
     1
102
RTVSPropertyOp9
 70
     1
102
RTVSPropertyOp10
 70
     1
102
RTVSPropertyOp11
 70
     1
102
RTVSPropertyOp12
 70
     1
102
RTVSPropertyOp13
 70
     1
102
RTVSPropertyOp14
 70
     1
102
RTVSPropertyOp15
 70
     1
102
RTVSPropertyOp16
 70
     1
102
RTVSPropertyOp17
 70
     1
102
RTVSPropertyOp18
 70
     1
102
RTVSPropertyOp19
 70
     1
102
RTVSPropertyOp20
 70
     1
102
RTVSPropertyOp21
 70
     1
102
RTVSPropertyOp22
 70
     1
102
RTVSPropertyOp23
 70
     1
102
RTVSPropertyOp24
 70
     1
102
RTVSPropertyOp25
 70
     1
102
RTVSPropertyOp26
 70
     1
102
RTVSPropertyOp27
 70
     1
102
RTVSPropertyOp28
 70
     1
102
RTVSPropertyOp29
 70
     1
102
RTVSPropertyOp30
 70
     1
102
RTVSPropertyOp31
 70
     1
102
RTVSPropertyOp32
 70
     1
  0
XRECORD
  5
1BF5
102
{ACAD_REACTORS
330
1BF4
102
}
330
1BF4
100
AcDbXrecord
280
     1
102
RTVSPropertyOp0
 70
     1
102
RTVSPropertyOp1
 70
     1
102
RTVSPropertyOp2
 70
     1
102
RTVSPropertyOp3
 70
     1
102
RTVSPropertyOp4
 70
     1
102
RTVSPropertyOp5
 70
     1
102
RTVSPropertyOp6
 70
     1
102
RTVSPropertyOp7
 70
     1
102
RTVSPropertyOp8
 70
     1
102
RTVSPropertyOp9
 70
     1
102
RTVSPropertyOp10
 70
     1
102
RTVSPropertyOp11
 70
     1
102
RTVSPropertyOp12
 70
     1
102
RTVSPropertyOp13
 70
     1
102
RTVSPropertyOp14
 70
     1
102
RTVSPropertyOp15
 70
     1
102
RTVSPropertyOp16
 70
     1
102
RTVSPropertyOp17
 70
     1
102
RTVSPropertyOp18
 70
     1
102
RTVSPropertyOp19
 70
     1
102
RTVSPropertyOp20
 70
     1
102
RTVSPropertyOp21
 70
     1
102
RTVSPropertyOp22
 70
     1
102
RTVSPropertyOp23
 70
     1
102
RTVSPropertyOp24
 70
     1
102
RTVSPropertyOp25
 70
     1
102
RTVSPropertyOp26
 70
     1
102
RTVSPropertyOp27
 70
     1
102
RTVSPropertyOp28
 70
     1
102
RTVSPropertyOp29
 70
     1
102
RTVSPropertyOp30
 70
     1
102
RTVSPropertyOp31
 70
     1
102
RTVSPropertyOp32
 70
     1
  0
XRECORD
  5
1C0D
102
{ACAD_REACTORS
330
1C0C
102
}
330
1C0C
100
AcDbXrecord
280
     1
102
RTVSPropertyOp0
 70
     1
102
RTVSPropertyOp1
 70
     1
102
RTVSPropertyOp2
 70
     1
102
RTVSPropertyOp3
 70
     1
102
RTVSPropertyOp4
 70
     1
102
RTVSPropertyOp5
 70
     1
102
RTVSPropertyOp6
 70
     1
102
RTVSPropertyOp7
 70
     1
102
RTVSPropertyOp8
 70
     1
102
RTVSPropertyOp9
 70
     1
102
RTVSPropertyOp10
 70
     1
102
RTVSPropertyOp11
 70
     1
102
RTVSPropertyOp12
 70
     1
102
RTVSPropertyOp13
 70
     1
102
RTVSPropertyOp14
 70
     1
102
RTVSPropertyOp15
 70
     1
102
RTVSPropertyOp16
 70
     1
102
RTVSPropertyOp17
 70
     1
102
RTVSPropertyOp18
 70
     1
102
RTVSPropertyOp19
 70
     1
102
RTVSPropertyOp20
 70
     1
102
RTVSPropertyOp21
 70
     1
102
RTVSPropertyOp22
 70
     1
102
RTVSPropertyOp23
 70
     1
102
RTVSPropertyOp24
 70
     1
102
RTVSPropertyOp25
 70
     1
102
RTVSPropertyOp26
 70
     1
102
RTVSPropertyOp27
 70
     1
102
RTVSPropertyOp28
 70
     1
102
RTVSPropertyOp29
 70
     1
102
RTVSPropertyOp30
 70
     1
102
RTVSPropertyOp31
 70
     1
102
RTVSPropertyOp32
 70
     1
  0
ENDSEC
  0
EOF
