  0
SECTION
  2
HEADER
  9
$ACADVER
  1
AC1015
  9
$ACADMAINTVER
 70
    20
  9
$DWGCODEPAGE
  3
ANSI_932
  9
$INSBASE
 10
0.0
 20
0.0
 30
0.0
  9
$EXTMIN
 10
-646.4298989587987
 20
-196.8488204444295
 30
0.0
  9
$EXTMAX
 10
621.9000666564759
 20
219.5774365960933
 30
0.0
  9
$LIMMIN
 10
0.0
 20
0.0
  9
$LIMMAX
 10
12.0
 20
9.0
  9
$ORTHOMODE
 70
     0
  9
$REGENMODE
 70
     1
  9
$FILLMODE
 70
     1
  9
$QTEXTMODE
 70
     0
  9
$MIRRTEXT
 70
     1
  9
$LTSCALE
 40
1.0
  9
$ATTMODE
 70
     1
  9
$TEXTSIZE
 40
0.2
  9
$TRACEWID
 40
0.05
  9
$TEXTSTYLE
  7
CONVERTER_21
  9
$CLAYER
  8
0
  9
$CELTYPE
  6
ByLayer
  9
$CECOLOR
 62
     4
  9
$CELTSCALE
 40
1.0
  9
$DISPSILH
 70
     0
  9
$DIMSCALE
 40
1.0
  9
$DIMASZ
 40
0.18
  9
$DIMEXO
 40
0.0625
  9
$DIMDLI
 40
0.38
  9
$DIMRND
 40
0.0
  9
$DIMDLE
 40
0.0
  9
$DIMEXE
 40
0.18
  9
$DIMTP
 40
0.0
  9
$DIMTM
 40
0.0
  9
$DIMTXT
 40
0.18
  9
$DIMCEN
 40
0.09
  9
$DIMTSZ
 40
0.0
  9
$DIMTOL
 70
     0
  9
$DIMLIM
 70
     0
  9
$DIMTIH
 70
     1
  9
$DIMTOH
 70
     1
  9
$DIMSE1
 70
     0
  9
$DIMSE2
 70
     0
  9
$DIMTAD
 70
     0
  9
$DIMZIN
 70
     0
  9
$DIMBLK
  1

  9
$DIMASO
 70
     1
  9
$DIMSHO
 70
     1
  9
$DIMPOST
  1

  9
$DIMAPOST
  1

  9
$DIMALT
 70
     0
  9
$DIMALTD
 70
     2
  9
$DIMALTF
 40
25.4
  9
$DIMLFAC
 40
1.0
  9
$DIMTOFL
 70
     0
  9
$DIMTVP
 40
0.0
  9
$DIMTIX
 70
     0
  9
$DIMSOXD
 70
     0
  9
$DIMSAH
 70
     0
  9
$DIMBLK1
  1

  9
$DIMBLK2
  1

  9
$DIMSTYLE
  2
Standard
  9
$DIMCLRD
 70
     0
  9
$DIMCLRE
 70
     0
  9
$DIMCLRT
 70
     0
  9
$DIMTFAC
 40
1.0
  9
$DIMGAP
 40
0.09
  9
$DIMJUST
 70
     0
  9
$DIMSD1
 70
     0
  9
$DIMSD2
 70
     0
  9
$DIMTOLJ
 70
     1
  9
$DIMTZIN
 70
     0
  9
$DIMALTZ
 70
     0
  9
$DIMALTTZ
 70
     0
  9
$DIMUPT
 70
     0
  9
$DIMDEC
 70
     4
  9
$DIMTDEC
 70
     4
  9
$DIMALTU
 70
     2
  9
$DIMALTTD
 70
     2
  9
$DIMTXSTY
  7
Standard
  9
$DIMAUNIT
 70
     0
  9
$DIMADEC
 70
     0
  9
$DIMALTRND
 40
0.0
  9
$DIMAZIN
 70
     0
  9
$DIMDSEP
 70
    46
  9
$DIMATFIT
 70
     3
  9
$DIMFRAC
 70
     0
  9
$DIMLDRBLK
  1

  9
$DIMLUNIT
 70
     2
  9
$DIMLWD
 70
    -2
  9
$DIMLWE
 70
    -2
  9
$DIMTMOVE
 70
     0
  9
$LUNITS
 70
     2
  9
$LUPREC
 70
     4
  9
$SKETCHINC
 40
0.1
  9
$FILLETRAD
 40
0.5
  9
$AUNITS
 70
     0
  9
$AUPREC
 70
     0
  9
$MENU
  1
.
  9
$ELEVATION
 40
0.0
  9
$PELEVATION
 40
0.0
  9
$THICKNESS
 40
0.0
  9
$LIMCHECK
 70
     0
  9
$CHAMFERA
 40
0.5
  9
$CHAMFERB
 40
0.5
  9
$CHAMFERC
 40
1.0
  9
$CHAMFERD
 40
0.0
  9
$SKPOLY
 70
     0
  9
$TDCREATE
 40
2455106.662517535
  9
$TDUCREATE
 40
2455106.287517535
  9
$TDUPDATE
 40
2458818.413444919
  9
$TDUUPDATE
 40
2458818.038444919
  9
$TDINDWG
 40
0.0243301273
  9
$TDUSRTIMER
 40
0.0243285069
  9
$USRTIMER
 70
     1
  9
$ANGBASE
 50
0.0
  9
$ANGDIR
 70
     0
  9
$PDMODE
 70
     0
  9
$PDSIZE
 40
0.0
  9
$PLINEWID
 40
0.0
  9
$SPLFRAME
 70
     0
  9
$SPLINETYPE
 70
     6
  9
$SPLINESEGS
 70
     8
  9
$HANDSEED
  5
1904
  9
$SURFTAB1
 70
     6
  9
$SURFTAB2
 70
     6
  9
$SURFTYPE
 70
     6
  9
$SURFU
 70
     6
  9
$SURFV
 70
     6
  9
$UCSBASE
  2

  9
$UCSNAME
  2

  9
$UCSORG
 10
0.0
 20
0.0
 30
0.0
  9
$UCSXDIR
 10
1.0
 20
0.0
 30
0.0
  9
$UCSYDIR
 10
0.0
 20
1.0
 30
0.0
  9
$UCSORTHOREF
  2

  9
$UCSORTHOVIEW
 70
     0
  9
$UCSORGTOP
 10
0.0
 20
0.0
 30
0.0
  9
$UCSORGBOTTOM
 10
0.0
 20
0.0
 30
0.0
  9
$UCSORGLEFT
 10
0.0
 20
0.0
 30
0.0
  9
$UCSORGRIGHT
 10
0.0
 20
0.0
 30
0.0
  9
$UCSORGFRONT
 10
0.0
 20
0.0
 30
0.0
  9
$UCSORGBACK
 10
0.0
 20
0.0
 30
0.0
  9
$PUCSBASE
  2

  9
$PUCSNAME
  2

  9
$PUCSORG
 10
0.0
 20
0.0
 30
0.0
  9
$PUCSXDIR
 10
1.0
 20
0.0
 30
0.0
  9
$PUCSYDIR
 10
0.0
 20
1.0
 30
0.0
  9
$PUCSORTHOREF
  2

  9
$PUCSORTHOVIEW
 70
     0
  9
$PUCSORGTOP
 10
0.0
 20
0.0
 30
0.0
  9
$PUCSORGBOTTOM
 10
0.0
 20
0.0
 30
0.0
  9
$PUCSORGLEFT
 10
0.0
 20
0.0
 30
0.0
  9
$PUCSORGRIGHT
 10
0.0
 20
0.0
 30
0.0
  9
$PUCSORGFRONT
 10
0.0
 20
0.0
 30
0.0
  9
$PUCSORGBACK
 10
0.0
 20
0.0
 30
0.0
  9
$USERI1
 70
     0
  9
$USERI2
 70
     0
  9
$USERI3
 70
     0
  9
$USERI4
 70
     0
  9
$USERI5
 70
     0
  9
$USERR1
 40
14.0
  9
$USERR2
 40
0.0
  9
$USERR3
 40
0.0
  9
$USERR4
 40
0.0
  9
$USERR5
 40
0.0
  9
$WORLDVIEW
 70
     1
  9
$SHADEDGE
 70
     3
  9
$SHADEDIF
 70
    70
  9
$TILEMODE
 70
     1
  9
$MAXACTVP
 70
    64
  9
$PINSBASE
 10
0.0
 20
0.0
 30
0.0
  9
$PLIMCHECK
 70
     0
  9
$PEXTMIN
 10
1.000000000000000E+20
 20
1.000000000000000E+20
 30
1.000000000000000E+20
  9
$PEXTMAX
 10
-1.000000000000000E+20
 20
-1.000000000000000E+20
 30
-1.000000000000000E+20
  9
$PLIMMIN
 10
0.0
 20
0.0
  9
$PLIMMAX
 10
12.0
 20
9.0
  9
$UNITMODE
 70
     0
  9
$VISRETAIN
 70
     1
  9
$PLINEGEN
 70
     0
  9
$PSLTSCALE
 70
     1
  9
$TREEDEPTH
 70
  3020
  9
$CMLSTYLE
  2
Standard
  9
$CMLJUST
 70
     0
  9
$CMLSCALE
 40
1.0
  9
$PROXYGRAPHICS
 70
     1
  9
$MEASUREMENT
 70
     1
  9
$CELWEIGHT
370
    -1
  9
$ENDCAPS
280
     0
  9
$JOINSTYLE
280
     0
  9
$LWDISPLAY
290
     0
  9
$INSUNITS
 70
     1
  9
$HYPERLINKBASE
  1

  9
$STYLESHEET
  1
P社図面.CTB
  9
$XEDIT
290
     1
  9
$CEPSNTYPE
380
     0
  9
$PSTYLEMODE
290
     1
  9
$FINGERPRINTGUID
  2
{867DB418-29F9-41BA-A41B-A0A0AD1D7293}
  9
$VERSIONGUID
  2
{92A2C963-676B-4F52-A35D-9470F4D36F0F}
  9
$EXTNAMES
290
     1
  9
$PSVPSCALE
 40
0.0
  9
$OLESTARTUP
290
     0
  0
ENDSEC
  0
SECTION
  2
CLASSES
  0
CLASS
  1
ACDBDICTIONARYWDFLT
  2
AcDbDictionaryWithDefault
  3
ObjectDBX Classes
 90
        0
280
     0
281
     0
  0
CLASS
  1

  2
exOdDbSpline
  3

 90
    32768
280
     0
281
     1
  0
CLASS
  1

  2
exOdDbPolyline
  3

 90
    32768
280
     0
281
     1
  0
CLASS
  1

  2
exOdDbCircle
  3

 90
    32768
280
     0
281
     1
  0
CLASS
  1
MATERIAL
  2
AcDbMaterial
  3
ObjectDBX Classes
 90
     1153
280
     0
281
     0
  0
CLASS
  1
VISUALSTYLE
  2
AcDbVisualStyle
  3
ObjectDBX Classes
 90
     4095
280
     0
281
     0
  0
CLASS
  1
TABLESTYLE
  2
AcDbTableStyle
  3
ObjectDBX Classes
 90
     4095
280
     0
281
     0
  0
CLASS
  1
SCALE
  2
AcDbScale
  3
ObjectDBX Classes
 90
     1153
280
     0
281
     0
  0
CLASS
  1
MLEADERSTYLE
  2
AcDbMLeaderStyle
  3
ACDB_MLEADERSTYLE_CLASS
 90
     4095
280
     0
281
     0
  0
CLASS
  1
DICTIONARYVAR
  2
AcDbDictionaryVar
  3
ObjectDBX Classes
 90
        0
280
     0
281
     0
  0
CLASS
  1
CELLSTYLEMAP
  2
AcDbCellStyleMap
  3
ObjectDBX Classes
 90
     1152
280
     0
281
     0
  0
CLASS
  1
ACDBPLACEHOLDER
  2
AcDbPlaceHolder
  3
ObjectDBX Classes
 90
        0
280
     0
281
     0
  0
CLASS
  1
LAYOUT
  2
AcDbLayout
  3
ObjectDBX Classes
 90
        0
280
     0
281
     0
  0
ENDSEC
  0
SECTION
  2
TABLES
  0
TABLE
  2
VPORT
  5
8
330
0
100
AcDbSymbolTable
 70
     1
  0
VPORT
  5
185F
330
8
100
AcDbSymbolTableRecord
100
AcDbViewportTableRecord
  2
*Active
 70
     0
 10
0.0
 20
0.0
 11
1.0
 21
1.0
 12
85.62387436318237
 22
11.34742865652424
 13
0.0
 23
0.0
 14
0.5
 24
0.5
 15
0.5
 25
0.5
 16
0.0
 26
0.0
 36
1.0
 17
0.0
 27
0.0
 37
0.0
 40
673.8044381499157
 41
1.803827751196172
 42
50.0
 43
0.0
 44
0.0
 50
0.0
 51
0.0
 71
     0
 72
   100
 73
     1
 74
     3
 75
     0
 76
     0
 77
     0
 78
     0
281
     0
 65
     1
110
0.0
120
0.0
130
0.0
111
1.0
121
0.0
131
0.0
112
0.0
122
1.0
132
0.0
 79
     0
146
0.0
1001
ACAD_NAV_VCDISPLAY
1070
     3
  0
ENDTAB
  0
TABLE
  2
LTYPE
  5
5
330
0
100
AcDbSymbolTable
 70
     8
  0
LTYPE
  5
14
330
5
100
AcDbSymbolTableRecord
100
AcDbLinetypeTableRecord
  2
ByBlock
 70
     0
  3

 72
    65
 73
     0
 40
0.0
  0
LTYPE
  5
15
330
5
100
AcDbSymbolTableRecord
100
AcDbLinetypeTableRecord
  2
ByLayer
 70
     0
  3

 72
    65
 73
     0
 40
0.0
  0
LTYPE
  5
16
330
5
100
AcDbSymbolTableRecord
100
AcDbLinetypeTableRecord
  2
Continuous
 70
     0
  3
Solid line
 72
    65
 73
     0
 40
0.0
  0
LTYPE
  5
2A
330
5
100
AcDbSymbolTableRecord
100
AcDbLinetypeTableRecord
  2
DASHED
 70
     0
  3
Dashed
 72
    65
 73
     2
 40
15.0
 49
7.0
 74
     0
 49
-8.0
 74
     0
  0
LTYPE
  5
2E
330
5
100
AcDbSymbolTableRecord
100
AcDbLinetypeTableRecord
  2
DASH_CENTER
 70
     0
  3
Dash_Center
 72
    65
 73
     4
 40
14.0
 49
11.0
 74
     0
 49
-1.0
 74
     0
 49
1.0
 74
     0
 49
-1.0
 74
     0
  0
LTYPE
  5
30
330
5
100
AcDbSymbolTableRecord
100
AcDbLinetypeTableRecord
  2
CENTER_DASH_DASH
 70
     0
  3
Center_Dash_Dash
 72
    65
 73
     6
 40
14.0
 49
9.0
 74
     0
 49
-1.0
 74
     0
 49
1.0
 74
     0
 49
-1.0
 74
     0
 49
1.0
 74
     0
 49
-1.0
 74
     0
  0
ENDTAB
  0
TABLE
  2
LAYER
  5
2
330
0
100
AcDbSymbolTable
 70
     9
  0
LAYER
  5
10
102
{ACAD_XDICTIONARY
360
18AE
102
}
330
2
100
AcDbSymbolTableRecord
100
AcDbLayerTableRecord
  2
0
 70
     0
 62
     7
  6
Continuous
370
    -3
390
F
  0
LAYER
  5
31
102
{ACAD_XDICTIONARY
360
18B0
102
}
330
2
100
AcDbSymbolTableRecord
100
AcDbLayerTableRecord
  2
1
 70
     0
 62
     7
  6
Continuous
370
    -3
390
F
  0
LAYER
  5
32
102
{ACAD_XDICTIONARY
360
18B2
102
}
330
2
100
AcDbSymbolTableRecord
100
AcDbLayerTableRecord
  2
10
 70
     0
 62
     7
  6
Continuous
370
    -3
390
F
  0
LAYER
  5
33
102
{ACAD_XDICTIONARY
360
18B4
102
}
330
2
100
AcDbSymbolTableRecord
100
AcDbLayerTableRecord
  2
100
 70
     0
 62
     7
  6
Continuous
370
    -3
390
F
  0
LAYER
  5
34
102
{ACAD_XDICTIONARY
360
18B6
102
}
330
2
100
AcDbSymbolTableRecord
100
AcDbLayerTableRecord
  2
110
 70
     0
 62
     7
  6
Continuous
370
    -3
390
F
  0
LAYER
  5
35
102
{ACAD_XDICTIONARY
360
18B8
102
}
330
2
100
AcDbSymbolTableRecord
100
AcDbLayerTableRecord
  2
115
 70
     0
 62
     7
  6
Continuous
370
    -3
390
F
  0
LAYER
  5
36
102
{ACAD_XDICTIONARY
360
18BA
102
}
330
2
100
AcDbSymbolTableRecord
100
AcDbLayerTableRecord
  2
60
 70
     0
 62
     7
  6
Continuous
370
    -3
390
F
  0
LAYER
  5
1369
330
2
100
AcDbSymbolTableRecord
100
AcDbLayerTableRecord
  2
Defpoints
 70
     0
 62
     7
  6
Continuous
290
     0
370
    -3
390
F
  0
ENDTAB
  0
TABLE
  2
STYLE
  5
3
330
0
100
AcDbSymbolTable
 70
    24
  0
STYLE
  5
11
330
3
100
AcDbSymbolTableRecord
100
AcDbTextStyleTableRecord
  2
Standard
 70
     0
 40
0.0
 41
1.0
 50
0.0
 71
     0
 42
0.2
  3
txt
  4

  0
STYLE
  5
320
330
3
100
AcDbSymbolTableRecord
100
AcDbTextStyleTableRecord
  2
CONVERTER_4
 70
     0
 40
0.0
 41
0.8009999999999999
 50
0.0
 71
     0
 42
0.2
  3
simplex.shx
  4
bigfont.shx
  0
STYLE
  5
32B
330
3
100
AcDbSymbolTableRecord
100
AcDbTextStyleTableRecord
  2
CONVERTER_7
 70
     0
 40
0.0
 41
0.89
 50
0.0
 71
     0
 42
0.2
  3
simplex.shx
  4
bigfont.shx
  0
STYLE
  5
34A
330
3
100
AcDbSymbolTableRecord
100
AcDbTextStyleTableRecord
  2
CONVERTER_17
 70
     0
 40
0.0
 41
0.6230000000000002
 50
0.0
 71
     0
 42
0.2
  3
simplex.shx
  4
bigfont.shx
  0
STYLE
  5
A15
330
3
100
AcDbSymbolTableRecord
100
AcDbTextStyleTableRecord
  2
CONVERTER_21
 70
     0
 40
0.0
 41
0.7120000000000001
 50
0.0
 71
     0
 42
0.2
  3
simplex.shx
  4
bigfont.shx
  0
ENDTAB
  0
TABLE
  2
VIEW
  5
6
330
0
100
AcDbSymbolTable
 70
     0
  0
ENDTAB
  0
TABLE
  2
UCS
  5
7
330
0
100
AcDbSymbolTable
 70
     0
  0
ENDTAB
  0
TABLE
  2
APPID
  5
9
330
0
100
AcDbSymbolTable
 70
     3
  0
APPID
  5
12
330
9
100
AcDbSymbolTableRecord
100
AcDbRegAppTableRecord
  2
ACAD
 70
     0
  0
APPID
  5
18C4
330
9
100
AcDbSymbolTableRecord
100
AcDbRegAppTableRecord
  2
ACAD_NAV_VCDISPLAY
 70
     0
  0
APPID
  5
1903
330
9
100
AcDbSymbolTableRecord
100
AcDbRegAppTableRecord
  2
ACAD_MLEADERVER
 70
     0
  0
ENDTAB
  0
TABLE
  2
DIMSTYLE
  5
A
330
0
100
AcDbSymbolTable
 70
    35
100
AcDbDimStyleTable
 71
     0
  0
DIMSTYLE
105
27
330
A
100
AcDbSymbolTableRecord
100
AcDbDimStyleTableRecord
  2
Standard
 70
     0
340
11
  0
ENDTAB
  0
TABLE
  2
BLOCK_RECORD
  5
1
330
0
100
AcDbSymbolTable
 70
    87
  0
BLOCK_RECORD
  5
1F
330
1
100
AcDbSymbolTableRecord
100
AcDbBlockTableRecord
  2
*Model_Space
340
22
  0
BLOCK_RECORD
  5
1B
330
1
100
AcDbSymbolTableRecord
100
AcDbBlockTableRecord
  2
*Paper_Space
340
1E
  0
BLOCK_RECORD
  5
23
330
1
100
AcDbSymbolTableRecord
100
AcDbBlockTableRecord
  2
*Paper_Space0
340
26
  0
ENDTAB
  0
ENDSEC
  0
SECTION
  2
BLOCKS
  0
BLOCK
  5
20
330
1F
100
AcDbEntity
  8
0
100
AcDbBlockBegin
  2
*Model_Space
 70
     0
 10
0.0
 20
0.0
 30
0.0
  3
*Model_Space
  1

  0
ENDBLK
  5
21
330
1F
100
AcDbEntity
  8
0
100
AcDbBlockEnd
  0
BLOCK
  5
1C
330
1B
100
AcDbEntity
 67
     1
  8
0
100
AcDbBlockBegin
  2
*Paper_Space
 70
     0
 10
0.0
 20
0.0
 30
0.0
  3
*Paper_Space
  1

  0
ENDBLK
  5
1D
330
1B
100
AcDbEntity
 67
     1
  8
0
100
AcDbBlockEnd
  0
BLOCK
  5
24
330
23
100
AcDbEntity
 67
     1
  8
0
100
AcDbBlockBegin
  2
*Paper_Space0
 70
     0
 10
0.0
 20
0.0
 30
0.0
  3
*Paper_Space0
  1

  0
ENDBLK
  5
25
330
23
100
AcDbEntity
 67
     1
  8
0
100
AcDbBlockEnd
  0
ENDSEC
  0
SECTION
  2
ENTITIES
  0
TEXT
  5
B44
330
1F
100
AcDbEntity
  8
0
 62
     2
100
AcDbText
 10
-187.6216802786513
 20
-196.8488204444295
 30
0.0
 40
16.0
  1
ASAMDBT2P750W
 41
0.8009999999999999
  7
CONVERTER_4
100
AcDbText
  0
MTEXT
  5
B5F
330
1F
100
AcDbEntity
  8
0
 62
     2
100
AcDbMText
 10
411.0000000000011
 20
-510.9995720940504
 30
0.0
 40
8.0
 41
0.0
 71
     5
 72
     1
  1
 
  7
CONVERTER_17
 73
     1
 44
1.32052821128451
1001
ACAD
1000
MTEXTBEGIN
1070
    73
1070
     1
1070
    44
1040
1.32052821128451
1070
    74
1070
     0
1000
MTEXTEND
  0
MTEXT
  5
B67
330
1F
100
AcDbEntity
  8
0
 62
     2
100
AcDbMText
 10
263.0004
 20
-535.9993999999995
 30
0.0
 40
12.0
 41
0.0
 71
     5
 72
     1
  1
 
  7
CONVERTER_7
 73
     1
 44
1.32052821128451
1001
ACAD
1000
MTEXTBEGIN
1070
    73
1070
     1
1070
    44
1040
1.32052821128451
1070
    74
1070
     0
1000
MTEXTEND
  0
MTEXT
  5
B68
330
1F
100
AcDbEntity
  8
0
 62
     2
100
AcDbMText
 10
341.0004
 20
-535.9993999999995
 30
0.0
 40
12.0
 41
0.0
 71
     5
 72
     1
  1
 
  7
CONVERTER_7
 73
     1
 44
1.32052821128451
1001
ACAD
1000
MTEXTBEGIN
1070
    73
1070
     1
1070
    44
1040
1.32052821128451
1070
    74
1070
     0
1000
MTEXTEND
  0
MTEXT
  5
B69
330
1F
100
AcDbEntity
  8
0
 62
     2
100
AcDbMText
 10
185.0004
 20
-535.9993999999995
 30
0.0
 40
12.0
 41
0.0
 71
     5
 72
     1
  1
 
  7
CONVERTER_7
 73
     1
 44
1.32052821128451
1001
ACAD
1000
MTEXTBEGIN
1070
    73
1070
     1
1070
    44
1040
1.32052821128451
1070
    74
1070
     0
1000
MTEXTEND
  0
MTEXT
  5
B6A
330
1F
100
AcDbEntity
  8
0
 62
     2
100
AcDbMText
 10
411.0000000000011
 20
-559.9993999999996
 30
0.0
 40
8.0
 41
0.0
 71
     5
 72
     1
  1
 
  7
CONVERTER_17
 73
     1
 44
1.32052821128451
1001
ACAD
1000
MTEXTBEGIN
1070
    73
1070
     1
1070
    44
1040
1.32052821128451
1070
    74
1070
     0
1000
MTEXTEND
  0
MTEXT
  5
B6B
330
1F
100
AcDbEntity
  8
0
 62
     2
100
AcDbMText
 10
333.0004
 20
-559.9993999999996
 30
0.0
 40
8.0
 41
0.0
 71
     5
 72
     1
  1
 
  7
CONVERTER_17
 73
     1
 44
1.32052821128451
1001
ACAD
1000
MTEXTBEGIN
1070
    73
1070
     1
1070
    44
1040
1.32052821128451
1070
    74
1070
     0
1000
MTEXTEND
  0
MTEXT
  5
B6C
330
1F
100
AcDbEntity
  8
0
 62
     2
100
AcDbMText
 10
255.0004
 20
-559.9993999999996
 30
0.0
 40
8.0
 41
0.0
 71
     5
 72
     1
  1
 
  7
CONVERTER_17
 73
     1
 44
1.32052821128451
1001
ACAD
1000
MTEXTBEGIN
1070
    73
1070
     1
1070
    44
1040
1.32052821128451
1070
    74
1070
     0
1000
MTEXTEND
  0
MTEXT
  5
B6D
330
1F
100
AcDbEntity
  8
0
 62
     2
100
AcDbMText
 10
99.00040000000004
 20
-559.9993999999996
 30
0.0
 40
8.0
 41
0.0
 71
     5
 72
     1
  1
 
  7
CONVERTER_17
 73
     1
 44
1.32052821128451
1001
ACAD
1000
MTEXTBEGIN
1070
    73
1070
     1
1070
    44
1040
1.32052821128451
1070
    74
1070
     0
1000
MTEXTEND
  0
MTEXT
  5
B6E
330
1F
100
AcDbEntity
  8
0
 62
     2
100
AcDbMText
 10
177.0004
 20
-559.9993999999996
 30
0.0
 40
8.0
 41
0.0
 71
     5
 72
     1
  1
 
  7
CONVERTER_17
 73
     1
 44
1.32052821128451
1001
ACAD
1000
MTEXTBEGIN
1070
    73
1070
     1
1070
    44
1040
1.32052821128451
1070
    74
1070
     0
1000
MTEXTEND
  0
MTEXT
  5
B6F
330
1F
100
AcDbEntity
  8
0
 62
     2
100
AcDbMText
 10
419.0000000000011
 20
-535.9993999999995
 30
0.0
 40
12.0
 41
0.0
 71
     5
 72
     1
  1
 
  7
CONVERTER_7
 73
     1
 44
1.32052821128451
1001
ACAD
1000
MTEXTBEGIN
1070
    73
1070
     1
1070
    44
1040
1.32052821128451
1070
    74
1070
     0
1000
MTEXTEND
  0
MTEXT
  5
B70
330
1F
100
AcDbEntity
  8
0
 62
     2
100
AcDbMText
 10
411.0000000000011
 20
-481.9995154418491
 30
0.0
 40
12.0
 41
0.0
 71
     5
 72
     1
  1
 
  7
CONVERTER_7
 73
     1
 44
1.32052821128451
1001
ACAD
1000
MTEXTBEGIN
1070
    73
1070
     1
1070
    44
1040
1.32052821128451
1070
    74
1070
     0
1000
MTEXTEND
  0
POINT
  5
DEB
330
1F
100
AcDbEntity
  8
115
 62
   171
100
AcDbPoint
 10
-547.0050123407424
 20
21.12429543207608
 30
0.0
  0
POINT
  5
DEC
330
1F
100
AcDbEntity
  8
115
 62
     2
100
AcDbPoint
 10
-291.009552808565
 20
-110.18780955414
 30
0.0
  0
LINE
  5
DED
330
1F
100
AcDbEntity
  8
1
  6
DASH_CENTER
 62
     2
100
AcDbLine
 10
499.5304454157288
 20
-88.58780955414109
 30
0.0
 11
499.5304454157288
 21
-101.7878095541411
 31
0.0
  0
LINE
  5
DEE
330
1F
100
AcDbEntity
  8
1
  6
DASH_CENTER
 62
     2
100
AcDbLine
 10
506.1304454157288
 20
-95.18780955414108
 30
0.0
 11
492.9304454157288
 21
-95.18780955414108
 31
0.0
  0
LINE
  5
DEF
330
1F
100
AcDbEntity
  8
110
  6
DASH_CENTER
 62
    30
100
AcDbLine
 10
13.26785482480763
 20
44.81229044585999
 30
0.0
 11
621.9000666564759
 21
44.81229044585993
 31
0.0
  0
LINE
  5
DF0
330
1F
100
AcDbEntity
  8
0
  6
Continuous
 62
     7
100
AcDbLine
 10
61.04589937013284
 20
-90.61600875595242
 30
0.0
 11
63.04589937013284
 21
-89.08416516958309
 31
0.0
  0
LINE
  5
DF1
330
1F
100
AcDbEntity
  8
0
  6
Continuous
 62
     7
100
AcDbLine
 10
61.04589937013284
 20
-91.35872079782847
 30
0.0
 11
63.04589937013282
 21
-89.59477969837291
 31
0.0
  0
LINE
  5
DF2
330
1F
100
AcDbEntity
  8
0
  6
Continuous
 62
     7
100
AcDbLine
 10
61.04589937013284
 20
-83.08770955414003
 30
0.0
 11
57.24589937013284
 21
-83.08770955413999
 31
0.0
  0
LINE
  5
DF3
330
1F
100
AcDbEntity
  8
0
  6
Continuous
 62
     7
100
AcDbLine
 10
61.04589937013284
 20
-86.63770955413998
 30
0.0
 11
57.24589937013284
 21
-86.63770955413998
 31
0.0
  0
LINE
  5
DF4
330
1F
100
AcDbEntity
  8
0
  6
Continuous
 62
     7
100
AcDbLine
 10
61.04589937013284
 20
-93.73770955414
 30
0.0
 11
57.24589937013282
 21
-93.73770955413998
 31
0.0
  0
LINE
  5
DF5
330
1F
100
AcDbEntity
  8
0
  6
Continuous
 62
     7
100
AcDbLine
 10
61.04589937013284
 20
-97.28770955413999
 30
0.0
 11
57.24589937013282
 21
-97.28770955413999
 31
0.0
  0
LINE
  5
DF6
330
1F
100
AcDbEntity
  8
0
  6
Continuous
 62
     7
100
AcDbLine
 10
61.04589937013284
 20
-97.88770955414001
 30
0.0
 11
63.04589937013284
 21
-97.88770955414001
 31
0.0
  0
LINE
  5
DF7
330
1F
100
AcDbEntity
  8
0
  6
Continuous
 62
     7
100
AcDbLine
 10
61.04589937013284
 20
-82.48770955414
 30
0.0
 11
61.04589937013284
 21
-97.88770955414001
 31
0.0
  0
LINE
  5
DF8
330
1F
100
AcDbEntity
  8
0
  6
Continuous
 62
     7
100
AcDbLine
 10
63.04589937013284
 20
-82.48770955414
 30
0.0
 11
61.04589937013284
 21
-82.48770955414
 31
0.0
  0
LINE
  5
DF9
330
1F
100
AcDbEntity
  8
0
  6
Continuous
 62
     7
100
AcDbLine
 10
55.74589937013282
 20
-84.99328975861919
 30
0.0
 11
55.74589937013282
 21
-90.18770955414
 31
0.0
  0
LINE
  5
DFA
330
1F
100
AcDbEntity
  8
0
  6
Continuous
 62
     7
100
AcDbLine
 10
55.74589937013282
 20
-95.61431171129092
 30
0.0
 11
55.74589937013282
 21
-90.18770955414
 31
0.0
  0
LINE
  5
DFB
330
1F
100
AcDbEntity
  8
0
  6
DASHED
 62
     2
100
AcDbLine
 10
42.14589937013285
 20
-122.5878095541399
 30
0.0
 11
42.14589937013285
 21
-125.1878095541399
 31
0.0
  0
LINE
  5
DFC
330
1F
100
AcDbEntity
  8
0
  6
DASHED
 62
     2
100
AcDbLine
 10
53.14589937013284
 20
-122.5878095541399
 30
0.0
 11
53.14589937013284
 21
-125.1878095541399
 31
0.0
  0
LINE
  5
DFD
330
1F
100
AcDbEntity
  8
0
  6
DASH_CENTER
 62
     2
100
AcDbLine
 10
47.64589937013284
 20
-118.823649917191
 30
0.0
 11
47.64589937013284
 21
-131.337425192038
 31
0.0
  0
LINE
  5
DFE
330
1F
100
AcDbEntity
  8
0
  6
DASH_CENTER
 62
     2
100
AcDbLine
 10
41.42935276310954
 20
-90.18770955414
 30
0.0
 11
84.5139424640779
 21
-90.18770955414
 31
0.0
  0
LINE
  5
DFF
330
1F
100
AcDbEntity
  8
0
  6
Continuous
 62
     7
100
AcDbLine
 10
72.64589937013285
 20
-99.18770955414
 30
0.0
 11
65.64589937013285
 21
-99.18770955414
 31
0.0
  0
LINE
  5
E00
330
1F
100
AcDbEntity
  8
0
  6
Continuous
 62
     7
100
AcDbLine
 10
65.64589937013285
 20
-81.18770955413998
 30
0.0
 11
72.64589937013285
 21
-81.18770955413998
 31
0.0
  0
LINE
  5
E01
330
1F
100
AcDbEntity
  8
0
  6
Continuous
 62
     7
100
AcDbLine
 10
63.04589937013284
 20
-77.1878095541399
 30
0.0
 11
63.04589937013282
 21
-119.5878095541399
 31
0.0
  0
LINE
  5
E02
330
1F
100
AcDbEntity
  8
0
  6
Continuous
 62
     7
100
AcDbLine
 10
65.64589937013285
 20
-77.1878095541399
 30
0.0
 11
63.04589937013284
 21
-77.1878095541399
 31
0.0
  0
LINE
  5
E03
330
1F
100
AcDbEntity
  8
0
  6
Continuous
 62
     7
100
AcDbLine
 10
65.64589937013285
 20
-120.1878095541399
 30
0.0
 11
65.64589937013285
 21
-77.1878095541399
 31
0.0
  0
LINE
  5
E04
330
1F
100
AcDbEntity
  8
0
  6
Continuous
 62
     7
100
AcDbLine
 10
60.64589937013283
 20
-125.1878095541399
 30
0.0
 11
33.64589937013283
 21
-125.1878095541399
 31
0.0
  0
LINE
  5
E05
330
1F
100
AcDbEntity
  8
0
  6
Continuous
 62
     7
100
AcDbLine
 10
33.64589937013283
 20
-122.5878095541399
 30
0.0
 11
60.04589937013282
 21
-122.5878095541399
 31
0.0
  0
LINE
  5
E06
330
1F
100
AcDbEntity
  8
0
  6
Continuous
 62
     7
100
AcDbLine
 10
33.64589937013283
 20
-122.5878095541399
 30
0.0
 11
33.64589937013283
 21
-125.1878095541399
 31
0.0
  0
LINE
  5
E07
330
1F
100
AcDbEntity
  8
0
  6
DASHED
 62
     2
100
AcDbLine
 10
-491.1647528085651
 20
-125.1878095541399
 30
0.0
 11
-491.1647528085651
 21
-122.5878095541399
 31
0.0
  0
LINE
  5
E08
330
1F
100
AcDbEntity
  8
0
  6
DASHED
 62
     2
100
AcDbLine
 10
-502.1647528085653
 20
-125.1878095541399
 30
0.0
 11
-502.1647528085653
 21
-122.5878095541399
 31
0.0
  0
LINE
  5
E09
330
1F
100
AcDbEntity
  8
0
  6
DASH_CENTER
 62
     2
100
AcDbLine
 10
-496.6647528085653
 20
-131.337425192038
 30
0.0
 11
-496.6647528085653
 21
-118.823649917191
 31
0.0
  0
LINE
  5
E0A
330
1F
100
AcDbEntity
  8
0
  6
DASHED
 62
     2
100
AcDbLine
 10
-452.1647528085653
 20
-122.5878095541399
 30
0.0
 11
-452.1647528085653
 21
-125.1878095541399
 31
0.0
  0
LINE
  5
E0B
330
1F
100
AcDbEntity
  8
0
  6
DASHED
 62
     2
100
AcDbLine
 10
-441.1647528085651
 20
-122.5878095541399
 30
0.0
 11
-441.1647528085651
 21
-125.1878095541399
 31
0.0
  0
LINE
  5
E0C
330
1F
100
AcDbEntity
  8
0
  6
DASH_CENTER
 62
     2
100
AcDbLine
 10
-446.6647528085653
 20
-118.823649917191
 30
0.0
 11
-446.6647528085653
 21
-125.1878095541399
 31
0.0
  0
LINE
  5
E0D
330
1F
100
AcDbEntity
  8
0
  6
Continuous
 62
     7
100
AcDbLine
 10
-434.1647528085653
 20
-122.5878095541399
 30
0.0
 11
-509.1647528085653
 21
-122.5878095541399
 31
0.0
  0
LINE
  5
E0E
330
1F
100
AcDbEntity
  8
0
  6
Continuous
 62
     7
100
AcDbLine
 10
-509.1647528085653
 20
-125.1878095541399
 30
0.0
 11
-509.1647528085653
 21
-79.18780955413993
 31
0.0
  0
LINE
  5
E0F
330
1F
100
AcDbEntity
  8
0
  6
Continuous
 62
     7
100
AcDbLine
 10
-434.1647528085653
 20
-125.1878095541399
 30
0.0
 11
-446.6647528085653
 21
-125.1878095541399
 31
0.0
  0
LINE
  5
E10
330
1F
100
AcDbEntity
  8
0
  6
Continuous
 62
     7
100
AcDbLine
 10
-434.1647528085653
 20
-79.18780955413993
 30
0.0
 11
-434.1647528085653
 21
-125.1878095541399
 31
0.0
  0
LINE
  5
E11
330
1F
100
AcDbEntity
  8
0
  6
Continuous
 62
     7
100
AcDbLine
 10
-507.1647528085653
 20
-77.18780955413993
 30
0.0
 11
-436.1647528085653
 21
-77.18780955413993
 31
0.0
  0
LINE
  5
E12
330
1F
100
AcDbEntity
  8
0
  6
Continuous
 62
     7
100
AcDbLine
 10
-485.6025749820743
 20
-86.68770955414005
 30
0.0
 11
-491.6647528085653
 21
-83.18770955414004
 31
0.0
  0
LINE
  5
E13
330
1F
100
AcDbEntity
  8
0
  6
Continuous
 62
     7
100
AcDbLine
 10
-491.6647528085653
 20
-83.18770955414004
 30
0.0
 11
-497.7269306350563
 21
-86.68770955414005
 31
0.0
  0
LINE
  5
E14
330
1F
100
AcDbEntity
  8
0
  6
Continuous
 62
     7
100
AcDbLine
 10
-497.7269306350563
 20
-86.68770955414005
 30
0.0
 11
-497.7269306350563
 21
-93.68770955414005
 31
0.0
  0
LINE
  5
E15
330
1F
100
AcDbEntity
  8
0
  6
Continuous
 62
     7
100
AcDbLine
 10
-497.7269306350563
 20
-93.68770955414005
 30
0.0
 11
-491.6647528085653
 21
-97.18770955414008
 31
0.0
  0
LINE
  5
E16
330
1F
100
AcDbEntity
  8
0
  6
Continuous
 62
     7
100
AcDbLine
 10
-491.6647528085653
 20
-97.18770955414008
 30
0.0
 11
-485.6025749820743
 21
-93.68770955414005
 31
0.0
  0
LINE
  5
E17
330
1F
100
AcDbEntity
  8
0
  6
Continuous
 62
     7
100
AcDbLine
 10
-485.6025749820743
 20
-93.68770955414005
 30
0.0
 11
-485.6025749820743
 21
-86.68770955414005
 31
0.0
  0
LINE
  5
E18
330
1F
100
AcDbEntity
  8
0
  6
DASH_CENTER
 62
     2
100
AcDbLine
 10
-491.6647528085653
 20
-105.241625533516
 30
0.0
 11
-491.6647528085653
 21
-74.26240137749267
 31
0.0
  0
LINE
  5
E19
330
1F
100
AcDbEntity
  8
0
  6
Continuous
 62
     7
100
AcDbLine
 10
-451.6647528085653
 20
-83.18770955414004
 30
0.0
 11
-457.7269306350562
 21
-86.68770955414005
 31
0.0
  0
LINE
  5
E1A
330
1F
100
AcDbEntity
  8
0
  6
Continuous
 62
     7
100
AcDbLine
 10
-445.6025749820741
 20
-86.68770955414005
 30
0.0
 11
-451.6647528085653
 21
-83.18770955414004
 31
0.0
  0
LINE
  5
E1B
330
1F
100
AcDbEntity
  8
0
  6
Continuous
 62
     7
100
AcDbLine
 10
-445.6025749820741
 20
-93.68770955414005
 30
0.0
 11
-445.6025749820741
 21
-86.68770955414005
 31
0.0
  0
LINE
  5
E1C
330
1F
100
AcDbEntity
  8
0
  6
Continuous
 62
     7
100
AcDbLine
 10
-451.6647528085653
 20
-97.18770955414008
 30
0.0
 11
-445.6025749820741
 21
-93.68770955414005
 31
0.0
  0
LINE
  5
E1D
330
1F
100
AcDbEntity
  8
0
  6
Continuous
 62
     7
100
AcDbLine
 10
-457.7269306350562
 20
-93.68770955414005
 30
0.0
 11
-451.6647528085653
 21
-97.18770955414008
 31
0.0
  0
LINE
  5
E1E
330
1F
100
AcDbEntity
  8
0
  6
Continuous
 62
     7
100
AcDbLine
 10
-457.7269306350562
 20
-86.68770955414005
 30
0.0
 11
-457.7269306350562
 21
-93.68770955414005
 31
0.0
  0
LINE
  5
E1F
330
1F
100
AcDbEntity
  8
0
  6
DASH_CENTER
 62
     2
100
AcDbLine
 10
-451.6647528085653
 20
-74.26240137749267
 30
0.0
 11
-451.6647528085653
 21
-105.241625533516
 31
0.0
  0
LINE
  5
E20
330
1F
100
AcDbEntity
  8
0
  6
DASH_CENTER
 62
     2
100
AcDbLine
 10
-491.6647528085653
 20
-73.95718734639891
 30
0.0
 11
-491.6647528085653
 21
-104.325983440235
 31
0.0
  0
LINE
  5
E21
330
1F
100
AcDbEntity
  8
0
  6
DASH_CENTER
 62
     2
100
AcDbLine
 10
-502.6286516059041
 20
-90.18770955414005
 30
0.0
 11
-437.312848951825
 21
-90.18770955414005
 31
0.0
  0
LINE
  5
E22
330
1F
100
AcDbEntity
  8
0
  6
Continuous
 62
     7
100
AcDbLine
 10
56.64589937013285
 20
119.8122904458599
 30
0.0
 11
56.64589937013285
 21
44.81229044585996
 31
0.0
  0
LINE
  5
E23
330
1F
100
AcDbEntity
  8
0
  6
Continuous
 62
     7
100
AcDbLine
 10
31.33488363891552
 20
102.81229044586
 30
0.0
 11
16.64589937013285
 21
102.81229044586
 31
0.0
  0
LINE
  5
E24
330
1F
100
AcDbEntity
  8
0
  6
Continuous
 62
     7
100
AcDbLine
 10
49.34599937013286
 20
47.55744361662155
 30
0.0
 11
49.34599937013286
 21
42.06713727509831
 31
0.0
  0
LINE
  5
E25
330
1F
100
AcDbEntity
  8
0
  6
Continuous
 62
     7
100
AcDbLine
 10
480.0346772959141
 20
101.0908290978819
 30
0.0
 11
480.0346772959141
 21
120.9650429343599
 31
0.0
  0
LINE
  5
E26
330
1F
100
AcDbEntity
  8
0
  6
Continuous
 62
     7
100
AcDbLine
 10
543.0262135355481
 20
101.0908290978819
 30
0.0
 11
480.0346772959141
 21
101.0908290978819
 31
0.0
  0
LINE
  5
E27
330
1F
100
AcDbEntity
  8
0
  6
Continuous
 62
     7
100
AcDbLine
 10
543.0262135355481
 20
120.4453000497061
 30
0.0
 11
543.0262135355481
 21
101.0908290978819
 31
0.0
  0
LINE
  5
E28
330
1F
100
AcDbEntity
  8
0
  6
Continuous
 62
     7
100
AcDbLine
 10
480.0346772959141
 20
120.9650429343599
 30
0.0
 11
543.0262135355481
 21
120.4453000497061
 31
0.0
  0
LINE
  5
E29
330
1F
100
AcDbEntity
  8
0
  6
Continuous
 62
     7
100
AcDbLine
 10
451.5304454157313
 20
44.81219044586008
 30
0.0
 11
451.5304454157313
 21
123.8121904458601
 31
0.0
  0
LINE
  5
E2A
330
1F
100
AcDbEntity
  8
0
  6
Continuous
 62
     7
100
AcDbLine
 10
417.5304454157312
 20
111.9139082206103
 30
0.0
 11
451.5304454157309
 21
111.9139082206103
 31
0.0
  0
LINE
  5
E2B
330
1F
100
AcDbEntity
  8
0
  6
Continuous
 62
     7
100
AcDbLine
 10
417.5304454157312
 20
123.8123904458598
 30
0.0
 11
451.5304454157309
 21
123.8123904458598
 31
0.0
  0
LINE
  5
E2C
330
1F
100
AcDbEntity
  8
0
  6
DASH_CENTER
 62
    30
100
AcDbLine
 10
444.1826355748892
 20
104.9165168467167
 30
0.0
 11
471.3113032976091
 21
104.9165168467167
 31
0.0
  0
LINE
  5
E2D
330
1F
100
AcDbEntity
  8
0
  6
Continuous
 62
     7
100
AcDbLine
 10
459.5304454157323
 20
44.81219044586008
 30
0.0
 11
459.5304454157323
 21
122.7959313666911
 31
0.0
  0
LINE
  5
E2E
330
1F
100
AcDbEntity
  8
0
  6
Continuous
 62
     7
100
AcDbLine
 10
458.5304454157298
 20
91.54033212552366
 30
0.0
 11
452.5304454157298
 21
91.54033212552366
 31
0.0
  0
LINE
  5
E2F
330
1F
100
AcDbEntity
  8
0
  6
Continuous
 62
     7
100
AcDbLine
 10
458.5304454157298
 20
111.9164668467167
 30
0.0
 11
451.5304454157301
 21
111.9164668467167
 31
0.0
  0
LINE
  5
E30
330
1F
100
AcDbEntity
  8
0
  6
DASH_CENTER
 62
    30
100
AcDbLine
 10
447.5589557561802
 20
-15.29188595499681
 30
0.0
 11
468.146222547682
 21
-15.29188595499681
 31
0.0
  0
LINE
  5
E31
330
1F
100
AcDbEntity
  8
0
  6
Continuous
 62
     7
100
AcDbLine
 10
459.5304454157303
 20
111.0165668467166
 30
0.0
 11
459.5304454157303
 21
105.3183668467167
 31
0.0
  0
LINE
  5
E32
330
1F
100
AcDbEntity
  8
0
  6
Continuous
 62
     7
100
AcDbLine
 10
459.5304454157303
 20
104.9164668467167
 30
0.0
 11
459.5304454157303
 21
98.81656684671671
 31
0.0
  0
LINE
  5
E33
330
1F
100
AcDbEntity
  8
0
  6
Continuous
 62
     7
100
AcDbLine
 10
461.0304454157303
 20
111.0165668467166
 30
0.0
 11
461.0304454157303
 21
104.9164668467167
 31
0.0
  0
LINE
  5
E34
330
1F
100
AcDbEntity
  8
0
  6
Continuous
 62
     7
100
AcDbLine
 10
461.0304454157303
 20
104.5145668467166
 30
0.0
 11
461.0304454157303
 21
98.81656684671671
 31
0.0
  0
LINE
  5
E35
330
1F
100
AcDbEntity
  8
0
  6
Continuous
 62
     7
100
AcDbLine
 10
459.5304454157303
 20
105.3183668467167
 30
0.0
 11
461.0304454157303
 21
104.9164668467167
 31
0.0
  0
LINE
  5
E36
330
1F
100
AcDbEntity
  8
0
  6
Continuous
 62
     7
100
AcDbLine
 10
459.5304454157303
 20
104.9164668467167
 30
0.0
 11
461.0304454157303
 21
104.5145668467166
 31
0.0
  0
LINE
  5
E37
330
1F
100
AcDbEntity
  8
0
  6
Continuous
 62
     7
100
AcDbLine
 10
459.5304454157303
 20
111.0165668467166
 30
0.0
 11
461.0304454157303
 21
111.0165668467166
 31
0.0
  0
LINE
  5
E38
330
1F
100
AcDbEntity
  8
0
  6
Continuous
 62
     7
100
AcDbLine
 10
459.5304454157303
 20
98.81656684671671
 30
0.0
 11
461.0304454157303
 21
98.81656684671671
 31
0.0
  0
LINE
  5
E39
330
1F
100
AcDbEntity
  8
0
  6
Continuous
 62
     7
100
AcDbLine
 10
461.0304454157303
 20
110.1664668467167
 30
0.0
 11
461.0304454157303
 21
99.66646684671669
 31
0.0
  0
LINE
  5
E3A
330
1F
100
AcDbEntity
  8
0
  6
Continuous
 62
     7
100
AcDbLine
 10
464.9303454157305
 20
108.0842668467168
 30
0.0
 11
464.9303454157305
 21
101.7487668467167
 31
0.0
  0
LINE
  5
E3B
330
1F
100
AcDbEntity
  8
0
  6
Continuous
 62
     7
100
AcDbLine
 10
463.1959454157302
 20
99.85596684671683
 30
0.0
 11
461.0304454157303
 21
99.66646684671669
 31
0.0
  0
LINE
  5
E3C
330
1F
100
AcDbEntity
  8
0
  6
Continuous
 62
     7
100
AcDbLine
 10
463.1959454157302
 20
109.9770668467167
 30
0.0
 11
461.0304454157303
 21
110.1664668467167
 31
0.0
  0
LINE
  5
E3D
330
1F
100
AcDbEntity
  8
0
  6
Continuous
 62
     7
100
AcDbLine
 10
451.5304454157309
 20
91.54033212552375
 30
0.0
 11
417.5304454157312
 21
91.54033212552375
 31
0.0
  0
LINE
  5
E3E
330
1F
100
AcDbEntity
  8
0
  6
Continuous
 62
     7
100
AcDbLine
 10
417.5304454157312
 20
-1.915751233803918
 30
0.0
 11
451.5304454157309
 21
-1.915751233803918
 31
0.0
  0
LINE
  5
E3F
330
1F
100
AcDbEntity
  8
0
  6
Continuous
 62
     7
100
AcDbLine
 10
581.6458993701331
 20
43.3903341596495
 30
0.0
 11
581.6458993701331
 21
119.6729827233362
 31
0.0
  0
LINE
  5
E40
330
1F
100
AcDbEntity
  8
0
  6
Continuous
 62
     7
100
AcDbLine
 10
417.5304454157312
 20
155.7827904458601
 30
0.0
 11
417.5304454157312
 21
44.8122904458599
 31
0.0
  0
LINE
  5
E41
330
1F
100
AcDbEntity
  8
0
  6
Continuous
 62
     7
100
AcDbLine
 10
372.7304454157313
 20
41.81244044585992
 30
0.0
 11
374.7304454157312
 21
41.81244044585992
 31
0.0
  0
LINE
  5
E42
330
1F
100
AcDbEntity
  8
100
  6
Continuous
 62
    30
100
AcDbLine
 10
372.7304454157313
 20
42.31244044585992
 30
0.0
 11
375.2304454157313
 21
42.31244044585992
 31
0.0
  0
LINE
  5
E43
330
1F
100
AcDbEntity
  8
100
  6
Continuous
 62
    30
100
AcDbLine
 10
372.7304454157313
 20
47.31214044585999
 30
0.0
 11
375.2304454157313
 21
47.31214044585999
 31
0.0
  0
LINE
  5
E44
330
1F
100
AcDbEntity
  8
0
  6
Continuous
 62
     7
100
AcDbLine
 10
372.7304454157313
 20
47.81214044586
 30
0.0
 11
374.7304454157312
 21
47.81214044586
 31
0.0
  0
LINE
  5
E45
330
1F
100
AcDbEntity
  8
0
  6
Continuous
 62
     7
100
AcDbLine
 10
354.1306454157314
 20
49.31327980601034
 30
0.0
 11
354.1306454157314
 21
40.21239044586002
 31
0.0
  0
LINE
  5
E46
330
1F
100
AcDbEntity
  8
0
  6
Continuous
 62
     7
100
AcDbLine
 10
374.7304454157312
 20
47.81214044586
 30
0.0
 11
374.7304454157312
 21
41.81244044585992
 31
0.0
  0
LINE
  5
E47
330
1F
100
AcDbEntity
  8
0
  6
Continuous
 62
     7
100
AcDbLine
 10
374.7304454157312
 20
47.81214044586
 30
0.0
 11
375.2304454157313
 21
47.31214044585999
 31
0.0
  0
LINE
  5
E48
330
1F
100
AcDbEntity
  8
0
  6
Continuous
 62
     7
100
AcDbLine
 10
374.7304454157312
 20
41.81244044585992
 30
0.0
 11
375.2304454157313
 21
42.31244044585992
 31
0.0
  0
LINE
  5
E49
330
1F
100
AcDbEntity
  8
0
  6
Continuous
 62
     7
100
AcDbLine
 10
375.2304454157313
 20
42.31244044585992
 30
0.0
 11
375.2304454157313
 21
47.31214044585999
 31
0.0
  0
LINE
  5
E4A
330
1F
100
AcDbEntity
  8
0
  6
Continuous
 62
     7
100
AcDbLine
 10
354.1306454157314
 20
40.3113010857096
 30
0.0
 11
352.2910454157313
 21
40.47250108570963
 31
0.0
  0
LINE
  5
E4B
330
1F
100
AcDbEntity
  8
0
  6
Continuous
 62
     7
100
AcDbLine
 10
355.4304454157312
 20
40.21239044586002
 30
0.0
 11
355.4304454157312
 21
44.81229044585997
 31
0.0
  0
LINE
  5
E4C
330
1F
100
AcDbEntity
  8
0
  6
Continuous
 62
     7
100
AcDbLine
 10
354.1306454157314
 20
40.21239044586002
 30
0.0
 11
354.1308454157312
 21
44.46389044585987
 31
0.0
  0
LINE
  5
E4D
330
1F
100
AcDbEntity
  8
0
  6
Continuous
 62
     7
100
AcDbLine
 10
354.1306454157314
 20
44.46389044585987
 30
0.0
 11
355.4304454157312
 21
44.11549044585974
 31
0.0
  0
LINE
  5
E4E
330
1F
100
AcDbEntity
  8
0
  6
Continuous
 62
     7
100
AcDbLine
 10
354.1306454157314
 20
40.21239044586002
 30
0.0
 11
355.4304454157312
 21
40.21239044586002
 31
0.0
  0
LINE
  5
E4F
330
1F
100
AcDbEntity
  8
0
  6
Continuous
 62
     7
100
AcDbLine
 10
350.8308454157312
 20
44.81229044586013
 30
0.0
 11
350.8308454157312
 21
42.06620108570974
 31
0.0
  0
LINE
  5
E50
330
1F
100
AcDbEntity
  8
0
  6
Continuous
 62
     7
100
AcDbLine
 10
352.2910454157312
 20
49.15207980601024
 30
0.0
 11
354.1306454157314
 21
49.31327980601034
 31
0.0
  0
LINE
  5
E51
330
1F
100
AcDbEntity
  8
0
  6
Continuous
 62
     7
100
AcDbLine
 10
355.4304454157312
 20
44.81229044585997
 30
0.0
 11
355.4304454157312
 21
49.41219044585984
 31
0.0
  0
LINE
  5
E52
330
1F
100
AcDbEntity
  8
0
  6
Continuous
 62
     7
100
AcDbLine
 10
354.1308454157312
 20
45.16069044586004
 30
0.0
 11
354.1306454157314
 21
49.41219044585984
 31
0.0
  0
LINE
  5
E53
330
1F
100
AcDbEntity
  8
0
  6
Continuous
 62
     7
100
AcDbLine
 10
354.1306454157314
 20
45.16069044586004
 30
0.0
 11
355.4304454157312
 21
44.81229044585997
 31
0.0
  0
LINE
  5
E54
330
1F
100
AcDbEntity
  8
0
  6
Continuous
 62
     7
100
AcDbLine
 10
355.4304454157312
 20
49.41219044585984
 30
0.0
 11
354.1306454157314
 21
49.41219044585984
 31
0.0
  0
LINE
  5
E55
330
1F
100
AcDbEntity
  8
0
  6
Continuous
 62
     7
100
AcDbLine
 10
350.8308454157312
 20
47.55837980601017
 30
0.0
 11
350.8308454157312
 21
44.81229044586013
 31
0.0
  0
LINE
  5
E56
330
1F
100
AcDbEntity
  8
0
  6
Continuous
 62
     7
100
AcDbLine
 10
372.7304454157313
 20
182.9745812627233
 30
0.0
 11
374.7304454157312
 21
182.9745812627233
 31
0.0
  0
LINE
  5
E57
330
1F
100
AcDbEntity
  8
100
  6
Continuous
 62
    30
100
AcDbLine
 10
372.7304454157313
 20
183.4745812627233
 30
0.0
 11
375.2304454157313
 21
183.4745812627233
 31
0.0
  0
LINE
  5
E58
330
1F
100
AcDbEntity
  8
100
  6
Continuous
 62
    30
100
AcDbLine
 10
372.7304454157313
 20
188.4742812627234
 30
0.0
 11
375.2304454157313
 21
188.4742812627234
 31
0.0
  0
LINE
  5
E59
330
1F
100
AcDbEntity
  8
0
  6
Continuous
 62
     7
100
AcDbLine
 10
372.7304454157313
 20
188.9742812627234
 30
0.0
 11
374.7304454157312
 21
188.9742812627234
 31
0.0
  0
LINE
  5
E5A
330
1F
100
AcDbEntity
  8
0
  6
Continuous
 62
     7
100
AcDbLine
 10
372.7304454157313
 20
192.9744312627234
 30
0.0
 11
355.5305454157312
 21
192.9744312627234
 31
0.0
  0
LINE
  5
E5B
330
1F
100
AcDbEntity
  8
0
  6
Continuous
 62
     7
100
AcDbLine
 10
372.7304454157313
 20
176.2537894590157
 30
0.0
 11
355.5305454157312
 21
176.2537894590157
 31
0.0
  0
LINE
  5
E5C
330
1F
100
AcDbEntity
  8
0
  6
Continuous
 62
     7
100
AcDbLine
 10
372.7304454157313
 20
201.31229044586
 30
0.0
 11
372.7304454157313
 21
44.81229044585997
 31
0.0
  0
LINE
  5
E5D
330
1F
100
AcDbEntity
  8
10
  6
Continuous
 62
     7
100
AcDbLine
 10
370.7938454157313
 20
202.81229044586
 30
0.0
 11
362.7305454157313
 21
202.81229044586
 31
0.0
  0
LINE
  5
E5E
330
1F
100
AcDbEntity
  8
10
  6
Continuous
 62
     7
100
AcDbLine
 10
362.7304454157313
 20
202.81229044586
 30
0.0
 11
362.7304454157313
 21
44.8122904458599
 31
0.0
  0
LINE
  5
E5F
330
1F
100
AcDbEntity
  8
10
  6
Continuous
 62
     7
100
AcDbLine
 10
355.4304454157312
 20
202.81229044586
 30
0.0
 11
355.4304454157312
 21
44.81229044585997
 31
0.0
  0
LINE
  5
E60
330
1F
100
AcDbEntity
  8
0
  6
Continuous
 62
     7
100
AcDbLine
 10
354.1306454157314
 20
190.4754206228738
 30
0.0
 11
354.1306454157314
 21
181.3745312627235
 31
0.0
  0
LINE
  5
E61
330
1F
100
AcDbEntity
  8
0
  6
Continuous
 62
     7
100
AcDbLine
 10
374.7304454157312
 20
188.9742812627234
 30
0.0
 11
374.7304454157312
 21
182.9745812627233
 31
0.0
  0
LINE
  5
E62
330
1F
100
AcDbEntity
  8
0
  6
Continuous
 62
     7
100
AcDbLine
 10
374.7304454157312
 20
188.9742812627234
 30
0.0
 11
375.2304454157313
 21
188.4742812627234
 31
0.0
  0
LINE
  5
E63
330
1F
100
AcDbEntity
  8
0
  6
Continuous
 62
     7
100
AcDbLine
 10
374.7304454157312
 20
182.9745812627233
 30
0.0
 11
375.2304454157313
 21
183.4745812627233
 31
0.0
  0
LINE
  5
E64
330
1F
100
AcDbEntity
  8
0
  6
Continuous
 62
     7
100
AcDbLine
 10
375.2304454157313
 20
183.4745812627233
 30
0.0
 11
375.2304454157313
 21
188.4742812627234
 31
0.0
  0
LINE
  5
E65
330
1F
100
AcDbEntity
  8
0
  6
DASH_CENTER
 62
    30
100
AcDbLine
 10
376.6787277556261
 20
185.9744312627234
 30
0.0
 11
347.4301615096142
 21
185.9744312627234
 31
0.0
  0
LINE
  5
E66
330
1F
100
AcDbEntity
  8
0
  6
Continuous
 62
     7
100
AcDbLine
 10
354.1306454157314
 20
181.473441902573
 30
0.0
 11
352.2910454157312
 21
181.6346419025731
 31
0.0
  0
LINE
  5
E67
330
1F
100
AcDbEntity
  8
0
  6
Continuous
 62
     7
100
AcDbLine
 10
355.4304454157312
 20
181.3745312627235
 30
0.0
 11
355.4304454157312
 21
185.9744312627234
 31
0.0
  0
LINE
  5
E68
330
1F
100
AcDbEntity
  8
0
  6
Continuous
 62
     7
100
AcDbLine
 10
354.1306454157314
 20
181.3745312627235
 30
0.0
 11
354.1308454157312
 21
185.6260312627233
 31
0.0
  0
LINE
  5
E69
330
1F
100
AcDbEntity
  8
0
  6
Continuous
 62
     7
100
AcDbLine
 10
354.1306454157314
 20
185.6260312627233
 30
0.0
 11
355.4304454157312
 21
185.2776312627232
 31
0.0
  0
LINE
  5
E6A
330
1F
100
AcDbEntity
  8
0
  6
Continuous
 62
     7
100
AcDbLine
 10
354.1306454157314
 20
181.3745312627235
 30
0.0
 11
355.4304454157312
 21
181.3745312627235
 31
0.0
  0
LINE
  5
E6B
330
1F
100
AcDbEntity
  8
0
  6
Continuous
 62
     7
100
AcDbLine
 10
350.8308454157312
 20
185.9744312627236
 30
0.0
 11
350.8308454157312
 21
183.2283419025732
 31
0.0
  0
LINE
  5
E6C
330
1F
100
AcDbEntity
  8
0
  6
Continuous
 62
     7
100
AcDbLine
 10
352.2910454157312
 20
190.3142206228737
 30
0.0
 11
354.1306454157314
 21
190.4754206228738
 31
0.0
  0
LINE
  5
E6D
330
1F
100
AcDbEntity
  8
0
  6
Continuous
 62
     7
100
AcDbLine
 10
355.4304454157312
 20
185.9744312627234
 30
0.0
 11
355.4304454157312
 21
190.5743312627233
 31
0.0
  0
LINE
  5
E6E
330
1F
100
AcDbEntity
  8
0
  6
Continuous
 62
     7
100
AcDbLine
 10
354.1308454157312
 20
186.3228312627235
 30
0.0
 11
354.1306454157314
 21
190.5743312627233
 31
0.0
  0
LINE
  5
E6F
330
1F
100
AcDbEntity
  8
0
  6
Continuous
 62
     7
100
AcDbLine
 10
354.1306454157314
 20
186.3228312627235
 30
0.0
 11
355.4304454157312
 21
185.9744312627234
 31
0.0
  0
LINE
  5
E70
330
1F
100
AcDbEntity
  8
0
  6
Continuous
 62
     7
100
AcDbLine
 10
355.4304454157312
 20
190.5743312627233
 30
0.0
 11
354.1306454157314
 21
190.5743312627233
 31
0.0
  0
LINE
  5
E71
330
1F
100
AcDbEntity
  8
0
  6
Continuous
 62
     7
100
AcDbLine
 10
350.8308454157312
 20
188.7205206228736
 30
0.0
 11
350.8308454157312
 21
185.9744312627236
 31
0.0
  0
LINE
  5
E72
330
1F
100
AcDbEntity
  8
10
  6
Continuous
 62
     7
100
AcDbLine
 10
355.4304454157312
 20
202.81229044586
 30
0.0
 11
362.7304454157313
 21
202.81229044586
 31
0.0
  0
LINE
  5
E73
330
1F
100
AcDbEntity
  8
10
  6
Continuous
 62
     7
100
AcDbLine
 10
355.4304454157312
 20
201.81229044586
 30
0.0
 11
355.4304454157312
 21
202.81229044586
 31
0.0
  0
LINE
  5
E74
330
1F
100
AcDbEntity
  8
0
  6
Continuous
 62
     7
100
AcDbLine
 10
283.3306454157314
 20
-91.8488610108532
 30
0.0
 11
283.3306454157314
 21
-100.9497503710035
 31
0.0
  0
LINE
  5
E75
330
1F
100
AcDbEntity
  8
0
  6
Continuous
 62
     7
100
AcDbLine
 10
299.4305454157313
 20
-99.34970037100365
 30
0.0
 11
303.9304454157314
 21
-99.34970037100365
 31
0.0
  0
LINE
  5
E76
330
1F
100
AcDbEntity
  8
100
  6
Continuous
 62
    30
100
AcDbLine
 10
299.4305454157313
 20
-98.84970037100362
 30
0.0
 11
304.4304454157314
 21
-98.84970037100362
 31
0.0
  0
LINE
  5
E77
330
1F
100
AcDbEntity
  8
100
  6
Continuous
 62
    30
100
AcDbLine
 10
299.4305454157313
 20
-93.85000037100358
 30
0.0
 11
304.4304454157314
 21
-93.85000037100358
 31
0.0
  0
LINE
  5
E78
330
1F
100
AcDbEntity
  8
0
  6
Continuous
 62
     7
100
AcDbLine
 10
299.4305454157313
 20
-93.35000037100357
 30
0.0
 11
303.9304454157314
 21
-93.35000037100357
 31
0.0
  0
LINE
  5
E79
330
1F
100
AcDbEntity
  8
0
  6
Continuous
 62
     7
100
AcDbLine
 10
303.9304454157314
 20
-93.35000037100357
 30
0.0
 11
303.9304454157314
 21
-99.34970037100365
 31
0.0
  0
LINE
  5
E7A
330
1F
100
AcDbEntity
  8
0
  6
Continuous
 62
     7
100
AcDbLine
 10
303.9304454157314
 20
-93.35000037100357
 30
0.0
 11
304.4304454157314
 21
-93.85000037100358
 31
0.0
  0
LINE
  5
E7B
330
1F
100
AcDbEntity
  8
0
  6
Continuous
 62
     7
100
AcDbLine
 10
303.9304454157314
 20
-99.34970037100365
 30
0.0
 11
304.4304454157314
 21
-98.84970037100362
 31
0.0
  0
LINE
  5
E7C
330
1F
100
AcDbEntity
  8
0
  6
Continuous
 62
     7
100
AcDbLine
 10
304.4304454157314
 20
-98.84970037100362
 30
0.0
 11
304.4304454157314
 21
-93.85000037100358
 31
0.0
  0
LINE
  5
E7D
330
1F
100
AcDbEntity
  8
0
  6
Continuous
 62
     7
100
AcDbLine
 10
283.3306454157314
 20
-100.8508397311539
 30
0.0
 11
281.4910454157312
 21
-100.6896397311539
 31
0.0
  0
LINE
  5
E7E
330
1F
100
AcDbEntity
  8
0
  6
Continuous
 62
     7
100
AcDbLine
 10
284.6304454157313
 20
-100.9497503710035
 30
0.0
 11
284.6304454157313
 21
-96.34985037100351
 31
0.0
  0
LINE
  5
E7F
330
1F
100
AcDbEntity
  8
0
  6
Continuous
 62
     7
100
AcDbLine
 10
283.3306454157314
 20
-100.9497503710035
 30
0.0
 11
283.3308454157312
 21
-96.69825037100359
 31
0.0
  0
LINE
  5
E80
330
1F
100
AcDbEntity
  8
0
  6
Continuous
 62
     7
100
AcDbLine
 10
283.3306454157314
 20
-96.69825037100368
 30
0.0
 11
284.6304454157313
 21
-97.04665037100378
 31
0.0
  0
LINE
  5
E81
330
1F
100
AcDbEntity
  8
0
  6
Continuous
 62
     7
100
AcDbLine
 10
283.3306454157314
 20
-100.9497503710035
 30
0.0
 11
284.6304454157313
 21
-100.9497503710035
 31
0.0
  0
LINE
  5
E82
330
1F
100
AcDbEntity
  8
0
  6
Continuous
 62
     7
100
AcDbLine
 10
280.0308454157313
 20
-96.34985037100369
 30
0.0
 11
280.0308454157313
 21
-99.09593973115379
 31
0.0
  0
LINE
  5
E83
330
1F
100
AcDbEntity
  8
0
  6
Continuous
 62
     7
100
AcDbLine
 10
281.4910454157312
 20
-92.01006101085329
 30
0.0
 11
283.3306454157314
 21
-91.8488610108532
 31
0.0
  0
LINE
  5
E84
330
1F
100
AcDbEntity
  8
0
  6
Continuous
 62
     7
100
AcDbLine
 10
284.6304454157313
 20
-96.34985037100351
 30
0.0
 11
284.6304454157313
 21
-91.74995037100371
 31
0.0
  0
LINE
  5
E85
330
1F
100
AcDbEntity
  8
0
  6
Continuous
 62
     7
100
AcDbLine
 10
283.3308454157312
 20
-96.0014503710035
 30
0.0
 11
283.3306454157314
 21
-91.74995037100371
 31
0.0
  0
LINE
  5
E86
330
1F
100
AcDbEntity
  8
0
  6
Continuous
 62
     7
100
AcDbLine
 10
283.3306454157314
 20
-96.0014503710035
 30
0.0
 11
284.6304454157313
 21
-96.34985037100351
 31
0.0
  0
LINE
  5
E87
330
1F
100
AcDbEntity
  8
0
  6
Continuous
 62
     7
100
AcDbLine
 10
284.6304454157313
 20
-91.74995037100371
 30
0.0
 11
283.3306454157314
 21
-91.74995037100371
 31
0.0
  0
LINE
  5
E88
330
1F
100
AcDbEntity
  8
0
  6
Continuous
 62
     7
100
AcDbLine
 10
280.0308454157313
 20
-93.60376101085336
 30
0.0
 11
280.0308454157313
 21
-96.34985037100369
 31
0.0
  0
LINE
  5
E89
330
1F
100
AcDbEntity
  8
0
  6
Continuous
 62
     7
100
AcDbLine
 10
283.3306454157314
 20
49.31327980601029
 30
0.0
 11
283.3306454157314
 21
40.21239044585997
 31
0.0
  0
LINE
  5
E8A
330
1F
100
AcDbEntity
  8
0
  6
Continuous
 62
     7
100
AcDbLine
 10
299.4305454157313
 20
41.81244044585986
 30
0.0
 11
303.9304454157314
 21
41.81244044585986
 31
0.0
  0
LINE
  5
E8B
330
1F
100
AcDbEntity
  8
100
  6
Continuous
 62
    30
100
AcDbLine
 10
299.4305454157313
 20
42.31244044585986
 30
0.0
 11
304.4304454157314
 21
42.31244044585986
 31
0.0
  0
LINE
  5
E8C
330
1F
100
AcDbEntity
  8
100
  6
Continuous
 62
    30
100
AcDbLine
 10
299.4305454157313
 20
47.31214044585994
 30
0.0
 11
304.4304454157314
 21
47.31214044585994
 31
0.0
  0
LINE
  5
E8D
330
1F
100
AcDbEntity
  8
0
  6
Continuous
 62
     7
100
AcDbLine
 10
299.4305454157313
 20
47.81214044585992
 30
0.0
 11
303.9304454157314
 21
47.81214044585992
 31
0.0
  0
LINE
  5
E8E
330
1F
100
AcDbEntity
  8
0
  6
Continuous
 62
     7
100
AcDbLine
 10
303.9304454157314
 20
47.81214044585992
 30
0.0
 11
303.9304454157314
 21
41.81244044585986
 31
0.0
  0
LINE
  5
E8F
330
1F
100
AcDbEntity
  8
0
  6
Continuous
 62
     7
100
AcDbLine
 10
303.9304454157314
 20
47.81214044585992
 30
0.0
 11
304.4304454157314
 21
47.31214044585994
 31
0.0
  0
LINE
  5
E90
330
1F
100
AcDbEntity
  8
0
  6
Continuous
 62
     7
100
AcDbLine
 10
303.9304454157314
 20
41.81244044585986
 30
0.0
 11
304.4304454157314
 21
42.31244044585986
 31
0.0
  0
LINE
  5
E91
330
1F
100
AcDbEntity
  8
0
  6
Continuous
 62
     7
100
AcDbLine
 10
304.4304454157314
 20
42.31244044585986
 30
0.0
 11
304.4304454157314
 21
47.31214044585994
 31
0.0
  0
LINE
  5
E92
330
1F
100
AcDbEntity
  8
0
  6
Continuous
 62
     7
100
AcDbLine
 10
283.3306454157314
 20
40.31130108570954
 30
0.0
 11
281.4910454157312
 21
40.47250108570957
 31
0.0
  0
LINE
  5
E93
330
1F
100
AcDbEntity
  8
0
  6
Continuous
 62
     7
100
AcDbLine
 10
284.6304454157313
 20
40.21239044585997
 30
0.0
 11
284.6304454157313
 21
44.81229044585997
 31
0.0
  0
LINE
  5
E94
330
1F
100
AcDbEntity
  8
0
  6
Continuous
 62
     7
100
AcDbLine
 10
283.3306454157314
 20
40.21239044585997
 30
0.0
 11
283.3308454157312
 21
44.46389044585987
 31
0.0
  0
LINE
  5
E95
330
1F
100
AcDbEntity
  8
0
  6
Continuous
 62
     7
100
AcDbLine
 10
283.3306454157314
 20
44.46389044585982
 30
0.0
 11
284.6304454157313
 21
44.1154904458597
 31
0.0
  0
LINE
  5
E96
330
1F
100
AcDbEntity
  8
0
  6
Continuous
 62
     7
100
AcDbLine
 10
283.3306454157314
 20
40.21239044585997
 30
0.0
 11
284.6304454157313
 21
40.21239044585997
 31
0.0
  0
LINE
  5
E97
330
1F
100
AcDbEntity
  8
0
  6
Continuous
 62
     7
100
AcDbLine
 10
280.0308454157313
 20
44.81229044585982
 30
0.0
 11
280.0308454157313
 21
42.06620108570968
 31
0.0
  0
LINE
  5
E98
330
1F
100
AcDbEntity
  8
0
  6
Continuous
 62
     7
100
AcDbLine
 10
281.4910454157312
 20
49.15207980601019
 30
0.0
 11
283.3306454157314
 21
49.31327980601029
 31
0.0
  0
LINE
  5
E99
330
1F
100
AcDbEntity
  8
0
  6
Continuous
 62
     7
100
AcDbLine
 10
284.6304454157313
 20
44.81229044585997
 30
0.0
 11
284.6304454157313
 21
49.41219044585978
 31
0.0
  0
LINE
  5
E9A
330
1F
100
AcDbEntity
  8
0
  6
Continuous
 62
     7
100
AcDbLine
 10
283.3308454157312
 20
45.16069044585996
 30
0.0
 11
283.3306454157314
 21
49.41219044585978
 31
0.0
  0
LINE
  5
E9B
330
1F
100
AcDbEntity
  8
0
  6
Continuous
 62
     7
100
AcDbLine
 10
283.3306454157314
 20
45.16069044585996
 30
0.0
 11
284.6304454157313
 21
44.81229044585997
 31
0.0
  0
LINE
  5
E9C
330
1F
100
AcDbEntity
  8
0
  6
Continuous
 62
     7
100
AcDbLine
 10
284.6304454157313
 20
49.41219044585978
 30
0.0
 11
283.3306454157314
 21
49.41219044585978
 31
0.0
  0
LINE
  5
E9D
330
1F
100
AcDbEntity
  8
0
  6
Continuous
 62
     7
100
AcDbLine
 10
280.0308454157313
 20
47.55837980601011
 30
0.0
 11
280.0308454157313
 21
44.81229044585982
 31
0.0
  0
LINE
  5
E9E
330
1F
100
AcDbEntity
  8
0
  6
Continuous
 62
     7
100
AcDbLine
 10
283.3306454157314
 20
190.4754206228738
 30
0.0
 11
283.3306454157314
 21
181.3745312627235
 31
0.0
  0
LINE
  5
E9F
330
1F
100
AcDbEntity
  8
0
  6
Continuous
 62
     7
100
AcDbLine
 10
299.4305454157313
 20
182.9745812627233
 30
0.0
 11
303.9304454157314
 21
182.9745812627233
 31
0.0
  0
LINE
  5
EA0
330
1F
100
AcDbEntity
  8
100
  6
Continuous
 62
    30
100
AcDbLine
 10
299.4305454157313
 20
183.4745812627233
 30
0.0
 11
304.4304454157314
 21
183.4745812627233
 31
0.0
  0
LINE
  5
EA1
330
1F
100
AcDbEntity
  8
100
  6
Continuous
 62
    30
100
AcDbLine
 10
299.4305454157313
 20
188.4742812627234
 30
0.0
 11
304.4304454157314
 21
188.4742812627234
 31
0.0
  0
LINE
  5
EA2
330
1F
100
AcDbEntity
  8
0
  6
Continuous
 62
     7
100
AcDbLine
 10
299.4305454157313
 20
188.9742812627234
 30
0.0
 11
303.9304454157314
 21
188.9742812627234
 31
0.0
  0
LINE
  5
EA3
330
1F
100
AcDbEntity
  8
0
  6
Continuous
 62
     7
100
AcDbLine
 10
303.9304454157314
 20
188.9742812627234
 30
0.0
 11
303.9304454157314
 21
182.9745812627233
 31
0.0
  0
LINE
  5
EA4
330
1F
100
AcDbEntity
  8
0
  6
Continuous
 62
     7
100
AcDbLine
 10
303.9304454157314
 20
188.9742812627234
 30
0.0
 11
304.4304454157314
 21
188.4742812627234
 31
0.0
  0
LINE
  5
EA5
330
1F
100
AcDbEntity
  8
0
  6
Continuous
 62
     7
100
AcDbLine
 10
303.9304454157314
 20
182.9745812627233
 30
0.0
 11
304.4304454157314
 21
183.4745812627233
 31
0.0
  0
LINE
  5
EA6
330
1F
100
AcDbEntity
  8
0
  6
Continuous
 62
     7
100
AcDbLine
 10
304.4304454157314
 20
183.4745812627233
 30
0.0
 11
304.4304454157314
 21
188.4742812627234
 31
0.0
  0
LINE
  5
EA7
330
1F
100
AcDbEntity
  8
0
  6
Continuous
 62
     7
100
AcDbLine
 10
228.6305454157311
 20
182.9745812627233
 30
0.0
 11
233.1304454157313
 21
182.9745812627233
 31
0.0
  0
LINE
  5
EA8
330
1F
100
AcDbEntity
  8
100
  6
Continuous
 62
    30
100
AcDbLine
 10
228.6305454157312
 20
183.4745812627233
 30
0.0
 11
233.6304454157313
 21
183.4745812627233
 31
0.0
  0
LINE
  5
EA9
330
1F
100
AcDbEntity
  8
100
  6
Continuous
 62
    30
100
AcDbLine
 10
228.6305454157312
 20
188.4742812627234
 30
0.0
 11
233.6304454157313
 21
188.4742812627234
 31
0.0
  0
LINE
  5
EAA
330
1F
100
AcDbEntity
  8
0
  6
Continuous
 62
     7
100
AcDbLine
 10
228.6305454157312
 20
188.9742812627234
 30
0.0
 11
233.1304454157313
 21
188.9742812627234
 31
0.0
  0
LINE
  5
EAB
330
1F
100
AcDbEntity
  8
0
  6
Continuous
 62
     7
100
AcDbLine
 10
212.3306454157314
 20
190.4754206228736
 30
0.0
 11
212.3306454157314
 21
181.3745312627235
 31
0.0
  0
LINE
  5
EAC
330
1F
100
AcDbEntity
  8
0
  6
Continuous
 62
     7
100
AcDbLine
 10
212.3306454157314
 20
181.473441902573
 30
0.0
 11
210.4910454157313
 21
181.6346419025731
 31
0.0
  0
LINE
  5
EAD
330
1F
100
AcDbEntity
  8
0
  6
Continuous
 62
     7
100
AcDbLine
 10
212.3306454157314
 20
181.3745312627235
 30
0.0
 11
212.3308454157312
 21
185.6260312627234
 31
0.0
  0
LINE
  5
EAE
330
1F
100
AcDbEntity
  8
0
  6
Continuous
 62
     7
100
AcDbLine
 10
212.3306454157314
 20
181.3745312627235
 30
0.0
 11
213.6304454157313
 21
181.3745312627235
 31
0.0
  0
LINE
  5
EAF
330
1F
100
AcDbEntity
  8
0
  6
Continuous
 62
     7
100
AcDbLine
 10
212.3306454157314
 20
181.3745312627235
 30
0.0
 11
212.3308454157312
 21
185.6260312627234
 31
0.0
  0
LINE
  5
EB0
330
1F
100
AcDbEntity
  8
0
  6
Continuous
 62
     7
100
AcDbLine
 10
212.3306454157314
 20
181.3745312627235
 30
0.0
 11
213.6304454157313
 21
181.3745312627235
 31
0.0
  0
LINE
  5
EB1
330
1F
100
AcDbEntity
  8
0
  6
Continuous
 62
     7
100
AcDbLine
 10
210.4910454157313
 20
190.3142206228737
 30
0.0
 11
212.3306454157314
 21
190.4754206228736
 31
0.0
  0
LINE
  5
EB2
330
1F
100
AcDbEntity
  8
0
  6
Continuous
 62
     7
100
AcDbLine
 10
213.6304454157313
 20
185.9744312627234
 30
0.0
 11
213.6304454157313
 21
190.5743312627233
 31
0.0
  0
LINE
  5
EB3
330
1F
100
AcDbEntity
  8
0
  6
Continuous
 62
     7
100
AcDbLine
 10
212.3308454157312
 20
186.3228312627235
 30
0.0
 11
212.3306454157314
 21
190.5743312627233
 31
0.0
  0
LINE
  5
EB4
330
1F
100
AcDbEntity
  8
0
  6
Continuous
 62
     7
100
AcDbLine
 10
213.6304454157313
 20
186.6712312627235
 30
0.0
 11
212.3306454157314
 21
186.3228312627235
 31
0.0
  0
LINE
  5
EB5
330
1F
100
AcDbEntity
  8
0
  6
Continuous
 62
     7
100
AcDbLine
 10
213.6304454157313
 20
190.5743312627233
 30
0.0
 11
212.3306454157314
 21
190.5743312627233
 31
0.0
  0
LINE
  5
EB6
330
1F
100
AcDbEntity
  8
0
  6
Continuous
 62
     7
100
AcDbLine
 10
209.0308454157313
 20
188.7205206228736
 30
0.0
 11
209.0308454157313
 21
185.9744312627232
 31
0.0
  0
LINE
  5
EB7
330
1F
100
AcDbEntity
  8
0
  6
Continuous
 62
     7
100
AcDbLine
 10
213.6304454157313
 20
185.9744312627234
 30
0.0
 11
212.3306454157314
 21
185.6260312627233
 31
0.0
  0
LINE
  5
EB8
330
1F
100
AcDbEntity
  8
0
  6
Continuous
 62
     7
100
AcDbLine
 10
209.0308454157313
 20
185.9744312627232
 30
0.0
 11
209.0308454157313
 21
183.2283419025732
 31
0.0
  0
LINE
  5
EB9
330
1F
100
AcDbEntity
  8
0
  6
Continuous
 62
     7
100
AcDbLine
 10
233.1304454157313
 20
188.9742812627234
 30
0.0
 11
233.1304454157313
 21
182.9745812627233
 31
0.0
  0
LINE
  5
EBA
330
1F
100
AcDbEntity
  8
0
  6
Continuous
 62
     7
100
AcDbLine
 10
233.1304454157313
 20
188.9742812627234
 30
0.0
 11
233.6304454157313
 21
188.4742812627234
 31
0.0
  0
LINE
  5
EBB
330
1F
100
AcDbEntity
  8
0
  6
Continuous
 62
     7
100
AcDbLine
 10
233.1304454157313
 20
182.9745812627233
 30
0.0
 11
233.6304454157313
 21
183.4745812627233
 31
0.0
  0
LINE
  5
EBC
330
1F
100
AcDbEntity
  8
0
  6
Continuous
 62
     7
100
AcDbLine
 10
233.6304454157313
 20
183.4745812627233
 30
0.0
 11
233.6304454157313
 21
188.4742812627234
 31
0.0
  0
LINE
  5
EBD
330
1F
100
AcDbEntity
  8
0
  6
DASH_CENTER
 62
    30
100
AcDbLine
 10
205.6301615096141
 20
185.9744312627234
 30
0.0
 11
235.0787277556262
 21
185.9744312627234
 31
0.0
  0
LINE
  5
EBE
330
1F
100
AcDbEntity
  8
0
  6
Continuous
 62
     7
100
AcDbLine
 10
228.6305454157311
 20
41.81244044585985
 30
0.0
 11
233.1304454157313
 21
41.81244044585985
 31
0.0
  0
LINE
  5
EBF
330
1F
100
AcDbEntity
  8
100
  6
Continuous
 62
    30
100
AcDbLine
 10
228.6305454157312
 20
42.31244044585984
 30
0.0
 11
233.6304454157313
 21
42.31244044585984
 31
0.0
  0
LINE
  5
EC0
330
1F
100
AcDbEntity
  8
100
  6
Continuous
 62
    30
100
AcDbLine
 10
228.6305454157312
 20
47.31214044585995
 30
0.0
 11
233.6304454157313
 21
47.31214044585995
 31
0.0
  0
LINE
  5
EC1
330
1F
100
AcDbEntity
  8
0
  6
Continuous
 62
     7
100
AcDbLine
 10
228.6305454157312
 20
47.81214044585996
 30
0.0
 11
233.1304454157313
 21
47.81214044585996
 31
0.0
  0
LINE
  5
EC2
330
1F
100
AcDbEntity
  8
0
  6
Continuous
 62
     7
100
AcDbLine
 10
212.3306454157314
 20
49.31327980601024
 30
0.0
 11
212.3306454157314
 21
40.21239044586002
 31
0.0
  0
LINE
  5
EC3
330
1F
100
AcDbEntity
  8
0
  6
Continuous
 62
     7
100
AcDbLine
 10
212.3306454157314
 20
40.31130108570953
 30
0.0
 11
210.4910454157313
 21
40.47250108570962
 31
0.0
  0
LINE
  5
EC4
330
1F
100
AcDbEntity
  8
0
  6
Continuous
 62
     7
100
AcDbLine
 10
212.3306454157314
 20
40.21239044586002
 30
0.0
 11
212.3308454157312
 21
44.46389044585987
 31
0.0
  0
LINE
  5
EC5
330
1F
100
AcDbEntity
  8
0
  6
Continuous
 62
     7
100
AcDbLine
 10
212.3306454157314
 20
40.21239044586002
 30
0.0
 11
213.6304454157313
 21
40.21239044586002
 31
0.0
  0
LINE
  5
EC6
330
1F
100
AcDbEntity
  8
0
  6
Continuous
 62
     7
100
AcDbLine
 10
212.3306454157314
 20
40.21239044586002
 30
0.0
 11
212.3308454157312
 21
44.46389044585987
 31
0.0
  0
LINE
  5
EC7
330
1F
100
AcDbEntity
  8
0
  6
Continuous
 62
     7
100
AcDbLine
 10
212.3306454157314
 20
40.21239044586002
 30
0.0
 11
213.6304454157313
 21
40.21239044586002
 31
0.0
  0
LINE
  5
EC8
330
1F
100
AcDbEntity
  8
0
  6
Continuous
 62
     7
100
AcDbLine
 10
210.4910454157313
 20
49.15207980601024
 30
0.0
 11
212.3306454157314
 21
49.31327980601024
 31
0.0
  0
LINE
  5
EC9
330
1F
100
AcDbEntity
  8
0
  6
Continuous
 62
     7
100
AcDbLine
 10
213.6304454157313
 20
44.81229044585997
 30
0.0
 11
213.6304454157313
 21
49.41219044585984
 31
0.0
  0
LINE
  5
ECA
330
1F
100
AcDbEntity
  8
0
  6
Continuous
 62
     7
100
AcDbLine
 10
212.3308454157312
 20
45.16069044585999
 30
0.0
 11
212.3306454157314
 21
49.41219044585984
 31
0.0
  0
LINE
  5
ECB
330
1F
100
AcDbEntity
  8
0
  6
Continuous
 62
     7
100
AcDbLine
 10
213.6304454157313
 20
45.50909044586011
 30
0.0
 11
212.3306454157314
 21
45.16069044585999
 31
0.0
  0
LINE
  5
ECC
330
1F
100
AcDbEntity
  8
0
  6
Continuous
 62
     7
100
AcDbLine
 10
213.6304454157313
 20
49.41219044585984
 30
0.0
 11
212.3306454157314
 21
49.41219044585984
 31
0.0
  0
LINE
  5
ECD
330
1F
100
AcDbEntity
  8
0
  6
Continuous
 62
     7
100
AcDbLine
 10
209.0308454157313
 20
47.55837980601011
 30
0.0
 11
209.0308454157313
 21
44.81229044585974
 31
0.0
  0
LINE
  5
ECE
330
1F
100
AcDbEntity
  8
0
  6
Continuous
 62
     7
100
AcDbLine
 10
213.6304454157313
 20
44.81229044585997
 30
0.0
 11
212.3306454157314
 21
44.46389044585982
 31
0.0
  0
LINE
  5
ECF
330
1F
100
AcDbEntity
  8
0
  6
Continuous
 62
     7
100
AcDbLine
 10
209.0308454157313
 20
44.81229044585974
 30
0.0
 11
209.0308454157313
 21
42.0662010857097
 31
0.0
  0
LINE
  5
ED0
330
1F
100
AcDbEntity
  8
0
  6
Continuous
 62
     7
100
AcDbLine
 10
233.1304454157313
 20
47.81214044585996
 30
0.0
 11
233.1304454157313
 21
41.81244044585985
 31
0.0
  0
LINE
  5
ED1
330
1F
100
AcDbEntity
  8
0
  6
Continuous
 62
     7
100
AcDbLine
 10
233.1304454157313
 20
47.81214044585996
 30
0.0
 11
233.6304454157313
 21
47.31214044585995
 31
0.0
  0
LINE
  5
ED2
330
1F
100
AcDbEntity
  8
0
  6
Continuous
 62
     7
100
AcDbLine
 10
233.1304454157313
 20
41.81244044585985
 30
0.0
 11
233.6304454157313
 21
42.31244044585984
 31
0.0
  0
LINE
  5
ED3
330
1F
100
AcDbEntity
  8
0
  6
Continuous
 62
     7
100
AcDbLine
 10
233.6304454157313
 20
42.31244044585984
 30
0.0
 11
233.6304454157313
 21
47.31214044585995
 31
0.0
  0
LINE
  5
ED4
330
1F
100
AcDbEntity
  8
0
  6
DASH_CENTER
 62
    30
100
AcDbLine
 10
205.6301615096141
 20
44.8122904458599
 30
0.0
 11
235.0787277556262
 21
44.8122904458599
 31
0.0
  0
LINE
  5
ED5
330
1F
100
AcDbEntity
  8
0
  6
Continuous
 62
     7
100
AcDbLine
 10
213.6304454157313
 20
38.46813593660336
 30
0.0
 11
228.6305454157314
 21
38.46813593660336
 31
0.0
  0
LINE
  5
ED6
330
1F
100
AcDbEntity
  8
0
  6
Continuous
 62
     7
100
AcDbLine
 10
228.6305454157311
 20
-99.34970037100356
 30
0.0
 11
233.1304454157313
 21
-99.34970037100356
 31
0.0
  0
LINE
  5
ED7
330
1F
100
AcDbEntity
  8
100
  6
Continuous
 62
    30
100
AcDbLine
 10
228.6305454157312
 20
-98.84970037100357
 30
0.0
 11
233.6304454157313
 21
-98.84970037100357
 31
0.0
  0
LINE
  5
ED8
330
1F
100
AcDbEntity
  8
100
  6
Continuous
 62
    30
100
AcDbLine
 10
228.6305454157312
 20
-93.85000037100347
 30
0.0
 11
233.6304454157313
 21
-93.85000037100347
 31
0.0
  0
LINE
  5
ED9
330
1F
100
AcDbEntity
  8
0
  6
Continuous
 62
     7
100
AcDbLine
 10
228.6305454157312
 20
-93.35000037100348
 30
0.0
 11
233.1304454157313
 21
-93.35000037100348
 31
0.0
  0
LINE
  5
EDA
330
1F
100
AcDbEntity
  8
0
  6
Continuous
 62
     7
100
AcDbLine
 10
212.3306454157314
 20
-91.84886101085316
 30
0.0
 11
212.3306454157314
 21
-100.9497503710034
 31
0.0
  0
LINE
  5
EDB
330
1F
100
AcDbEntity
  8
0
  6
Continuous
 62
     7
100
AcDbLine
 10
140.8307454157313
 20
-100.9497503710034
 30
0.0
 11
140.8307454157313
 21
-91.84886101085316
 31
0.0
  0
LINE
  5
EDC
330
1F
100
AcDbEntity
  8
0
  6
Continuous
 62
     7
100
AcDbLine
 10
212.3306454157314
 20
-100.8508397311539
 30
0.0
 11
210.4910454157313
 21
-100.6896397311538
 31
0.0
  0
LINE
  5
EDD
330
1F
100
AcDbEntity
  8
0
  6
Continuous
 62
     7
100
AcDbLine
 10
212.3306454157314
 20
-100.9497503710034
 30
0.0
 11
212.3308454157312
 21
-96.69825037100359
 31
0.0
  0
LINE
  5
EDE
330
1F
100
AcDbEntity
  8
0
  6
Continuous
 62
     7
100
AcDbLine
 10
212.3306454157314
 20
-100.9497503710034
 30
0.0
 11
213.6304454157313
 21
-100.9497503710034
 31
0.0
  0
LINE
  5
EDF
330
1F
100
AcDbEntity
  8
0
  6
Continuous
 62
     7
100
AcDbLine
 10
212.3306454157314
 20
-100.9497503710034
 30
0.0
 11
212.3308454157312
 21
-96.69825037100359
 31
0.0
  0
LINE
  5
EE0
330
1F
100
AcDbEntity
  8
0
  6
Continuous
 62
     7
100
AcDbLine
 10
212.3306454157314
 20
-100.9497503710034
 30
0.0
 11
213.6304454157313
 21
-100.9497503710034
 31
0.0
  0
LINE
  5
EE1
330
1F
100
AcDbEntity
  8
0
  6
Continuous
 62
     7
100
AcDbLine
 10
210.4910454157313
 20
-92.01006101085319
 30
0.0
 11
212.3306454157314
 21
-91.84886101085316
 31
0.0
  0
LINE
  5
EE2
330
1F
100
AcDbEntity
  8
0
  6
Continuous
 62
     7
100
AcDbLine
 10
213.6304454157313
 20
-96.34985037100351
 30
0.0
 11
213.6304454157313
 21
-91.74995037100357
 31
0.0
  0
LINE
  5
EE3
330
1F
100
AcDbEntity
  8
0
  6
Continuous
 62
     7
100
AcDbLine
 10
212.3308454157312
 20
-96.0014503710034
 30
0.0
 11
212.3306454157314
 21
-91.74995037100357
 31
0.0
  0
LINE
  5
EE4
330
1F
100
AcDbEntity
  8
0
  6
Continuous
 62
     7
100
AcDbLine
 10
213.6304454157313
 20
-95.6530503710033
 30
0.0
 11
212.3306454157314
 21
-96.0014503710034
 31
0.0
  0
LINE
  5
EE5
330
1F
100
AcDbEntity
  8
0
  6
Continuous
 62
     7
100
AcDbLine
 10
213.6304454157313
 20
-91.74995037100357
 30
0.0
 11
212.3306454157314
 21
-91.74995037100357
 31
0.0
  0
LINE
  5
EE6
330
1F
100
AcDbEntity
  8
0
  6
Continuous
 62
     7
100
AcDbLine
 10
209.0308454157313
 20
-93.60376101085329
 30
0.0
 11
209.0308454157313
 21
-96.34985037100369
 31
0.0
  0
LINE
  5
EE7
330
1F
100
AcDbEntity
  8
0
  6
Continuous
 62
     7
100
AcDbLine
 10
213.6304454157313
 20
-96.34985037100351
 30
0.0
 11
212.3306454157314
 21
-96.69825037100359
 31
0.0
  0
LINE
  5
EE8
330
1F
100
AcDbEntity
  8
0
  6
Continuous
 62
     7
100
AcDbLine
 10
209.0308454157313
 20
-96.34985037100369
 30
0.0
 11
209.0308454157313
 21
-99.09593973115372
 31
0.0
  0
LINE
  5
EE9
330
1F
100
AcDbEntity
  8
0
  6
Continuous
 62
     7
100
AcDbLine
 10
233.1304454157313
 20
-93.35000037100348
 30
0.0
 11
233.1304454157313
 21
-99.34970037100356
 31
0.0
  0
LINE
  5
EEA
330
1F
100
AcDbEntity
  8
0
  6
Continuous
 62
     7
100
AcDbLine
 10
233.1304454157313
 20
-93.35000037100348
 30
0.0
 11
233.6304454157313
 21
-93.85000037100347
 31
0.0
  0
LINE
  5
EEB
330
1F
100
AcDbEntity
  8
0
  6
Continuous
 62
     7
100
AcDbLine
 10
233.1304454157313
 20
-99.34970037100356
 30
0.0
 11
233.6304454157313
 21
-98.84970037100357
 31
0.0
  0
LINE
  5
EEC
330
1F
100
AcDbEntity
  8
0
  6
Continuous
 62
     7
100
AcDbLine
 10
233.6304454157313
 20
-98.84970037100357
 30
0.0
 11
233.6304454157313
 21
-93.85000037100347
 31
0.0
  0
LINE
  5
EED
330
1F
100
AcDbEntity
  8
0
  6
Continuous
 62
     7
100
AcDbLine
 10
140.8307454157313
 20
49.31327980601024
 30
0.0
 11
140.8307454157313
 21
40.21239044585994
 31
0.0
  0
LINE
  5
EEE
330
1F
100
AcDbEntity
  8
0
  6
Continuous
 62
     7
100
AcDbLine
 10
140.8307454157313
 20
40.31130108570954
 30
0.0
 11
138.9911454157312
 21
40.47250108570954
 31
0.0
  0
LINE
  5
EEF
330
1F
100
AcDbEntity
  8
0
  6
Continuous
 62
     7
100
AcDbLine
 10
142.1305454157312
 20
40.21239044585997
 30
0.0
 11
142.1305454157312
 21
44.81229044585987
 31
0.0
  0
LINE
  5
EF0
330
1F
100
AcDbEntity
  8
0
  6
Continuous
 62
     7
100
AcDbLine
 10
140.8307454157313
 20
44.46389044585978
 30
0.0
 11
142.1305454157312
 21
44.11549044585966
 31
0.0
  0
LINE
  5
EF1
330
1F
100
AcDbEntity
  8
0
  6
Continuous
 62
     7
100
AcDbLine
 10
140.8307454157313
 20
40.21239044585994
 30
0.0
 11
142.1305454157312
 21
40.21239044585997
 31
0.0
  0
LINE
  5
EF2
330
1F
100
AcDbEntity
  8
0
  6
Continuous
 62
     7
100
AcDbLine
 10
137.5309454157313
 20
44.81229044586004
 30
0.0
 11
137.5309454157313
 21
42.06620108570968
 31
0.0
  0
LINE
  5
EF3
330
1F
100
AcDbEntity
  8
0
  6
Continuous
 62
     7
100
AcDbLine
 10
138.9911454157312
 20
49.15207980601019
 30
0.0
 11
140.8307454157313
 21
49.31327980601024
 31
0.0
  0
LINE
  5
EF4
330
1F
100
AcDbEntity
  8
0
  6
Continuous
 62
     7
100
AcDbLine
 10
142.1305454157312
 20
44.81229044585987
 30
0.0
 11
142.1305454157312
 21
49.41219044585978
 31
0.0
  0
LINE
  5
EF5
330
1F
100
AcDbEntity
  8
0
  6
Continuous
 62
     7
100
AcDbLine
 10
140.8307454157313
 20
45.16069044585996
 30
0.0
 11
142.1305454157312
 21
44.81229044585987
 31
0.0
  0
LINE
  5
EF6
330
1F
100
AcDbEntity
  8
0
  6
Continuous
 62
     7
100
AcDbLine
 10
142.1305454157312
 20
49.41219044585978
 30
0.0
 11
140.8307454157313
 21
49.41219044585978
 31
0.0
  0
LINE
  5
EF7
330
1F
100
AcDbEntity
  8
0
  6
Continuous
 62
     7
100
AcDbLine
 10
137.5309454157313
 20
47.55837980601009
 30
0.0
 11
137.5309454157313
 21
44.81229044586004
 31
0.0
  0
LINE
  5
EF8
330
1F
100
AcDbEntity
  8
0
  6
Continuous
 62
     7
100
AcDbLine
 10
161.6305454157312
 20
41.81244044585986
 30
0.0
 11
156.6305454157312
 21
41.81244044585986
 31
0.0
  0
LINE
  5
EF9
330
1F
100
AcDbEntity
  8
100
  6
Continuous
 62
    30
100
AcDbLine
 10
162.1305454157312
 20
42.31244044585986
 30
0.0
 11
156.6305454157313
 21
42.31244044585986
 31
0.0
  0
LINE
  5
EFA
330
1F
100
AcDbEntity
  8
100
  6
Continuous
 62
    30
100
AcDbLine
 10
162.1305454157312
 20
47.31214044585994
 30
0.0
 11
156.6305454157312
 21
47.31214044585994
 31
0.0
  0
LINE
  5
EFB
330
1F
100
AcDbEntity
  8
0
  6
Continuous
 62
     7
100
AcDbLine
 10
161.6305454157312
 20
47.81214044585992
 30
0.0
 11
156.6305454157312
 21
47.81214044585992
 31
0.0
  0
LINE
  5
EFC
330
1F
100
AcDbEntity
  8
0
  6
Continuous
 62
     7
100
AcDbLine
 10
161.6305454157312
 20
47.81214044585992
 30
0.0
 11
161.6305454157312
 21
41.81244044585986
 31
0.0
  0
LINE
  5
EFD
330
1F
100
AcDbEntity
  8
0
  6
Continuous
 62
     7
100
AcDbLine
 10
162.1305454157312
 20
42.31244044585986
 30
0.0
 11
161.6305454157312
 21
41.81244044585986
 31
0.0
  0
LINE
  5
EFE
330
1F
100
AcDbEntity
  8
0
  6
Continuous
 62
     7
100
AcDbLine
 10
162.1305454157312
 20
47.31214044585994
 30
0.0
 11
161.6305454157312
 21
47.81214044585992
 31
0.0
  0
LINE
  5
EFF
330
1F
100
AcDbEntity
  8
0
  6
Continuous
 62
     7
100
AcDbLine
 10
162.1305454157312
 20
42.31244044585986
 30
0.0
 11
162.1305454157312
 21
47.31214044585994
 31
0.0
  0
LINE
  5
F00
330
1F
100
AcDbEntity
  8
0
  6
Continuous
 62
     7
100
AcDbLine
 10
140.8307454157313
 20
190.4754206228739
 30
0.0
 11
140.8307454157313
 21
181.3745312627236
 31
0.0
  0
LINE
  5
F01
330
1F
100
AcDbEntity
  8
0
  6
Continuous
 62
     7
100
AcDbLine
 10
140.8307454157313
 20
181.4734419025732
 30
0.0
 11
138.9911454157312
 21
181.6346419025732
 31
0.0
  0
LINE
  5
F02
330
1F
100
AcDbEntity
  8
0
  6
Continuous
 62
     7
100
AcDbLine
 10
142.1305454157312
 20
181.3745312627236
 30
0.0
 11
142.1305454157312
 21
185.9744312627236
 31
0.0
  0
LINE
  5
F03
330
1F
100
AcDbEntity
  8
0
  6
Continuous
 62
     7
100
AcDbLine
 10
140.8307454157313
 20
185.6260312627234
 30
0.0
 11
142.1305454157312
 21
185.2776312627233
 31
0.0
  0
LINE
  5
F04
330
1F
100
AcDbEntity
  8
0
  6
Continuous
 62
     7
100
AcDbLine
 10
140.8307454157313
 20
181.3745312627236
 30
0.0
 11
142.1305454157312
 21
181.3745312627236
 31
0.0
  0
LINE
  5
F05
330
1F
100
AcDbEntity
  8
0
  6
Continuous
 62
     7
100
AcDbLine
 10
137.5309454157313
 20
185.9744312627237
 30
0.0
 11
137.5309454157313
 21
183.2283419025733
 31
0.0
  0
LINE
  5
F06
330
1F
100
AcDbEntity
  8
0
  6
Continuous
 62
     7
100
AcDbLine
 10
138.9911454157312
 20
190.3142206228738
 30
0.0
 11
140.8307454157313
 21
190.4754206228739
 31
0.0
  0
LINE
  5
F07
330
1F
100
AcDbEntity
  8
0
  6
Continuous
 62
     7
100
AcDbLine
 10
142.1305454157312
 20
185.9744312627236
 30
0.0
 11
142.1305454157312
 21
190.5743312627233
 31
0.0
  0
LINE
  5
F08
330
1F
100
AcDbEntity
  8
0
  6
Continuous
 62
     7
100
AcDbLine
 10
140.8307454157313
 20
186.3228312627235
 30
0.0
 11
142.1305454157312
 21
185.9744312627236
 31
0.0
  0
LINE
  5
F09
330
1F
100
AcDbEntity
  8
0
  6
Continuous
 62
     7
100
AcDbLine
 10
142.1305454157312
 20
190.5743312627233
 30
0.0
 11
140.8307454157313
 21
190.5743312627233
 31
0.0
  0
LINE
  5
F0A
330
1F
100
AcDbEntity
  8
0
  6
Continuous
 62
     7
100
AcDbLine
 10
137.5309454157313
 20
188.7205206228737
 30
0.0
 11
137.5309454157313
 21
185.9744312627237
 31
0.0
  0
LINE
  5
F0B
330
1F
100
AcDbEntity
  8
0
  6
Continuous
 62
     7
100
AcDbLine
 10
161.6305454157312
 20
182.9745812627235
 30
0.0
 11
156.6305454157312
 21
182.9745812627235
 31
0.0
  0
LINE
  5
F0C
330
1F
100
AcDbEntity
  8
100
  6
Continuous
 62
    30
100
AcDbLine
 10
162.1305454157312
 20
183.4745812627235
 30
0.0
 11
156.6305454157313
 21
183.4745812627235
 31
0.0
  0
LINE
  5
F0D
330
1F
100
AcDbEntity
  8
100
  6
Continuous
 62
    30
100
AcDbLine
 10
162.1305454157312
 20
188.4742812627236
 30
0.0
 11
156.6305454157312
 21
188.4742812627236
 31
0.0
  0
LINE
  5
F0E
330
1F
100
AcDbEntity
  8
0
  6
Continuous
 62
     7
100
AcDbLine
 10
161.6305454157312
 20
188.9742812627236
 30
0.0
 11
156.6305454157312
 21
188.9742812627236
 31
0.0
  0
LINE
  5
F0F
330
1F
100
AcDbEntity
  8
0
  6
Continuous
 62
     7
100
AcDbLine
 10
156.6305454157312
 20
176.2537894590158
 30
0.0
 11
142.1305454157312
 21
176.2537894590158
 31
0.0
  0
LINE
  5
F10
330
1F
100
AcDbEntity
  8
0
  6
Continuous
 62
     7
100
AcDbLine
 10
156.6305454157312
 20
192.9744312627235
 30
0.0
 11
142.1305454157312
 21
192.9744312627235
 31
0.0
  0
LINE
  5
F11
330
1F
100
AcDbEntity
  8
0
  6
Continuous
 62
     7
100
AcDbLine
 10
161.6305454157312
 20
188.9742812627236
 30
0.0
 11
161.6305454157312
 21
182.9745812627235
 31
0.0
  0
LINE
  5
F12
330
1F
100
AcDbEntity
  8
0
  6
Continuous
 62
     7
100
AcDbLine
 10
162.1305454157312
 20
183.4745812627235
 30
0.0
 11
161.6305454157312
 21
182.9745812627235
 31
0.0
  0
LINE
  5
F13
330
1F
100
AcDbEntity
  8
0
  6
Continuous
 62
     7
100
AcDbLine
 10
162.1305454157312
 20
188.4742812627236
 30
0.0
 11
161.6305454157312
 21
188.9742812627236
 31
0.0
  0
LINE
  5
F14
330
1F
100
AcDbEntity
  8
0
  6
Continuous
 62
     7
100
AcDbLine
 10
162.1305454157312
 20
183.4745812627235
 30
0.0
 11
162.1305454157312
 21
188.4742812627236
 31
0.0
  0
LINE
  5
F15
330
1F
100
AcDbEntity
  8
0
  6
DASH_CENTER
 62
    30
100
AcDbLine
 10
167.0396097638973
 20
185.9744312627236
 30
0.0
 11
133.0386062493495
 21
185.9744312627236
 31
0.0
  0
LINE
  5
F16
330
1F
100
AcDbEntity
  8
0
  6
Continuous
 62
     7
100
AcDbLine
 10
138.9911454157312
 20
-92.01006101085319
 30
0.0
 11
140.8307454157313
 21
-91.84886101085316
 31
0.0
  0
LINE
  5
F17
330
1F
100
AcDbEntity
  8
0
  6
Continuous
 62
     7
100
AcDbLine
 10
142.1305454157312
 20
-96.34985037100351
 30
0.0
 11
142.1305454157312
 21
-91.74995037100357
 31
0.0
  0
LINE
  5
F18
330
1F
100
AcDbEntity
  8
0
  6
Continuous
 62
     7
100
AcDbLine
 10
140.8309454157311
 20
-96.0014503710034
 30
0.0
 11
140.8307454157313
 21
-91.74995037100357
 31
0.0
  0
LINE
  5
F19
330
1F
100
AcDbEntity
  8
0
  6
Continuous
 62
     7
100
AcDbLine
 10
142.1305454157312
 20
-95.6530503710033
 30
0.0
 11
140.8307454157313
 21
-96.0014503710034
 31
0.0
  0
LINE
  5
F1A
330
1F
100
AcDbEntity
  8
0
  6
Continuous
 62
     7
100
AcDbLine
 10
142.1305454157312
 20
-91.74995037100357
 30
0.0
 11
140.8307454157313
 21
-91.74995037100357
 31
0.0
  0
LINE
  5
F1B
330
1F
100
AcDbEntity
  8
0
  6
Continuous
 62
     7
100
AcDbLine
 10
137.5309454157313
 20
-93.60376101085329
 30
0.0
 11
137.5309454157313
 21
-96.34985037100369
 31
0.0
  0
LINE
  5
F1C
330
1F
100
AcDbEntity
  8
0
  6
Continuous
 62
     7
100
AcDbLine
 10
140.8307454157313
 20
-100.8508397311539
 30
0.0
 11
138.9911454157312
 21
-100.6896397311538
 31
0.0
  0
LINE
  5
F1D
330
1F
100
AcDbEntity
  8
0
  6
Continuous
 62
     7
100
AcDbLine
 10
142.1305454157312
 20
-100.9497503710034
 30
0.0
 11
142.1305454157312
 21
-96.34985037100351
 31
0.0
  0
LINE
  5
F1E
330
1F
100
AcDbEntity
  8
0
  6
Continuous
 62
     7
100
AcDbLine
 10
140.8307454157313
 20
-100.9497503710034
 30
0.0
 11
140.8309454157311
 21
-96.69825037100359
 31
0.0
  0
LINE
  5
F1F
330
1F
100
AcDbEntity
  8
0
  6
Continuous
 62
     7
100
AcDbLine
 10
142.1305454157312
 20
-96.34985037100351
 30
0.0
 11
140.8307454157313
 21
-96.69825037100359
 31
0.0
  0
LINE
  5
F20
330
1F
100
AcDbEntity
  8
0
  6
Continuous
 62
     7
100
AcDbLine
 10
140.8307454157313
 20
-100.9497503710034
 30
0.0
 11
142.1305454157312
 21
-100.9497503710034
 31
0.0
  0
LINE
  5
F21
330
1F
100
AcDbEntity
  8
0
  6
Continuous
 62
     7
100
AcDbLine
 10
137.5309454157313
 20
-96.34985037100369
 30
0.0
 11
137.5309454157313
 21
-99.09593973115372
 31
0.0
  0
LINE
  5
F22
330
1F
100
AcDbEntity
  8
10
  6
Continuous
 62
     7
100
AcDbLine
 10
156.6305454157312
 20
-111.8888005895984
 30
0.0
 11
156.6305454157312
 21
44.81229044585989
 31
0.0
  0
LINE
  5
F23
330
1F
100
AcDbEntity
  8
0
  6
Continuous
 62
     7
100
AcDbLine
 10
156.6305454157312
 20
-93.35000037100348
 30
0.0
 11
161.6305454157312
 21
-93.35000037100348
 31
0.0
  0
LINE
  5
F24
330
1F
100
AcDbEntity
  8
100
  6
Continuous
 62
    30
100
AcDbLine
 10
156.6305454157313
 20
-93.85000037100347
 30
0.0
 11
162.1305454157312
 21
-93.85000037100347
 31
0.0
  0
LINE
  5
F25
330
1F
100
AcDbEntity
  8
100
  6
Continuous
 62
    30
100
AcDbLine
 10
156.6305454157312
 20
-98.84970037100357
 30
0.0
 11
162.1305454157312
 21
-98.84970037100357
 31
0.0
  0
LINE
  5
F26
330
1F
100
AcDbEntity
  8
0
  6
Continuous
 62
     7
100
AcDbLine
 10
156.6305454157312
 20
-99.34970037100356
 30
0.0
 11
161.6305454157312
 21
-99.34970037100356
 31
0.0
  0
LINE
  5
F27
330
1F
100
AcDbEntity
  8
0
  6
Continuous
 62
     7
100
AcDbLine
 10
370.2305454157342
 20
38.46813593660336
 30
0.0
 11
355.4304454157314
 21
38.46813593660336
 31
0.0
  0
LINE
  5
F28
330
1F
100
AcDbEntity
  8
0
  6
Continuous
 62
     7
100
AcDbLine
 10
355.4304454157314
 20
51.15644495511651
 30
0.0
 11
370.2305454157313
 21
51.15644495511651
 31
0.0
  0
LINE
  5
F29
330
1F
100
AcDbEntity
  8
0
  6
Continuous
 62
     7
100
AcDbLine
 10
370.2305454157313
 20
38.46813593660336
 30
0.0
 11
355.4304454157314
 21
38.46813593660336
 31
0.0
  0
LINE
  5
F2A
330
1F
100
AcDbEntity
  8
0
  6
Continuous
 62
     7
100
AcDbLine
 10
299.4305454157342
 20
38.46813593660336
 30
0.0
 11
284.6304454157314
 21
38.46813593660336
 31
0.0
  0
LINE
  5
F2B
330
1F
100
AcDbEntity
  8
0
  6
Continuous
 62
     7
100
AcDbLine
 10
372.7304454157313
 20
55.02143790273714
 30
0.0
 11
355.4304454157312
 21
55.02143790273714
 31
0.0
  0
LINE
  5
F2C
330
1F
100
AcDbEntity
  8
0
  6
Continuous
 62
     7
100
AcDbLine
 10
372.7304454157313
 20
51.15644495511651
 30
0.0
 11
355.4304454157314
 21
51.15644495511651
 31
0.0
  0
LINE
  5
F2D
330
1F
100
AcDbEntity
  8
0
  6
Continuous
 62
     7
100
AcDbLine
 10
301.4305454157313
 20
199.81229044586
 30
0.0
 11
353.4304454157312
 21
199.81229044586
 31
0.0
  0
LINE
  5
F2E
330
1F
100
AcDbEntity
  8
0
  6
Continuous
 62
     7
100
AcDbLine
 10
284.6304454157313
 20
55.02143790273714
 30
0.0
 11
299.4305454157313
 21
55.02143790273714
 31
0.0
  0
LINE
  5
F2F
330
1F
100
AcDbEntity
  8
0
  6
Continuous
 62
     7
100
AcDbLine
 10
284.6304454157314
 20
51.15644495511651
 30
0.0
 11
299.4305454157313
 21
51.15644495511651
 31
0.0
  0
LINE
  5
F30
330
1F
100
AcDbEntity
  8
0
  6
DASH_CENTER
 62
    30
100
AcDbLine
 10
305.8787277556262
 20
185.9744312627234
 30
0.0
 11
276.6301615096141
 21
185.9744312627234
 31
0.0
  0
LINE
  5
F31
330
1F
100
AcDbEntity
  8
0
  6
Continuous
 62
     7
100
AcDbLine
 10
283.3306454157314
 20
181.473441902573
 30
0.0
 11
281.4910454157312
 21
181.6346419025731
 31
0.0
  0
LINE
  5
F32
330
1F
100
AcDbEntity
  8
0
  6
Continuous
 62
     7
100
AcDbLine
 10
284.6304454157313
 20
181.3745312627235
 30
0.0
 11
284.6304454157313
 21
185.9744312627234
 31
0.0
  0
LINE
  5
F33
330
1F
100
AcDbEntity
  8
0
  6
Continuous
 62
     7
100
AcDbLine
 10
283.3306454157314
 20
181.3745312627235
 30
0.0
 11
283.3308454157312
 21
185.6260312627233
 31
0.0
  0
LINE
  5
F34
330
1F
100
AcDbEntity
  8
0
  6
Continuous
 62
     7
100
AcDbLine
 10
283.3306454157314
 20
185.6260312627233
 30
0.0
 11
284.6304454157313
 21
185.2776312627232
 31
0.0
  0
LINE
  5
F35
330
1F
100
AcDbEntity
  8
0
  6
Continuous
 62
     7
100
AcDbLine
 10
283.3306454157314
 20
181.3745312627235
 30
0.0
 11
284.6304454157313
 21
181.3745312627235
 31
0.0
  0
LINE
  5
F36
330
1F
100
AcDbEntity
  8
0
  6
Continuous
 62
     7
100
AcDbLine
 10
280.0308454157313
 20
185.9744312627236
 30
0.0
 11
280.0308454157313
 21
183.2283419025732
 31
0.0
  0
LINE
  5
F37
330
1F
100
AcDbEntity
  8
0
  6
Continuous
 62
     7
100
AcDbLine
 10
281.4910454157312
 20
190.3142206228737
 30
0.0
 11
283.3306454157314
 21
190.4754206228738
 31
0.0
  0
LINE
  5
F38
330
1F
100
AcDbEntity
  8
0
  6
Continuous
 62
     7
100
AcDbLine
 10
284.6304454157313
 20
185.9744312627234
 30
0.0
 11
284.6304454157313
 21
190.5743312627233
 31
0.0
  0
LINE
  5
F39
330
1F
100
AcDbEntity
  8
0
  6
Continuous
 62
     7
100
AcDbLine
 10
283.3308454157312
 20
186.3228312627235
 30
0.0
 11
283.3306454157314
 21
190.5743312627233
 31
0.0
  0
LINE
  5
F3A
330
1F
100
AcDbEntity
  8
0
  6
Continuous
 62
     7
100
AcDbLine
 10
283.3306454157314
 20
186.3228312627235
 30
0.0
 11
284.6304454157313
 21
185.9744312627234
 31
0.0
  0
LINE
  5
F3B
330
1F
100
AcDbEntity
  8
0
  6
Continuous
 62
     7
100
AcDbLine
 10
284.6304454157313
 20
190.5743312627233
 30
0.0
 11
283.3306454157314
 21
190.5743312627233
 31
0.0
  0
LINE
  5
F3C
330
1F
100
AcDbEntity
  8
0
  6
Continuous
 62
     7
100
AcDbLine
 10
280.0308454157313
 20
188.7205206228736
 30
0.0
 11
280.0308454157313
 21
185.9744312627236
 31
0.0
  0
LINE
  5
F3D
330
1F
100
AcDbEntity
  8
0
  6
Continuous
 62
     7
100
AcDbLine
 10
299.4305454157313
 20
192.9744312627234
 30
0.0
 11
284.7305454157313
 21
192.9744312627234
 31
0.0
  0
LINE
  5
F3E
330
1F
100
AcDbEntity
  8
0
  6
Continuous
 62
     7
100
AcDbLine
 10
299.4305454157313
 20
176.2537894590157
 30
0.0
 11
284.7305454157313
 21
176.2537894590157
 31
0.0
  0
LINE
  5
F3F
330
1F
100
AcDbEntity
  8
10
  6
Continuous
 62
     7
100
AcDbLine
 10
299.4305454157313
 20
44.81229044585989
 30
0.0
 11
299.4305454157313
 21
199.81229044586
 31
0.0
  0
LINE
  5
F40
330
1F
100
AcDbEntity
  8
10
  6
Continuous
 62
     7
100
AcDbLine
 10
297.5574454157313
 20
202.81229044586
 30
0.0
 11
291.9305454157314
 21
202.81229044586
 31
0.0
  0
LINE
  5
F41
330
1F
100
AcDbEntity
  8
10
  6
Continuous
 62
     7
100
AcDbLine
 10
284.6304454157313
 20
202.81229044586
 30
0.0
 11
291.9304454157312
 21
202.81229044586
 31
0.0
  0
LINE
  5
F42
330
1F
100
AcDbEntity
  8
0
  6
Continuous
 62
     7
100
AcDbLine
 10
291.9304454157312
 20
44.8122904458599
 30
0.0
 11
291.9304454157312
 21
202.81229044586
 31
0.0
  0
LINE
  5
F43
330
1F
100
AcDbEntity
  8
10
  6
Continuous
 62
     7
100
AcDbLine
 10
284.6304454157313
 20
44.81229044585997
 30
0.0
 11
284.6304454157313
 21
201.81229044586
 31
0.0
  0
LINE
  5
F44
330
1F
100
AcDbEntity
  8
10
  6
Continuous
 62
     7
100
AcDbLine
 10
291.9304454157312
 20
44.8122904458599
 30
0.0
 11
291.9304454157312
 21
114.4573210058975
 31
0.0
  0
LINE
  5
F45
330
1F
100
AcDbEntity
  8
10
  6
Continuous
 62
     7
100
AcDbLine
 10
284.6304454157313
 20
201.81229044586
 30
0.0
 11
284.6304454157313
 21
202.81229044586
 31
0.0
  0
LINE
  5
F46
330
1F
100
AcDbEntity
  8
0
  6
Continuous
 62
     7
100
AcDbLine
 10
213.6304454157313
 20
55.02143790273714
 30
0.0
 11
228.6305454157314
 21
55.02143790273714
 31
0.0
  0
LINE
  5
F47
330
1F
100
AcDbEntity
  8
0
  6
Continuous
 62
     7
100
AcDbLine
 10
213.6304454157313
 20
51.15644495511651
 30
0.0
 11
228.6305454157314
 21
51.15644495511651
 31
0.0
  0
LINE
  5
F48
330
1F
100
AcDbEntity
  8
0
  6
DASH_CENTER
 62
    30
100
AcDbLine
 10
235.0787277556262
 20
185.9744312627234
 30
0.0
 11
205.6301615096141
 21
185.9744312627234
 31
0.0
  0
LINE
  5
F49
330
1F
100
AcDbEntity
  8
0
  6
Continuous
 62
     7
100
AcDbLine
 10
228.6305454157311
 20
192.9744312627234
 30
0.0
 11
213.7305454157313
 21
192.9744312627234
 31
0.0
  0
LINE
  5
F4A
330
1F
100
AcDbEntity
  8
0
  6
Continuous
 62
     7
100
AcDbLine
 10
228.6305454157311
 20
176.2537894590157
 30
0.0
 11
213.7305454157313
 21
176.2537894590157
 31
0.0
  0
LINE
  5
F4B
330
1F
100
AcDbEntity
  8
10
  6
Continuous
 62
     7
100
AcDbLine
 10
228.6305454157311
 20
44.81229044585989
 30
0.0
 11
228.6305454157311
 21
199.81229044586
 31
0.0
  0
LINE
  5
F4C
330
1F
100
AcDbEntity
  8
10
  6
Continuous
 62
     7
100
AcDbLine
 10
226.7574454157313
 20
202.81229044586
 30
0.0
 11
221.1305454157311
 21
202.81229044586
 31
0.0
  0
LINE
  5
F4D
330
1F
100
AcDbEntity
  8
0
  6
Continuous
 62
     7
100
AcDbLine
 10
230.6305454157312
 20
199.81229044586
 30
0.0
 11
282.6304454157313
 21
199.81229044586
 31
0.0
  0
LINE
  5
F4E
330
1F
100
AcDbEntity
  8
10
  6
Continuous
 62
     7
100
AcDbLine
 10
213.6304454157313
 20
202.81229044586
 30
0.0
 11
221.1304454157313
 21
202.81229044586
 31
0.0
  0
LINE
  5
F4F
330
1F
100
AcDbEntity
  8
0
  6
Continuous
 62
     7
100
AcDbLine
 10
221.1304454157313
 20
44.8122904458599
 30
0.0
 11
221.1304454157313
 21
202.81229044586
 31
0.0
  0
LINE
  5
F50
330
1F
100
AcDbEntity
  8
10
  6
Continuous
 62
     7
100
AcDbLine
 10
213.6304454157313
 20
44.81229044585997
 30
0.0
 11
213.6304454157313
 21
201.81229044586
 31
0.0
  0
LINE
  5
F51
330
1F
100
AcDbEntity
  8
10
  6
Continuous
 62
     7
100
AcDbLine
 10
221.1304454157313
 20
44.8122904458599
 30
0.0
 11
221.1304454157313
 21
114.4573210058975
 31
0.0
  0
LINE
  5
F52
330
1F
100
AcDbEntity
  8
0
  6
Continuous
 62
     7
100
AcDbLine
 10
158.6305454157312
 20
199.81229044586
 30
0.0
 11
211.6304454157313
 21
199.8122904458599
 31
0.0
  0
LINE
  5
F53
330
1F
100
AcDbEntity
  8
10
  6
Continuous
 62
     7
100
AcDbLine
 10
213.6304454157313
 20
201.81229044586
 30
0.0
 11
213.6304454157313
 21
202.81229044586
 31
0.0
  0
LINE
  5
F54
330
1F
100
AcDbEntity
  8
10
  6
Continuous
 62
     7
100
AcDbLine
 10
156.6305454157312
 20
44.81229044585989
 30
0.0
 11
156.6305454157312
 21
199.81229044586
 31
0.0
  0
LINE
  5
F55
330
1F
100
AcDbEntity
  8
10
  6
Continuous
 62
     7
100
AcDbLine
 10
149.3305454157312
 20
44.81229044585989
 30
0.0
 11
149.3305454157312
 21
202.81229044586
 31
0.0
  0
LINE
  5
F56
330
1F
100
AcDbEntity
  8
10
  6
Continuous
 62
     7
100
AcDbLine
 10
154.7574454157311
 20
202.81229044586
 30
0.0
 11
149.3305454157312
 21
202.81229044586
 31
0.0
  0
LINE
  5
F57
330
1F
100
AcDbEntity
  8
0
  6
Continuous
 62
     7
100
AcDbLine
 10
69.64589937013285
 20
119.81229044586
 30
0.0
 11
56.64589937013285
 21
119.8122904458599
 31
0.0
  0
LINE
  5
F58
330
1F
100
AcDbEntity
  8
0
  6
Continuous
 62
     7
100
AcDbLine
 10
82.64589937013289
 20
199.8122904458599
 30
0.0
 11
140.1305454157312
 21
199.8122904458601
 31
0.0
  0
LINE
  5
F59
330
1F
100
AcDbEntity
  8
0
  6
Continuous
 62
     7
100
AcDbLine
 10
144.0035287619386
 20
202.8122904458599
 30
0.0
 11
149.3305454157312
 21
202.81229044586
 31
0.0
  0
LINE
  5
F5A
330
1F
100
AcDbEntity
  8
0
  6
Continuous
 62
     7
100
AcDbLine
 10
142.1305454157312
 20
44.81229044585987
 30
0.0
 11
142.1305454157312
 21
199.8122904458601
 31
0.0
  0
LINE
  5
F5B
330
1F
100
AcDbEntity
  8
0
  6
Continuous
 62
     7
100
AcDbLine
 10
72.64589937013285
 20
189.81229044586
 30
0.0
 11
72.64589937013285
 21
44.81229044585996
 31
0.0
  0
LINE
  5
F5C
330
1F
100
AcDbEntity
  8
0
  6
Continuous
 62
     7
100
AcDbLine
 10
156.6305454157311
 20
55.02143790273714
 30
0.0
 11
142.1305454157312
 21
55.02143790273714
 31
0.0
  0
LINE
  5
F5D
330
1F
100
AcDbEntity
  8
0
  6
Continuous
 62
     7
100
AcDbLine
 10
156.6305454157312
 20
51.15644495511651
 30
0.0
 11
142.1305454157312
 21
51.15644495511651
 31
0.0
  0
LINE
  5
F5E
330
1F
100
AcDbEntity
  8
0
  6
Continuous
 62
     7
100
AcDbLine
 10
50.64589937013284
 20
105.8122904458599
 30
0.0
 11
18.14589937013284
 21
105.8122904458599
 31
0.0
  0
LINE
  5
F5F
330
1F
100
AcDbEntity
  8
0
  6
Continuous
 62
     7
100
AcDbLine
 10
16.64589937013285
 20
44.81229044585993
 30
0.0
 11
16.64589937013284
 21
104.3122904458599
 31
0.0
  0
LINE
  5
F60
330
1F
100
AcDbEntity
  8
0
  6
Continuous
 62
     7
100
AcDbLine
 10
56.64589937013285
 20
119.8122904458599
 30
0.0
 11
54.64589937013283
 21
119.8122904458599
 31
0.0
  0
LINE
  5
F61
330
1F
100
AcDbEntity
  8
0
  6
Continuous
 62
     7
100
AcDbLine
 10
52.64589937013284
 20
117.81229044586
 30
0.0
 11
52.64589937013284
 21
44.81229044585993
 31
0.0
  0
LINE
  5
F62
330
1F
100
AcDbEntity
  8
0
  6
Continuous
 62
     7
100
AcDbLine
 10
52.64589937013284
 20
118.3123436166218
 30
0.0
 11
52.64589937013284
 21
109.3123436166218
 31
0.0
  0
LINE
  5
F63
330
1F
100
AcDbEntity
  8
0
  6
Continuous
 62
     7
100
AcDbLine
 10
49.34609937013284
 20
111.0672436166217
 30
0.0
 11
49.34609937013284
 21
116.5574436166217
 31
0.0
  0
LINE
  5
F64
330
1F
100
AcDbEntity
  8
0
  6
Continuous
 62
     7
100
AcDbLine
 10
50.80629937013284
 20
109.4732436166216
 30
0.0
 11
52.64589937013284
 21
109.3123436166218
 31
0.0
  0
LINE
  5
F65
330
1F
100
AcDbEntity
  8
0
  6
Continuous
 62
     7
100
AcDbLine
 10
50.80629937013283
 20
118.1511436166218
 30
0.0
 11
52.64589937013284
 21
118.3123436166218
 31
0.0
  0
LINE
  5
F66
330
1F
100
AcDbEntity
  8
0
  6
DASH_CENTER
 62
    30
100
AcDbLine
 10
68.70287211199237
 20
113.81229044586
 30
0.0
 11
44.69023092342603
 21
113.81229044586
 31
0.0
  0
LINE
  5
F67
330
1F
100
AcDbEntity
  8
0
  6
Continuous
 62
     7
100
AcDbLine
 10
50.80629937013283
 20
49.1511436166217
 30
0.0
 11
52.64589937013284
 21
49.3123436166217
 31
0.0
  0
LINE
  5
F68
330
1F
100
AcDbEntity
  8
0
  6
DASHED
 62
     2
100
AcDbLine
 10
497.1305454157289
 20
-94.6878095541399
 30
0.0
 11
498.5304454157287
 21
-94.6878095541399
 31
0.0
  0
LINE
  5
F69
330
1F
100
AcDbEntity
  8
0
  6
DASHED
 62
     2
100
AcDbLine
 10
497.1305454157289
 20
-95.68780955413988
 30
0.0
 11
498.5304454157287
 21
-95.68780955413988
 31
0.0
  0
LINE
  5
F6A
330
1F
100
AcDbEntity
  8
0
  6
DASHED
 62
     2
100
AcDbLine
 10
499.0304454157288
 20
-97.58770955414014
 30
0.0
 11
499.0304454157288
 21
-96.1878095541399
 31
0.0
  0
LINE
  5
F6B
330
1F
100
AcDbEntity
  8
0
  6
DASHED
 62
     2
100
AcDbLine
 10
500.0304454157288
 20
-97.58770955414014
 30
0.0
 11
500.0304454157288
 21
-96.1878095541399
 31
0.0
  0
LINE
  5
F6C
330
1F
100
AcDbEntity
  8
0
  6
DASHED
 62
     2
100
AcDbLine
 10
500.5304454157288
 20
-94.6878095541399
 30
0.0
 11
501.930345415729
 21
-94.6878095541399
 31
0.0
  0
LINE
  5
F6D
330
1F
100
AcDbEntity
  8
0
  6
DASHED
 62
     2
100
AcDbLine
 10
499.0304454157288
 20
-94.18780955413991
 30
0.0
 11
499.0304454157288
 21
-92.78790955414013
 31
0.0
  0
LINE
  5
F6E
330
1F
100
AcDbEntity
  8
0
  6
DASHED
 62
     2
100
AcDbLine
 10
500.0304454157288
 20
-94.18780955413991
 30
0.0
 11
500.0304454157288
 21
-92.78790955414013
 31
0.0
  0
LINE
  5
F6F
330
1F
100
AcDbEntity
  8
0
  6
DASHED
 62
     2
100
AcDbLine
 10
500.5304454157288
 20
-95.68780955413988
 30
0.0
 11
501.930345415729
 21
-95.68780955413988
 31
0.0
  0
LINE
  5
F70
330
1F
100
AcDbEntity
  8
0
  6
DASHED
 62
     2
100
AcDbLine
 10
499.0304454157288
 20
-92.78790955414013
 30
0.0
 11
500.0304454157288
 21
-92.78790955414013
 31
0.0
  0
LINE
  5
F71
330
1F
100
AcDbEntity
  8
0
  6
DASHED
 62
     2
100
AcDbLine
 10
499.0304454157288
 20
-97.58770955414014
 30
0.0
 11
500.0304454157288
 21
-97.58770955414014
 31
0.0
  0
LINE
  5
F72
330
1F
100
AcDbEntity
  8
0
  6
DASHED
 62
     2
100
AcDbLine
 10
497.1305454157289
 20
-95.68780955413988
 30
0.0
 11
497.1305454157289
 21
-94.6878095541399
 31
0.0
  0
LINE
  5
F73
330
1F
100
AcDbEntity
  8
0
  6
DASHED
 62
     2
100
AcDbLine
 10
501.930345415729
 20
-95.68780955413988
 30
0.0
 11
501.930345415729
 21
-94.6878095541399
 31
0.0
  0
LINE
  5
F74
330
1F
100
AcDbEntity
  8
0
  6
Continuous
 62
     7
100
AcDbLine
 10
-592.897674792993
 20
-100.1435235966351
 30
0.0
 11
-588.697674792993
 21
-100.1435235966351
 31
0.0
  0
LINE
  5
F75
330
1F
100
AcDbEntity
  8
0
  6
Continuous
 62
     7
100
AcDbLine
 10
-592.897674792993
 20
-96.0435235966351
 30
0.0
 11
-592.897674792993
 21
-100.1435235966351
 31
0.0
  0
LINE
  5
F76
330
1F
100
AcDbEntity
  8
0
  6
Continuous
 62
     7
100
AcDbLine
 10
-592.897674792993
 20
-100.1435235966351
 30
0.0
 11
-594.9424354145518
 21
-105.2035983921769
 31
0.0
  0
LINE
  5
F77
330
1F
100
AcDbEntity
  8
0
  6
Continuous
 62
     7
100
AcDbLine
 10
-588.8976747929928
 20
-100.1435235966351
 30
0.0
 11
-584.697674792993
 21
-100.1435235966351
 31
0.0
  0
LINE
  5
F78
330
1F
100
AcDbEntity
  8
0
  6
Continuous
 62
     7
100
AcDbLine
 10
-588.8976747929928
 20
-96.0435235966351
 30
0.0
 11
-588.8976747929928
 21
-100.1435235966351
 31
0.0
  0
LINE
  5
F79
330
1F
100
AcDbEntity
  8
0
  6
Continuous
 62
     7
100
AcDbLine
 10
-588.8976747929928
 20
-100.1435235966351
 30
0.0
 11
-590.9424354145518
 21
-105.2035983921769
 31
0.0
  0
LINE
  5
F7A
330
1F
100
AcDbEntity
  8
0
  6
DASH_CENTER
 62
     2
100
AcDbLine
 10
-582.797674792993
 20
-91.29126854891309
 30
0.0
 11
-582.797674792993
 21
-112.0935235966351
 31
0.0
  0
LINE
  5
F7B
330
1F
100
AcDbEntity
  8
0
  6
Continuous
 62
     7
100
AcDbLine
 10
-580.697674792993
 20
-100.1435235966351
 30
0.0
 11
-578.8849739338794
 21
-104.4842249535056
 31
0.0
  0
LINE
  5
F7C
330
1F
100
AcDbEntity
  8
0
  6
Continuous
 62
     7
100
AcDbLine
 10
-584.897674792993
 20
-100.1435235966351
 30
0.0
 11
-586.9424354145518
 21
-105.2035983921769
 31
0.0
  0
LINE
  5
F7D
330
1F
100
AcDbEntity
  8
0
  6
Continuous
 62
     7
100
AcDbLine
 10
-584.897674792993
 20
-100.1435235966351
 30
0.0
 11
-580.697674792993
 21
-100.1435235966351
 31
0.0
  0
LINE
  5
F7E
330
1F
100
AcDbEntity
  8
0
  6
Continuous
 62
     7
100
AcDbLine
 10
-580.697674792993
 20
-96.0435235966351
 30
0.0
 11
-580.697674792993
 21
-100.1435235966351
 31
0.0
  0
LINE
  5
F7F
330
1F
100
AcDbEntity
  8
0
  6
Continuous
 62
     7
100
AcDbLine
 10
-584.897674792993
 20
-96.0435235966351
 30
0.0
 11
-580.697674792993
 21
-96.0435235966351
 31
0.0
  0
LINE
  5
F80
330
1F
100
AcDbEntity
  8
0
  6
Continuous
 62
     7
100
AcDbLine
 10
-584.897674792993
 20
-96.0435235966351
 30
0.0
 11
-584.897674792993
 21
-100.1435235966351
 31
0.0
  0
LINE
  5
F81
330
1F
100
AcDbEntity
  8
0
  6
DASH_CENTER
 62
     2
100
AcDbLine
 10
-585.147674792993
 20
-106.1435235966351
 30
0.0
 11
-588.747674792993
 21
-106.1435235966351
 31
0.0
  0
LINE
  5
F82
330
1F
100
AcDbEntity
  8
0
  6
DASH_CENTER
 62
     2
100
AcDbLine
 10
-576.8476747929931
 20
-106.1435235966351
 30
0.0
 11
-585.147674792993
 21
-106.1435235966351
 31
0.0
  0
LINE
  5
F83
330
1F
100
AcDbEntity
  8
0
  6
DASHED
 62
     2
 48
0.5
100
AcDbLine
 10
464.1400222039151
 20
24.41733314769431
 30
0.0
 11
464.1400222039151
 21
19.98651770467245
 31
0.0
  0
LINE
  5
F84
330
1F
100
AcDbEntity
  8
0
  6
DASHED
 62
     2
 48
0.5
100
AcDbLine
 10
472.232992566438
 20
25.40657495520327
 30
0.0
 11
472.232992566438
 21
21.41222898353726
 31
0.0
  0
LINE
  5
F85
330
1F
100
AcDbEntity
  8
0
  6
DASHED
 62
     2
 48
0.5
100
AcDbLine
 10
468.6732408304892
 20
8.01347862742341
 30
0.0
 11
468.6732408304892
 21
28.78491240785228
 31
0.0
  0
LINE
  5
F86
330
1F
100
AcDbEntity
  8
0
  6
DASHED
 62
     2
 48
0.5
100
AcDbLine
 10
467.6274907022203
 20
8.520457652830371
 30
0.0
 11
467.6274907022203
 21
27.99530732265839
 31
0.0
  0
LINE
  5
F87
330
1F
100
AcDbEntity
  8
0
  6
DASHED
 62
     2
 48
0.5
100
AcDbLine
 10
472.232992566438
 20
21.41222898353726
 30
0.0
 11
472.232992566438
 21
8.252538151375349
 31
0.0
  0
LINE
  5
F88
330
1F
100
AcDbEntity
  8
0
  6
DASHED
 62
     2
 48
0.5
100
AcDbLine
 10
464.1400222039151
 20
19.98651770467245
 30
0.0
 11
464.1400222039151
 21
8.252538151375349
 31
0.0
  0
LINE
  5
F89
330
1F
100
AcDbEntity
  8
0
  6
DASHED
 62
     2
 48
0.5
100
AcDbLine
 10
464.1400222039151
 20
19.98651770467245
 30
0.0
 11
451.5304454157313
 21
19.98651770467245
 31
0.0
  0
LINE
  5
F8A
330
1F
100
AcDbEntity
  8
0
  6
DASHED
 62
     2
 48
0.5
100
AcDbLine
 10
451.5304454157313
 20
41.20594741484547
 30
0.0
 11
466.9207305606441
 21
41.20594741484547
 31
0.0
  0
LINE
  5
F8B
330
1F
100
AcDbEntity
  8
0
  6
Continuous
 62
     7
100
AcDbLine
 10
451.5304454157313
 20
41.20594741484547
 30
0.0
 11
451.5304454157313
 21
44.49232633588233
 31
0.0
  0
LINE
  5
F8C
330
1F
100
AcDbEntity
  8
0
  6
Continuous
 62
     7
100
AcDbLine
 10
451.5304454157313
 20
41.20594741484547
 30
0.0
 11
451.5304454157313
 21
44.49232633588233
 31
0.0
  0
LINE
  5
F8D
330
1F
100
AcDbEntity
  8
0
  6
Continuous
 62
     7
100
AcDbLine
 10
451.5304454157313
 20
19.98651770467245
 30
0.0
 11
451.5304454157313
 21
41.20594741484547
 31
0.0
  0
LINE
  5
F8E
330
1F
100
AcDbEntity
  8
0
  6
Continuous
 62
     7
100
AcDbLine
 10
451.5304454157313
 20
19.98651770467245
 30
0.0
 11
451.5304454157313
 21
41.20594741484547
 31
0.0
  0
LINE
  5
F8F
330
1F
100
AcDbEntity
  8
0
  6
DASHED
 62
     2
 48
0.5
100
AcDbLine
 10
464.1400222039151
 20
28.13884210711126
 30
0.0
 11
464.1400222039151
 21
24.41733314769431
 31
0.0
  0
LINE
  5
F90
330
1F
100
AcDbEntity
  8
0
  6
DASHED
 62
     2
 48
0.5
100
AcDbLine
 10
472.232992566438
 20
28.55046720806035
 30
0.0
 11
472.232992566438
 21
25.40657495520327
 31
0.0
  0
LINE
  5
F91
330
1F
100
AcDbEntity
  8
0
  6
Continuous
 62
     2
 48
0.5
100
AcDbLine
 10
468.3674542989973
 20
29.57013264568536
 30
0.0
 11
468.3674542989973
 21
29.55037580175645
 31
0.0
  0
LINE
  5
F92
330
1F
100
AcDbEntity
  8
0
  6
Continuous
 62
     7
100
AcDbLine
 10
-417.1647528085653
 20
-125.1878095541399
 30
0.0
 11
-406.1647528085653
 21
-125.1878095541399
 31
0.0
  0
LINE
  5
F93
330
1F
100
AcDbEntity
  8
0
  6
Continuous
 62
     7
100
AcDbLine
 10
-411.6647528085652
 20
-122.8878095541399
 30
0.0
 11
-406.1647528085653
 21
-122.8878095541399
 31
0.0
  0
LINE
  5
F94
330
1F
100
AcDbEntity
  8
0
  6
DASHED
 62
     2
100
AcDbLine
 10
-406.1647528085653
 20
-125.1878095541399
 30
0.0
 11
-406.1647528085653
 21
-122.8878095541399
 31
0.0
  0
LINE
  5
F95
330
1F
100
AcDbEntity
  8
0
  6
DASHED
 62
     2
100
AcDbLine
 10
-417.1647528085653
 20
-125.1878095541399
 30
0.0
 11
-417.1647528085653
 21
-122.8878095541399
 31
0.0
  0
LINE
  5
F96
330
1F
100
AcDbEntity
  8
0
  6
Continuous
 62
     7
100
AcDbLine
 10
-411.6647528085652
 20
-122.8878095541399
 30
0.0
 11
-411.6647528085652
 21
-117.799846544324
 31
0.0
  0
LINE
  5
F97
330
1F
100
AcDbEntity
  8
0
  6
DASH_CENTER
 62
     2
100
AcDbLine
 10
-411.6647528085651
 20
-130.792271100087
 30
0.0
 11
-411.6647528085652
 21
-117.799846544324
 31
0.0
  0
LINE
  5
F98
330
1F
100
AcDbEntity
  8
0
  6
Continuous
 62
     7
100
AcDbLine
 10
-417.1647528085653
 20
-122.8878095541399
 30
0.0
 11
-411.6647528085652
 21
-122.8878095541399
 31
0.0
  0
LINE
  5
F99
330
1F
100
AcDbEntity
  8
0
  6
Continuous
 62
     7
100
AcDbLine
 10
-537.1647528085652
 20
-125.1878095541399
 30
0.0
 11
-526.1647528085652
 21
-125.1878095541399
 31
0.0
  0
LINE
  5
F9A
330
1F
100
AcDbEntity
  8
0
  6
Continuous
 62
     7
100
AcDbLine
 10
-537.1647528085652
 20
-122.8878095541399
 30
0.0
 11
-531.6647528085652
 21
-122.8878095541399
 31
0.0
  0
LINE
  5
F9B
330
1F
100
AcDbEntity
  8
0
  6
DASHED
 62
     2
100
AcDbLine
 10
-537.1647528085652
 20
-122.8878095541399
 30
0.0
 11
-537.1647528085652
 21
-125.1878095541399
 31
0.0
  0
LINE
  5
F9C
330
1F
100
AcDbEntity
  8
0
  6
DASHED
 62
     2
100
AcDbLine
 10
-526.1647528085652
 20
-122.8878095541399
 30
0.0
 11
-526.1647528085652
 21
-125.1878095541399
 31
0.0
  0
LINE
  5
F9D
330
1F
100
AcDbEntity
  8
0
  6
Continuous
 62
     7
100
AcDbLine
 10
-531.6647528085652
 20
-117.799846544324
 30
0.0
 11
-531.6647528085652
 21
-122.8878095541399
 31
0.0
  0
LINE
  5
F9E
330
1F
100
AcDbEntity
  8
0
  6
DASH_CENTER
 62
     2
100
AcDbLine
 10
-531.6647528085652
 20
-117.799846544324
 30
0.0
 11
-531.6647528085653
 21
-130.792271100087
 31
0.0
  0
LINE
  5
F9F
330
1F
100
AcDbEntity
  8
0
  6
Continuous
 62
     7
100
AcDbLine
 10
-531.6647528085652
 20
-122.8878095541399
 30
0.0
 11
-526.1647528085652
 21
-122.8878095541399
 31
0.0
  0
LINE
  5
FA0
330
1F
100
AcDbEntity
  8
0
  6
DASHED
 62
     2
100
AcDbLine
 10
-423.6647528085653
 20
-110.1878095541399
 30
0.0
 11
-423.6647528085653
 21
-105.7200980956098
 31
0.0
  0
LINE
  5
FA1
330
1F
100
AcDbEntity
  8
0
  6
DASHED
 62
     2
100
AcDbLine
 10
-427.9647528085653
 20
-30.48770955414001
 30
0.0
 11
-444.1647528085653
 21
-30.48770955414001
 31
0.0
  0
LINE
  5
FA2
330
1F
100
AcDbEntity
  8
0
  6
DASHED
 62
     2
100
AcDbLine
 10
-444.1647528085653
 20
-30.48770955414001
 30
0.0
 11
-444.1647528085653
 21
-28.5481212214689
 31
0.0
  0
LINE
  5
FA3
330
1F
100
AcDbEntity
  8
0
  6
DASHED
 62
     2
100
AcDbLine
 10
-442.1650631954868
 20
-31.68770955414003
 30
0.0
 11
-437.7043092328857
 21
-31.68770955414003
 31
0.0
  0
LINE
  5
FA4
330
1F
100
AcDbEntity
  8
0
  6
DASHED
 62
     2
100
AcDbLine
 10
-441.6643935871749
 20
-31.68770955414003
 30
0.0
 11
-437.7043092328857
 21
-31.68770955414003
 31
0.0
  0
LINE
  5
FA5
330
1F
100
AcDbEntity
  8
0
  6
DASHED
 62
     2
100
AcDbLine
 10
-442.1647529756423
 20
-30.48770955414003
 30
0.0
 11
-438.0046451294155
 21
-30.48770955414003
 31
0.0
  0
LINE
  5
FA6
330
1F
100
AcDbEntity
  8
0
  6
DASHED
 62
     2
100
AcDbLine
 10
-437.7043092328857
 20
-31.68770955414003
 30
0.0
 11
-438.0046451294155
 21
-30.48770955414003
 31
0.0
  0
LINE
  5
FA7
330
1F
100
AcDbEntity
  8
0
  6
DASHED
 62
     2
100
AcDbLine
 10
-437.7043092328857
 20
-31.68770955414003
 30
0.0
 11
-437.1650630284098
 21
-31.68770955414003
 31
0.0
  0
LINE
  5
FA8
330
1F
100
AcDbEntity
  8
0
  6
DASHED
 62
     2
100
AcDbLine
 10
-437.7043092328857
 20
-31.68770955414003
 30
0.0
 11
-437.1650630284098
 21
-31.68770955414003
 31
0.0
  0
LINE
  5
FA9
330
1F
100
AcDbEntity
  8
0
  6
DASHED
 62
     2
100
AcDbLine
 10
-438.0046451294155
 20
-30.48770955414003
 30
0.0
 11
-437.5165992975537
 21
-30.48770955414003
 31
0.0
  0
LINE
  5
FAA
330
1F
100
AcDbEntity
  8
0
  6
DASHED
 62
     2
100
AcDbLine
 10
-437.1650630284098
 20
-31.68770955414003
 30
0.0
 11
-437.5165992975537
 21
-30.48770955414003
 31
0.0
  0
LINE
  5
FAB
330
1F
100
AcDbEntity
  8
0
  6
DASHED
 62
     2
100
AcDbLine
 10
-437.1650630284098
 20
-31.68770955414003
 30
0.0
 11
-432.165062861333
 21
-31.68770955414003
 31
0.0
  0
LINE
  5
FAC
330
1F
100
AcDbEntity
  8
0
  6
DASHED
 62
     2
100
AcDbLine
 10
-432.165062861333
 20
-31.68770955414003
 30
0.0
 11
-432.1647526414883
 21
-30.48770955414003
 31
0.0
  0
LINE
  5
FAD
330
1F
100
AcDbEntity
  8
0
  6
DASHED
 62
     2
100
AcDbLine
 10
-442.1650631954868
 20
-31.68770955414003
 30
0.0
 11
-442.1647529756423
 21
-30.48770955414003
 31
0.0
  0
LINE
  5
FAE
330
1F
100
AcDbEntity
  8
0
  6
DASHED
 62
     2
100
AcDbLine
 10
-437.5165992975537
 20
-30.48770955414003
 30
0.0
 11
-432.1647526414883
 21
-30.48770955414003
 31
0.0
  0
LINE
  5
FAF
330
1F
100
AcDbEntity
  8
0
  6
DASHED
 62
     2
100
AcDbLine
 10
-437.1650630284098
 20
-31.68770955414003
 30
0.0
 11
-432.6643935871749
 21
-31.68770955414003
 31
0.0
  0
LINE
  5
FB0
330
1F
100
AcDbEntity
  8
0
  6
DASHED
 62
     2
100
AcDbLine
 10
-434.419293587175
 20
-34.98750955414015
 30
0.0
 11
-439.9094935871751
 21
-34.98750955414015
 31
0.0
  0
LINE
  5
FB1
330
1F
100
AcDbEntity
  8
0
  6
DASHED
 62
     2
100
AcDbLine
 10
-441.6643935871749
 20
-31.68770955414003
 30
0.0
 11
-441.5034935871751
 21
-33.52730955414016
 31
0.0
  0
LINE
  5
FB2
330
1F
100
AcDbEntity
  8
0
  6
DASHED
 62
     2
100
AcDbLine
 10
-432.6643935871749
 20
-31.68770955414003
 30
0.0
 11
-432.8255935871749
 21
-33.52730955414016
 31
0.0
  0
LINE
  5
FB3
330
1F
100
AcDbEntity
  8
0
  6
DASHED
 62
     2
100
AcDbLine
 10
-427.9647528085653
 20
-30.48770955414001
 30
0.0
 11
-444.1647528085653
 21
-30.48770955414001
 31
0.0
  0
LINE
  5
FB4
330
1F
100
AcDbEntity
  8
0
  6
DASHED
 62
     2
100
AcDbLine
 10
-423.6647528085653
 20
-105.7200980956098
 30
0.0
 11
-423.6647528085653
 21
-32.25865192127593
 31
0.0
  0
LINE
  5
FB5
330
1F
100
AcDbEntity
  8
0
  6
DASHED
 62
     2
100
AcDbLine
 10
-425.9647528085651
 20
-32.48770955414001
 30
0.0
 11
-425.9647528085651
 21
-106.434230175277
 31
0.0
  0
LINE
  5
FB6
330
1F
100
AcDbEntity
  8
0
  6
Continuous
 62
     7
100
AcDbLine
 10
-423.6647528085653
 20
-120.8878095541399
 30
0.0
 11
-423.6647528085653
 21
-110.1878095541399
 31
0.0
  0
LINE
  5
FB7
330
1F
100
AcDbEntity
  8
0
  6
DASHED
 62
     2
100
AcDbLine
 10
-425.9647528085651
 20
-106.434230175277
 30
0.0
 11
-425.9647528085651
 21
-120.1878095541399
 31
0.0
  0
LINE
  5
FB8
330
1F
100
AcDbEntity
  8
0
  6
Continuous
 62
     7
100
AcDbLine
 10
-425.9647528085651
 20
-121.1878095541399
 30
0.0
 11
-425.9647528085651
 21
-120.1878095541399
 31
0.0
  0
LINE
  5
FB9
330
1F
100
AcDbEntity
  8
0
  6
Continuous
 62
     7
100
AcDbLine
 10
-421.9647528085651
 20
-125.1878095541399
 30
0.0
 11
-398.1647528085653
 21
-125.1878095541399
 31
0.0
  0
LINE
  5
FBA
330
1F
100
AcDbEntity
  8
0
  6
Continuous
 62
     7
100
AcDbLine
 10
-421.6647528085653
 20
-122.8878095541399
 30
0.0
 11
-398.1647528085653
 21
-122.8878095541399
 31
0.0
  0
LINE
  5
FBB
330
1F
100
AcDbEntity
  8
0
  6
Continuous
 62
     7
100
AcDbLine
 10
-398.1647528085653
 20
-125.1878095541399
 30
0.0
 11
-398.1647528085653
 21
-122.8878095541399
 31
0.0
  0
LINE
  5
FBC
330
1F
100
AcDbEntity
  8
100
  6
DASH_CENTER
 62
    30
100
AcDbLine
 10
-506.1655767493333
 20
-27.30052169708257
 30
0.0
 11
-506.1626905330558
 21
-38.46505418437981
 31
0.0
  0
LINE
  5
FBD
330
1F
100
AcDbEntity
  8
0
  6
DASHED
 62
     2
100
AcDbLine
 10
-505.6251963842448
 20
-31.68770955414003
 30
0.0
 11
-501.1644424216436
 21
-31.68770955414003
 31
0.0
  0
LINE
  5
FBE
330
1F
100
AcDbEntity
  8
0
  6
DASHED
 62
     2
100
AcDbLine
 10
-505.6251963842448
 20
-31.68770955414003
 30
0.0
 11
-501.6651120299555
 21
-31.68770955414003
 31
0.0
  0
LINE
  5
FBF
330
1F
100
AcDbEntity
  8
0
  6
DASHED
 62
     2
100
AcDbLine
 10
-505.3248604877148
 20
-30.48770955414003
 30
0.0
 11
-501.1647526414883
 21
-30.48770955414003
 31
0.0
  0
LINE
  5
FC0
330
1F
100
AcDbEntity
  8
0
  6
DASHED
 62
     2
100
AcDbLine
 10
-505.3248604877148
 20
-30.48770955414003
 30
0.0
 11
-505.6251963842448
 21
-31.68770955414003
 31
0.0
  0
LINE
  5
FC1
330
1F
100
AcDbEntity
  8
0
  6
DASHED
 62
     2
100
AcDbLine
 10
-506.1644425887207
 20
-31.68770955414003
 30
0.0
 11
-505.6251963842448
 21
-31.68770955414003
 31
0.0
  0
LINE
  5
FC2
330
1F
100
AcDbEntity
  8
0
  6
DASHED
 62
     2
100
AcDbLine
 10
-506.1644425887207
 20
-31.68770955414003
 30
0.0
 11
-505.6251963842448
 21
-31.68770955414003
 31
0.0
  0
LINE
  5
FC3
330
1F
100
AcDbEntity
  8
0
  6
DASHED
 62
     2
100
AcDbLine
 10
-505.8129063195768
 20
-30.48770955414003
 30
0.0
 11
-505.3248604877148
 21
-30.48770955414003
 31
0.0
  0
LINE
  5
FC4
330
1F
100
AcDbEntity
  8
0
  6
DASHED
 62
     2
100
AcDbLine
 10
-505.8129063195768
 20
-30.48770955414003
 30
0.0
 11
-506.1644425887207
 21
-31.68770955414003
 31
0.0
  0
LINE
  5
FC5
330
1F
100
AcDbEntity
  8
0
  6
DASHED
 62
     2
100
AcDbLine
 10
-511.1644427557976
 20
-31.68770955414003
 30
0.0
 11
-506.1644425887207
 21
-31.68770955414003
 31
0.0
  0
LINE
  5
FC6
330
1F
100
AcDbEntity
  8
0
  6
DASHED
 62
     2
100
AcDbLine
 10
-511.1647529756421
 20
-30.48770955414003
 30
0.0
 11
-511.1644427557976
 21
-31.68770955414003
 31
0.0
  0
LINE
  5
FC7
330
1F
100
AcDbEntity
  8
0
  6
DASHED
 62
     2
100
AcDbLine
 10
-501.1647526414883
 20
-30.48770955414003
 30
0.0
 11
-501.1644424216436
 21
-31.68770955414003
 31
0.0
  0
LINE
  5
FC8
330
1F
100
AcDbEntity
  8
0
  6
DASHED
 62
     2
100
AcDbLine
 10
-511.1647529756421
 20
-30.48770955414003
 30
0.0
 11
-505.8129063195768
 21
-30.48770955414003
 31
0.0
  0
LINE
  5
FC9
330
1F
100
AcDbEntity
  8
0
  6
DASHED
 62
     2
100
AcDbLine
 10
-510.6651120299558
 20
-31.68770955414003
 30
0.0
 11
-506.1644425887207
 21
-31.68770955414003
 31
0.0
  0
LINE
  5
FCA
330
1F
100
AcDbEntity
  8
0
  6
DASHED
 62
     2
100
AcDbLine
 10
-503.4200120299556
 20
-34.98750955414015
 30
0.0
 11
-508.9102120299555
 21
-34.98750955414015
 31
0.0
  0
LINE
  5
FCB
330
1F
100
AcDbEntity
  8
0
  6
DASHED
 62
     2
100
AcDbLine
 10
-501.8260120299554
 20
-33.52730955414016
 30
0.0
 11
-501.6651120299555
 21
-31.68770955414003
 31
0.0
  0
LINE
  5
FCC
330
1F
100
AcDbEntity
  8
0
  6
DASHED
 62
     2
100
AcDbLine
 10
-510.5039120299558
 20
-33.52730955414016
 30
0.0
 11
-510.6651120299558
 21
-31.68770955414003
 31
0.0
  0
LINE
  5
FCD
330
1F
100
AcDbEntity
  8
0
  6
DASHED
 62
     2
100
AcDbLine
 10
-517.3647528085653
 20
-106.434230175277
 30
0.0
 11
-517.3647528085653
 21
-32.48770955414001
 31
0.0
  0
LINE
  5
FCE
330
1F
100
AcDbEntity
  8
0
  6
Continuous
 62
     7
100
AcDbLine
 10
-519.6647528085653
 20
-105.7200980956098
 30
0.0
 11
-519.6647528085653
 21
-120.8878095541399
 31
0.0
  0
LINE
  5
FCF
330
1F
100
AcDbEntity
  8
0
  6
DASHED
 62
     2
100
AcDbLine
 10
-517.3647528085653
 20
-120.1878095541399
 30
0.0
 11
-517.3647528085653
 21
-106.434230175277
 31
0.0
  0
LINE
  5
FD0
330
1F
100
AcDbEntity
  8
0
  6
Continuous
 62
     7
100
AcDbLine
 10
-517.3647528085653
 20
-120.1878095541399
 30
0.0
 11
-517.3647528085653
 21
-121.1878095541399
 31
0.0
  0
LINE
  5
FD1
330
1F
100
AcDbEntity
  8
0
  6
DASHED
 62
     7
100
AcDbLine
 10
-507.3647528085652
 20
-110.1878095541399
 30
0.0
 11
-502.3073538729341
 21
-110.1878095541399
 31
0.0
  0
LINE
  5
FD2
330
1F
100
AcDbEntity
  8
0
  6
Continuous
 62
     7
100
AcDbLine
 10
-545.1647528085652
 20
-125.1878095541399
 30
0.0
 11
-521.3647528085653
 21
-125.1878095541399
 31
0.0
  0
LINE
  5
FD3
330
1F
100
AcDbEntity
  8
0
  6
Continuous
 62
     7
100
AcDbLine
 10
-545.1647528085652
 20
-122.8878095541399
 30
0.0
 11
-521.6647528085652
 21
-122.8878095541399
 31
0.0
  0
LINE
  5
FD4
330
1F
100
AcDbEntity
  8
0
  6
Continuous
 62
     7
100
AcDbLine
 10
-545.1647528085652
 20
-122.8878095541399
 30
0.0
 11
-545.1647528085652
 21
-125.1878095541399
 31
0.0
  0
LINE
  5
FD5
330
1F
100
AcDbEntity
  8
0
  6
DASHED
 62
     2
100
AcDbLine
 10
-519.6647528085653
 20
-32.25865192127593
 30
0.0
 11
-519.6647528085653
 21
-105.7200980956098
 31
0.0
  0
LINE
  5
FD6
330
1F
100
AcDbEntity
  8
0
  6
DASHED
 62
     2
100
AcDbLine
 10
-499.1647528085652
 20
-30.48770955414001
 30
0.0
 11
-515.3647528085651
 21
-30.48770955414001
 31
0.0
  0
LINE
  5
FD7
330
1F
100
AcDbEntity
  8
0
  6
DASHED
 62
     2
100
AcDbLine
 10
-499.1647528085652
 20
-28.5481212214689
 30
0.0
 11
-499.1647528085652
 21
-30.48770955414001
 31
0.0
  0
LINE
  5
FD8
330
1F
100
AcDbEntity
  8
0
  6
DASHED
 62
     2
100
AcDbLine
 10
-580.832455751621
 20
-69.4086035890614
 30
0.0
 11
-580.832455751621
 21
-5.702469611600508
 31
0.0
  0
LINE
  5
FD9
330
1F
100
AcDbEntity
  8
0
  6
Continuous
 62
     7
100
AcDbLine
 10
-584.832455751621
 20
-65.4468180694563
 30
0.0
 11
-584.832455751621
 21
-96.02914103952008
 31
0.0
  0
LINE
  5
FDA
330
1F
100
AcDbEntity
  8
0
  6
DASHED
 62
     2
100
AcDbLine
 10
-588.832455751621
 20
-61.18643307026471
 30
0.0
 11
-588.832455751621
 21
-5.702469611600508
 31
0.0
  0
LINE
  5
FDB
330
1F
100
AcDbEntity
  8
0
  6
Continuous
 62
     7
100
AcDbLine
 10
-592.832455751621
 20
-56.58981881969427
 30
0.0
 11
-592.832455751621
 21
-96.02914103952008
 31
0.0
  0
LINE
  5
FDC
330
1F
100
AcDbEntity
  8
0
  6
DASHED
 62
     2
100
AcDbLine
 10
-558.1256792136321
 20
35.65945601491222
 30
0.0
 11
-552.2569226742851
 21
36.69427613600833
 31
0.0
  0
LINE
  5
FDD
330
1F
100
AcDbEntity
  8
0
  6
DASHED
 62
     2
100
AcDbLine
 10
-557.4310865029644
 20
31.7202250028634
 30
0.0
 11
-551.7571572097637
 21
32.72069182388679
 31
0.0
  0
LINE
  5
FDE
330
1F
100
AcDbEntity
  8
0
  6
DASHED
 62
     2
100
AcDbLine
 10
-556.7364937922966
 20
27.78099399081456
 30
0.0
 11
-551.0625644990958
 21
28.78146081183795
 31
0.0
  0
LINE
  5
FDF
330
1F
100
AcDbEntity
  8
0
  6
DASHED
 62
     2
100
AcDbLine
 10
-556.0419010816287
 20
23.84176297876573
 30
0.0
 11
-550.1731445422819
 21
24.87658309986183
 31
0.0
  0
LINE
  5
FE0
330
1F
100
AcDbEntity
  8
0
  6
Continuous
 62
     7
100
AcDbLine
 10
-580.832455751621
 20
-96.02914103952008
 30
0.0
 11
-580.832455751621
 21
-69.4086035890614
 31
0.0
  0
LINE
  5
FE1
330
1F
100
AcDbEntity
  8
0
  6
Continuous
 62
     7
100
AcDbLine
 10
-584.832455751621
 20
-96.02914103952008
 30
0.0
 11
-580.832455751621
 21
-96.02914103952008
 31
0.0
  0
LINE
  5
FE2
330
1F
100
AcDbEntity
  8
0
  6
DASHED
 62
     2
100
AcDbLine
 10
-584.832455751621
 20
-5.702469611600508
 30
0.0
 11
-584.832455751621
 21
-65.4468180694563
 31
0.0
  0
LINE
  5
FE3
330
1F
100
AcDbEntity
  8
0
  6
Continuous
 62
     7
100
AcDbLine
 10
-588.832455751621
 20
-96.02914103952008
 30
0.0
 11
-584.832455751621
 21
-96.02914103952008
 31
0.0
  0
LINE
  5
FE4
330
1F
100
AcDbEntity
  8
0
  6
Continuous
 62
     7
100
AcDbLine
 10
-588.832455751621
 20
-96.02914103952008
 30
0.0
 11
-588.832455751621
 21
-61.18643307026471
 31
0.0
  0
LINE
  5
FE5
330
1F
100
AcDbEntity
  8
0
  6
DASHED
 62
     2
100
AcDbLine
 10
-592.832455751621
 20
-5.702469611600508
 30
0.0
 11
-592.832455751621
 21
-56.58981881969427
 31
0.0
  0
LINE
  5
FE6
330
1F
100
AcDbEntity
  8
0
  6
Continuous
 62
     7
100
AcDbLine
 10
-592.832455751621
 20
-96.02914103952008
 30
0.0
 11
-588.832455751621
 21
-96.02914103952008
 31
0.0
  0
LINE
  5
FE7
330
1F
100
AcDbEntity
  8
0
  6
DASHED
 62
     2
100
AcDbLine
 10
-547.3005772836605
 20
18.27510792825635
 30
0.0
 11
-546.1465394001622
 21
18.47859594387681
 31
0.0
  0
LINE
  5
FE8
330
1F
100
AcDbEntity
  8
0
  6
DASHED
 62
     2
100
AcDbLine
 10
-551.8154299030006
 20
43.88010950657377
 30
0.0
 11
-550.6613920195021
 21
44.08359752219422
 31
0.0
  0
LINE
  5
FE9
330
1F
100
AcDbEntity
  8
0
  6
DASH_CENTER
 62
    30
100
AcDbLine
 10
-646.4298989587987
 20
44.81229044585997
 30
0.0
 11
-641.6647528085653
 21
44.81229044585997
 31
0.0
  0
LINE
  5
FEA
330
1F
100
AcDbEntity
  8
0
  6
Continuous
 62
     7
100
AcDbLine
 10
551.0304454157274
 20
-125.1878095541399
 30
0.0
 11
562.0304454157274
 21
-125.1878095541399
 31
0.0
  0
LINE
  5
FEB
330
1F
100
AcDbEntity
  8
0
  6
Continuous
 62
     7
100
AcDbLine
 10
551.0304454157274
 20
-122.8878095541399
 30
0.0
 11
556.5304454157272
 21
-122.8878095541399
 31
0.0
  0
LINE
  5
FEC
330
1F
100
AcDbEntity
  8
0
  6
DASHED
 62
     2
100
AcDbLine
 10
551.0304454157274
 20
-122.8878095541399
 30
0.0
 11
551.0304454157274
 21
-125.1878095541399
 31
0.0
  0
LINE
  5
FED
330
1F
100
AcDbEntity
  8
0
  6
DASHED
 62
     2
100
AcDbLine
 10
562.0304454157274
 20
-122.8878095541399
 30
0.0
 11
562.0304454157274
 21
-125.1878095541399
 31
0.0
  0
LINE
  5
FEE
330
1F
100
AcDbEntity
  8
0
  6
Continuous
 62
     7
100
AcDbLine
 10
556.5304454157272
 20
-117.799846544324
 30
0.0
 11
556.5304454157272
 21
-122.8878095541399
 31
0.0
  0
LINE
  5
FEF
330
1F
100
AcDbEntity
  8
0
  6
DASH_CENTER
 62
     2
100
AcDbLine
 10
556.5304454157272
 20
-117.799846544324
 30
0.0
 11
556.5304454157272
 21
-130.792271100087
 31
0.0
  0
LINE
  5
FF0
330
1F
100
AcDbEntity
  8
0
  6
Continuous
 62
     7
100
AcDbLine
 10
556.5304454157272
 20
-122.8878095541399
 30
0.0
 11
562.0304454157274
 21
-122.8878095541399
 31
0.0
  0
LINE
  5
FF1
330
1F
100
AcDbEntity
  8
0
  6
Continuous
 62
     7
100
AcDbLine
 10
516.0304454157271
 20
-125.1878095541399
 30
0.0
 11
527.0304454157272
 21
-125.1878095541399
 31
0.0
  0
LINE
  5
FF2
330
1F
100
AcDbEntity
  8
0
  6
Continuous
 62
     7
100
AcDbLine
 10
516.0304454157271
 20
-122.8878095541399
 30
0.0
 11
521.5304454157273
 21
-122.8878095541399
 31
0.0
  0
LINE
  5
FF3
330
1F
100
AcDbEntity
  8
0
  6
DASHED
 62
     2
100
AcDbLine
 10
516.0304454157271
 20
-122.8878095541399
 30
0.0
 11
516.0304454157271
 21
-125.1878095541399
 31
0.0
  0
LINE
  5
FF4
330
1F
100
AcDbEntity
  8
0
  6
DASHED
 62
     2
100
AcDbLine
 10
527.0304454157272
 20
-122.8878095541399
 30
0.0
 11
527.0304454157272
 21
-125.1878095541399
 31
0.0
  0
LINE
  5
FF5
330
1F
100
AcDbEntity
  8
0
  6
Continuous
 62
     7
100
AcDbLine
 10
521.5304454157274
 20
-117.799846544324
 30
0.0
 11
521.5304454157273
 21
-122.8878095541399
 31
0.0
  0
LINE
  5
FF6
330
1F
100
AcDbEntity
  8
0
  6
DASH_CENTER
 62
     2
100
AcDbLine
 10
521.5304454157274
 20
-117.799846544324
 30
0.0
 11
521.5304454157271
 21
-130.792271100087
 31
0.0
  0
LINE
  5
FF7
330
1F
100
AcDbEntity
  8
0
  6
Continuous
 62
     7
100
AcDbLine
 10
521.5304454157273
 20
-122.8878095541399
 30
0.0
 11
527.0304454157272
 21
-122.8878095541399
 31
0.0
  0
LINE
  5
FF8
330
1F
100
AcDbEntity
  8
0
  6
Continuous
 62
     7
100
AcDbLine
 10
481.0304454157281
 20
-125.1878095541399
 30
0.0
 11
492.0304454157283
 21
-125.1878095541399
 31
0.0
  0
LINE
  5
FF9
330
1F
100
AcDbEntity
  8
0
  6
Continuous
 62
     7
100
AcDbLine
 10
481.0304454157281
 20
-122.8878095541399
 30
0.0
 11
486.5304454157283
 21
-122.8878095541399
 31
0.0
  0
LINE
  5
FFA
330
1F
100
AcDbEntity
  8
0
  6
DASHED
 62
     2
100
AcDbLine
 10
481.0304454157281
 20
-122.8878095541399
 30
0.0
 11
481.0304454157281
 21
-125.1878095541399
 31
0.0
  0
LINE
  5
FFB
330
1F
100
AcDbEntity
  8
0
  6
Continuous
 62
     7
100
AcDbLine
 10
492.0304454157283
 20
-125.1878095541399
 30
0.0
 11
571.5304454157282
 21
-125.1878095541399
 31
0.0
  0
LINE
  5
FFC
330
1F
100
AcDbEntity
  8
0
  6
Continuous
 62
     7
100
AcDbLine
 10
492.0304454157283
 20
-122.8878095541399
 30
0.0
 11
571.5304454157282
 21
-122.8878095541399
 31
0.0
  0
LINE
  5
FFD
330
1F
100
AcDbEntity
  8
0
  6
DASHED
 62
     2
100
AcDbLine
 10
492.0304454157283
 20
-122.8878095541399
 30
0.0
 11
492.0304454157283
 21
-125.1878095541399
 31
0.0
  0
LINE
  5
FFE
330
1F
100
AcDbEntity
  8
0
  6
Continuous
 62
     7
100
AcDbLine
 10
486.5304454157283
 20
-117.799846544324
 30
0.0
 11
486.5304454157283
 21
-122.8878095541399
 31
0.0
  0
LINE
  5
FFF
330
1F
100
AcDbEntity
  8
0
  6
DASH_CENTER
 62
     2
100
AcDbLine
 10
486.5304454157283
 20
-117.799846544324
 30
0.0
 11
486.5304454157281
 21
-130.792271100087
 31
0.0
  0
LINE
  5
1000
330
1F
100
AcDbEntity
  8
0
  6
DASHED
 62
     2
100
AcDbLine
 10
551.2301095191999
 20
-31.75022509577759
 30
0.0
 11
555.6908634818008
 21
-31.75022509577759
 31
0.0
  0
LINE
  5
1001
330
1F
100
AcDbEntity
  8
0
  6
DASHED
 62
     2
100
AcDbLine
 10
551.2301095191999
 20
-31.75022509577759
 30
0.0
 11
555.1901938734892
 21
-31.75022509577759
 31
0.0
  0
LINE
  5
1002
330
1F
100
AcDbEntity
  8
0
  6
DASHED
 62
     2
100
AcDbLine
 10
551.5304454157297
 20
-30.55022509577759
 30
0.0
 11
555.6905532619564
 21
-30.55022509577759
 31
0.0
  0
LINE
  5
1003
330
1F
100
AcDbEntity
  8
0
  6
DASHED
 62
     2
100
AcDbLine
 10
551.5304454157297
 20
-30.55022509577759
 30
0.0
 11
551.2301095191999
 21
-31.75022509577759
 31
0.0
  0
LINE
  5
1004
330
1F
100
AcDbEntity
  8
0
  6
DASHED
 62
     2
100
AcDbLine
 10
550.6908633147239
 20
-31.75022509577759
 30
0.0
 11
551.2301095191999
 21
-31.75022509577759
 31
0.0
  0
LINE
  5
1005
330
1F
100
AcDbEntity
  8
0
  6
DASHED
 62
     2
100
AcDbLine
 10
550.6908633147239
 20
-31.75022509577759
 30
0.0
 11
551.2301095191999
 21
-31.75022509577759
 31
0.0
  0
LINE
  5
1006
330
1F
100
AcDbEntity
  8
0
  6
DASHED
 62
     2
100
AcDbLine
 10
551.0423995838679
 20
-30.55022509577759
 30
0.0
 11
551.5304454157297
 21
-30.55022509577759
 31
0.0
  0
LINE
  5
1007
330
1F
100
AcDbEntity
  8
0
  6
DASHED
 62
     2
100
AcDbLine
 10
551.0423995838679
 20
-30.55022509577759
 30
0.0
 11
550.6908633147239
 21
-31.75022509577759
 31
0.0
  0
LINE
  5
1008
330
1F
100
AcDbEntity
  8
0
  6
DASHED
 62
     2
100
AcDbLine
 10
545.6908631476472
 20
-31.75022509577759
 30
0.0
 11
550.6908633147239
 21
-31.75022509577759
 31
0.0
  0
LINE
  5
1009
330
1F
100
AcDbEntity
  8
0
  6
DASHED
 62
     2
100
AcDbLine
 10
545.6905529278026
 20
-30.55022509577759
 30
0.0
 11
545.6908631476472
 21
-31.75022509577759
 31
0.0
  0
LINE
  5
100A
330
1F
100
AcDbEntity
  8
0
  6
DASHED
 62
     2
100
AcDbLine
 10
555.6905532619564
 20
-30.55022509577759
 30
0.0
 11
555.6908634818008
 21
-31.75022509577759
 31
0.0
  0
LINE
  5
100B
330
1F
100
AcDbEntity
  8
0
  6
DASHED
 62
     2
100
AcDbLine
 10
545.6905529278026
 20
-30.55022509577759
 30
0.0
 11
551.0423995838679
 21
-30.55022509577759
 31
0.0
  0
LINE
  5
100C
330
1F
100
AcDbEntity
  8
0
  6
DASHED
 62
     2
100
AcDbLine
 10
546.1901938734891
 20
-31.75022509577759
 30
0.0
 11
550.6908633147239
 21
-31.75022509577759
 31
0.0
  0
LINE
  5
100D
330
1F
100
AcDbEntity
  8
0
  6
DASHED
 62
     2
100
AcDbLine
 10
553.4352938734891
 20
-35.05002509577771
 30
0.0
 11
547.9450938734891
 21
-35.05002509577771
 31
0.0
  0
LINE
  5
100E
330
1F
100
AcDbEntity
  8
0
  6
DASHED
 62
     2
100
AcDbLine
 10
555.0292938734891
 20
-33.58982509577773
 30
0.0
 11
555.1901938734892
 21
-31.75022509577759
 31
0.0
  0
LINE
  5
100F
330
1F
100
AcDbEntity
  8
0
  6
DASHED
 62
     2
100
AcDbLine
 10
546.3513938734892
 20
-33.58982509577773
 30
0.0
 11
546.1901938734891
 21
-31.75022509577759
 31
0.0
  0
LINE
  5
1010
330
1F
100
AcDbEntity
  8
100
  6
DASH_CENTER
 62
    30
100
AcDbLine
 10
550.6926153703889
 20
-38.52756972601738
 30
0.0
 11
550.6908633147239
 21
-31.75022509577759
 31
0.0
  0
LINE
  5
1011
330
1F
100
AcDbEntity
  8
0
  6
DASHED
 62
     2
100
AcDbLine
 10
501.7181553510617
 20
-31.75022509577759
 30
0.0
 11
506.178909313663
 21
-31.75022509577759
 31
0.0
  0
LINE
  5
1012
330
1F
100
AcDbEntity
  8
0
  6
DASHED
 62
     2
100
AcDbLine
 10
501.7181553510617
 20
-31.75022509577759
 30
0.0
 11
505.6782397053511
 21
-31.75022509577759
 31
0.0
  0
LINE
  5
1013
330
1F
100
AcDbEntity
  8
0
  6
DASHED
 62
     2
100
AcDbLine
 10
502.0184912475918
 20
-30.55022509577759
 30
0.0
 11
506.1785990938185
 21
-30.55022509577759
 31
0.0
  0
LINE
  5
1014
330
1F
100
AcDbEntity
  8
0
  6
DASHED
 62
     2
100
AcDbLine
 10
502.0184912475918
 20
-30.55022509577759
 30
0.0
 11
501.7181553510617
 21
-31.75022509577759
 31
0.0
  0
LINE
  5
1015
330
1F
100
AcDbEntity
  8
0
  6
DASHED
 62
     2
100
AcDbLine
 10
501.1789091465861
 20
-31.75022509577759
 30
0.0
 11
501.7181553510617
 21
-31.75022509577759
 31
0.0
  0
LINE
  5
1016
330
1F
100
AcDbEntity
  8
0
  6
DASHED
 62
     2
100
AcDbLine
 10
501.1789091465861
 20
-31.75022509577759
 30
0.0
 11
501.7181553510617
 21
-31.75022509577759
 31
0.0
  0
LINE
  5
1017
330
1F
100
AcDbEntity
  8
0
  6
DASHED
 62
     2
100
AcDbLine
 10
501.5304454157298
 20
-30.55022509577759
 30
0.0
 11
502.0184912475918
 21
-30.55022509577759
 31
0.0
  0
LINE
  5
1018
330
1F
100
AcDbEntity
  8
0
  6
DASHED
 62
     2
100
AcDbLine
 10
501.5304454157298
 20
-30.55022509577759
 30
0.0
 11
501.1789091465861
 21
-31.75022509577759
 31
0.0
  0
LINE
  5
1019
330
1F
100
AcDbEntity
  8
0
  6
DASHED
 62
     2
100
AcDbLine
 10
496.1789089795089
 20
-31.75022509577759
 30
0.0
 11
501.1789091465861
 21
-31.75022509577759
 31
0.0
  0
LINE
  5
101A
330
1F
100
AcDbEntity
  8
0
  6
DASHED
 62
     2
100
AcDbLine
 10
496.1785987596646
 20
-30.55022509577759
 30
0.0
 11
496.1789089795089
 21
-31.75022509577759
 31
0.0
  0
LINE
  5
101B
330
1F
100
AcDbEntity
  8
0
  6
DASHED
 62
     2
100
AcDbLine
 10
506.1785990938185
 20
-30.55022509577759
 30
0.0
 11
506.178909313663
 21
-31.75022509577759
 31
0.0
  0
LINE
  5
101C
330
1F
100
AcDbEntity
  8
0
  6
DASHED
 62
     2
100
AcDbLine
 10
496.1785987596646
 20
-30.55022509577759
 30
0.0
 11
501.5304454157298
 21
-30.55022509577759
 31
0.0
  0
LINE
  5
101D
330
1F
100
AcDbEntity
  8
0
  6
DASHED
 62
     2
100
AcDbLine
 10
496.678239705351
 20
-31.75022509577759
 30
0.0
 11
501.1789091465861
 21
-31.75022509577759
 31
0.0
  0
LINE
  5
101E
330
1F
100
AcDbEntity
  8
0
  6
DASHED
 62
     2
100
AcDbLine
 10
503.9233397053512
 20
-35.05002509577771
 30
0.0
 11
498.4331397053511
 21
-35.05002509577771
 31
0.0
  0
LINE
  5
101F
330
1F
100
AcDbEntity
  8
0
  6
DASHED
 62
     2
100
AcDbLine
 10
505.5173397053513
 20
-33.58982509577773
 30
0.0
 11
505.6782397053511
 21
-31.75022509577759
 31
0.0
  0
LINE
  5
1020
330
1F
100
AcDbEntity
  8
0
  6
DASHED
 62
     2
100
AcDbLine
 10
496.839439705351
 20
-33.58982509577773
 30
0.0
 11
496.678239705351
 21
-31.75022509577759
 31
0.0
  0
LINE
  5
1021
330
1F
100
AcDbEntity
  8
100
  6
DASH_CENTER
 62
    30
100
AcDbLine
 10
501.1806612022509
 20
-38.52756972601738
 30
0.0
 11
501.1789091465861
 21
-31.75022509577759
 31
0.0
  0
LINE
  5
1022
330
1F
100
AcDbEntity
  8
0
  6
DASH_CENTER
 62
    30
100
AcDbLine
 10
-471.6647528085653
 20
219.5774365960933
 30
0.0
 11
-471.6647528085653
 21
-129.9528557043734
 31
0.0
  0
LINE
  5
1023
330
1F
100
AcDbEntity
  8
0
  6
Continuous
 62
     7
100
AcDbLine
 10
-445.3398596463888
 20
47.81229044585994
 30
0.0
 11
-417.4960348986868
 21
47.81229044585994
 31
0.0
  0
LINE
  5
1024
330
1F
100
AcDbEntity
  8
0
  6
Continuous
 62
     7
100
AcDbLine
 10
-445.3398596463888
 20
41.81229044585992
 30
0.0
 11
-417.4960348986868
 21
41.81229044585992
 31
0.0
  0
LINE
  5
1025
330
1F
100
AcDbEntity
  8
0
  6
Continuous
 62
     7
100
AcDbLine
 10
-468.6647528085653
 20
18.48739728368362
 30
0.0
 11
-468.6647528085653
 21
-9.35642746401858
 31
0.0
  0
LINE
  5
1026
330
1F
100
AcDbEntity
  8
0
  6
Continuous
 62
     7
100
AcDbLine
 10
-474.6647528085651
 20
18.48739728368362
 30
0.0
 11
-474.6647528085651
 21
-9.35642746401858
 31
0.0
  0
LINE
  5
1027
330
1F
100
AcDbEntity
  8
0
  6
Continuous
 62
     7
100
AcDbLine
 10
-497.9896459707417
 20
41.81229044585996
 30
0.0
 11
-525.833470718444
 21
41.81229044585996
 31
0.0
  0
LINE
  5
1028
330
1F
100
AcDbEntity
  8
0
  6
Continuous
 62
     7
100
AcDbLine
 10
-497.9896459707417
 20
47.81229044585995
 30
0.0
 11
-525.833470718444
 21
47.81229044585995
 31
0.0
  0
LINE
  5
1029
330
1F
100
AcDbEntity
  8
0
  6
Continuous
 62
     7
100
AcDbLine
 10
-474.6647528085651
 20
71.13718360803635
 30
0.0
 11
-474.6647528085651
 21
98.98100835573854
 31
0.0
  0
LINE
  5
102A
330
1F
100
AcDbEntity
  8
0
  6
Continuous
 62
     7
100
AcDbLine
 10
-468.6647528085653
 20
71.13718360803635
 30
0.0
 11
-468.6647528085653
 21
98.98100835573854
 31
0.0
  0
LINE
  5
102B
330
1F
100
AcDbEntity
  8
0
  6
Continuous
 62
     7
100
AcDbLine
 10
-468.8976917695597
 20
169.7816601858344
 30
0.0
 11
-473.0744360945755
 21
164.8040101311497
 31
0.0
  0
LINE
  5
102C
330
1F
100
AcDbEntity
  8
0
  6
Continuous
 62
     7
100
AcDbLine
 10
-487.5077674512342
 20
173.8432901592319
 30
0.0
 11
-486.2890740171831
 21
163.9178286428186
 31
0.0
  0
LINE
  5
102D
330
1F
100
AcDbEntity
  8
0
  6
Continuous
 62
     7
100
AcDbLine
 10
-487.5077674512342
 20
173.8432901592319
 30
0.0
 11
-505.2738367053205
 21
154.7915133910184
 31
0.0
  0
LINE
  5
102E
330
1F
100
AcDbEntity
  8
0
  6
Continuous
 62
     7
100
AcDbLine
 10
-434.4626924057731
 20
164.1479795827942
 30
0.0
 11
-441.4833210320788
 21
155.7811201951247
 31
0.0
  0
LINE
  5
102F
330
1F
100
AcDbEntity
  8
0
  6
Continuous
 62
     7
100
AcDbLine
 10
-405.0646528085649
 20
45.31229044585995
 30
0.0
 11
-403.6647528085651
 21
45.31229044585995
 31
0.0
  0
LINE
  5
1030
330
1F
100
AcDbEntity
  8
0
  6
Continuous
 62
     7
100
AcDbLine
 10
-405.0646528085649
 20
44.31229044585996
 30
0.0
 11
-403.6647528085651
 21
44.31229044585996
 31
0.0
  0
LINE
  5
1031
330
1F
100
AcDbEntity
  8
0
  6
Continuous
 62
     7
100
AcDbLine
 10
-403.1647528085652
 20
42.41239044585973
 30
0.0
 11
-403.1647528085652
 21
43.81229044585995
 31
0.0
  0
LINE
  5
1032
330
1F
100
AcDbEntity
  8
0
  6
Continuous
 62
     7
100
AcDbLine
 10
-402.1647528085653
 20
42.41239044585973
 30
0.0
 11
-402.1647528085653
 21
43.81229044585995
 31
0.0
  0
LINE
  5
1033
330
1F
100
AcDbEntity
  8
0
  6
Continuous
 62
     7
100
AcDbLine
 10
-401.6647528085653
 20
45.31229044585995
 30
0.0
 11
-400.2648528085648
 21
45.31229044585995
 31
0.0
  0
LINE
  5
1034
330
1F
100
AcDbEntity
  8
0
  6
Continuous
 62
     7
100
AcDbLine
 10
-403.1647528085652
 20
45.81229044585995
 30
0.0
 11
-403.1647528085652
 21
47.21219044585974
 31
0.0
  0
LINE
  5
1035
330
1F
100
AcDbEntity
  8
0
  6
Continuous
 62
     7
100
AcDbLine
 10
-402.1647528085653
 20
45.81229044585995
 30
0.0
 11
-402.1647528085653
 21
47.21219044585974
 31
0.0
  0
LINE
  5
1036
330
1F
100
AcDbEntity
  8
0
  6
Continuous
 62
     7
100
AcDbLine
 10
-401.6647528085653
 20
44.31229044585996
 30
0.0
 11
-400.2648528085648
 21
44.31229044585996
 31
0.0
  0
LINE
  5
1037
330
1F
100
AcDbEntity
  8
0
  6
Continuous
 62
     7
100
AcDbLine
 10
-403.1647528085652
 20
47.21219044585974
 30
0.0
 11
-402.1647528085653
 21
47.21219044585974
 31
0.0
  0
LINE
  5
1038
330
1F
100
AcDbEntity
  8
0
  6
Continuous
 62
     7
100
AcDbLine
 10
-403.1647528085652
 20
42.41239044585973
 30
0.0
 11
-402.1647528085653
 21
42.41239044585973
 31
0.0
  0
LINE
  5
1039
330
1F
100
AcDbEntity
  8
0
  6
Continuous
 62
     7
100
AcDbLine
 10
-405.0646528085649
 20
44.31229044585996
 30
0.0
 11
-405.0646528085649
 21
45.31229044585995
 31
0.0
  0
LINE
  5
103A
330
1F
100
AcDbEntity
  8
0
  6
Continuous
 62
     7
100
AcDbLine
 10
-400.2648528085648
 20
44.31229044585996
 30
0.0
 11
-400.2648528085648
 21
45.31229044585995
 31
0.0
  0
LINE
  5
103B
330
1F
100
AcDbEntity
  8
0
  6
Continuous
 62
     7
100
AcDbLine
 10
-471.1647528085653
 20
-21.78780955414014
 30
0.0
 11
-471.1647528085653
 21
-23.18770955414003
 31
0.0
  0
LINE
  5
103C
330
1F
100
AcDbEntity
  8
0
  6
Continuous
 62
     7
100
AcDbLine
 10
-472.1647528085653
 20
-21.78780955414014
 30
0.0
 11
-472.1647528085653
 21
-23.18770955414003
 31
0.0
  0
LINE
  5
103D
330
1F
100
AcDbEntity
  8
0
  6
Continuous
 62
     7
100
AcDbLine
 10
-474.0646528085653
 20
-23.68770955414003
 30
0.0
 11
-472.6647528085653
 21
-23.68770955414003
 31
0.0
  0
LINE
  5
103E
330
1F
100
AcDbEntity
  8
0
  6
Continuous
 62
     7
100
AcDbLine
 10
-474.0646528085653
 20
-24.68770955414003
 30
0.0
 11
-472.6647528085653
 21
-24.68770955414003
 31
0.0
  0
LINE
  5
103F
330
1F
100
AcDbEntity
  8
0
  6
Continuous
 62
     7
100
AcDbLine
 10
-471.1647528085653
 20
-25.18770955414003
 30
0.0
 11
-471.1647528085653
 21
-26.58760955414016
 31
0.0
  0
LINE
  5
1040
330
1F
100
AcDbEntity
  8
0
  6
Continuous
 62
     7
100
AcDbLine
 10
-470.6647528085651
 20
-23.68770955414003
 30
0.0
 11
-469.2648528085653
 21
-23.68770955414003
 31
0.0
  0
LINE
  5
1041
330
1F
100
AcDbEntity
  8
0
  6
Continuous
 62
     7
100
AcDbLine
 10
-470.6647528085651
 20
-24.68770955414003
 30
0.0
 11
-469.2648528085653
 21
-24.68770955414003
 31
0.0
  0
LINE
  5
1042
330
1F
100
AcDbEntity
  8
0
  6
Continuous
 62
     7
100
AcDbLine
 10
-472.1647528085653
 20
-25.18770955414003
 30
0.0
 11
-472.1647528085653
 21
-26.58760955414016
 31
0.0
  0
LINE
  5
1043
330
1F
100
AcDbEntity
  8
0
  6
Continuous
 62
     7
100
AcDbLine
 10
-469.2648528085653
 20
-23.68770955414003
 30
0.0
 11
-469.2648528085653
 21
-24.68770955414003
 31
0.0
  0
LINE
  5
1044
330
1F
100
AcDbEntity
  8
0
  6
Continuous
 62
     7
100
AcDbLine
 10
-474.0646528085653
 20
-23.68770955414003
 30
0.0
 11
-474.0646528085653
 21
-24.68770955414003
 31
0.0
  0
LINE
  5
1045
330
1F
100
AcDbEntity
  8
0
  6
Continuous
 62
     7
100
AcDbLine
 10
-472.1647528085653
 20
-21.78780955414014
 30
0.0
 11
-471.1647528085653
 21
-21.78780955414014
 31
0.0
  0
LINE
  5
1046
330
1F
100
AcDbEntity
  8
0
  6
Continuous
 62
     7
100
AcDbLine
 10
-472.1647528085653
 20
-26.58760955414016
 30
0.0
 11
-471.1647528085653
 21
-26.58760955414016
 31
0.0
  0
LINE
  5
1047
330
1F
100
AcDbEntity
  8
0
  6
Continuous
 62
     7
100
AcDbLine
 10
-538.2648528085652
 20
44.31229044585999
 30
0.0
 11
-539.6647528085652
 21
44.31229044585999
 31
0.0
  0
LINE
  5
1048
330
1F
100
AcDbEntity
  8
0
  6
Continuous
 62
     7
100
AcDbLine
 10
-538.2648528085652
 20
45.31229044585999
 30
0.0
 11
-539.6647528085652
 21
45.31229044585999
 31
0.0
  0
LINE
  5
1049
330
1F
100
AcDbEntity
  8
0
  6
Continuous
 62
     7
100
AcDbLine
 10
-540.1647528085653
 20
47.21219044586021
 30
0.0
 11
-540.1647528085653
 21
45.81229044585999
 31
0.0
  0
LINE
  5
104A
330
1F
100
AcDbEntity
  8
0
  6
Continuous
 62
     7
100
AcDbLine
 10
-541.1647528085652
 20
47.21219044586021
 30
0.0
 11
-541.1647528085652
 21
45.81229044585999
 31
0.0
  0
LINE
  5
104B
330
1F
100
AcDbEntity
  8
0
  6
Continuous
 62
     7
100
AcDbLine
 10
-541.6647528085652
 20
44.31229044585999
 30
0.0
 11
-543.0646528085652
 21
44.31229044585999
 31
0.0
  0
LINE
  5
104C
330
1F
100
AcDbEntity
  8
0
  6
Continuous
 62
     7
100
AcDbLine
 10
-540.1647528085653
 20
43.81229044585999
 30
0.0
 11
-540.1647528085653
 21
42.41239044586021
 31
0.0
  0
LINE
  5
104D
330
1F
100
AcDbEntity
  8
0
  6
Continuous
 62
     7
100
AcDbLine
 10
-541.1647528085652
 20
43.81229044585999
 30
0.0
 11
-541.1647528085652
 21
42.41239044586021
 31
0.0
  0
LINE
  5
104E
330
1F
100
AcDbEntity
  8
0
  6
Continuous
 62
     7
100
AcDbLine
 10
-541.6647528085652
 20
45.31229044585999
 30
0.0
 11
-543.0646528085652
 21
45.31229044585999
 31
0.0
  0
LINE
  5
104F
330
1F
100
AcDbEntity
  8
0
  6
Continuous
 62
     7
100
AcDbLine
 10
-540.1647528085653
 20
42.41239044586021
 30
0.0
 11
-541.1647528085652
 21
42.41239044586021
 31
0.0
  0
LINE
  5
1050
330
1F
100
AcDbEntity
  8
0
  6
Continuous
 62
     7
100
AcDbLine
 10
-540.1647528085653
 20
47.21219044586021
 30
0.0
 11
-541.1647528085652
 21
47.21219044586021
 31
0.0
  0
LINE
  5
1051
330
1F
100
AcDbEntity
  8
0
  6
Continuous
 62
     7
100
AcDbLine
 10
-538.2648528085652
 20
45.31229044585999
 30
0.0
 11
-538.2648528085652
 21
44.31229044585999
 31
0.0
  0
LINE
  5
1052
330
1F
100
AcDbEntity
  8
0
  6
Continuous
 62
     7
100
AcDbLine
 10
-543.0646528085652
 20
45.31229044585999
 30
0.0
 11
-543.0646528085652
 21
44.31229044585999
 31
0.0
  0
LINE
  5
1053
330
1F
100
AcDbEntity
  8
0
  6
Continuous
 62
     7
100
AcDbLine
 10
-472.1647528085653
 20
111.4123904458601
 30
0.0
 11
-472.1647528085653
 21
112.8122904458599
 31
0.0
  0
LINE
  5
1054
330
1F
100
AcDbEntity
  8
0
  6
Continuous
 62
     7
100
AcDbLine
 10
-471.1647528085653
 20
111.4123904458601
 30
0.0
 11
-471.1647528085653
 21
112.8122904458599
 31
0.0
  0
LINE
  5
1055
330
1F
100
AcDbEntity
  8
0
  6
Continuous
 62
     7
100
AcDbLine
 10
-469.2648528085649
 20
113.3122904458599
 30
0.0
 11
-470.6647528085651
 21
113.3122904458599
 31
0.0
  0
LINE
  5
1056
330
1F
100
AcDbEntity
  8
0
  6
Continuous
 62
     7
100
AcDbLine
 10
-469.2648528085649
 20
114.3122904458599
 30
0.0
 11
-470.6647528085651
 21
114.3122904458599
 31
0.0
  0
LINE
  5
1057
330
1F
100
AcDbEntity
  8
0
  6
Continuous
 62
     7
100
AcDbLine
 10
-472.1647528085653
 20
114.8122904458599
 30
0.0
 11
-472.1647528085653
 21
116.2121904458601
 31
0.0
  0
LINE
  5
1058
330
1F
100
AcDbEntity
  8
0
  6
Continuous
 62
     7
100
AcDbLine
 10
-472.6647528085653
 20
113.3122904458599
 30
0.0
 11
-474.0646528085648
 21
113.3122904458599
 31
0.0
  0
LINE
  5
1059
330
1F
100
AcDbEntity
  8
0
  6
Continuous
 62
     7
100
AcDbLine
 10
-472.6647528085653
 20
114.3122904458599
 30
0.0
 11
-474.0646528085648
 21
114.3122904458599
 31
0.0
  0
LINE
  5
105A
330
1F
100
AcDbEntity
  8
0
  6
Continuous
 62
     7
100
AcDbLine
 10
-471.1647528085653
 20
114.8122904458599
 30
0.0
 11
-471.1647528085653
 21
116.2121904458601
 31
0.0
  0
LINE
  5
105B
330
1F
100
AcDbEntity
  8
0
  6
Continuous
 62
     7
100
AcDbLine
 10
-474.0646528085648
 20
113.3122904458599
 30
0.0
 11
-474.0646528085648
 21
114.3122904458599
 31
0.0
  0
LINE
  5
105C
330
1F
100
AcDbEntity
  8
0
  6
Continuous
 62
     7
100
AcDbLine
 10
-469.2648528085649
 20
113.3122904458599
 30
0.0
 11
-469.2648528085649
 21
114.3122904458599
 31
0.0
  0
LINE
  5
105D
330
1F
100
AcDbEntity
  8
0
  6
Continuous
 62
     7
100
AcDbLine
 10
-471.1647528085653
 20
111.4123904458601
 30
0.0
 11
-472.1647528085653
 21
111.4123904458601
 31
0.0
  0
LINE
  5
105E
330
1F
100
AcDbEntity
  8
0
  6
Continuous
 62
     7
100
AcDbLine
 10
-471.1647528085653
 20
116.2121904458601
 30
0.0
 11
-472.1647528085653
 21
116.2121904458601
 31
0.0
  0
LINE
  5
105F
330
1F
100
AcDbEntity
  8
0
  6
DASH_CENTER
 62
    30
100
AcDbLine
 10
-546.8719286839593
 20
-85.45035926409161
 30
0.0
 11
-559.8336417528344
 21
-107.9007048525126
 31
0.0
  0
LINE
  5
1060
330
1F
100
AcDbEntity
  8
0
  6
DASH_CENTER
 62
    30
100
AcDbLine
 10
-383.4958638642958
 20
-107.9007048525126
 30
0.0
 11
-396.4575769331708
 21
-85.45035926409161
 31
0.0
  0
LINE
  5
1061
330
1F
100
AcDbEntity
  8
0
  6
DASH_CENTER
 62
    30
100
AcDbLine
 10
-559.8336417528344
 20
197.5252857442325
 30
0.0
 11
-546.8719286839593
 21
175.0749401558115
 31
0.0
  0
LINE
  5
1062
330
1F
100
AcDbEntity
  8
0
  6
DASH_CENTER
 62
    30
100
AcDbLine
 10
-396.4575769331708
 20
175.0749401558115
 30
0.0
 11
-383.4958638642958
 21
197.5252857442325
 31
0.0
  0
LINE
  5
1063
330
1F
100
AcDbEntity
  8
0
  6
Continuous
 62
     7
100
AcDbLine
 10
-399.2697982345632
 20
188.1444319410279
 30
0.0
 11
-394.1797878630225
 21
191.7084955727464
 31
0.0
  0
LINE
  5
1064
330
1F
100
AcDbEntity
  8
0
  6
Continuous
 62
     7
100
AcDbLine
 10
-392.9591291765452
 20
-97.27024852619269
 30
0.0
 11
-391.5042064981872
 21
-96.43024852619269
 31
0.0
  0
LINE
  5
1065
330
1F
100
AcDbEntity
  8
0
  6
Continuous
 62
     7
100
AcDbLine
 10
-392.3591791765454
 20
-98.30939240819349
 30
0.0
 11
-390.9042564981874
 21
-97.46939240819351
 31
0.0
  0
LINE
  5
1066
330
1F
100
AcDbEntity
  8
0
  6
Continuous
 62
     7
100
AcDbLine
 10
-389.2446546533763
 20
-99.14370712374122
 30
0.0
 11
-390.0845046533763
 21
-97.6890442530045
 31
0.0
  0
LINE
  5
1067
330
1F
100
AcDbEntity
  8
0
  6
Continuous
 62
     7
100
AcDbLine
 10
-388.2055107713754
 20
-98.54375712374114
 30
0.0
 11
-389.0453607713755
 21
-97.08909425300458
 31
0.0
  0
LINE
  5
1068
330
1F
100
AcDbEntity
  8
0
  6
Continuous
 62
     7
100
AcDbLine
 10
-389.4256589265641
 20
-95.23019852619265
 30
0.0
 11
-387.9708228507468
 21
-94.39024852619272
 31
0.0
  0
LINE
  5
1069
330
1F
100
AcDbEntity
  8
0
  6
Continuous
 62
     7
100
AcDbLine
 10
-391.2845546533762
 20
-95.61049668138149
 30
0.0
 11
-392.1244046533763
 21
-94.15583381064474
 31
0.0
  0
LINE
  5
106A
330
1F
100
AcDbEntity
  8
0
  6
Continuous
 62
     7
100
AcDbLine
 10
-390.2454107713754
 20
-95.01054668138158
 30
0.0
 11
-391.0852607713753
 21
-93.55588381064482
 31
0.0
  0
LINE
  5
106B
330
1F
100
AcDbEntity
  8
0
  6
Continuous
 62
     7
100
AcDbLine
 10
-388.8257089265644
 20
-96.26934240819339
 30
0.0
 11
-387.370872850747
 21
-95.42939240819348
 31
0.0
  0
LINE
  5
106C
330
1F
100
AcDbEntity
  8
0
  6
Continuous
 62
     7
100
AcDbLine
 10
-392.1244046533763
 20
-94.15583381064474
 30
0.0
 11
-391.0852607713753
 21
-93.55588381064482
 31
0.0
  0
LINE
  5
106D
330
1F
100
AcDbEntity
  8
0
  6
Continuous
 62
     7
100
AcDbLine
 10
-389.2446546533763
 20
-99.14370712374122
 30
0.0
 11
-388.2055107713754
 21
-98.54375712374114
 31
0.0
  0
LINE
  5
106E
330
1F
100
AcDbEntity
  8
0
  6
Continuous
 62
     7
100
AcDbLine
 10
-392.3591791765454
 20
-98.30939240819349
 30
0.0
 11
-392.9591291765452
 21
-97.27024852619269
 31
0.0
  0
LINE
  5
106F
330
1F
100
AcDbEntity
  8
0
  6
Continuous
 62
     7
100
AcDbLine
 10
-387.370872850747
 20
-95.42939240819348
 30
0.0
 11
-387.9708228507468
 21
-94.39024852619272
 31
0.0
  0
LINE
  5
1070
330
1F
100
AcDbEntity
  8
0
  6
Continuous
 62
     7
100
AcDbLine
 10
-394.1797878630226
 20
-102.0839146810266
 30
0.0
 11
-399.2697982345632
 21
-98.51985104930808
 31
0.0
  0
LINE
  5
1071
330
1F
100
AcDbEntity
  8
0
  6
Continuous
 62
     7
100
AcDbLine
 10
-383.7329543819249
 20
-89.54965006863018
 30
0.0
 11
-383.191389921923
 21
-95.73976017177001
 31
0.0
  0
LINE
  5
1072
330
1F
100
AcDbEntity
  8
0
  6
Continuous
 62
     7
100
AcDbLine
 10
-555.3590291765455
 20
-94.39004852619252
 30
0.0
 11
-553.9041064981875
 21
-95.23004852619257
 31
0.0
  0
LINE
  5
1073
330
1F
100
AcDbEntity
  8
0
  6
Continuous
 62
     7
100
AcDbLine
 10
-555.9589791765453
 20
-95.4291924081933
 30
0.0
 11
-554.5040564981873
 21
-96.26919240819333
 31
0.0
  0
LINE
  5
1074
330
1F
100
AcDbEntity
  8
0
  6
Continuous
 62
     7
100
AcDbLine
 10
-555.1242546533761
 20
-98.54360712374118
 30
0.0
 11
-554.2844046533762
 21
-97.08894425300449
 31
0.0
  0
LINE
  5
1075
330
1F
100
AcDbEntity
  8
0
  6
Continuous
 62
     7
100
AcDbLine
 10
-554.0851107713753
 20
-99.14355712374108
 30
0.0
 11
-553.2452607713756
 21
-97.68889425300438
 31
0.0
  0
LINE
  5
1076
330
1F
100
AcDbEntity
  8
0
  6
Continuous
 62
     7
100
AcDbLine
 10
-551.8255589265643
 20
-96.43009852619259
 30
0.0
 11
-550.3707228507468
 21
-97.27004852619257
 31
0.0
  0
LINE
  5
1077
330
1F
100
AcDbEntity
  8
0
  6
Continuous
 62
     7
100
AcDbLine
 10
-553.0843546533763
 20
-95.01039668138149
 30
0.0
 11
-552.2445046533761
 21
-93.55573381064472
 31
0.0
  0
LINE
  5
1078
330
1F
100
AcDbEntity
  8
0
  6
Continuous
 62
     7
100
AcDbLine
 10
-552.0452107713753
 20
-95.61034668138139
 30
0.0
 11
-551.2053607713752
 21
-94.15568381064469
 31
0.0
  0
LINE
  5
1079
330
1F
100
AcDbEntity
  8
0
  6
Continuous
 62
     7
100
AcDbLine
 10
-552.4255089265643
 20
-97.46924240819339
 30
0.0
 11
-550.9706728507468
 21
-98.30919240819328
 31
0.0
  0
LINE
  5
107A
330
1F
100
AcDbEntity
  8
0
  6
Continuous
 62
     7
100
AcDbLine
 10
-552.2445046533761
 20
-93.55573381064472
 30
0.0
 11
-551.2053607713752
 21
-94.15568381064469
 31
0.0
  0
LINE
  5
107B
330
1F
100
AcDbEntity
  8
0
  6
Continuous
 62
     7
100
AcDbLine
 10
-555.1242546533761
 20
-98.54360712374118
 30
0.0
 11
-554.0851107713753
 21
-99.14355712374108
 31
0.0
  0
LINE
  5
107C
330
1F
100
AcDbEntity
  8
0
  6
Continuous
 62
     7
100
AcDbLine
 10
-555.9589791765453
 20
-95.4291924081933
 30
0.0
 11
-555.3590291765455
 21
-94.39004852619252
 31
0.0
  0
LINE
  5
107D
330
1F
100
AcDbEntity
  8
0
  6
Continuous
 62
     7
100
AcDbLine
 10
-550.9706728507468
 20
-98.30919240819328
 30
0.0
 11
-550.3707228507468
 21
-97.27004852619257
 31
0.0
  0
LINE
  5
107E
330
1F
100
AcDbEntity
  8
0
  6
Continuous
 62
     7
100
AcDbLine
 10
-560.1381156952076
 20
-95.73976017176986
 30
0.0
 11
-559.5965512352054
 21
-89.54965006863009
 31
0.0
  0
LINE
  5
107F
330
1F
100
AcDbEntity
  8
0
  6
Continuous
 62
     7
100
AcDbLine
 10
-544.059707382567
 20
-98.51985104930797
 30
0.0
 11
-549.1497177541081
 21
-102.0839146810265
 31
0.0
  0
LINE
  5
1080
330
1F
100
AcDbEntity
  8
0
  6
Continuous
 62
     7
100
AcDbLine
 10
-634.0646528085652
 20
47.6924904458601
 30
0.0
 11
-634.0646528085652
 21
46.01249044586004
 31
0.0
  0
LINE
  5
1081
330
1F
100
AcDbEntity
  8
0
  6
Continuous
 62
     7
100
AcDbLine
 10
-635.2645528085651
 20
47.69249044586013
 30
0.0
 11
-635.2645528085651
 21
46.01249044586004
 31
0.0
  0
LINE
  5
1082
330
1F
100
AcDbEntity
  8
0
  6
Continuous
 62
     7
100
AcDbLine
 10
-637.5443528085652
 20
45.41239044585991
 30
0.0
 11
-635.8646528085651
 21
45.41239044585991
 31
0.0
  0
LINE
  5
1083
330
1F
100
AcDbEntity
  8
0
  6
Continuous
 62
     7
100
AcDbLine
 10
-637.5443528085652
 20
44.21249044586009
 30
0.0
 11
-635.8646528085651
 21
44.21249044586009
 31
0.0
  0
LINE
  5
1084
330
1F
100
AcDbEntity
  8
0
  6
Continuous
 62
     7
100
AcDbLine
 10
-634.0646528085652
 20
43.61239044585995
 30
0.0
 11
-634.0646528085652
 21
41.93249044586013
 31
0.0
  0
LINE
  5
1085
330
1F
100
AcDbEntity
  8
0
  6
Continuous
 62
     7
100
AcDbLine
 10
-633.4645528085652
 20
45.41239044585991
 30
0.0
 11
-631.7848528085651
 21
45.41239044585991
 31
0.0
  0
LINE
  5
1086
330
1F
100
AcDbEntity
  8
0
  6
Continuous
 62
     7
100
AcDbLine
 10
-633.4645528085652
 20
44.21249044586009
 30
0.0
 11
-631.7848528085651
 21
44.21249044586009
 31
0.0
  0
LINE
  5
1087
330
1F
100
AcDbEntity
  8
0
  6
Continuous
 62
     7
100
AcDbLine
 10
-635.2645528085651
 20
43.61239044585999
 30
0.0
 11
-635.2645528085651
 21
41.93249044586013
 31
0.0
  0
LINE
  5
1088
330
1F
100
AcDbEntity
  8
0
  6
Continuous
 62
     7
100
AcDbLine
 10
-631.7848528085651
 20
45.41239044585991
 30
0.0
 11
-631.7848528085651
 21
44.21249044586009
 31
0.0
  0
LINE
  5
1089
330
1F
100
AcDbEntity
  8
0
  6
Continuous
 62
     7
100
AcDbLine
 10
-637.5443528085652
 20
45.41239044585991
 30
0.0
 11
-637.5443528085652
 21
44.21249044586009
 31
0.0
  0
LINE
  5
108A
330
1F
100
AcDbEntity
  8
0
  6
Continuous
 62
     7
100
AcDbLine
 10
-635.2645528085651
 20
47.69249044586013
 30
0.0
 11
-634.0646528085652
 21
47.6924904458601
 31
0.0
  0
LINE
  5
108B
330
1F
100
AcDbEntity
  8
0
  6
Continuous
 62
     7
100
AcDbLine
 10
-635.2645528085651
 20
41.93249044586013
 30
0.0
 11
-634.0646528085652
 21
41.93249044586013
 31
0.0
  0
LINE
  5
108C
330
1F
100
AcDbEntity
  8
0
  6
Continuous
 62
     7
100
AcDbLine
 10
-637.6230806407502
 20
51.1564449551166
 30
0.0
 11
-631.9915058092071
 21
53.78249142653796
 31
0.0
  0
LINE
  5
108D
330
1F
100
AcDbEntity
  8
0
  6
Continuous
 62
     7
100
AcDbLine
 10
-631.9915058092071
 20
35.8420894651822
 30
0.0
 11
-637.6230806407502
 21
38.4681359366035
 31
0.0
  0
LINE
  5
108E
330
1F
100
AcDbEntity
  8
0
  6
Continuous
 62
     7
100
AcDbLine
 10
-550.3703764405851
 20
186.8948294179126
 30
0.0
 11
-551.825299118943
 21
186.0548294179125
 31
0.0
  0
LINE
  5
108F
330
1F
100
AcDbEntity
  8
0
  6
Continuous
 62
     7
100
AcDbLine
 10
-550.9703264405853
 20
187.9339732999133
 30
0.0
 11
-552.4252491189431
 21
187.0939732999133
 31
0.0
  0
LINE
  5
1090
330
1F
100
AcDbEntity
  8
0
  6
Continuous
 62
     7
100
AcDbLine
 10
-554.0848509637542
 20
188.768288015461
 30
0.0
 11
-553.2450009637543
 21
187.3136251447243
 31
0.0
  0
LINE
  5
1091
330
1F
100
AcDbEntity
  8
0
  6
Continuous
 62
     7
100
AcDbLine
 10
-555.1239948457552
 20
188.168338015461
 30
0.0
 11
-554.2841448457551
 21
186.7136751447244
 31
0.0
  0
LINE
  5
1092
330
1F
100
AcDbEntity
  8
0
  6
Continuous
 62
     7
100
AcDbLine
 10
-553.903846690566
 20
184.8547794179125
 30
0.0
 11
-555.3586827663832
 21
184.0148294179126
 31
0.0
  0
LINE
  5
1093
330
1F
100
AcDbEntity
  8
0
  6
Continuous
 62
     7
100
AcDbLine
 10
-552.0449509637542
 20
185.2350775731013
 30
0.0
 11
-551.2051009637543
 21
183.7804147023645
 31
0.0
  0
LINE
  5
1094
330
1F
100
AcDbEntity
  8
0
  6
Continuous
 62
     7
100
AcDbLine
 10
-553.0840948457547
 20
184.6351275731014
 30
0.0
 11
-552.2442448457549
 21
183.1804647023647
 31
0.0
  0
LINE
  5
1095
330
1F
100
AcDbEntity
  8
0
  6
Continuous
 62
     7
100
AcDbLine
 10
-554.5037966905661
 20
185.8939232999132
 30
0.0
 11
-555.9586327663835
 21
185.0539732999133
 31
0.0
  0
LINE
  5
1096
330
1F
100
AcDbEntity
  8
0
  6
Continuous
 62
     7
100
AcDbLine
 10
-551.2051009637543
 20
183.7804147023645
 30
0.0
 11
-552.2442448457549
 21
183.1804647023647
 31
0.0
  0
LINE
  5
1097
330
1F
100
AcDbEntity
  8
0
  6
Continuous
 62
     7
100
AcDbLine
 10
-554.0848509637542
 20
188.768288015461
 30
0.0
 11
-555.1239948457552
 21
188.168338015461
 31
0.0
  0
LINE
  5
1098
330
1F
100
AcDbEntity
  8
0
  6
Continuous
 62
     7
100
AcDbLine
 10
-550.9703264405853
 20
187.9339732999133
 30
0.0
 11
-550.3703764405851
 21
186.8948294179126
 31
0.0
  0
LINE
  5
1099
330
1F
100
AcDbEntity
  8
0
  6
Continuous
 62
     7
100
AcDbLine
 10
-555.9586327663835
 20
185.0539732999133
 30
0.0
 11
-555.3586827663832
 21
184.0148294179126
 31
0.0
  0
LINE
  5
109A
330
1F
100
AcDbEntity
  8
0
  6
Continuous
 62
     7
100
AcDbLine
 10
-549.1497177541076
 20
191.7084955727464
 30
0.0
 11
-544.059707382567
 21
188.144431941028
 31
0.0
  0
LINE
  5
109B
330
1F
100
AcDbEntity
  8
0
  6
Continuous
 62
     7
100
AcDbLine
 10
-559.5965512352051
 20
179.1742309603499
 30
0.0
 11
-560.1381156952072
 21
185.3643410634898
 31
0.0
  0
LINE
  5
109C
330
1F
100
AcDbEntity
  8
0
  6
Continuous
 62
     7
100
AcDbLine
 10
-387.9704764405851
 20
184.0146294179125
 30
0.0
 11
-389.4253991189431
 21
184.8546294179125
 31
0.0
  0
LINE
  5
109D
330
1F
100
AcDbEntity
  8
0
  6
Continuous
 62
     7
100
AcDbLine
 10
-387.3705264405853
 20
185.0537732999132
 30
0.0
 11
-388.825449118943
 21
185.8937732999133
 31
0.0
  0
LINE
  5
109E
330
1F
100
AcDbEntity
  8
0
  6
Continuous
 62
     7
100
AcDbLine
 10
-388.2052509637542
 20
188.1681880154611
 30
0.0
 11
-389.0451009637544
 21
186.7135251447244
 31
0.0
  0
LINE
  5
109F
330
1F
100
AcDbEntity
  8
0
  6
Continuous
 62
     7
100
AcDbLine
 10
-389.2443948457552
 20
188.768138015461
 30
0.0
 11
-390.0842448457552
 21
187.3134751447243
 31
0.0
  0
LINE
  5
10A0
330
1F
100
AcDbEntity
  8
0
  6
Continuous
 62
     7
100
AcDbLine
 10
-391.503946690566
 20
186.0546794179125
 30
0.0
 11
-392.9587827663834
 21
186.8946294179125
 31
0.0
  0
LINE
  5
10A1
330
1F
100
AcDbEntity
  8
0
  6
Continuous
 62
     7
100
AcDbLine
 10
-390.2451509637542
 20
184.6349775731014
 30
0.0
 11
-391.0850009637542
 21
183.1803147023647
 31
0.0
  0
LINE
  5
10A2
330
1F
100
AcDbEntity
  8
0
  6
Continuous
 62
     7
100
AcDbLine
 10
-391.2842948457549
 20
185.2349275731013
 30
0.0
 11
-392.1241448457548
 21
183.7802647023645
 31
0.0
  0
LINE
  5
10A3
330
1F
100
AcDbEntity
  8
0
  6
Continuous
 62
     7
100
AcDbLine
 10
-390.9039966905663
 20
187.0938232999133
 30
0.0
 11
-392.3588327663836
 21
187.9337732999132
 31
0.0
  0
LINE
  5
10A4
330
1F
100
AcDbEntity
  8
0
  6
Continuous
 62
     7
100
AcDbLine
 10
-391.0850009637542
 20
183.1803147023647
 30
0.0
 11
-392.1241448457548
 21
183.7802647023645
 31
0.0
  0
LINE
  5
10A5
330
1F
100
AcDbEntity
  8
0
  6
Continuous
 62
     7
100
AcDbLine
 10
-388.2052509637542
 20
188.1681880154611
 30
0.0
 11
-389.2443948457552
 21
188.768138015461
 31
0.0
  0
LINE
  5
10A6
330
1F
100
AcDbEntity
  8
0
  6
Continuous
 62
     7
100
AcDbLine
 10
-387.3705264405853
 20
185.0537732999132
 30
0.0
 11
-387.9704764405851
 21
184.0146294179125
 31
0.0
  0
LINE
  5
10A7
330
1F
100
AcDbEntity
  8
0
  6
Continuous
 62
     7
100
AcDbLine
 10
-392.3588327663836
 20
187.9337732999132
 30
0.0
 11
-392.9587827663834
 21
186.8946294179125
 31
0.0
  0
LINE
  5
10A8
330
1F
100
AcDbEntity
  8
0
  6
Continuous
 62
     7
100
AcDbLine
 10
-383.191389921923
 20
185.3643410634898
 30
0.0
 11
-383.7329543819249
 21
179.17423096035
 31
0.0
  0
LINE
  5
10A9
330
1F
100
AcDbEntity
  8
0
  6
Continuous
 62
     7
100
AcDbLine
 10
-309.264852808565
 20
41.93209044585986
 30
0.0
 11
-309.264852808565
 21
43.61209044585995
 31
0.0
  0
LINE
  5
10AA
330
1F
100
AcDbEntity
  8
0
  6
Continuous
 62
     7
100
AcDbLine
 10
-308.0649528085654
 20
41.93209044585986
 30
0.0
 11
-308.0649528085654
 21
43.61209044585995
 31
0.0
  0
LINE
  5
10AB
330
1F
100
AcDbEntity
  8
0
  6
Continuous
 62
     7
100
AcDbLine
 10
-305.7851528085653
 20
44.21219044586009
 30
0.0
 11
-307.4648528085651
 21
44.21219044586009
 31
0.0
  0
LINE
  5
10AC
330
1F
100
AcDbEntity
  8
0
  6
Continuous
 62
     7
100
AcDbLine
 10
-305.7851528085653
 20
45.41209044585992
 30
0.0
 11
-307.4648528085651
 21
45.41209044585992
 31
0.0
  0
LINE
  5
10AD
330
1F
100
AcDbEntity
  8
0
  6
Continuous
 62
     7
100
AcDbLine
 10
-309.264852808565
 20
46.01219044586003
 30
0.0
 11
-309.264852808565
 21
47.69209044585989
 31
0.0
  0
LINE
  5
10AE
330
1F
100
AcDbEntity
  8
0
  6
Continuous
 62
     7
100
AcDbLine
 10
-309.8649528085652
 20
44.21219044586009
 30
0.0
 11
-311.5446528085652
 21
44.21219044586009
 31
0.0
  0
LINE
  5
10AF
330
1F
100
AcDbEntity
  8
0
  6
Continuous
 62
     7
100
AcDbLine
 10
-309.8649528085652
 20
45.41209044585992
 30
0.0
 11
-311.5446528085652
 21
45.41209044585992
 31
0.0
  0
LINE
  5
10B0
330
1F
100
AcDbEntity
  8
0
  6
Continuous
 62
     7
100
AcDbLine
 10
-308.0649528085654
 20
46.01219044586003
 30
0.0
 11
-308.0649528085654
 21
47.69209044585989
 31
0.0
  0
LINE
  5
10B1
330
1F
100
AcDbEntity
  8
0
  6
Continuous
 62
     7
100
AcDbLine
 10
-311.5446528085652
 20
44.21219044586009
 30
0.0
 11
-311.5446528085652
 21
45.41209044585992
 31
0.0
  0
LINE
  5
10B2
330
1F
100
AcDbEntity
  8
0
  6
Continuous
 62
     7
100
AcDbLine
 10
-305.7851528085653
 20
44.21219044586009
 30
0.0
 11
-305.7851528085653
 21
45.41209044585992
 31
0.0
  0
LINE
  5
10B3
330
1F
100
AcDbEntity
  8
0
  6
Continuous
 62
     7
100
AcDbLine
 10
-308.0649528085654
 20
41.93209044585986
 30
0.0
 11
-309.264852808565
 21
41.93209044585986
 31
0.0
  0
LINE
  5
10B4
330
1F
100
AcDbEntity
  8
0
  6
Continuous
 62
     7
100
AcDbLine
 10
-308.0649528085654
 20
47.69209044585989
 30
0.0
 11
-309.264852808565
 21
47.69209044585989
 31
0.0
  0
LINE
  5
10B5
330
1F
100
AcDbEntity
  8
0
  6
Continuous
 62
     7
100
AcDbLine
 10
-305.7064249763803
 20
38.46813593660343
 30
0.0
 11
-311.3379998079232
 21
35.84208946518206
 31
0.0
  0
LINE
  5
10B6
330
1F
100
AcDbEntity
  8
0
  6
Continuous
 62
     7
100
AcDbLine
 10
-311.3379998079232
 20
53.78249142653789
 30
0.0
 11
-305.7064249763803
 21
51.15644495511652
 31
0.0
  0
LINE
  5
10B7
330
1F
100
AcDbEntity
  8
0
  6
CENTER_DASH_DASH
 62
   171
100
AcDbLine
 10
-422.6504312502191
 20
109.136969808544
 30
0.0
 11
-413.4096892828211
 21
111.667748289627
 31
0.0
  0
LINE
  5
10B8
330
1F
100
AcDbEntity
  8
0
  6
CENTER_DASH_DASH
 62
   171
100
AcDbLine
 10
-407.3400734458823
 20
93.82661200420708
 30
0.0
 11
-404.8092949647992
 21
103.0673539716051
 31
0.0
  0
LINE
  5
10B9
330
1F
100
AcDbEntity
  8
0
  6
CENTER_DASH_DASH
 62
   171
100
AcDbLine
 10
-404.8092949647992
 20
-13.44277307988395
 30
0.0
 11
-407.3400734458823
 21
-4.20203111248597
 31
0.0
  0
LINE
  5
10BA
330
1F
100
AcDbEntity
  8
0
  6
CENTER_DASH_DASH
 62
    30
100
AcDbLine
 10
-422.4051034104512
 20
-4.447358952253888
 30
0.0
 11
-402.6056341659593
 21
-24.24682819674588
 31
0.0
  0
LINE
  5
10BB
330
1F
100
AcDbEntity
  8
0
  6
CENTER_DASH_DASH
 62
    30
100
AcDbLine
 10
-422.4051034104512
 20
94.07193984397407
 30
0.0
 11
-402.6056341659593
 21
113.8714090884661
 31
0.0
  0
LINE
  5
10BC
330
1F
100
AcDbEntity
  8
0
  6
CENTER_DASH_DASH
 62
   171
100
AcDbLine
 10
-420.3440293263422
 20
-20.14404732458601
 30
0.0
 11
-413.4096892828211
 21
-22.04316739790586
 31
0.0
  0
LINE
  5
10BD
330
1F
100
AcDbEntity
  8
0
  6
CENTER_DASH_DASH
 62
   171
100
AcDbLine
 10
-426.6647528085653
 20
-28.18770955414001
 30
0.0
 11
-426.6647528085653
 21
-24.96646264094997
 31
0.0
  0
LINE
  5
10BE
330
1F
100
AcDbEntity
  8
0
  6
CENTER_DASH_DASH
 62
   171
100
AcDbLine
 10
-444.1647528085653
 20
-28.18770955414001
 30
0.0
 11
-426.6647528085653
 21
-28.18770955414001
 31
0.0
  0
LINE
  5
10BF
330
1F
100
AcDbEntity
  8
0
  6
CENTER_DASH_DASH
 62
   171
100
AcDbLine
 10
-444.1647528085653
 20
-28.5481212214689
 30
0.0
 11
-444.1647528085653
 21
-28.18770955414001
 31
0.0
  0
LINE
  5
10C0
330
1F
100
AcDbEntity
  8
0
  6
CENTER_DASH_DASH
 62
   171
100
AcDbLine
 10
-529.9198163343093
 20
111.667748289627
 30
0.0
 11
-520.6790743669113
 21
109.136969808544
 31
0.0
  0
LINE
  5
10C1
330
1F
100
AcDbEntity
  8
0
  6
CENTER_DASH_DASH
 62
   171
100
AcDbLine
 10
-538.5202106523311
 20
103.0673539716051
 30
0.0
 11
-535.989432171248
 21
93.82661200420708
 31
0.0
  0
LINE
  5
10C2
330
1F
100
AcDbEntity
  8
0
  6
CENTER_DASH_DASH
 62
   171
100
AcDbLine
 10
-535.989432171248
 20
-4.20203111248597
 30
0.0
 11
-538.5202106523311
 21
-13.44277307988395
 31
0.0
  0
LINE
  5
10C3
330
1F
100
AcDbEntity
  8
0
  6
CENTER_DASH_DASH
 62
    30
100
AcDbLine
 10
-540.7238714511713
 20
-24.24682819674588
 30
0.0
 11
-520.9244022066793
 21
-4.447358952253888
 31
0.0
  0
LINE
  5
10C4
330
1F
100
AcDbEntity
  8
0
  6
CENTER_DASH_DASH
 62
    30
100
AcDbLine
 10
-540.7238714511713
 20
113.8714090884661
 30
0.0
 11
-520.9244022066793
 21
94.07193984397407
 31
0.0
  0
LINE
  5
10C5
330
1F
100
AcDbEntity
  8
0
  6
CENTER_DASH_DASH
 62
   171
100
AcDbLine
 10
-529.9198163343093
 20
-22.04316739790586
 30
0.0
 11
-522.9854762907883
 21
-20.14404732458601
 31
0.0
  0
LINE
  5
10C6
330
1F
100
AcDbEntity
  8
0
  6
CENTER_DASH_DASH
 62
   171
100
AcDbLine
 10
-516.6647528085652
 20
-24.96646264094997
 30
0.0
 11
-516.6647528085652
 21
-28.18770955414001
 31
0.0
  0
LINE
  5
10C7
330
1F
100
AcDbEntity
  8
0
  6
CENTER_DASH_DASH
 62
   171
100
AcDbLine
 10
-516.6647528085652
 20
-28.18770955414001
 30
0.0
 11
-499.1647528085652
 21
-28.18770955414001
 31
0.0
  0
LINE
  5
10C8
330
1F
100
AcDbEntity
  8
0
  6
CENTER_DASH_DASH
 62
   171
100
AcDbLine
 10
-499.1647528085652
 20
-28.18770955414001
 30
0.0
 11
-499.1647528085652
 21
-28.5481212214689
 31
0.0
  0
LINE
  5
10C9
330
1F
100
AcDbEntity
  8
10
  6
Continuous
 62
     7
100
AcDbLine
 10
-278.6645528085652
 20
-123.1877095541401
 30
0.0
 11
-278.6645528085652
 21
-15.18770955414003
 31
0.0
  0
LINE
  5
10CA
330
1F
100
AcDbEntity
  8
10
  6
Continuous
 62
     7
100
AcDbLine
 10
-326.6684528085651
 20
-28.18760955414005
 30
0.0
 11
-288.6645528085652
 21
-28.18760955414005
 31
0.0
  0
LINE
  5
10CB
330
1F
100
AcDbEntity
  8
10
  6
Continuous
 62
     7
100
AcDbLine
 10
-441.0221517441971
 20
-110.18780955414
 30
0.0
 11
-288.6645528085652
 21
-110.18780955414
 31
0.0
  0
LINE
  5
10CC
330
1F
100
AcDbEntity
  8
10
  6
Continuous
 62
     7
100
AcDbLine
 10
-285.6647528085653
 20
-121.18780955414
 30
0.0
 11
-285.6647528085653
 21
-17.1530698370558
 31
0.0
  0
LINE
  5
10CD
330
1F
100
AcDbEntity
  8
0
  6
Continuous
 62
     7
100
AcDbLine
 10
-241.6645528085652
 20
-109.18770955414
 30
0.0
 11
-241.6645528085652
 21
-29.18770955414004
 31
0.0
  0
LINE
  5
10CE
330
1F
100
AcDbEntity
  8
0
  6
Continuous
 62
     7
100
AcDbLine
 10
-242.6645528085652
 20
-28.18770955414004
 30
0.0
 11
-270.6645528085652
 21
-28.18770955414004
 31
0.0
  0
LINE
  5
10CF
330
1F
100
AcDbEntity
  8
0
  6
Continuous
 62
     7
100
AcDbLine
 10
-270.6645528085652
 20
-110.1877095541401
 30
0.0
 11
-242.6645528085652
 21
-110.18770955414
 31
0.0
  0
LINE
  5
10D0
330
1F
100
AcDbEntity
  8
10
  6
Continuous
 62
     7
100
AcDbLine
 10
-274.6645528085652
 20
-123.1877095541401
 30
0.0
 11
-283.6650528085651
 21
-123.1877095541401
 31
0.0
  0
LINE
  5
10D1
330
1F
100
AcDbEntity
  8
10
  6
Continuous
 62
     7
100
AcDbLine
 10
-274.6645528085652
 20
-15.18770955414003
 30
0.0
 11
-283.6650528085651
 21
-15.18770955414003
 31
0.0
  0
LINE
  5
10D2
330
1F
100
AcDbEntity
  8
0
  6
Continuous
 62
     7
100
AcDbLine
 10
-272.6645528085652
 20
-121.1877095541401
 30
0.0
 11
-272.6645528085652
 21
-17.18770955414003
 31
0.0
  0
LINE
  5
10D3
330
1F
100
AcDbEntity
  8
0
  6
Continuous
 62
     7
100
AcDbLine
 10
-272.6645528085652
 20
-39.7457055345098
 30
0.0
 11
-272.6645528085652
 21
-30.74570553450981
 31
0.0
  0
LINE
  5
10D4
330
1F
100
AcDbEntity
  8
0
  6
Continuous
 62
     7
100
AcDbLine
 10
-269.3647528085651
 20
-32.50060553450992
 30
0.0
 11
-269.3647528085651
 21
-37.99080553450993
 31
0.0
  0
LINE
  5
10D5
330
1F
100
AcDbEntity
  8
0
  6
Continuous
 62
     7
100
AcDbLine
 10
-272.6645528085652
 20
-39.7457055345098
 30
0.0
 11
-270.8249528085651
 21
-39.58480553451
 31
0.0
  0
LINE
  5
10D6
330
1F
100
AcDbEntity
  8
0
  6
Continuous
 62
     7
100
AcDbLine
 10
-272.6645528085652
 20
-30.74570553450981
 30
0.0
 11
-270.8249528085651
 21
-30.9069055345098
 31
0.0
  0
LINE
  5
10D7
330
1F
100
AcDbEntity
  8
100
  6
DASH_CENTER
 62
    30
100
AcDbLine
 10
-288.9565970060355
 20
-35.24216321289596
 30
0.0
 11
-265.8872081783254
 21
-35.24812703140961
 31
0.0
  0
LINE
  5
10D8
330
1F
100
AcDbEntity
  8
0
  6
Continuous
 62
     7
100
AcDbLine
 10
-272.6645528085652
 20
-107.6297135737703
 30
0.0
 11
-272.6645528085652
 21
-98.62971357377027
 31
0.0
  0
LINE
  5
10D9
330
1F
100
AcDbEntity
  8
0
  6
Continuous
 62
     7
100
AcDbLine
 10
-269.3647528085651
 20
-100.3846135737701
 30
0.0
 11
-269.3647528085651
 21
-105.8748135737702
 31
0.0
  0
LINE
  5
10DA
330
1F
100
AcDbEntity
  8
0
  6
Continuous
 62
     7
100
AcDbLine
 10
-270.8249528085651
 20
-98.79061357377009
 30
0.0
 11
-272.6645528085652
 21
-98.62971357377027
 31
0.0
  0
LINE
  5
10DB
330
1F
100
AcDbEntity
  8
0
  6
Continuous
 62
     7
100
AcDbLine
 10
-270.8249528085651
 20
-107.4685135737703
 30
0.0
 11
-272.6645528085652
 21
-107.6297135737703
 31
0.0
  0
LINE
  5
10DC
330
1F
100
AcDbEntity
  8
100
  6
DASH_CENTER
 62
    30
100
AcDbLine
 10
-265.8872081783254
 20
-103.1272920768705
 30
0.0
 11
-288.9565970060355
 21
-103.1332558953841
 31
0.0
  0
LINE
  5
10DD
330
1F
100
AcDbEntity
  8
110
  6
DASH_CENTER
 62
    30
100
AcDbLine
 10
-228.4769587408302
 20
-69.18770955414003
 30
0.0
 11
-379.2015315814357
 21
-69.18770955414
 31
0.0
  0
LINE
  5
10DE
330
1F
100
AcDbEntity
  8
0
  6
Continuous
 62
     7
100
AcDbLine
 10
491.5304454157299
 20
-30.55022509577759
 30
0.0
 11
491.5304454157298
 21
-36.50284724282004
 31
0.0
  0
LINE
  5
10DF
330
1F
100
AcDbEntity
  8
0
  6
Continuous
 62
     7
100
AcDbLine
 10
559.5385513302281
 20
-30.55022509577759
 30
0.0
 11
571.5304454157282
 21
-122.8878095541399
 31
0.0
  0
LINE
  5
10E0
330
1F
100
AcDbEntity
  8
0
  6
DASHED
 62
     2
 48
0.5
100
AcDbLine
 10
559.5385513302281
 20
-30.55022509577759
 30
0.0
 11
491.5304454157299
 21
-30.55022509577759
 31
0.0
  0
LINE
  5
10E1
330
1F
100
AcDbEntity
  8
0
  6
Continuous
 62
     7
100
AcDbLine
 10
559.5385513302281
 20
-30.55022509577759
 30
0.0
 11
581.0720083362451
 21
-30.19721760387574
 31
0.0
  0
LINE
  5
10E2
330
1F
100
AcDbEntity
  8
0
  6
Continuous
 62
     7
100
AcDbLine
 10
483.5304454157312
 20
-31.79625961896585
 30
0.0
 11
491.5304454157299
 21
-31.66511207798229
 31
0.0
  0
LINE
  5
10E3
330
1F
100
AcDbEntity
  8
0
  6
Continuous
 62
     7
100
AcDbLine
 10
483.5304454157312
 20
-31.3267806690253
 30
0.0
 11
483.5304454157312
 21
-31.79625961896585
 31
0.0
  0
LINE
  5
10E4
330
1F
100
AcDbEntity
  8
0
  6
Continuous
 62
     7
100
AcDbLine
 10
457.5304454157298
 20
-31.494866969692
 30
0.0
 11
457.5304454157298
 21
-30.594593823107
 31
0.0
  0
LINE
  5
10E5
330
1F
100
AcDbEntity
  8
0
  6
Continuous
 62
     7
100
AcDbLine
 10
457.5304454157298
 20
-31.494866969692
 30
0.0
 11
483.5304454157312
 21
-31.3267806690253
 31
0.0
  0
LINE
  5
10E6
330
1F
100
AcDbEntity
  8
0
  6
Continuous
 62
     7
100
AcDbLine
 10
491.5304454157298
 20
-36.50284724282004
 30
0.0
 11
491.5304454157296
 21
-42.1878095541399
 31
0.0
  0
LINE
  5
10E7
330
1F
100
AcDbEntity
  8
0
  6
Continuous
 62
     7
100
AcDbLine
 10
491.53044541573
 20
-28.1878095541399
 30
0.0
 11
491.5304454157299
 21
-30.55022509577759
 31
0.0
  0
LINE
  5
10E8
330
1F
100
AcDbEntity
  8
0
  6
Continuous
 62
     7
100
AcDbLine
 10
488.8304454157297
 20
-42.1878095541399
 30
0.0
 11
491.5304454157296
 21
-42.1878095541399
 31
0.0
  0
LINE
  5
10E9
330
1F
100
AcDbEntity
  8
0
  6
Continuous
 62
     7
100
AcDbLine
 10
488.8304454157297
 20
-39.48780955413985
 30
0.0
 11
488.8304454157297
 21
-42.1878095541399
 31
0.0
  0
LINE
  5
10EA
330
1F
100
AcDbEntity
  8
0
  6
Continuous
 62
     7
100
AcDbLine
 10
486.5304454157295
 20
-42.1878095541399
 30
0.0
 11
486.5304454157283
 21
-117.799846544324
 31
0.0
  0
LINE
  5
10EB
330
1F
100
AcDbEntity
  8
0
  6
Continuous
 62
     7
100
AcDbLine
 10
486.5304454157295
 20
-42.1878095541399
 30
0.0
 11
488.8304454157297
 21
-42.1878095541399
 31
0.0
  0
LINE
  5
10EC
330
1F
100
AcDbEntity
  8
0
  6
Continuous
 62
     7
100
AcDbLine
 10
486.5304454157283
 20
-122.8878095541399
 30
0.0
 11
492.0304454157283
 21
-122.8878095541399
 31
0.0
  0
LINE
  5
10ED
330
1F
100
AcDbEntity
  8
0
  6
Continuous
 62
     7
100
AcDbLine
 10
486.5304454157295
 20
-39.38780955413979
 30
0.0
 11
486.5304454157295
 21
-42.1878095541399
 31
0.0
  0
LINE
  5
10EE
330
1F
100
AcDbEntity
  8
0
  6
Continuous
 62
     7
100
AcDbLine
 10
491.53044541573
 20
-28.1878095541399
 30
0.0
 11
559.5304454157298
 21
-28.1878095541399
 31
0.0
  0
LINE
  5
10EF
330
1F
100
AcDbEntity
  8
0
  6
Continuous
 62
     7
100
AcDbLine
 10
471.5304454157283
 20
-122.8878095541399
 30
0.0
 11
471.5304454157281
 21
-125.1878095541399
 31
0.0
  0
LINE
  5
10F0
330
1F
100
AcDbEntity
  8
0
  6
Continuous
 62
     7
100
AcDbLine
 10
471.5304454157283
 20
-122.8878095541399
 30
0.0
 11
481.0304454157281
 21
-122.8878095541399
 31
0.0
  0
LINE
  5
10F1
330
1F
100
AcDbEntity
  8
0
  6
Continuous
 62
     7
100
AcDbLine
 10
471.5304454157281
 20
-125.1878095541399
 30
0.0
 11
481.0304454157281
 21
-125.1878095541399
 31
0.0
  0
LINE
  5
10F2
330
1F
100
AcDbEntity
  8
0
  6
Continuous
 62
     7
100
AcDbLine
 10
571.5304454157282
 20
-122.8878095541399
 30
0.0
 11
571.5304454157282
 21
-125.1878095541399
 31
0.0
  0
LINE
  5
10F3
330
1F
100
AcDbEntity
  8
0
  6
Continuous
 62
     7
100
AcDbLine
 10
559.5304454157298
 20
-30.4878095541399
 30
0.0
 11
559.5385513302281
 21
-30.55022509577759
 31
0.0
  0
LINE
  5
10F4
330
1F
100
AcDbEntity
  8
0
  6
Continuous
 62
     7
100
AcDbLine
 10
559.5304454157298
 20
-28.1878095541399
 30
0.0
 11
559.5304454157298
 21
-30.4878095541399
 31
0.0
  0
LINE
  5
10F5
330
1F
100
AcDbEntity
  8
0
  6
Continuous
 62
     7
100
AcDbLine
 10
483.5304454157312
 20
-29.3278396582941
 30
0.0
 11
483.5304454157312
 21
-30.594593823107
 31
0.0
  0
LINE
  5
10F6
330
1F
100
AcDbEntity
  8
0
  6
Continuous
 62
     7
100
AcDbLine
 10
457.5304454157298
 20
-29.4429991278226
 30
0.0
 11
457.5304454157298
 21
-28.1878095541399
 31
0.0
  0
LINE
  5
10F7
330
1F
100
AcDbEntity
  8
0
  6
Continuous
 62
     7
100
AcDbLine
 10
457.5304454157298
 20
-29.4429991278226
 30
0.0
 11
483.5304454157312
 21
-29.3278396582941
 31
0.0
  0
LINE
  5
10F8
330
1F
100
AcDbEntity
  8
0
  6
Continuous
 62
     7
100
AcDbLine
 10
483.5304454157312
 20
-30.594593823107
 30
0.0
 11
483.5304454157312
 21
-31.3267806690253
 31
0.0
  0
LINE
  5
10F9
330
1F
100
AcDbEntity
  8
0
  6
Continuous
 62
     7
100
AcDbLine
 10
457.5304454157298
 20
-30.594593823107
 30
0.0
 11
457.5304454157298
 21
-29.4429991278226
 31
0.0
  0
LINE
  5
10FA
330
1F
100
AcDbEntity
  8
0
  6
Continuous
 62
     7
100
AcDbLine
 10
457.5304454157298
 20
-30.594593823107
 30
0.0
 11
483.5304454157312
 21
-30.594593823107
 31
0.0
  0
LINE
  5
10FB
330
1F
100
AcDbEntity
  8
0
  6
Continuous
 62
     7
100
AcDbLine
 10
457.5304454157298
 20
-32.22248912716252
 30
0.0
 11
457.5304454157298
 21
-31.494866969692
 31
0.0
  0
LINE
  5
10FC
330
1F
100
AcDbEntity
  8
0
  6
Continuous
 62
     7
100
AcDbLine
 10
457.5304454157298
 20
-32.22248912716252
 30
0.0
 11
483.5304454157312
 21
-31.79625961896585
 31
0.0
  0
LINE
  5
10FD
330
1F
100
AcDbEntity
  8
0
  6
Continuous
 62
     7
100
AcDbLine
 10
434.6523412135903
 20
-34.1878095541399
 30
0.0
 11
451.5304454157309
 21
-34.1878095541399
 31
0.0
  0
LINE
  5
10FE
330
1F
100
AcDbEntity
  8
0
  6
Continuous
 62
     7
100
AcDbLine
 10
420.2988046981823
 20
-22.28932732889041
 30
0.0
 11
451.5304454157309
 21
-22.28932732889041
 31
0.0
  0
LINE
  5
10FF
330
1F
100
AcDbEntity
  8
0
  6
Continuous
 62
     7
100
AcDbLine
 10
434.5919410554836
 20
-34.1169683323381
 30
0.0
 11
429.5304454157309
 21
-34.08647874443739
 31
0.0
  0
LINE
  5
1102
330
1F
100
AcDbEntity
  8
0
  6
Continuous
 62
     7
100
AcDbLine
 10
429.5304454157309
 20
-34.08647874443739
 30
0.0
 11
429.5304454157309
 21
-34.1878095541399
 31
0.0
  0
LINE
  5
1103
330
1F
100
AcDbEntity
  8
0
  6
Continuous
 62
     7
100
AcDbLine
 10
451.5304454157309
 20
-24.28799573171307
 30
0.0
 11
451.5304454157309
 21
9.487891846994099
 31
0.0
  0
LINE
  5
1104
330
1F
100
AcDbEntity
  8
0
  6
Continuous
 62
     7
100
AcDbLine
 10
451.5304454157309
 20
-34.1878095541399
 30
0.0
 11
451.5304454157309
 21
-28.93679661086071
 31
0.0
  0
LINE
  5
1105
330
1F
100
AcDbEntity
  8
0
  6
Continuous
 62
     7
100
AcDbLine
 10
433.9868820305751
 20
-28.42707693079615
 30
0.0
 11
451.5304454157309
 21
-28.93679661086071
 31
0.0
  0
LINE
  5
1106
330
1F
100
AcDbEntity
  8
0
  6
Continuous
 62
     7
100
AcDbLine
 10
432.530445415731
 20
-26.44836690999364
 30
0.0
 11
432.530445415731
 21
-26.92770965375098
 31
0.0
  0
LINE
  5
1107
330
1F
100
AcDbEntity
  8
0
  6
Continuous
 62
     7
100
AcDbLine
 10
451.5304454157309
 20
-24.28799573171307
 30
0.0
 11
433.9739734489465
 21
-24.94943031461423
 31
0.0
  0
LINE
  5
1108
330
1F
100
AcDbEntity
  8
0
  6
Continuous
 62
     7
100
AcDbLine
 10
451.5304454157309
 20
16.3579421842137
 30
0.0
 11
451.5304454157313
 21
44.81219044586008
 31
0.0
  0
LINE
  5
1109
330
1F
100
AcDbEntity
  8
0
  6
Continuous
 62
     7
100
AcDbLine
 10
432.530445415731
 20
10.66011942304408
 30
0.0
 11
432.530445415731
 21
12.28643027482224
 31
0.0
  0
LINE
  5
110A
330
1F
100
AcDbEntity
  8
0
  6
Continuous
 62
     7
100
AcDbLine
 10
451.5304454157309
 20
6.64750160882102
 30
0.0
 11
435.3420643477338
 21
7.66603983605569
 31
0.0
  0
LINE
  5
110B
330
1F
100
AcDbEntity
  8
0
  6
Continuous
 62
     7
100
AcDbLine
 10
451.5304454157309
 20
16.3579421842137
 30
0.0
 11
435.3312221052988
 21
15.27980797778264
 31
0.0
  0
LINE
  5
110C
330
1F
100
AcDbEntity
  8
0
  6
Continuous
 62
     7
100
AcDbLine
 10
451.5304454157309
 20
9.487891846994099
 30
0.0
 11
435.1909362397647
 21
11.34898589347517
 31
0.0
  0
LINE
  5
110D
330
1F
100
AcDbEntity
  8
0
  6
Continuous
 62
     7
100
AcDbLine
 10
451.5304454157301
 20
-22.29188595499681
 30
0.0
 11
458.5304454157298
 21
-22.29188595499681
 31
0.0
  0
LINE
  5
110E
330
1F
100
AcDbEntity
  8
0
  6
Continuous
 62
     7
100
AcDbLine
 10
457.5304454157298
 20
-33.20083467215591
 30
0.0
 11
457.5304454157298
 21
-32.22248912716252
 31
0.0
  0
LINE
  5
110F
330
1F
100
AcDbEntity
  8
0
  6
Continuous
 62
     7
100
AcDbLine
 10
464.9303454157305
 20
-17.66980696139285
 30
0.0
 11
559.9124114269799
 21
-17.66980696139285
 31
0.0
  0
LINE
  5
1110
330
1F
100
AcDbEntity
  8
0
  6
Continuous
 62
     7
100
AcDbLine
 10
459.5304454157303
 20
-15.69378595499688
 30
0.0
 11
459.5304454157303
 21
-21.3919859549967
 31
0.0
  0
LINE
  5
1111
330
1F
100
AcDbEntity
  8
0
  6
Continuous
 62
     7
100
AcDbLine
 10
459.5304454157303
 20
-9.19198595499682
 30
0.0
 11
459.5304454157303
 21
-15.29188595499681
 31
0.0
  0
LINE
  5
1112
330
1F
100
AcDbEntity
  8
0
  6
Continuous
 62
     7
100
AcDbLine
 10
461.0304454157303
 20
-15.29188595499681
 30
0.0
 11
461.0304454157303
 21
-21.3919859549967
 31
0.0
  0
LINE
  5
1113
330
1F
100
AcDbEntity
  8
0
  6
Continuous
 62
     7
100
AcDbLine
 10
461.0304454157303
 20
-9.19198595499682
 30
0.0
 11
461.0304454157303
 21
-14.88998595499675
 31
0.0
  0
LINE
  5
1114
330
1F
100
AcDbEntity
  8
0
  6
Continuous
 62
     7
100
AcDbLine
 10
461.0304454157303
 20
-15.29188595499681
 30
0.0
 11
459.5304454157303
 21
-15.69378595499688
 31
0.0
  0
LINE
  5
1115
330
1F
100
AcDbEntity
  8
0
  6
Continuous
 62
     7
100
AcDbLine
 10
461.0304454157303
 20
-14.88998595499675
 30
0.0
 11
459.5304454157303
 21
-15.29188595499681
 31
0.0
  0
LINE
  5
1116
330
1F
100
AcDbEntity
  8
0
  6
Continuous
 62
     7
100
AcDbLine
 10
461.0304454157303
 20
-21.3919859549967
 30
0.0
 11
459.5304454157303
 21
-21.3919859549967
 31
0.0
  0
LINE
  5
1117
330
1F
100
AcDbEntity
  8
0
  6
Continuous
 62
     7
100
AcDbLine
 10
461.0304454157303
 20
-9.19198595499682
 30
0.0
 11
459.5304454157303
 21
-9.19198595499682
 31
0.0
  0
LINE
  5
1118
330
1F
100
AcDbEntity
  8
0
  6
Continuous
 62
     7
100
AcDbLine
 10
461.0304454157303
 20
-10.04188595499681
 30
0.0
 11
461.0304454157303
 21
-20.54188595499681
 31
0.0
  0
LINE
  5
1119
330
1F
100
AcDbEntity
  8
0
  6
Continuous
 62
     7
100
AcDbLine
 10
464.9303454157305
 20
-12.12418595499685
 30
0.0
 11
464.9303454157305
 21
-18.45968595499693
 31
0.0
  0
LINE
  5
111A
330
1F
100
AcDbEntity
  8
0
  6
Continuous
 62
     7
100
AcDbLine
 10
461.0304454157303
 20
-10.04188595499681
 30
0.0
 11
463.1959454157302
 21
-10.23138595499699
 31
0.0
  0
LINE
  5
111B
330
1F
100
AcDbEntity
  8
0
  6
Continuous
 62
     7
100
AcDbLine
 10
461.0304454157303
 20
-20.54188595499681
 30
0.0
 11
463.1959454157302
 21
-20.35248595499684
 31
0.0
  0
LINE
  5
111C
330
1F
100
AcDbEntity
  8
0
  6
Continuous
 62
     7
100
AcDbLine
 10
611.6458993701327
 20
108.4083084138381
 30
0.0
 11
611.6458993701327
 21
44.81219044586008
 31
0.0
  0
LINE
  5
1124
330
1F
100
AcDbEntity
  8
0
  6
Continuous
 62
     7
100
AcDbLine
 10
483.5304454157312
 20
-28.18780955413997
 30
0.0
 11
483.5304454157312
 21
-29.3278396582941
 31
0.0
  0
LINE
  5
1125
330
1F
100
AcDbEntity
  8
0
  6
Continuous
 62
     7
100
AcDbLine
 10
581.6458993701331
 20
44.81219044586008
 30
0.0
 11
581.6458993701331
 21
-30.18780955413988
 31
0.0
  0
LINE
  5
1126
330
1F
100
AcDbEntity
  8
0
  6
Continuous
 62
     7
100
AcDbLine
 10
451.5304454157298
 20
-28.1878095541399
 30
0.0
 11
491.53044541573
 21
-28.1878095541399
 31
0.0
  0
LINE
  5
1127
330
1F
100
AcDbEntity
  8
0
  6
Continuous
 62
     7
100
AcDbLine
 10
452.5304454157298
 20
-1.915751233803799
 30
0.0
 11
458.5304454157298
 21
-1.915751233803799
 31
0.0
  0
LINE
  5
1128
330
1F
100
AcDbEntity
  8
0
  6
Continuous
 62
     7
100
AcDbLine
 10
451.5304454157298
 20
-29.01642312095782
 30
0.0
 11
456.5305302461782
 21
-29.01642312095782
 31
0.0
  0
LINE
  5
1129
330
1F
100
AcDbEntity
  8
0
  6
Continuous
 62
     7
100
AcDbLine
 10
559.5304454157298
 20
-28.1878095541399
 30
0.0
 11
559.5304454157298
 21
-18.66980696139285
 31
0.0
  0
LINE
  5
112A
330
1F
100
AcDbEntity
  8
0
  6
Continuous
 62
     7
100
AcDbLine
 10
611.6458993701327
 20
44.81219044586008
 30
0.0
 11
611.6458993701327
 21
-18.78392752211789
 31
0.0
  0
LINE
  5
112B
330
1F
100
AcDbEntity
  8
0
  6
Continuous
 62
     7
100
AcDbLine
 10
607.858577495315
 20
-23.63464002284491
 30
0.0
 11
582.2027302602299
 21
-30.04860183161486
 31
0.0
  0
LINE
  5
112C
330
1F
100
AcDbEntity
  8
0
  6
Continuous
 62
     7
100
AcDbLine
 10
459.6458993701331
 20
122.8121904458601
 30
0.0
 11
459.6458993701331
 21
122.7959313666911
 31
0.0
  0
LINE
  5
112D
330
1F
100
AcDbEntity
  8
0
  6
Continuous
 62
     7
100
AcDbLine
 10
508.6458993701331
 20
121.008911757336
 30
0.0
 11
581.0720083362451
 21
119.8215984955962
 31
0.0
  0
LINE
  5
112E
330
1F
100
AcDbEntity
  8
0
  6
Continuous
 62
     7
100
AcDbLine
 10
458.6458993701331
 20
123.8121904458601
 30
0.0
 11
451.5304454157313
 21
123.8121904458601
 31
0.0
  0
LINE
  5
112F
330
1F
100
AcDbEntity
  8
0
  6
Continuous
 62
     7
100
AcDbLine
 10
582.2027302602299
 20
119.6729827233362
 30
0.0
 11
607.858577495315
 21
113.2590209145642
 31
0.0
  0
LINE
  5
1130
330
1F
100
AcDbEntity
  8
0
  6
Continuous
 62
     7
100
AcDbLine
 10
460.6295081298941
 20
121.7960657120932
 30
0.0
 11
508.6458993701331
 21
121.008911757336
 31
0.0
  0
LINE
  5
1131
330
1F
100
AcDbEntity
  8
0
  6
Continuous
 62
     7
100
AcDbLine
 10
459.5304454157323
 20
44.81219044586008
 30
0.0
 11
459.5304454157298
 21
-21.29188595499681
 31
0.0
  0
LINE
  5
1132
330
1F
100
AcDbEntity
  8
0
  6
Continuous
 62
     7
100
AcDbLine
 10
451.5304454157313
 20
-34.04519562147994
 30
0.0
 11
451.5304454157313
 21
44.81219044586008
 31
0.0
  0
LINE
  5
1133
330
1F
100
AcDbEntity
  8
0
  6
Continuous
 62
     7
100
AcDbLine
 10
451.652256100816
 20
-34.1878095541399
 30
0.0
 11
456.5305302461782
 21
-34.1878095541399
 31
0.0
  0
LINE
  5
1134
330
1F
100
AcDbEntity
  8
0
  6
Continuous
 62
     7
100
AcDbLine
 10
451.5304454157298
 20
-34.04519562147857
 30
0.0
 11
451.5304454157313
 21
44.81219044586008
 31
0.0
  0
LINE
  5
1135
330
1F
100
AcDbEntity
  8
10
  6
Continuous
 62
     7
100
AcDbLine
 10
355.4304454157312
 20
-30.92031724658935
 30
0.0
 11
355.4304454157312
 21
44.81229044585997
 31
0.0
  0
LINE
  5
1136
330
1F
100
AcDbEntity
  8
10
  6
Continuous
 62
     7
100
AcDbLine
 10
355.4304454157312
 20
-112.1877095541401
 30
0.0
 11
355.4304454157312
 21
-107.4551018616908
 31
0.0
  0
LINE
  5
1137
330
1F
100
AcDbEntity
  8
0
  6
Continuous
 62
     7
100
AcDbLine
 10
353.4304454157312
 20
-110.1877095541401
 30
0.0
 11
301.4305454157313
 21
-110.1877095541401
 31
0.0
  0
LINE
  5
1138
330
1F
100
AcDbEntity
  8
0
  6
Continuous
 62
     7
100
AcDbLine
 10
299.4305454157313
 20
34.60314298898274
 30
0.0
 11
284.6304454157313
 21
34.60314298898274
 31
0.0
  0
LINE
  5
1139
330
1F
100
AcDbEntity
  8
0
  6
Continuous
 62
     7
100
AcDbLine
 10
299.4305454157313
 20
38.46813593660336
 30
0.0
 11
284.6304454157314
 21
38.46813593660336
 31
0.0
  0
LINE
  5
113A
330
1F
100
AcDbEntity
  8
0
  6
DASH_CENTER
 62
    30
100
AcDbLine
 10
276.6301615096141
 20
-96.34985037100351
 30
0.0
 11
305.8787277556262
 21
-96.34985037100351
 31
0.0
  0
LINE
  5
113B
330
1F
100
AcDbEntity
  8
0
  6
Continuous
 62
     7
100
AcDbLine
 10
284.7305454157313
 20
-103.3498503710035
 30
0.0
 11
299.4305454157313
 21
-103.3498503710035
 31
0.0
  0
LINE
  5
113C
330
1F
100
AcDbEntity
  8
0
  6
Continuous
 62
     7
100
AcDbLine
 10
284.7305454157313
 20
-86.62920856729583
 30
0.0
 11
299.4305454157313
 21
-86.62920856729583
 31
0.0
  0
LINE
  5
113D
330
1F
100
AcDbEntity
  8
10
  6
Continuous
 62
     7
100
AcDbLine
 10
299.4305454157313
 20
-110.1877095541401
 30
0.0
 11
299.4305454157313
 21
44.81229044585989
 31
0.0
  0
LINE
  5
113E
330
1F
100
AcDbEntity
  8
10
  6
Continuous
 62
     7
100
AcDbLine
 10
291.9305454157314
 20
-113.1877095541401
 30
0.0
 11
297.5574454157313
 21
-113.1877095541401
 31
0.0
  0
LINE
  5
113F
330
1F
100
AcDbEntity
  8
10
  6
Continuous
 62
     7
100
AcDbLine
 10
291.9304454157312
 20
-113.1877095541401
 30
0.0
 11
284.6304454157313
 21
-113.1877095541401
 31
0.0
  0
LINE
  5
1140
330
1F
100
AcDbEntity
  8
0
  6
Continuous
 62
     7
100
AcDbLine
 10
291.9304454157312
 20
-113.1877095541401
 30
0.0
 11
291.9304454157312
 21
44.8122904458599
 31
0.0
  0
LINE
  5
1141
330
1F
100
AcDbEntity
  8
10
  6
Continuous
 62
     7
100
AcDbLine
 10
284.6304454157313
 20
-112.1877095541401
 30
0.0
 11
284.6304454157313
 21
44.81229044585997
 31
0.0
  0
LINE
  5
1142
330
1F
100
AcDbEntity
  8
10
  6
Continuous
 62
     7
100
AcDbLine
 10
291.9304454157312
 20
-24.83274011417767
 30
0.0
 11
291.9304454157312
 21
44.8122904458599
 31
0.0
  0
LINE
  5
1143
330
1F
100
AcDbEntity
  8
10
  6
Continuous
 62
     7
100
AcDbLine
 10
284.6304454157313
 20
-113.1877095541401
 30
0.0
 11
284.6304454157313
 21
-112.1877095541401
 31
0.0
  0
LINE
  5
1144
330
1F
100
AcDbEntity
  8
0
  6
Continuous
 62
     7
100
AcDbLine
 10
228.6305454157314
 20
34.60314298898274
 30
0.0
 11
213.6304454157313
 21
34.60314298898274
 31
0.0
  0
LINE
  5
1145
330
1F
100
AcDbEntity
  8
0
  6
DASH_CENTER
 62
    30
100
AcDbLine
 10
205.6301615096141
 20
-96.34985037100351
 30
0.0
 11
235.0787277556262
 21
-96.34985037100351
 31
0.0
  0
LINE
  5
1146
330
1F
100
AcDbEntity
  8
0
  6
Continuous
 62
     7
100
AcDbLine
 10
213.7305454157313
 20
-103.3498503710035
 30
0.0
 11
228.6305454157311
 21
-103.3498503710035
 31
0.0
  0
LINE
  5
1147
330
1F
100
AcDbEntity
  8
0
  6
Continuous
 62
     7
100
AcDbLine
 10
213.7305454157313
 20
-86.62920856729583
 30
0.0
 11
228.6305454157311
 21
-86.62920856729583
 31
0.0
  0
LINE
  5
1148
330
1F
100
AcDbEntity
  8
10
  6
Continuous
 62
     7
100
AcDbLine
 10
228.6305454157311
 20
-110.1877095541401
 30
0.0
 11
228.6305454157311
 21
44.81229044585989
 31
0.0
  0
LINE
  5
1149
330
1F
100
AcDbEntity
  8
10
  6
Continuous
 62
     7
100
AcDbLine
 10
221.1305454157311
 20
-113.1877095541401
 30
0.0
 11
226.7574454157313
 21
-113.1877095541401
 31
0.0
  0
LINE
  5
114A
330
1F
100
AcDbEntity
  8
0
  6
Continuous
 62
     7
100
AcDbLine
 10
282.6304454157313
 20
-110.1877095541401
 30
0.0
 11
230.6305454157312
 21
-110.1877095541401
 31
0.0
  0
LINE
  5
114B
330
1F
100
AcDbEntity
  8
10
  6
Continuous
 62
     7
100
AcDbLine
 10
362.7304454157313
 20
-113.1877095541401
 30
0.0
 11
355.4304454157312
 21
-113.1877095541401
 31
0.0
  0
LINE
  5
114C
330
1F
100
AcDbEntity
  8
10
  6
Continuous
 62
     7
100
AcDbLine
 10
355.4304454157312
 20
-113.1877095541401
 30
0.0
 11
355.4304454157312
 21
-112.1877095541401
 31
0.0
  0
LINE
  5
114D
330
1F
100
AcDbEntity
  8
10
  6
Continuous
 62
     7
100
AcDbLine
 10
362.7304454157313
 20
-24.83274011417767
 30
0.0
 11
362.7304454157313
 21
44.8122904458599
 31
0.0
  0
LINE
  5
114E
330
1F
100
AcDbEntity
  8
0
  6
Continuous
 62
     7
100
AcDbLine
 10
355.4304454157312
 20
34.60314298898274
 30
0.0
 11
372.7304454157313
 21
34.60314298898274
 31
0.0
  0
LINE
  5
114F
330
1F
100
AcDbEntity
  8
0
  6
Continuous
 62
     7
100
AcDbLine
 10
355.4304454157314
 20
38.46813593660336
 30
0.0
 11
372.7304454157313
 21
38.46813593660336
 31
0.0
  0
LINE
  5
1150
330
1F
100
AcDbEntity
  8
10
  6
Continuous
 62
     7
100
AcDbLine
 10
221.1304454157313
 20
-113.1877095541401
 30
0.0
 11
213.6304454157313
 21
-113.1877095541401
 31
0.0
  0
LINE
  5
1151
330
1F
100
AcDbEntity
  8
0
  6
Continuous
 62
     7
100
AcDbLine
 10
221.1304454157313
 20
-113.1877095541401
 30
0.0
 11
221.1304454157313
 21
44.8122904458599
 31
0.0
  0
LINE
  5
1152
330
1F
100
AcDbEntity
  8
10
  6
Continuous
 62
     7
100
AcDbLine
 10
213.6304454157313
 20
-112.1877095541401
 30
0.0
 11
213.6304454157313
 21
44.81229044585997
 31
0.0
  0
LINE
  5
1153
330
1F
100
AcDbEntity
  8
100
  6
DASH_CENTER
 62
    30
100
AcDbLine
 10
454.8837489461075
 20
-69.18770955414007
 30
0.0
 11
332.177141885355
 21
-69.18770955414007
 31
0.0
  0
LINE
  5
1154
330
1F
100
AcDbEntity
  8
100
  6
DASH_CENTER
 62
    30
100
AcDbLine
 10
393.5304454157313
 20
-130.5410130845163
 30
0.0
 11
393.5304454157313
 21
-7.83440602376383
 31
0.0
  0
LINE
  5
1155
330
1F
100
AcDbEntity
  8
0
  6
Continuous
 62
     7
100
AcDbLine
 10
372.7304454157313
 20
-19.35435411804687
 30
0.0
 11
372.7304454157313
 21
44.81229044585997
 31
0.0
  0
LINE
  5
1156
330
1F
100
AcDbEntity
  8
0
  6
Continuous
 62
     7
100
AcDbLine
 10
417.5304454157312
 20
-20.81412880989498
 30
0.0
 11
417.5304454157312
 21
44.8122904458599
 31
0.0
  0
LINE
  5
1157
330
1F
100
AcDbEntity
  8
0
  6
Continuous
 62
     7
100
AcDbLine
 10
402.5304454157311
 20
199.8122904458599
 30
0.0
 11
374.7304454157312
 21
199.8122904458599
 31
0.0
  0
LINE
  5
1158
330
1F
100
AcDbEntity
  8
0
  6
Continuous
 62
     7
100
AcDbLine
 10
417.5304454157312
 20
184.8122904458599
 30
0.0
 11
417.5304454157312
 21
155.78289044586
 31
0.0
  0
LINE
  5
1159
330
1F
100
AcDbEntity
  8
100
  6
DASH_CENTER
 62
    30
100
AcDbLine
 10
353.6286454157314
 20
-29.28560955414005
 30
0.0
 11
365.1588454157312
 21
-40.81590955413996
 31
0.0
  0
LINE
  5
115A
330
1F
100
AcDbEntity
  8
10
  6
Continuous
 62
     7
100
AcDbLine
 10
221.1304454157313
 20
-24.83274011417767
 30
0.0
 11
221.1304454157313
 21
44.8122904458599
 31
0.0
  0
LINE
  5
115B
330
1F
100
AcDbEntity
  8
0
  6
Continuous
 62
     7
100
AcDbLine
 10
211.6304454157313
 20
-110.1877095541401
 30
0.0
 11
158.6305454157312
 21
-110.1877095541401
 31
0.0
  0
LINE
  5
115C
330
1F
100
AcDbEntity
  8
10
  6
Continuous
 62
     7
100
AcDbLine
 10
213.6304454157313
 20
-113.1877095541401
 30
0.0
 11
213.6304454157313
 21
-112.1877095541401
 31
0.0
  0
LINE
  5
115D
330
1F
100
AcDbEntity
  8
10
  6
Continuous
 62
     7
100
AcDbLine
 10
149.3305454157312
 20
-113.1877095541401
 30
0.0
 11
149.3305454157312
 21
44.81229044585989
 31
0.0
  0
LINE
  5
115E
330
1F
100
AcDbEntity
  8
10
  6
Continuous
 62
     7
100
AcDbLine
 10
149.3305454157312
 20
-113.1877095541401
 30
0.0
 11
154.7574454157311
 21
-113.1877095541401
 31
0.0
  0
LINE
  5
115F
330
1F
100
AcDbEntity
  8
0
  6
Continuous
 62
     7
100
AcDbLine
 10
56.64589937013285
 20
-30.1877095541401
 30
0.0
 11
69.64589937013285
 21
-30.1877095541401
 31
0.0
  0
LINE
  5
1160
330
1F
100
AcDbEntity
  8
0
  6
Continuous
 62
     7
100
AcDbLine
 10
140.1305454157312
 20
-110.1877095541402
 30
0.0
 11
82.64589937013285
 21
-110.1877095541401
 31
0.0
  0
LINE
  5
1161
330
1F
100
AcDbEntity
  8
0
  6
Continuous
 62
     7
100
AcDbLine
 10
149.3305454157312
 20
-113.1877095541401
 30
0.0
 11
144.0035287619386
 21
-113.1877095541401
 31
0.0
  0
LINE
  5
1162
330
1F
100
AcDbEntity
  8
0
  6
Continuous
 62
     7
100
AcDbLine
 10
142.1305454157312
 20
-110.1877095541402
 30
0.0
 11
142.1305454157312
 21
44.81229044585987
 31
0.0
  0
LINE
  5
1163
330
1F
100
AcDbEntity
  8
0
  6
Continuous
 62
     7
100
AcDbLine
 10
72.64589937013285
 20
44.81229044585996
 30
0.0
 11
72.64589937013285
 21
-100.1877095541401
 31
0.0
  0
LINE
  5
1164
330
1F
100
AcDbEntity
  8
0
  6
Continuous
 62
     7
100
AcDbLine
 10
56.64589937013285
 20
44.81229044585996
 30
0.0
 11
56.64589937013285
 21
-30.1877095541401
 31
0.0
  0
LINE
  5
1165
330
1F
100
AcDbEntity
  8
0
  6
Continuous
 62
     7
100
AcDbLine
 10
142.1305454157312
 20
34.60314298898274
 30
0.0
 11
156.6305454157311
 21
34.60314298898274
 31
0.0
  0
LINE
  5
1166
330
1F
100
AcDbEntity
  8
0
  6
Continuous
 62
     7
100
AcDbLine
 10
142.1305454157312
 20
38.46813593660336
 30
0.0
 11
156.6305454157312
 21
38.46813593660336
 31
0.0
  0
LINE
  5
1167
330
1F
100
AcDbEntity
  8
0
  6
Continuous
 62
     7
100
AcDbLine
 10
142.1305454157312
 20
-86.62920856729583
 30
0.0
 11
156.6305454157312
 21
-86.62920856729583
 31
0.0
  0
LINE
  5
1168
330
1F
100
AcDbEntity
  8
0
  6
Continuous
 62
     7
100
AcDbLine
 10
142.1305454157312
 20
-103.3498503710035
 30
0.0
 11
156.6305454157312
 21
-103.3498503710035
 31
0.0
  0
LINE
  5
1169
330
1F
100
AcDbEntity
  8
0
  6
Continuous
 62
     7
100
AcDbLine
 10
18.14589937013285
 20
-16.18770955414004
 30
0.0
 11
50.64589937013284
 21
-16.18770955414007
 31
0.0
  0
LINE
  5
116A
330
1F
100
AcDbEntity
  8
0
  6
Continuous
 62
     7
100
AcDbLine
 10
16.64589937013285
 20
-14.68770955414004
 30
0.0
 11
16.64589937013285
 21
44.81229044585993
 31
0.0
  0
LINE
  5
116B
330
1F
100
AcDbEntity
  8
0
  6
Continuous
 62
     7
100
AcDbLine
 10
54.64589937013283
 20
-30.1877095541401
 30
0.0
 11
56.64589937013285
 21
-30.1877095541401
 31
0.0
  0
LINE
  5
116C
330
1F
100
AcDbEntity
  8
0
  6
Continuous
 62
     7
100
AcDbLine
 10
52.64589937013284
 20
44.81229044585993
 30
0.0
 11
52.64589937013284
 21
-28.1877095541401
 31
0.0
  0
LINE
  5
116D
330
1F
100
AcDbEntity
  8
0
  6
Continuous
 62
     7
100
AcDbLine
 10
50.64589937013284
 20
105.8122904458599
 30
0.0
 11
18.14589937013284
 21
105.8122904458599
 31
0.0
  0
LINE
  5
116E
330
1F
100
AcDbEntity
  8
0
  6
Continuous
 62
     7
100
AcDbLine
 10
16.64589937013285
 20
102.81229044586
 30
0.0
 11
16.64589937013284
 21
104.3122904458599
 31
0.0
  0
LINE
  5
116F
330
1F
100
AcDbEntity
  8
0
  6
Continuous
 62
     7
100
AcDbLine
 10
52.64589937013284
 20
-19.68776272490193
 30
0.0
 11
52.64589937013284
 21
-28.68776272490193
 31
0.0
  0
LINE
  5
1170
330
1F
100
AcDbEntity
  8
0
  6
Continuous
 62
     7
100
AcDbLine
 10
49.34609937013284
 20
-26.93286272490178
 30
0.0
 11
49.34609937013284
 21
-21.44266272490182
 31
0.0
  0
LINE
  5
1171
330
1F
100
AcDbEntity
  8
0
  6
Continuous
 62
     7
100
AcDbLine
 10
52.64589937013284
 20
-19.68776272490193
 30
0.0
 11
50.80629937013284
 21
-19.84866272490177
 31
0.0
  0
LINE
  5
1172
330
1F
100
AcDbEntity
  8
0
  6
Continuous
 62
     7
100
AcDbLine
 10
52.64589937013284
 20
-28.68776272490193
 30
0.0
 11
50.80629937013283
 21
-28.52656272490193
 31
0.0
  0
LINE
  5
1173
330
1F
100
AcDbEntity
  8
0
  6
DASH_CENTER
 62
    30
100
AcDbLine
 10
44.69023092342606
 20
-24.1877095541401
 30
0.0
 11
68.70287211199237
 21
-24.1877095541401
 31
0.0
  0
LINE
  5
1174
330
1F
100
AcDbEntity
  8
0
  6
Continuous
 62
     7
100
AcDbLine
 10
161.6305454157312
 20
-93.35000037100348
 30
0.0
 11
161.6305454157312
 21
-99.34970037100356
 31
0.0
  0
LINE
  5
1175
330
1F
100
AcDbEntity
  8
0
  6
Continuous
 62
     7
100
AcDbLine
 10
161.6305454157312
 20
-93.35000037100348
 30
0.0
 11
162.1305454157312
 21
-93.85000037100347
 31
0.0
  0
LINE
  5
1176
330
1F
100
AcDbEntity
  8
0
  6
Continuous
 62
     7
100
AcDbLine
 10
161.6305454157312
 20
-99.34970037100356
 30
0.0
 11
162.1305454157312
 21
-98.84970037100357
 31
0.0
  0
LINE
  5
1177
330
1F
100
AcDbEntity
  8
0
  6
Continuous
 62
     7
100
AcDbLine
 10
162.1305454157312
 20
-98.84970037100357
 30
0.0
 11
162.1305454157312
 21
-93.85000037100347
 31
0.0
  0
LINE
  5
1178
330
1F
100
AcDbEntity
  8
0
  6
DASH_CENTER
 62
    30
100
AcDbLine
 10
133.0386062493495
 20
-96.34985037100351
 30
0.0
 11
167.0396097638973
 21
-96.34985037100351
 31
0.0
  0
LINE
  5
1179
330
1F
100
AcDbEntity
  8
0
  6
Continuous
 62
     7
100
AcDbLine
 10
359.0893591449585
 20
-37.64627498514452
 30
0.0
 11
359.0893591449585
 21
-36.24637498514463
 31
0.0
  0
LINE
  5
117A
330
1F
100
AcDbEntity
  8
0
  6
Continuous
 62
     7
100
AcDbLine
 10
360.0893591449585
 20
-37.64627498514452
 30
0.0
 11
360.0893591449585
 21
-36.24637498514463
 31
0.0
  0
LINE
  5
117B
330
1F
100
AcDbEntity
  8
0
  6
Continuous
 62
     7
100
AcDbLine
 10
361.9892591449588
 20
-35.74637498514463
 30
0.0
 11
360.5893591449585
 21
-35.74637498514463
 31
0.0
  0
LINE
  5
117C
330
1F
100
AcDbEntity
  8
0
  6
Continuous
 62
     7
100
AcDbLine
 10
361.9892591449588
 20
-34.74637498514463
 30
0.0
 11
360.5893591449585
 21
-34.74637498514463
 31
0.0
  0
LINE
  5
117D
330
1F
100
AcDbEntity
  8
0
  6
Continuous
 62
     7
100
AcDbLine
 10
359.0893591449585
 20
-34.24637498514463
 30
0.0
 11
359.0893591449585
 21
-32.84647498514452
 31
0.0
  0
LINE
  5
117E
330
1F
100
AcDbEntity
  8
0
  6
Continuous
 62
     7
100
AcDbLine
 10
358.5893591449585
 20
-35.74637498514463
 30
0.0
 11
357.1894591449585
 21
-35.74637498514463
 31
0.0
  0
LINE
  5
117F
330
1F
100
AcDbEntity
  8
0
  6
Continuous
 62
     7
100
AcDbLine
 10
358.5893591449585
 20
-34.74637498514463
 30
0.0
 11
357.1894591449585
 21
-34.74637498514463
 31
0.0
  0
LINE
  5
1180
330
1F
100
AcDbEntity
  8
0
  6
Continuous
 62
     7
100
AcDbLine
 10
360.0893591449585
 20
-34.24637498514463
 30
0.0
 11
360.0893591449585
 21
-32.84647498514452
 31
0.0
  0
LINE
  5
1181
330
1F
100
AcDbEntity
  8
0
  6
Continuous
 62
     7
100
AcDbLine
 10
357.1894591449585
 20
-35.74637498514463
 30
0.0
 11
357.1894591449585
 21
-34.74637498514463
 31
0.0
  0
LINE
  5
1182
330
1F
100
AcDbEntity
  8
0
  6
Continuous
 62
     7
100
AcDbLine
 10
361.9892591449588
 20
-35.74637498514463
 30
0.0
 11
361.9892591449588
 21
-34.74637498514463
 31
0.0
  0
LINE
  5
1183
330
1F
100
AcDbEntity
  8
0
  6
Continuous
 62
     7
100
AcDbLine
 10
360.0893591449585
 20
-37.64627498514452
 30
0.0
 11
359.0893591449585
 21
-37.64627498514452
 31
0.0
  0
LINE
  5
1184
330
1F
100
AcDbEntity
  8
0
  6
Continuous
 62
     7
100
AcDbLine
 10
360.0893591449585
 20
-32.84647498514452
 30
0.0
 11
359.0893591449585
 21
-32.84647498514452
 31
0.0
  0
LINE
  5
1185
330
1F
100
AcDbEntity
  8
100
  6
DASH_CENTER
 62
    30
100
AcDbLine
 10
353.6283454157312
 20
-109.08950955414
 30
0.0
 11
365.1586454157311
 21
-97.55930955414008
 31
0.0
  0
LINE
  5
1186
330
1F
100
AcDbEntity
  8
0
  6
Continuous
 62
     7
100
AcDbLine
 10
361.9890108467357
 20
-103.6287958249129
 30
0.0
 11
360.5891108467357
 21
-103.6287958249129
 31
0.0
  0
LINE
  5
1187
330
1F
100
AcDbEntity
  8
0
  6
Continuous
 62
     7
100
AcDbLine
 10
361.9890108467357
 20
-102.6287958249129
 30
0.0
 11
360.5891108467357
 21
-102.6287958249129
 31
0.0
  0
LINE
  5
1188
330
1F
100
AcDbEntity
  8
0
  6
Continuous
 62
     7
100
AcDbLine
 10
360.0891108467357
 20
-100.7288958249127
 30
0.0
 11
360.0891108467357
 21
-102.1287958249129
 31
0.0
  0
LINE
  5
1189
330
1F
100
AcDbEntity
  8
0
  6
Continuous
 62
     7
100
AcDbLine
 10
359.0891108467357
 20
-100.7288958249127
 30
0.0
 11
359.0891108467357
 21
-102.1287958249129
 31
0.0
  0
LINE
  5
118A
330
1F
100
AcDbEntity
  8
0
  6
Continuous
 62
     7
100
AcDbLine
 10
358.5891108467357
 20
-103.6287958249129
 30
0.0
 11
357.1892108467357
 21
-103.6287958249129
 31
0.0
  0
LINE
  5
118B
330
1F
100
AcDbEntity
  8
0
  6
Continuous
 62
     7
100
AcDbLine
 10
360.0891108467357
 20
-104.1287958249129
 30
0.0
 11
360.0891108467357
 21
-105.5286958249127
 31
0.0
  0
LINE
  5
118C
330
1F
100
AcDbEntity
  8
0
  6
Continuous
 62
     7
100
AcDbLine
 10
359.0891108467357
 20
-104.1287958249129
 30
0.0
 11
359.0891108467357
 21
-105.5286958249127
 31
0.0
  0
LINE
  5
118D
330
1F
100
AcDbEntity
  8
0
  6
Continuous
 62
     7
100
AcDbLine
 10
358.5891108467357
 20
-102.6287958249129
 30
0.0
 11
357.1892108467357
 21
-102.6287958249129
 31
0.0
  0
LINE
  5
118E
330
1F
100
AcDbEntity
  8
0
  6
Continuous
 62
     7
100
AcDbLine
 10
360.0891108467357
 20
-105.5286958249127
 30
0.0
 11
359.0891108467357
 21
-105.5286958249127
 31
0.0
  0
LINE
  5
118F
330
1F
100
AcDbEntity
  8
0
  6
Continuous
 62
     7
100
AcDbLine
 10
360.0891108467357
 20
-100.7288958249127
 30
0.0
 11
359.0891108467357
 21
-100.7288958249127
 31
0.0
  0
LINE
  5
1190
330
1F
100
AcDbEntity
  8
0
  6
Continuous
 62
     7
100
AcDbLine
 10
361.9890108467357
 20
-102.6287958249129
 30
0.0
 11
361.9890108467357
 21
-103.6287958249129
 31
0.0
  0
LINE
  5
1191
330
1F
100
AcDbEntity
  8
0
  6
Continuous
 62
     7
100
AcDbLine
 10
357.1892108467357
 20
-102.6287958249129
 30
0.0
 11
357.1892108467357
 21
-103.6287958249129
 31
0.0
  0
LINE
  5
1192
330
1F
100
AcDbEntity
  8
100
  6
DASH_CENTER
 62
    30
100
AcDbLine
 10
433.4322454157311
 20
-109.0898095541401
 30
0.0
 11
421.9020454157313
 21
-97.55950955414022
 31
0.0
  0
LINE
  5
1193
330
1F
100
AcDbEntity
  8
0
  6
Continuous
 62
     7
100
AcDbLine
 10
427.9715316865039
 20
-100.7291441231357
 30
0.0
 11
427.9715316865039
 21
-102.1290441231356
 31
0.0
  0
LINE
  5
1194
330
1F
100
AcDbEntity
  8
0
  6
Continuous
 62
     7
100
AcDbLine
 10
426.9715316865038
 20
-100.7291441231357
 30
0.0
 11
426.9715316865038
 21
-102.1290441231356
 31
0.0
  0
LINE
  5
1195
330
1F
100
AcDbEntity
  8
0
  6
Continuous
 62
     7
100
AcDbLine
 10
425.0716316865038
 20
-102.6290441231356
 30
0.0
 11
426.4715316865038
 21
-102.6290441231356
 31
0.0
  0
LINE
  5
1196
330
1F
100
AcDbEntity
  8
0
  6
Continuous
 62
     7
100
AcDbLine
 10
425.0716316865038
 20
-103.6290441231356
 30
0.0
 11
426.4715316865038
 21
-103.6290441231356
 31
0.0
  0
LINE
  5
1197
330
1F
100
AcDbEntity
  8
0
  6
Continuous
 62
     7
100
AcDbLine
 10
427.9715316865039
 20
-104.1290441231356
 30
0.0
 11
427.9715316865039
 21
-105.5289441231357
 31
0.0
  0
LINE
  5
1198
330
1F
100
AcDbEntity
  8
0
  6
Continuous
 62
     7
100
AcDbLine
 10
428.4715316865039
 20
-102.6290441231356
 30
0.0
 11
429.8714316865039
 21
-102.6290441231356
 31
0.0
  0
LINE
  5
1199
330
1F
100
AcDbEntity
  8
0
  6
Continuous
 62
     7
100
AcDbLine
 10
428.4715316865039
 20
-103.6290441231356
 30
0.0
 11
429.8714316865039
 21
-103.6290441231356
 31
0.0
  0
LINE
  5
119A
330
1F
100
AcDbEntity
  8
0
  6
Continuous
 62
     7
100
AcDbLine
 10
426.9715316865038
 20
-104.1290441231356
 30
0.0
 11
426.9715316865038
 21
-105.5289441231357
 31
0.0
  0
LINE
  5
119B
330
1F
100
AcDbEntity
  8
0
  6
Continuous
 62
     7
100
AcDbLine
 10
429.8714316865039
 20
-102.6290441231356
 30
0.0
 11
429.8714316865039
 21
-103.6290441231356
 31
0.0
  0
LINE
  5
119C
330
1F
100
AcDbEntity
  8
0
  6
Continuous
 62
     7
100
AcDbLine
 10
425.0716316865038
 20
-102.6290441231356
 30
0.0
 11
425.0716316865038
 21
-103.6290441231356
 31
0.0
  0
LINE
  5
119D
330
1F
100
AcDbEntity
  8
0
  6
Continuous
 62
     7
100
AcDbLine
 10
426.9715316865038
 20
-100.7291441231357
 30
0.0
 11
427.9715316865039
 21
-100.7291441231357
 31
0.0
  0
LINE
  5
119E
330
1F
100
AcDbEntity
  8
0
  6
Continuous
 62
     7
100
AcDbLine
 10
426.9715316865038
 20
-105.5289441231357
 30
0.0
 11
427.9715316865039
 21
-105.5289441231357
 31
0.0
  0
LINE
  5
119F
330
1F
100
AcDbEntity
  8
100
  6
DASH_CENTER
 62
    30
100
AcDbLine
 10
433.4325454157312
 20
-29.28590955414019
 30
0.0
 11
421.9022454157312
 21
-40.81610955414006
 31
0.0
  0
LINE
  5
11A0
330
1F
100
AcDbEntity
  8
0
  6
Continuous
 62
     7
100
AcDbLine
 10
425.0718799847267
 20
-34.74662328336731
 30
0.0
 11
426.4717799847266
 21
-34.74662328336731
 31
0.0
  0
LINE
  5
11A1
330
1F
100
AcDbEntity
  8
0
  6
Continuous
 62
     7
100
AcDbLine
 10
425.0718799847267
 20
-35.74662328336732
 30
0.0
 11
426.4717799847266
 21
-35.74662328336732
 31
0.0
  0
LINE
  5
11A2
330
1F
100
AcDbEntity
  8
0
  6
Continuous
 62
     7
100
AcDbLine
 10
426.9717799847267
 20
-37.64652328336744
 30
0.0
 11
426.9717799847267
 21
-36.24662328336731
 31
0.0
  0
LINE
  5
11A3
330
1F
100
AcDbEntity
  8
0
  6
Continuous
 62
     7
100
AcDbLine
 10
427.9717799847268
 20
-37.64652328336744
 30
0.0
 11
427.9717799847268
 21
-36.24662328336731
 31
0.0
  0
LINE
  5
11A4
330
1F
100
AcDbEntity
  8
0
  6
Continuous
 62
     7
100
AcDbLine
 10
428.4717799847268
 20
-34.74662328336731
 30
0.0
 11
429.8716799847268
 21
-34.74662328336731
 31
0.0
  0
LINE
  5
11A5
330
1F
100
AcDbEntity
  8
0
  6
Continuous
 62
     7
100
AcDbLine
 10
426.9717799847267
 20
-34.24662328336731
 30
0.0
 11
426.9717799847267
 21
-32.84672328336745
 31
0.0
  0
LINE
  5
11A6
330
1F
100
AcDbEntity
  8
0
  6
Continuous
 62
     7
100
AcDbLine
 10
427.9717799847268
 20
-34.24662328336731
 30
0.0
 11
427.9717799847268
 21
-32.84672328336745
 31
0.0
  0
LINE
  5
11A7
330
1F
100
AcDbEntity
  8
0
  6
Continuous
 62
     7
100
AcDbLine
 10
428.4717799847268
 20
-35.74662328336732
 30
0.0
 11
429.8716799847268
 21
-35.74662328336732
 31
0.0
  0
LINE
  5
11A8
330
1F
100
AcDbEntity
  8
0
  6
Continuous
 62
     7
100
AcDbLine
 10
426.9717799847267
 20
-32.84672328336745
 30
0.0
 11
427.9717799847268
 21
-32.84672328336745
 31
0.0
  0
LINE
  5
11A9
330
1F
100
AcDbEntity
  8
0
  6
Continuous
 62
     7
100
AcDbLine
 10
426.9717799847267
 20
-37.64652328336744
 30
0.0
 11
427.9717799847268
 21
-37.64652328336744
 31
0.0
  0
LINE
  5
11AA
330
1F
100
AcDbEntity
  8
0
  6
Continuous
 62
     7
100
AcDbLine
 10
425.0718799847267
 20
-35.74662328336732
 30
0.0
 11
425.0718799847267
 21
-34.74662328336731
 31
0.0
  0
LINE
  5
11AB
330
1F
100
AcDbEntity
  8
0
  6
Continuous
 62
     7
100
AcDbLine
 10
429.8716799847268
 20
-35.74662328336732
 30
0.0
 11
429.8716799847268
 21
-34.74662328336731
 31
0.0
  0
LINE
  5
11AC
330
1F
100
AcDbEntity
  8
60
  6
Continuous
 62
     7
100
AcDbLine
 10
406.5306454157312
 20
-33.48070955413997
 30
0.0
 11
406.5306454157312
 21
-45.72130955414003
 31
0.0
  0
LINE
  5
11AD
330
1F
100
AcDbEntity
  8
60
  6
Continuous
 62
     7
100
AcDbLine
 10
366.530645415731
 20
-95.92750955414013
 30
0.0
 11
366.530645415731
 21
-44.59100955414002
 31
0.0
  0
LINE
  5
11AE
330
1F
100
AcDbEntity
  8
0
  6
Continuous
 62
     7
100
AcDbLine
 10
52.64589937013284
 20
40.31223727509817
 30
0.0
 11
50.80629937013283
 21
40.47343727509818
 31
0.0
  0
LINE
  5
11AF
330
1F
100
AcDbEntity
  8
0
  6
DASH_CENTER
 62
     2
100
AcDbLine
 10
-446.6647528085653
 20
-125.1878095541399
 30
0.0
 11
-446.6647528085653
 21
-131.337425192038
 31
0.0
  0
LINE
  5
11B0
330
1F
100
AcDbEntity
  8
0
  6
Continuous
 62
     7
100
AcDbLine
 10
-446.6647528085653
 20
-125.1878095541399
 30
0.0
 11
-509.1647528085653
 21
-125.1878095541399
 31
0.0
  0
LINE
  5
11B1
330
1F
100
AcDbEntity
  8
0
  6
DASHED
 62
     2
 48
0.1
100
AcDbLine
 10
508.4663759676167
 20
-103.278373803096
 30
0.0
 11
514.4663759676165
 21
-103.278373803096
 31
0.0
  0
LINE
  5
11B2
330
1F
100
AcDbEntity
  8
0
  6
DASHED
 62
     2
 48
0.1
100
AcDbLine
 10
514.4663759676165
 20
-103.278373803096
 30
0.0
 11
514.4663759676165
 21
-107.278373803096
 31
0.0
  0
LINE
  5
11B3
330
1F
100
AcDbEntity
  8
0
  6
DASHED
 62
     2
 48
0.1
100
AcDbLine
 10
514.4663759676165
 20
-111.278373803096
 30
0.0
 11
508.4663759676167
 21
-111.278373803096
 31
0.0
  0
LINE
  5
11B4
330
1F
100
AcDbEntity
  8
0
  6
DASHED
 62
     2
 48
0.1
100
AcDbLine
 10
514.4663759676165
 20
-107.278373803096
 30
0.0
 11
509.6923390470017
 21
-107.278373803096
 31
0.0
  0
LINE
  5
11B5
330
1F
100
AcDbEntity
  8
0
  6
DASHED
 62
     2
 48
0.1
100
AcDbLine
 10
514.4663759676165
 20
-107.278373803096
 30
0.0
 11
514.4663759676165
 21
-111.278373803096
 31
0.0
  0
LINE
  5
11B6
330
1F
100
AcDbEntity
  8
0
  6
DASH_CENTER
 62
    30
100
AcDbLine
 10
-641.6647528085653
 20
44.81229044585997
 30
0.0
 11
-296.8996066583319
 21
44.81229044585996
 31
0.0
  0
LINE
  5
11B7
330
1F
100
AcDbEntity
  8
1
  6
Continuous
 62
     7
100
AcDbLine
 10
-580.832455751621
 20
-73.4460839608662
 30
0.0
 11
-592.832455751621
 21
-73.4460839608662
 31
0.0
  0
LINE
  5
11B8
330
1F
100
AcDbEntity
  8
1
  6
Continuous
 62
     7
100
AcDbLine
 10
-592.832455751621
 20
-80.8776431245127
 30
0.0
 11
-580.832455751621
 21
-80.8776431245127
 31
0.0
  0
LINE
  5
11B9
330
1F
100
AcDbEntity
  8
0
  6
DASHED
 62
   171
100
AcDbLine
 10
-519.6649403048958
 20
-89.1878095570712
 30
0.0
 11
-519.664855931547
 21
-91.88780955575294
 31
0.0
  0
LINE
  5
11BA
330
1F
100
AcDbEntity
  8
0
  6
DASHED
 62
   171
100
AcDbLine
 10
-519.7799875091052
 20
-102.2040722377501
 30
0.0
 11
-519.7799880171904
 21
-102.1878131585902
 31
0.0
  0
LINE
  5
11BB
330
1F
100
AcDbEntity
  8
0
  6
DASHED
 62
   171
100
AcDbLine
 10
-523.3300946661199
 20
-100.2485240963042
 30
0.0
 11
-521.1645887485429
 21
-100.4378564256615
 31
0.0
  0
LINE
  5
11BC
330
1F
100
AcDbEntity
  8
0
  6
DASHED
 62
   171
100
AcDbLine
 10
-523.3304109443053
 20
-90.12742410124705
 30
0.0
 11
-521.1649168671223
 21
-89.93785643078899
 31
0.0
  0
LINE
  5
11BD
330
1F
100
AcDbEntity
  8
0
  6
DASHED
 62
   171
100
AcDbLine
 10
-525.0645538141159
 20
-98.35577829616864
 30
0.0
 11
-525.0647517946163
 21
-92.02027829926169
 31
0.0
  0
LINE
  5
11BE
330
1F
100
AcDbEntity
  8
0
  6
DASHED
 62
   171
100
AcDbLine
 10
-521.1645887485429
 20
-100.4378564256615
 30
0.0
 11
-521.1649168671223
 21
-89.93785643078899
 31
0.0
  0
LINE
  5
11BF
330
1F
100
AcDbEntity
  8
0
  6
DASHED
 62
   171
100
AcDbLine
 10
-519.6649434267099
 20
-89.08790955712015
 30
0.0
 11
-521.1649434259775
 21
-89.08795643120354
 31
0.0
  0
LINE
  5
11C0
330
1F
100
AcDbEntity
  8
0
  6
DASHED
 62
   171
100
AcDbLine
 10
-519.6645621841699
 20
-101.2879095511639
 30
0.0
 11
-521.1645621834374
 21
-101.2879564252462
 31
0.0
  0
LINE
  5
11C1
330
1F
100
AcDbEntity
  8
0
  6
DASHED
 62
   171
100
AcDbLine
 10
-521.1647653669615
 20
-94.78595642842128
 30
0.0
 11
-521.1649434259775
 21
-89.08795643120354
 31
0.0
  0
LINE
  5
11C2
330
1F
100
AcDbEntity
  8
0
  6
DASHED
 62
   171
100
AcDbLine
 10
-521.1645621834374
 20
-101.2879564252462
 30
0.0
 11
-521.1647528078327
 21
-95.18785642822443
 31
0.0
  0
LINE
  5
11C3
330
1F
100
AcDbEntity
  8
0
  6
DASHED
 62
   171
100
AcDbLine
 10
-519.6647528085653
 20
-95.18780955414104
 30
0.0
 11
-519.6649434267099
 21
-89.08790955712015
 31
0.0
  0
LINE
  5
11C4
330
1F
100
AcDbEntity
  8
0
  6
DASHED
 62
   171
100
AcDbLine
 10
-519.6645621841699
 20
-101.2879095511639
 30
0.0
 11
-519.6647402494363
 21
-95.58970955394579
 31
0.0
  0
ARC
  5
11C5
330
1F
100
AcDbEntity
  8
0
  6
Continuous
 62
     7
100
AcDbCircle
 10
57.5404239735322
 20
-84.86270955414001
 30
0.0
 40
1.7992692244374
100
AcDbArc
 50
99.42121415175645
 51
260.5787858482435
  0
ARC
  5
11C6
330
1F
100
AcDbEntity
  8
0
  6
Continuous
 62
     7
100
AcDbCircle
 10
57.5404239735322
 20
-84.86270955414001
 30
0.0
 40
1.799269224437388
100
AcDbArc
 50
260.5787858482435
 51
273.3606764323617
  0
ARC
  5
11C7
330
1F
100
AcDbEntity
  8
0
  6
Continuous
 62
     7
100
AcDbCircle
 10
60.69673270346616
 20
-90.18770955414
 30
0.0
 40
4.950833333333331
100
AcDbArc
 50
134.1884606831657
 51
225.8115393168342
  0
ARC
  5
11C8
330
1F
100
AcDbEntity
  8
0
  6
Continuous
 62
     7
100
AcDbCircle
 10
57.5227297437885
 20
-95.51270955414
 30
0.0
 40
1.796457640964119
100
AcDbArc
 50
98.86448193601488
 51
261.1355180639851
  0
ARC
  5
11C9
330
1F
100
AcDbEntity
  8
0
  6
Continuous
 62
     7
100
AcDbCircle
 10
57.5227297437885
 20
-95.51270955414
 30
0.0
 40
1.796457640964123
100
AcDbArc
 50
86.06857387389158
 51
98.86448193601488
  0
ARC
  5
11CA
330
1F
100
AcDbEntity
  8
0
  6
Continuous
 62
     7
100
AcDbCircle
 10
-491.6647528085653
 20
-86.1878095541399
 30
0.0
 40
5.000000000000011
100
AcDbArc
 50
27.21182191407208
 51
152.7881780859276
  0
ARC
  5
11CB
330
1F
100
AcDbEntity
  8
0
  6
Continuous
 62
     7
100
AcDbCircle
 10
-491.6647528085653
 20
-94.18780955413991
 30
0.0
 40
5.000000000000068
100
AcDbArc
 50
207.2077719857873
 51
332.7922280142121
  0
ARC
  5
11CC
330
1F
100
AcDbEntity
  8
0
  6
Continuous
 62
     7
100
AcDbCircle
 10
-451.6647528085653
 20
-86.1878095541399
 30
0.0
 40
5.000000000000011
100
AcDbArc
 50
27.21182191407208
 51
152.7881780859276
  0
ARC
  5
11CD
330
1F
100
AcDbEntity
  8
0
  6
Continuous
 62
     7
100
AcDbCircle
 10
-451.6647528085653
 20
-94.18780955413991
 30
0.0
 40
5.000000000000068
100
AcDbArc
 50
207.2077719857873
 51
332.7922280142121
  0
ARC
  5
11CE
330
1F
100
AcDbEntity
  8
0
  6
Continuous
 62
     7
100
AcDbCircle
 10
463.0304258990644
 20
101.7487455463965
 30
0.0
 40
1.900019516785249
100
AcDbArc
 50
275.0036901252885
 51
0.00064231890324
  0
ARC
  5
11CF
330
1F
100
AcDbEntity
  8
0
  6
Continuous
 62
     7
100
AcDbCircle
 10
463.0304757088937
 20
108.0842337867673
 30
0.0
 40
1.899969707123998
100
AcDbArc
 50
0.00099696093721
 51
84.99768618094956
  0
ARC
  5
11D0
330
1F
100
AcDbEntity
  8
0
  6
Continuous
 62
     7
100
AcDbCircle
 10
352.4307418938392
 20
42.06620492928639
 30
0.0
 40
1.599996478112713
100
AcDbArc
 50
180.0001376382529
 51
264.9982890533556
  0
ARC
  5
11D1
330
1F
100
AcDbEntity
  8
0
  6
Continuous
 62
     7
100
AcDbCircle
 10
352.4307418938392
 20
47.55837596243353
 30
0.0
 40
1.59999647811275
100
AcDbArc
 50
95.00171094664636
 51
179.9998623617474
  0
ARC
  5
11D2
330
1F
100
AcDbEntity
  8
0
  6
Continuous
 62
     7
100
AcDbCircle
 10
352.4307418938392
 20
183.2283457461498
 30
0.0
 40
1.599996478112769
100
AcDbArc
 50
180.0001376382521
 51
264.9982890533537
  0
ARC
  5
11D3
330
1F
100
AcDbEntity
  8
0
  6
Continuous
 62
     7
100
AcDbCircle
 10
352.4307418938392
 20
188.720516779297
 30
0.0
 40
1.599996478112758
100
AcDbArc
 50
95.00171094664636
 51
179.9998623617479
  0
ARC
  5
11D4
330
1F
100
AcDbEntity
  8
10
  6
Continuous
 62
     7
100
AcDbCircle
 10
370.7938506200471
 20
200.8122864146316
 30
0.0
 40
2.000004031235095
100
AcDbArc
 50
14.47760164093207
 51
90.00014909236346
  0
ARC
  5
11D5
330
1F
100
AcDbEntity
  8
10
  6
Continuous
 62
     7
100
AcDbCircle
 10
374.6669402114155
 20
201.8122944770883
 30
0.0
 40
2.000004031235087
100
AcDbArc
 50
194.4776016409313
 51
270.0001490923635
  0
ARC
  5
11D6
330
1F
100
AcDbEntity
  8
10
  6
Continuous
 62
     7
100
AcDbCircle
 10
353.4304454144812
 20
201.8122904446099
 30
0.0
 40
2.000000001250019
100
AcDbArc
 50
270.0028648247855
 51
0.00000003581111
  0
ARC
  5
11D7
330
1F
100
AcDbEntity
  8
0
  6
Continuous
 62
     7
100
AcDbCircle
 10
281.6307418938393
 20
-99.09593588757722
 30
0.0
 40
1.599996478112713
100
AcDbArc
 50
180.0001376382516
 51
264.9982890533515
  0
ARC
  5
11D8
330
1F
100
AcDbEntity
  8
0
  6
Continuous
 62
     7
100
AcDbCircle
 10
281.6307418938393
 20
-93.60376485442991
 30
0.0
 40
1.599996478112693
100
AcDbArc
 50
95.00171094664862
 51
179.9998623617494
  0
ARC
  5
11D9
330
1F
100
AcDbEntity
  8
0
  6
Continuous
 62
     7
100
AcDbCircle
 10
281.6307418938393
 20
42.0662049292863
 30
0.0
 40
1.599996478112713
100
AcDbArc
 50
180.0001376382521
 51
264.9982890533514
  0
ARC
  5
11DA
330
1F
100
AcDbEntity
  8
0
  6
Continuous
 62
     7
100
AcDbCircle
 10
281.6307418938393
 20
47.55837596243355
 30
0.0
 40
1.599996478112686
100
AcDbArc
 50
95.00171094664862
 51
179.9998623617496
  0
ARC
  5
11DB
330
1F
100
AcDbEntity
  8
0
  6
Continuous
 62
     7
100
AcDbCircle
 10
210.6307418938393
 20
183.2283457461498
 30
0.0
 40
1.599996478112741
100
AcDbArc
 50
180.000137638251
 51
264.9982890533546
  0
ARC
  5
11DC
330
1F
100
AcDbEntity
  8
0
  6
Continuous
 62
     7
100
AcDbCircle
 10
210.6307418938393
 20
188.720516779297
 30
0.0
 40
1.599996478112754
100
AcDbArc
 50
95.00171094664535
 51
179.9998623617479
  0
ARC
  5
11DD
330
1F
100
AcDbEntity
  8
0
  6
Continuous
 62
     7
100
AcDbCircle
 10
210.6307418938393
 20
42.06620492928633
 30
0.0
 40
1.599996478112713
100
AcDbArc
 50
180.0001376382521
 51
264.9982890533556
  0
ARC
  5
11DE
330
1F
100
AcDbEntity
  8
0
  6
Continuous
 62
     7
100
AcDbCircle
 10
210.6307418938393
 20
47.55837596243348
 30
0.0
 40
1.599996478112718
100
AcDbArc
 50
95.00171094664446
 51
179.9998623617474
  0
ARC
  5
11DF
330
1F
100
AcDbEntity
  8
0
  6
Continuous
 62
     7
100
AcDbCircle
 10
210.6307418938393
 20
-99.0959358875771
 30
0.0
 40
1.599996478112713
100
AcDbArc
 50
180.0001376382521
 51
264.9982890533556
  0
ARC
  5
11E0
330
1F
100
AcDbEntity
  8
0
  6
Continuous
 62
     7
100
AcDbCircle
 10
210.6307418938393
 20
-93.60376485442991
 30
0.0
 40
1.599996478112709
100
AcDbArc
 50
95.00171094664446
 51
179.9998623617479
  0
ARC
  5
11E1
330
1F
100
AcDbEntity
  8
0
  6
Continuous
 62
     7
100
AcDbCircle
 10
139.1308418938392
 20
42.06620492928623
 30
0.0
 40
1.599996478112655
100
AcDbArc
 50
180.0001376382503
 51
264.9982890533533
  0
ARC
  5
11E2
330
1F
100
AcDbEntity
  8
0
  6
Continuous
 62
     7
100
AcDbCircle
 10
139.1308418938392
 20
47.55837596243347
 30
0.0
 40
1.599996478112629
100
AcDbArc
 50
95.00171094664578
 51
179.9998623617481
  0
ARC
  5
11E3
330
1F
100
AcDbEntity
  8
0
  6
Continuous
 62
     7
100
AcDbCircle
 10
139.1308418938392
 20
183.2283457461499
 30
0.0
 40
1.599996478112628
100
AcDbArc
 50
180.000137638251
 51
264.9982890533542
  0
ARC
  5
11E4
330
1F
100
AcDbEntity
  8
0
  6
Continuous
 62
     7
100
AcDbCircle
 10
139.1308418938393
 20
188.7205167792972
 30
0.0
 40
1.599996478112676
100
AcDbArc
 50
95.00171094664766
 51
179.9998623617509
  0
ARC
  5
11E5
330
1F
100
AcDbEntity
  8
0
  6
Continuous
 62
     7
100
AcDbCircle
 10
139.1308418938392
 20
-93.60376485442987
 30
0.0
 40
1.59999647811266
100
AcDbArc
 50
95.0017109466467
 51
179.9998623617499
  0
ARC
  5
11E6
330
1F
100
AcDbEntity
  8
0
  6
Continuous
 62
     7
100
AcDbCircle
 10
139.1308418938392
 20
-99.09593588757715
 30
0.0
 40
1.599996478112655
100
AcDbArc
 50
180.0001376382501
 51
264.9982890533534
  0
ARC
  5
11E7
330
1F
100
AcDbEntity
  8
0
  6
Continuous
 62
     7
100
AcDbCircle
 10
281.6307418938393
 20
183.2283457461496
 30
0.0
 40
1.599996478112713
100
AcDbArc
 50
180.0001376382491
 51
264.9982890533513
  0
ARC
  5
11E8
330
1F
100
AcDbEntity
  8
0
  6
Continuous
 62
     7
100
AcDbCircle
 10
281.6307418938393
 20
188.720516779297
 30
0.0
 40
1.599996478112705
100
AcDbArc
 50
95.0017109466486
 51
179.9998623617499
  0
ARC
  5
11E9
330
1F
100
AcDbEntity
  8
10
  6
Continuous
 62
     7
100
AcDbCircle
 10
297.5574506200471
 20
200.8122864146316
 30
0.0
 40
2.000004031235095
100
AcDbArc
 50
14.47760164093207
 51
90.00014909236346
  0
ARC
  5
11EA
330
1F
100
AcDbEntity
  8
10
  6
Continuous
 62
     7
100
AcDbCircle
 10
301.4305402114155
 20
201.8122944770883
 30
0.0
 40
2.000004031235087
100
AcDbArc
 50
194.4776016409313
 51
270.0001490923635
  0
ARC
  5
11EB
330
1F
100
AcDbEntity
  8
10
  6
Continuous
 62
     7
100
AcDbCircle
 10
282.6304454144813
 20
201.8122904446099
 30
0.0
 40
2.000000001249989
100
AcDbArc
 50
270.0028648247789
 51
0.00000003581193
  0
ARC
  5
11EC
330
1F
100
AcDbEntity
  8
10
  6
Continuous
 62
     7
100
AcDbCircle
 10
226.757450620047
 20
200.8122864146316
 30
0.0
 40
2.000004031235123
100
AcDbArc
 50
14.47760164093186
 51
90.00014909236105
  0
ARC
  5
11ED
330
1F
100
AcDbEntity
  8
10
  6
Continuous
 62
     7
100
AcDbCircle
 10
230.6305402114155
 20
201.8122944770882
 30
0.0
 40
2.000004031235012
100
AcDbArc
 50
194.4776016409293
 51
270.0001490923635
  0
ARC
  5
11EE
330
1F
100
AcDbEntity
  8
10
  6
Continuous
 62
     7
100
AcDbCircle
 10
211.6304454144812
 20
201.8122904446099
 30
0.0
 40
2.000000001250045
100
AcDbArc
 50
270.0028648247862
 51
0.00000003581274
  0
ARC
  5
11EF
330
1F
100
AcDbEntity
  8
10
  6
Continuous
 62
     7
100
AcDbCircle
 10
154.7574506200469
 20
200.8122864146316
 30
0.0
 40
2.000004031235155
100
AcDbArc
 50
14.47760164093245
 51
90.00014909236268
  0
ARC
  5
11F0
330
1F
100
AcDbEntity
  8
10
  6
Continuous
 62
     7
100
AcDbCircle
 10
158.6305402114154
 20
201.8122944770883
 30
0.0
 40
2.000004031235047
100
AcDbArc
 50
194.4776016409333
 51
270.0001490923659
  0
ARC
  5
11F1
330
1F
100
AcDbEntity
  8
0
  6
Continuous
 62
     7
100
AcDbCircle
 10
50.94599584824085
 20
116.5574397730452
 30
0.0
 40
1.599996478112584
100
AcDbArc
 50
95.00171094664484
 51
179.9998623617504
  0
ARC
  5
11F2
330
1F
100
AcDbEntity
  8
0
  6
Continuous
 62
     7
100
AcDbCircle
 10
50.94604565785611
 20
111.0671931010433
 30
0.0
 40
1.600046288488436
100
AcDbArc
 50
180.0017719790555
 51
264.9966547125468
  0
ARC
  5
11F3
330
1F
100
AcDbEntity
  8
0
  6
Continuous
 62
     7
100
AcDbCircle
 10
50.9459958482409
 20
47.55743977304503
 30
0.0
 40
1.599996478112638
100
AcDbArc
 50
95.00171094664652
 51
179.9998623617522
  0
ARC
  5
11F4
330
1F
100
AcDbEntity
  8
0
  6
DASHED
 62
     2
100
AcDbCircle
 10
498.5304454157287
 20
-94.18780955413991
 30
0.0
 40
0.5
100
AcDbArc
 50
270.0
 51
0.0
  0
ARC
  5
11F5
330
1F
100
AcDbEntity
  8
0
  6
DASHED
 62
     2
100
AcDbCircle
 10
498.5304454157287
 20
-96.1878095541399
 30
0.0
 40
0.5
100
AcDbArc
 50
0.0
 51
90.0
  0
ARC
  5
11F6
330
1F
100
AcDbEntity
  8
0
  6
DASHED
 62
     2
100
AcDbCircle
 10
500.5304454157288
 20
-96.1878095541399
 30
0.0
 40
0.5
100
AcDbArc
 50
90.0
 51
180.0
  0
ARC
  5
11F7
330
1F
100
AcDbEntity
  8
0
  6
DASHED
 62
     2
100
AcDbCircle
 10
500.5304454157288
 20
-94.18780955413991
 30
0.0
 40
0.5
100
AcDbArc
 50
180.0
 51
270.0
  0
ARC
  5
11F8
330
1F
100
AcDbEntity
  8
0
  6
Continuous
 62
     7
100
AcDbCircle
 10
-586.797674792993
 20
-106.1435235966351
 30
0.0
 40
2.349999999999996
100
AcDbArc
 50
79.94116548252101
 51
180.0
  0
ARC
  5
11F9
330
1F
100
AcDbEntity
  8
0
  6
Continuous
 62
     7
100
AcDbCircle
 10
-586.797674792993
 20
-106.1435235966351
 30
0.0
 40
2.349999999999909
100
AcDbArc
 50
180.0
 51
280.6053162888371
  0
ARC
  5
11FA
330
1F
100
AcDbEntity
  8
0
  6
Continuous
 62
     7
100
AcDbCircle
 10
-586.797674792993
 20
-106.1435235966351
 30
0.0
 40
4.249999999999939
100
AcDbArc
 50
167.2228917875113
 51
298.072486935853
  0
ARC
  5
11FB
330
1F
100
AcDbEntity
  8
0
  6
Continuous
 62
     7
100
AcDbCircle
 10
-590.797674792993
 20
-106.1435235966351
 30
0.0
 40
4.249999999999939
100
AcDbArc
 50
167.2228917875113
 51
298.072486935853
  0
ARC
  5
11FC
330
1F
100
AcDbEntity
  8
0
  6
Continuous
 62
     7
100
AcDbCircle
 10
-590.797674792993
 20
-106.1435235966351
 30
0.0
 40
2.349999999999909
100
AcDbArc
 50
180.0
 51
280.6053162888371
  0
ARC
  5
11FD
330
1F
100
AcDbEntity
  8
0
  6
Continuous
 62
     7
100
AcDbCircle
 10
-590.797674792993
 20
-106.1435235966351
 30
0.0
 40
2.349999999999996
100
AcDbArc
 50
79.94116548252101
 51
180.0
  0
ARC
  5
11FE
330
1F
100
AcDbEntity
  8
0
  6
Continuous
 62
     7
100
AcDbCircle
 10
-582.797674792993
 20
-106.1435235966351
 30
0.0
 40
4.249999999999939
100
AcDbArc
 50
167.2228917875113
 51
22.98083533260104
  0
ARC
  5
11FF
330
1F
100
AcDbEntity
  8
0
  6
DASHED
 62
     2
 48
0.5
100
AcDbCircle
 10
467.6523544921993
 20
29.28184976259831
 30
0.0
 40
5.99999999999963
100
AcDbArc
 50
319.7683779987628
 51
234.169544328566
  0
ARC
  5
1200
330
1F
100
AcDbEntity
  8
0
  6
Continuous
 62
     2
 48
0.5
100
AcDbCircle
 10
470.2097499758074
 20
11.7568971143844
 30
0.0
 40
4.046485181260583
100
AcDbArc
 50
240.0000000000031
 51
247.6840000106632
  0
ARC
  5
1201
330
1F
100
AcDbEntity
  8
0
  6
Continuous
 62
     2
 48
0.5
100
AcDbCircle
 10
466.1632647945461
 20
4.74817918836538
 30
0.0
 40
4.046485181261884
100
AcDbArc
 50
59.99999999999697
 51
68.78606593612349
  0
ARC
  5
1202
330
1F
100
AcDbEntity
  8
0
  6
Continuous
 62
     2
 48
0.5
100
AcDbCircle
 10
470.2097499758074
 20
11.7568971143844
 30
0.0
 40
4.046485181261371
100
AcDbArc
 50
247.6840000106632
 51
300.0000000000025
  0
ARC
  5
1203
330
1F
100
AcDbEntity
  8
0
  6
Continuous
 62
     2
 48
0.5
100
AcDbCircle
 10
466.1632647945461
 20
4.74817918836538
 30
0.0
 40
4.046485181261687
100
AcDbArc
 50
68.78606593612349
 51
120.0000000000024
  0
ARC
  5
1204
330
1F
100
AcDbEntity
  8
0
  6
DASHED
 62
     2
 48
0.5
100
AcDbCircle
 10
466.9207305606441
 20
30.59623255975839
 30
0.0
 40
10.60971485508649
100
AcDbArc
 50
300.0461838070656
 51
90.0
  0
ARC
  5
1205
330
1F
100
AcDbEntity
  8
0
  6
DASHED
 62
     2
 48
0.5
100
AcDbCircle
 10
465.9018802434052
 20
28.5074289336344
 30
0.0
 40
1.800000000000238
100
AcDbArc
 50
343.4703189396036
 51
191.8160622808709
  0
ARC
  5
1206
330
1F
100
AcDbEntity
  8
0
  6
DASHED
 62
     2
 48
0.5
100
AcDbCircle
 10
470.4689845775624
 20
28.90862334046938
 30
0.0
 40
1.799999999999722
100
AcDbArc
 50
348.5229369901576
 51
183.9409480135088
  0
ARC
  5
1207
330
1F
100
AcDbEntity
  8
0
  6
DASHED
 62
     2
 48
0.5
100
AcDbCircle
 10
467.8085980131154
 20
31.28117900733947
 30
0.0
 40
1.8000000000002
100
AcDbArc
 50
320.7147033989999
 51
217.3075435603577
  0
ARC
  5
1208
330
1F
100
AcDbEntity
  8
0
  6
DASHED
 62
     2
100
AcDbCircle
 10
-434.4192974307516
 20
-33.38761307603205
 30
0.0
 40
1.599996478112578
100
AcDbArc
 50
270.0001376382501
 51
354.998289053356
  0
ARC
  5
1209
330
1F
100
AcDbEntity
  8
0
  6
DASHED
 62
     2
100
AcDbCircle
 10
-439.9095441027532
 20
-33.38756326641683
 30
0.0
 40
1.600046288488383
100
AcDbArc
 50
185.0033452874513
 51
269.9982280209475
  0
ARC
  5
120A
330
1F
100
AcDbEntity
  8
0
  6
DASHED
 62
     2
100
AcDbCircle
 10
-508.9102081863789
 20
-33.38761307603202
 30
0.0
 40
1.599996478112554
100
AcDbArc
 50
185.0017109466452
 51
269.9998623617521
  0
ARC
  5
120B
330
1F
100
AcDbEntity
  8
0
  6
DASHED
 62
     2
100
AcDbCircle
 10
-503.4199615143772
 20
-33.38756326641676
 30
0.0
 40
1.600046288488444
100
AcDbArc
 50
270.0017719790566
 51
354.9966547125464
  0
ARC
  5
120C
330
1F
100
AcDbEntity
  8
0
  6
DASHED
 62
     2
100
AcDbCircle
 10
-471.6647528085653
 20
44.81229044585997
 30
0.0
 40
80.99999999999996
100
AcDbArc
 50
181.3730734413214
 51
185.7519773332714
  0
ARC
  5
120D
330
1F
100
AcDbEntity
  8
0
  6
DASHED
 62
     2
100
AcDbCircle
 10
-471.6647528085653
 20
44.81229044585997
 30
0.0
 40
81.00000000000003
100
AcDbArc
 50
185.7519773332714
 51
188.585145605797
  0
ARC
  5
120E
330
1F
100
AcDbEntity
  8
0
  6
DASHED
 62
     2
100
AcDbCircle
 10
-471.6647528085653
 20
44.81229044585997
 30
0.0
 40
81.00000000000006
100
AcDbArc
 50
188.585145605797
 51
191.414854394203
  0
ARC
  5
120F
330
1F
100
AcDbEntity
  8
0
  6
DASHED
 62
     2
100
AcDbCircle
 10
-471.6647528085653
 20
44.81229044585997
 30
0.0
 40
81.00000000000003
100
AcDbArc
 50
191.414854394203
 51
194.2480226667285
  0
ARC
  5
1210
330
1F
100
AcDbEntity
  8
0
  6
CENTER_DASH_DASH
 62
   171
100
AcDbCircle
 10
-471.6647528085653
 20
44.81229044585997
 30
0.0
 40
78.99999999999953
100
AcDbArc
 50
180.528501533538
 51
199.471498466462
  0
ARC
  5
1211
330
1F
100
AcDbEntity
  8
0
  6
DASHED
 62
     2
100
AcDbCircle
 10
-471.6647528085653
 20
44.81229044585997
 30
0.0
 40
80.99999999999999
100
AcDbArc
 50
194.2480226667285
 51
198.6269265586786
  0
ARC
  5
1212
330
1F
100
AcDbEntity
  8
0
  6
CENTER_DASH_DASH
 62
   171
100
AcDbCircle
 10
-471.6647528085653
 20
44.81229044585997
 30
0.0
 40
78.99999999999967
100
AcDbArc
 50
325.4043722677932
 51
180.528501533538
  0
ARC
  5
1213
330
1F
100
AcDbEntity
  8
0
  6
DASHED
 62
     2
100
AcDbCircle
 10
547.9450977170658
 20
-33.45012861766956
 30
0.0
 40
1.599996478112669
100
AcDbArc
 50
185.0017109466455
 51
269.9998623617499
  0
ARC
  5
1214
330
1F
100
AcDbEntity
  8
0
  6
DASHED
 62
     2
100
AcDbCircle
 10
553.4353443890673
 20
-33.45007880805435
 30
0.0
 40
1.600046288488416
100
AcDbArc
 50
270.0017719790566
 51
354.9966547125471
  0
ARC
  5
1215
330
1F
100
AcDbEntity
  8
0
  6
DASHED
 62
     2
100
AcDbCircle
 10
498.4331435489277
 20
-33.45012861766958
 30
0.0
 40
1.599996478112555
100
AcDbArc
 50
185.0017109466455
 51
269.9998623617521
  0
ARC
  5
1216
330
1F
100
AcDbEntity
  8
0
  6
DASHED
 62
     2
100
AcDbCircle
 10
503.9233902209296
 20
-33.45007880805435
 30
0.0
 40
1.600046288488416
100
AcDbArc
 50
270.0017719790566
 51
354.9966547125471
  0
ARC
  5
121A
330
1F
100
AcDbEntity
  8
0
  6
Continuous
 62
     7
100
AcDbCircle
 10
-471.6647528085653
 20
44.81229044585997
 30
0.0
 40
158.0
100
AcDbArc
 50
64.75141161616495
 51
90.0
  0
ARC
  5
121B
330
1F
100
AcDbEntity
  8
0
  6
Continuous
 62
     7
100
AcDbCircle
 10
-471.6647528085653
 20
44.81229044585997
 30
0.0
 40
115.0
100
AcDbArc
 50
74.78467803001795
 51
106.9928823084461
  0
ARC
  5
121C
330
1F
100
AcDbEntity
  8
0
  6
Continuous
 62
     7
100
AcDbCircle
 10
-471.6647528085653
 20
44.81229044585997
 30
0.0
 40
125.0
100
AcDbArc
 50
72.68550031586716
 51
88.7315690384662
  0
ARC
  5
121D
330
1F
100
AcDbEntity
  8
0
  6
Continuous
 62
     7
100
AcDbCircle
 10
-471.6647528085653
 20
44.81229044585997
 30
0.0
 40
120.0
100
AcDbArc
 50
90.6730896712097
 51
97.00000000000002
  0
ARC
  5
121E
330
1F
100
AcDbEntity
  8
0
  6
CENTER_DASH_DASH
 62
   171
100
AcDbCircle
 10
-471.6647528085653
 20
44.81229044585997
 30
0.0
 40
78.99999999999959
100
AcDbArc
 50
199.471498466462
 51
214.5956277322069
  0
ARC
  5
121F
330
1F
100
AcDbEntity
  8
0
  6
DASH_CENTER
 62
    30
100
AcDbCircle
 10
-471.6647528085658
 20
44.81229044585999
 30
0.0
 40
69.00000000000066
100
AcDbArc
 50
351.229082397052
 51
8.880785353275554
  0
ARC
  5
1220
330
1F
100
AcDbEntity
  8
0
  6
Continuous
 62
     7
100
AcDbCircle
 10
-403.6647528085651
 20
45.81229044585995
 30
0.0
 40
0.5
100
AcDbArc
 50
270.0
 51
0.0
  0
ARC
  5
1221
330
1F
100
AcDbEntity
  8
0
  6
Continuous
 62
     7
100
AcDbCircle
 10
-403.6647528085651
 20
43.81229044585995
 30
0.0
 40
0.5
100
AcDbArc
 50
0.0
 51
90.0
  0
ARC
  5
1222
330
1F
100
AcDbEntity
  8
0
  6
Continuous
 62
     7
100
AcDbCircle
 10
-401.6647528085653
 20
43.81229044585995
 30
0.0
 40
0.5
100
AcDbArc
 50
90.0
 51
180.0
  0
ARC
  5
1223
330
1F
100
AcDbEntity
  8
0
  6
Continuous
 62
     7
100
AcDbCircle
 10
-401.6647528085653
 20
45.81229044585995
 30
0.0
 40
0.5
100
AcDbArc
 50
180.0
 51
270.0
  0
ARC
  5
1224
330
1F
100
AcDbEntity
  8
0
  6
DASH_CENTER
 62
    30
100
AcDbCircle
 10
-471.6647528085653
 20
44.81229044585997
 30
0.0
 40
68.99999999999995
100
AcDbArc
 50
261.1192146467244
 51
278.8807853532758
  0
ARC
  5
1225
330
1F
100
AcDbEntity
  8
0
  6
Continuous
 62
     7
100
AcDbCircle
 10
-470.6647528085651
 20
-23.18770955414003
 30
0.0
 40
0.5
100
AcDbArc
 50
180.0
 51
270.0
  0
ARC
  5
1226
330
1F
100
AcDbEntity
  8
0
  6
Continuous
 62
     7
100
AcDbCircle
 10
-472.6647528085653
 20
-23.18770955414003
 30
0.0
 40
0.5
100
AcDbArc
 50
270.0
 51
0.0
  0
ARC
  5
1227
330
1F
100
AcDbEntity
  8
0
  6
Continuous
 62
     7
100
AcDbCircle
 10
-472.6647528085653
 20
-25.18770955414003
 30
0.0
 40
0.5
100
AcDbArc
 50
0.0
 51
90.0
  0
ARC
  5
1228
330
1F
100
AcDbEntity
  8
0
  6
Continuous
 62
     7
100
AcDbCircle
 10
-470.6647528085651
 20
-25.18770955414003
 30
0.0
 40
0.5
100
AcDbArc
 50
90.0
 51
180.0
  0
ARC
  5
1229
330
1F
100
AcDbEntity
  8
0
  6
DASH_CENTER
 62
    30
100
AcDbCircle
 10
-471.6647528085696
 20
44.81229044586004
 30
0.0
 40
68.99999999999526
100
AcDbArc
 50
169.742377098482
 51
188.8807853532763
  0
ARC
  5
122A
330
1F
100
AcDbEntity
  8
0
  6
Continuous
 62
     7
100
AcDbCircle
 10
-539.6647528085652
 20
43.81229044585999
 30
0.0
 40
0.5
100
AcDbArc
 50
90.0
 51
180.0
  0
ARC
  5
122B
330
1F
100
AcDbEntity
  8
0
  6
Continuous
 62
     7
100
AcDbCircle
 10
-539.6647528085652
 20
45.81229044585999
 30
0.0
 40
0.5
100
AcDbArc
 50
180.0
 51
270.0
  0
ARC
  5
122C
330
1F
100
AcDbEntity
  8
0
  6
Continuous
 62
     7
100
AcDbCircle
 10
-541.6647528085652
 20
45.81229044585999
 30
0.0
 40
0.5
100
AcDbArc
 50
270.0
 51
0.0
  0
ARC
  5
122D
330
1F
100
AcDbEntity
  8
0
  6
Continuous
 62
     7
100
AcDbCircle
 10
-541.6647528085652
 20
43.81229044585999
 30
0.0
 40
0.5
100
AcDbArc
 50
0.0
 51
90.0
  0
ARC
  5
122E
330
1F
100
AcDbEntity
  8
0
  6
DASH_CENTER
 62
    30
100
AcDbCircle
 10
-471.6647528085653
 20
44.81229044585997
 30
0.0
 40
69.0
100
AcDbArc
 50
81.11921464672422
 51
98.88078535327558
  0
ARC
  5
122F
330
1F
100
AcDbEntity
  8
0
  6
Continuous
 62
     7
100
AcDbCircle
 10
-472.6647528085653
 20
112.8122904458599
 30
0.0
 40
0.5
100
AcDbArc
 50
0.0
 51
90.0
  0
ARC
  5
1230
330
1F
100
AcDbEntity
  8
0
  6
Continuous
 62
     7
100
AcDbCircle
 10
-470.6647528085651
 20
112.8122904458599
 30
0.0
 40
0.5
100
AcDbArc
 50
90.0
 51
180.0
  0
ARC
  5
1231
330
1F
100
AcDbEntity
  8
0
  6
Continuous
 62
     7
100
AcDbCircle
 10
-470.6647528085651
 20
114.8122904458599
 30
0.0
 40
0.5
100
AcDbArc
 50
180.0
 51
270.0
  0
ARC
  5
1232
330
1F
100
AcDbEntity
  8
0
  6
Continuous
 62
     7
100
AcDbCircle
 10
-472.6647528085653
 20
114.8122904458599
 30
0.0
 40
0.5
100
AcDbArc
 50
270.0
 51
0.0
  0
ARC
  5
1233
330
1F
100
AcDbEntity
  8
0
  6
DASH_CENTER
 62
    30
100
AcDbCircle
 10
-471.6647528085653
 20
44.81229044585997
 30
0.0
 40
163.0
100
AcDbArc
 50
295.6048415793063
 51
304.3951584206935
  0
ARC
  5
1234
330
1F
100
AcDbEntity
  8
0
  6
DASH_CENTER
 62
    30
100
AcDbCircle
 10
-471.6647528085653
 20
44.81229044585997
 30
0.0
 40
163.0
100
AcDbArc
 50
235.6048415793065
 51
244.3951584206935
  0
ARC
  5
1235
330
1F
100
AcDbEntity
  8
0
  6
DASH_CENTER
 62
    30
100
AcDbCircle
 10
-471.6647528085653
 20
44.81229044585997
 30
0.0
 40
163.0
100
AcDbArc
 50
175.6048415793065
 51
184.3951584206935
  0
ARC
  5
1236
330
1F
100
AcDbEntity
  8
0
  6
DASH_CENTER
 62
    30
100
AcDbCircle
 10
-471.6647528085653
 20
44.81229044585997
 30
0.0
 40
163.0
100
AcDbArc
 50
115.6048415793065
 51
124.3951584206934
  0
ARC
  5
1237
330
1F
100
AcDbEntity
  8
0
  6
DASH_CENTER
 62
    30
100
AcDbCircle
 10
-471.6647528085653
 20
44.81229044585997
 30
0.0
 40
162.9999999999999
100
AcDbArc
 50
55.60484157930645
 51
64.39515842069339
  0
ARC
  5
1238
330
1F
100
AcDbEntity
  8
0
  6
DASH_CENTER
 62
    30
100
AcDbCircle
 10
-471.6647528085653
 20
44.81229044585997
 30
0.0
 40
162.9999999999999
100
AcDbArc
 50
355.6048415793065
 51
4.395158420693508
  0
ARC
  5
1239
330
1F
100
AcDbEntity
  8
0
  6
Continuous
 62
     7
100
AcDbCircle
 10
-471.6647528085653
 20
44.81229044585997
 30
0.0
 40
157.9999999999999
100
AcDbArc
 50
124.751411616165
 51
175.2485883838349
  0
ARC
  5
123A
330
1F
100
AcDbEntity
  8
0
  6
Continuous
 62
     7
100
AcDbCircle
 10
-471.6647528085653
 20
44.81229044585997
 30
0.0
 40
157.9999999999998
100
AcDbArc
 50
90.0
 51
115.2485883838349
  0
ARC
  5
123B
330
1F
100
AcDbEntity
  8
0
  6
Continuous
 62
     7
100
AcDbCircle
 10
-471.6647528085653
 20
44.81229044585997
 30
0.0
 40
157.9999999999999
100
AcDbArc
 50
4.75141161616503
 51
55.24858838383496
  0
ARC
  5
123C
330
1F
100
AcDbEntity
  8
0
  6
Continuous
 62
     7
100
AcDbCircle
 10
-471.6647528085653
 20
44.81229044585997
 30
0.0
 40
158.0000000000001
100
AcDbArc
 50
184.751411616165
 51
235.248588383835
  0
ARC
  5
123D
330
1F
100
AcDbEntity
  8
0
  6
Continuous
 62
     7
100
AcDbCircle
 10
-391.8042564981874
 20
-95.91054668138152
 30
0.0
 40
0.5999999999999419
100
AcDbArc
 50
300.0000000000044
 51
29.99999999999842
  0
ARC
  5
123E
330
1F
100
AcDbEntity
  8
0
  6
Continuous
 62
     7
100
AcDbCircle
 10
-390.6042064981874
 20
-97.9890942530045
 30
0.0
 40
0.5999999999999166
100
AcDbArc
 50
29.99999999999488
 51
119.9999999999944
  0
ARC
  5
123F
330
1F
100
AcDbEntity
  8
0
  6
Continuous
 62
     7
100
AcDbCircle
 10
-388.5256589265644
 20
-96.7890442530045
 30
0.0
 40
0.6000000000000032
100
AcDbArc
 50
120.0000000000011
 51
210.0000000000101
  0
ARC
  5
1240
330
1F
100
AcDbEntity
  8
0
  6
Continuous
 62
     7
100
AcDbCircle
 10
-389.7257089265642
 20
-94.71049668138149
 30
0.0
 40
0.6000000000002409
100
AcDbArc
 50
209.9999999999942
 51
299.9999999999951
  0
ARC
  5
1241
330
1F
100
AcDbEntity
  8
0
  6
Continuous
 62
     7
100
AcDbCircle
 10
-390.1647528085653
 20
-96.34985037100364
 30
0.0
 40
7.000000000000017
100
AcDbArc
 50
235.0000000000003
 51
5.000000000000207
  0
ARC
  5
1242
330
1F
100
AcDbEntity
  8
0
  6
Continuous
 62
     7
100
AcDbCircle
 10
-553.6040564981874
 20
-94.71034668138143
 30
0.0
 40
0.5999999999999703
100
AcDbArc
 50
239.9999999999907
 51
330.0000000000043
  0
ARC
  5
1243
330
1F
100
AcDbEntity
  8
0
  6
Continuous
 62
     7
100
AcDbCircle
 10
-554.8041064981873
 20
-96.7888942530045
 30
0.0
 40
0.5999999999998602
100
AcDbArc
 50
330.0000000000036
 51
60.00000000000702
  0
ARC
  5
1244
330
1F
100
AcDbEntity
  8
0
  6
Continuous
 62
     7
100
AcDbCircle
 10
-552.7255589265641
 20
-97.98894425300449
 30
0.0
 40
0.5999999999999549
100
AcDbArc
 50
60.00000000001507
 51
150.0000000000034
  0
ARC
  5
1245
330
1F
100
AcDbEntity
  8
0
  6
Continuous
 62
     7
100
AcDbCircle
 10
-551.5255089265643
 20
-95.91039668138149
 30
0.0
 40
0.6000000000002409
100
AcDbArc
 50
150.0000000000058
 51
239.9999999999995
  0
ARC
  5
1246
330
1F
100
AcDbEntity
  8
0
  6
Continuous
 62
     7
100
AcDbCircle
 10
-553.1647528085652
 20
-96.34985037100351
 30
0.0
 40
7.000000000000132
100
AcDbArc
 50
174.9999999999999
 51
304.9999999999986
  0
ARC
  5
1247
330
1F
100
AcDbEntity
  8
0
  6
Continuous
 62
     7
100
AcDbCircle
 10
-633.4645528085652
 20
46.01249044586004
 30
0.0
 40
0.5999999999997954
100
AcDbArc
 50
180.0
 51
270.0
  0
ARC
  5
1248
330
1F
100
AcDbEntity
  8
0
  6
Continuous
 62
     7
100
AcDbCircle
 10
-635.8646528085651
 20
46.01249044586004
 30
0.0
 40
0.5999999999999091
100
AcDbArc
 50
270.0
 51
0.0
  0
ARC
  5
1249
330
1F
100
AcDbEntity
  8
0
  6
Continuous
 62
     7
100
AcDbCircle
 10
-635.8646528085651
 20
43.61239044585999
 30
0.0
 40
0.6000000000002501
100
AcDbArc
 50
0.0
 51
90.0
  0
ARC
  5
124A
330
1F
100
AcDbEntity
  8
0
  6
Continuous
 62
     7
100
AcDbCircle
 10
-633.4645528085652
 20
43.61239044585995
 30
0.0
 40
0.6000000000001366
100
AcDbArc
 50
90.0
 51
180.0
  0
ARC
  5
124B
330
1F
100
AcDbEntity
  8
0
  6
Continuous
 62
     7
100
AcDbCircle
 10
-634.6647528085654
 20
44.81229044586006
 30
0.0
 40
6.999999999999976
100
AcDbArc
 50
114.9999999999998
 51
245.0000000000003
  0
ARC
  5
124C
330
1F
100
AcDbEntity
  8
0
  6
Continuous
 62
     7
100
AcDbCircle
 10
-551.525249118943
 20
185.5351275731014
 30
0.0
 40
0.5999999999998811
100
AcDbArc
 50
119.999999999989
 51
210.0000000000089
  0
ARC
  5
124D
330
1F
100
AcDbEntity
  8
0
  6
Continuous
 62
     7
100
AcDbCircle
 10
-552.7252991189429
 20
187.6136751447244
 30
0.0
 40
0.599999999999903
100
AcDbArc
 50
210.0000000000035
 51
300.0000000000131
  0
ARC
  5
124E
330
1F
100
AcDbEntity
  8
0
  6
Continuous
 62
     7
100
AcDbCircle
 10
-554.803846690566
 20
186.4136251447243
 30
0.0
 40
0.599999999999938
100
AcDbArc
 50
299.9999999999984
 51
29.99999999999659
  0
ARC
  5
124F
330
1F
100
AcDbEntity
  8
0
  6
Continuous
 62
     7
100
AcDbCircle
 10
-553.6037966905658
 20
184.3350775731014
 30
0.0
 40
0.5999999999998187
100
AcDbArc
 50
30.00000000001126
 51
119.9999999999984
  0
ARC
  5
1250
330
1F
100
AcDbEntity
  8
0
  6
Continuous
 62
     7
100
AcDbCircle
 10
-553.164752808565
 20
185.9744312627235
 30
0.0
 40
6.999999999999917
100
AcDbArc
 50
55.00000000000018
 51
185.0000000000006
  0
ARC
  5
1251
330
1F
100
AcDbEntity
  8
0
  6
Continuous
 62
     7
100
AcDbCircle
 10
-389.7254491189431
 20
184.3349275731014
 30
0.0
 40
0.5999999999999665
100
AcDbArc
 50
59.99999999999689
 51
150.0000000000009
  0
ARC
  5
1252
330
1F
100
AcDbEntity
  8
0
  6
Continuous
 62
     7
100
AcDbCircle
 10
-388.5253991189432
 20
186.4134751447243
 30
0.0
 40
0.5999999999998679
100
AcDbArc
 50
149.9999999999915
 51
239.9999999999955
  0
ARC
  5
1253
330
1F
100
AcDbEntity
  8
0
  6
Continuous
 62
     7
100
AcDbCircle
 10
-390.6039466905662
 20
187.6135251447244
 30
0.0
 40
0.6000000000000402
100
AcDbArc
 50
240.0000000000009
 51
329.999999999998
  0
ARC
  5
1254
330
1F
100
AcDbEntity
  8
0
  6
Continuous
 62
     7
100
AcDbCircle
 10
-391.8039966905661
 20
185.5349775731014
 30
0.0
 40
0.6000000000001075
100
AcDbArc
 50
329.9999999999952
 51
59.99999999999553
  0
ARC
  5
1255
330
1F
100
AcDbEntity
  8
0
  6
Continuous
 62
     7
100
AcDbCircle
 10
-390.1647528085653
 20
185.9744312627234
 30
0.0
 40
7.000000000000072
100
AcDbArc
 50
355.0
 51
124.9999999999991
  0
ARC
  5
1256
330
1F
100
AcDbEntity
  8
0
  6
Continuous
 62
     7
100
AcDbCircle
 10
-309.8649528085652
 20
43.61209044585995
 30
0.0
 40
0.5999999999999659
100
AcDbArc
 50
0.0
 51
90.0
  0
ARC
  5
1257
330
1F
100
AcDbEntity
  8
0
  6
Continuous
 62
     7
100
AcDbCircle
 10
-307.4648528085651
 20
43.61209044585995
 30
0.0
 40
0.5999999999999091
100
AcDbArc
 50
90.0
 51
180.0
  0
ARC
  5
1258
330
1F
100
AcDbEntity
  8
0
  6
Continuous
 62
     7
100
AcDbCircle
 10
-307.4648528085651
 20
46.01219044586003
 30
0.0
 40
0.6000000000000796
100
AcDbArc
 50
180.0
 51
270.0
  0
ARC
  5
1259
330
1F
100
AcDbEntity
  8
0
  6
Continuous
 62
     7
100
AcDbCircle
 10
-309.8649528085652
 20
46.01219044586003
 30
0.0
 40
0.6000000000001366
100
AcDbArc
 50
270.0
 51
0.0
  0
ARC
  5
125A
330
1F
100
AcDbEntity
  8
0
  6
Continuous
 62
     7
100
AcDbCircle
 10
-471.6647528085653
 20
44.81229044585997
 30
0.0
 40
158.0
100
AcDbArc
 50
304.751411616165
 51
355.248588383835
  0
ARC
  5
125B
330
1F
100
AcDbEntity
  8
0
  6
Continuous
 62
     7
100
AcDbCircle
 10
-308.6647528085653
 20
44.81229044585996
 30
0.0
 40
7.000000000000051
100
AcDbArc
 50
295.0000000000009
 51
64.99999999999904
  0
ARC
  5
125C
330
1F
100
AcDbEntity
  8
0
  6
CENTER_DASH_DASH
 62
    30
100
AcDbCircle
 10
-471.6647528085653
 20
44.81229044585997
 30
0.0
 40
84.99999999999934
100
AcDbArc
 50
37.60821280033429
 51
52.39178719966618
  0
ARC
  5
125D
330
1F
100
AcDbEntity
  8
0
  6
CENTER_DASH_DASH
 62
   171
100
AcDbCircle
 10
-411.5606764077093
 20
104.916366846716
 30
0.0
 40
6.999999999999863
100
AcDbArc
 50
344.6838632762625
 51
105.3161367237428
  0
ARC
  5
125E
330
1F
100
AcDbEntity
  8
0
  6
CENTER_DASH_DASH
 62
    30
100
AcDbCircle
 10
-471.6647528085653
 20
44.81229044585997
 30
0.0
 40
84.99999999999909
100
AcDbArc
 50
307.6082128003343
 51
322.3917871996658
  0
ARC
  5
125F
330
1F
100
AcDbEntity
  8
0
  6
CENTER_DASH_DASH
 62
   171
100
AcDbCircle
 10
-411.5606764077093
 20
-15.291785954996
 30
0.0
 40
6.999999999999769
100
AcDbArc
 50
254.6838632762548
 51
15.31613672374657
  0
ARC
  5
1260
330
1F
100
AcDbEntity
  8
0
  6
CENTER_DASH_DASH
 62
   171
100
AcDbCircle
 10
-471.6647528085653
 20
44.81229044585997
 30
0.0
 40
78.99999999999997
100
AcDbArc
 50
270.0
 51
289.8612529467859
  0
ARC
  5
1261
330
1F
100
AcDbEntity
  8
0
  6
CENTER_DASH_DASH
 62
    30
100
AcDbCircle
 10
-471.6647528085653
 20
44.81229044585997
 30
0.0
 40
84.99999999999998
100
AcDbArc
 50
127.6082128003338
 51
142.3917871996657
  0
ARC
  5
1262
330
1F
100
AcDbEntity
  8
0
  6
CENTER_DASH_DASH
 62
   171
100
AcDbCircle
 10
-531.7688292094211
 20
104.916366846716
 30
0.0
 40
7.000000000000909
100
AcDbArc
 50
74.68386327625591
 51
195.316136723738
  0
ARC
  5
1263
330
1F
100
AcDbEntity
  8
0
  6
CENTER_DASH_DASH
 62
    30
100
AcDbCircle
 10
-471.6647528085653
 20
44.81229044585997
 30
0.0
 40
84.9999999999992
100
AcDbArc
 50
217.6082128003341
 51
232.3917871996656
  0
ARC
  5
1264
330
1F
100
AcDbEntity
  8
0
  6
CENTER_DASH_DASH
 62
   171
100
AcDbCircle
 10
-531.7688292094211
 20
-15.291785954996
 30
0.0
 40
6.999999999999947
100
AcDbArc
 50
164.6838632762529
 51
285.3161367237466
  0
ARC
  5
1265
330
1F
100
AcDbEntity
  8
0
  6
CENTER_DASH_DASH
 62
   171
100
AcDbCircle
 10
-471.6647528085653
 20
44.81229044585997
 30
0.0
 40
78.99999999999952
100
AcDbArc
 50
250.1387470532141
 51
270.0
  0
ARC
  5
1266
330
1F
100
AcDbEntity
  8
10
  6
Continuous
 62
     7
100
AcDbCircle
 10
-283.6650528085651
 20
-17.18770955414003
 30
0.0
 40
2.000000000000002
100
AcDbArc
 50
90.0
 51
180.0
  0
ARC
  5
1267
330
1F
100
AcDbEntity
  8
10
  6
Continuous
 62
     7
100
AcDbCircle
 10
-288.6645528085652
 20
-25.18760955414006
 30
0.0
 40
3.0
100
AcDbArc
 50
270.0
 51
0.0
  0
ARC
  5
1268
330
1F
100
AcDbEntity
  8
10
  6
Continuous
 62
     7
100
AcDbCircle
 10
-288.6645528085652
 20
-113.18780955414
 30
0.0
 40
3.0
100
AcDbArc
 50
0.0
 51
90.0
  0
ARC
  5
1269
330
1F
100
AcDbEntity
  8
10
  6
Continuous
 62
     7
100
AcDbCircle
 10
-283.6650528098152
 20
-121.1877095528901
 30
0.0
 40
2.000000001250019
100
AcDbArc
 50
180.0028648247821
 51
270.0000000358111
  0
ARC
  5
126A
330
1F
100
AcDbEntity
  8
10
  6
Continuous
 62
     7
100
AcDbCircle
 10
-326.6684528085651
 20
-23.18770955414003
 30
0.0
 40
5.000000000000051
100
AcDbArc
 50
218.6004240928907
 51
270.0
  0
ARC
  5
126B
330
1F
100
AcDbEntity
  8
0
  6
Continuous
 62
     7
100
AcDbCircle
 10
-270.9646492866732
 20
-32.50060937808648
 30
0.0
 40
1.599996478112599
100
AcDbArc
 50
0.00013763824983
 51
84.99828905335512
  0
ARC
  5
126C
330
1F
100
AcDbEntity
  8
0
  6
Continuous
 62
     7
100
AcDbCircle
 10
-270.9646990962884
 20
-37.99085605008829
 30
0.0
 40
1.600046288488431
100
AcDbArc
 50
275.0033452874528
 51
359.9982280209437
  0
ARC
  5
126D
330
1F
100
AcDbEntity
  8
0
  6
Continuous
 62
     7
100
AcDbCircle
 10
-270.9646492866732
 20
-105.8748097301936
 30
0.0
 40
1.599996478112598
100
AcDbArc
 50
275.0017109466448
 51
359.9998623617499
  0
ARC
  5
126E
330
1F
100
AcDbEntity
  8
0
  6
Continuous
 62
     7
100
AcDbCircle
 10
-270.9646990962884
 20
-100.3845630581918
 30
0.0
 40
1.600046288488416
100
AcDbArc
 50
0.00177197905657
 51
84.99665471254719
  0
ARC
  5
126F
330
1F
100
AcDbEntity
  8
0
  6
Continuous
 62
     7
100
AcDbCircle
 10
491.8304454157295
 20
-39.4878095541399
 30
0.0
 40
2.999999999999991
100
AcDbArc
 50
95.73917047726485
 51
179.9999999999988
  0
ARC
  5
1270
330
1F
100
AcDbEntity
  8
0
  6
Continuous
 62
     7
100
AcDbCircle
 10
435.530445415731
 20
14.32971290536921
 30
0.0
 40
2.999999999999916
100
AcDbArc
 50
199.9102101651408
 51
263.501931156681
  0
ARC
  5
1271
330
1F
100
AcDbEntity
  8
0
  6
Continuous
 62
     7
100
AcDbCircle
 10
463.0304258990644
 20
-12.12416465467661
 30
0.0
 40
1.900019516785245
100
AcDbArc
 50
359.9993576810967
 51
84.99630987471144
  0
ARC
  5
1272
330
1F
100
AcDbEntity
  8
0
  6
Continuous
 62
     7
100
AcDbCircle
 10
463.0304757088937
 20
-18.45965289504739
 30
0.0
 40
1.89996970712403
100
AcDbArc
 50
275.002313819052
 51
359.999003039063
  0
ARC
  5
1273
330
1F
100
AcDbEntity
  8
0
  6
Continuous
 62
     7
100
AcDbCircle
 10
456.5305302461782
 20
-28.01642312095782
 30
0.0
 40
1.0
100
AcDbArc
 50
270.0
 51
350.1315610060652
  0
ARC
  5
1274
330
1F
100
AcDbEntity
  8
0
  6
Continuous
 62
     7
100
AcDbCircle
 10
561.0304454157299
 20
-18.66980696139285
 30
0.0
 40
1.499999999999972
100
AcDbArc
 50
138.1896851042204
 51
180.0
  0
ARC
  5
1275
330
1F
100
AcDbEntity
  8
10
  6
Continuous
 62
     7
100
AcDbCircle
 10
297.5574506200471
 20
-111.1877055229118
 30
0.0
 40
2.000004031235099
100
AcDbArc
 50
269.9998509076365
 51
345.5223983590684
  0
ARC
  5
1276
330
1F
100
AcDbEntity
  8
10
  6
Continuous
 62
     7
100
AcDbCircle
 10
301.4305402114155
 20
-112.1877135853684
 30
0.0
 40
2.000004031235071
100
AcDbArc
 50
89.99985090763651
 51
165.5223983590691
  0
ARC
  5
1277
330
1F
100
AcDbEntity
  8
10
  6
Continuous
 62
     7
100
AcDbCircle
 10
282.6304454144813
 20
-112.18770955289
 30
0.0
 40
2.000000001249985
100
AcDbArc
 50
359.9999999641881
 51
89.99713517522106
  0
ARC
  5
1278
330
1F
100
AcDbEntity
  8
10
  6
Continuous
 62
     7
100
AcDbCircle
 10
226.757450620047
 20
-111.1877055229118
 30
0.0
 40
2.000004031235058
100
AcDbArc
 50
269.9998509076373
 51
345.5223983590693
  0
ARC
  5
1279
330
1F
100
AcDbEntity
  8
10
  6
Continuous
 62
     7
100
AcDbCircle
 10
230.6305402114155
 20
-112.1877135853684
 30
0.0
 40
2.000004031235058
100
AcDbArc
 50
89.99985090763731
 51
165.5223983590693
  0
ARC
  5
127A
330
1F
100
AcDbEntity
  8
10
  6
Continuous
 62
     7
100
AcDbCircle
 10
353.4304454144812
 20
-112.18770955289
 30
0.0
 40
2.000000001249985
100
AcDbArc
 50
359.9999999641885
 51
89.99713517521291
  0
ARC
  5
127B
330
1F
100
AcDbEntity
  8
0
  6
Continuous
 62
     7
100
AcDbCircle
 10
402.5304454157311
 20
184.8122904458599
 30
0.0
 40
15.0
100
AcDbArc
 50
0.0
 51
90.0
  0
ARC
  5
127C
330
1F
100
AcDbEntity
  8
100
  6
DASH_CENTER
 62
    30
100
AcDbCircle
 10
393.5303581984567
 20
-69.18759637384095
 30
0.0
 40
48.00000750791074
100
AcDbArc
 50
124.7059404485774
 51
145.4956790376895
  0
ARC
  5
127D
330
1F
100
AcDbEntity
  8
10
  6
Continuous
 62
     7
100
AcDbCircle
 10
211.6304454144813
 20
-112.18770955289
 30
0.0
 40
2.000000001250014
100
AcDbArc
 50
359.9999999641881
 51
89.99713517521454
  0
ARC
  5
127E
330
1F
100
AcDbEntity
  8
10
  6
Continuous
 62
     7
100
AcDbCircle
 10
154.757450620047
 20
-111.1877055229118
 30
0.0
 40
2.000004031235099
100
AcDbArc
 50
269.9998509076365
 51
345.5223983590685
  0
ARC
  5
127F
330
1F
100
AcDbEntity
  8
10
  6
Continuous
 62
     7
100
AcDbCircle
 10
158.6305402114154
 20
-112.1877135853684
 30
0.0
 40
2.000004031235115
100
AcDbArc
 50
89.99985090763569
 51
165.5223983590679
  0
ARC
  5
1280
330
1F
100
AcDbEntity
  8
0
  6
Continuous
 62
     7
100
AcDbCircle
 10
50.94599584824089
 20
-26.93285888132527
 30
0.0
 40
1.599996478112634
100
AcDbArc
 50
180.000137638248
 51
264.9982890533537
  0
ARC
  5
1281
330
1F
100
AcDbEntity
  8
0
  6
Continuous
 62
     7
100
AcDbCircle
 10
50.94604565785608
 20
-21.44261220932347
 30
0.0
 40
1.600046288488416
100
AcDbArc
 50
95.00334528745256
 51
179.998228020945
  0
ARC
  5
1282
330
1F
100
AcDbEntity
  8
0
  6
Continuous
 62
     7
100
AcDbCircle
 10
358.5893591449585
 20
-36.24637498514463
 30
0.0
 40
0.5
100
AcDbArc
 50
0.0
 51
90.0
  0
ARC
  5
1283
330
1F
100
AcDbEntity
  8
0
  6
Continuous
 62
     7
100
AcDbCircle
 10
360.5893591449585
 20
-36.24637498514463
 30
0.0
 40
0.5
100
AcDbArc
 50
90.0
 51
180.0
  0
ARC
  5
1284
330
1F
100
AcDbEntity
  8
0
  6
Continuous
 62
     7
100
AcDbCircle
 10
360.5893591449585
 20
-34.24637498514463
 30
0.0
 40
0.5
100
AcDbArc
 50
180.0
 51
270.0
  0
ARC
  5
1285
330
1F
100
AcDbEntity
  8
0
  6
Continuous
 62
     7
100
AcDbCircle
 10
358.5893591449585
 20
-34.24637498514463
 30
0.0
 40
0.5
100
AcDbArc
 50
270.0
 51
0.0
  0
ARC
  5
1286
330
1F
100
AcDbEntity
  8
100
  6
DASH_CENTER
 62
    30
100
AcDbCircle
 10
393.5304454157313
 20
-69.18790955414007
 30
0.0
 40
47.99997867884962
100
AcDbArc
 50
202.2054303520531
 51
235.4954914442264
  0
ARC
  5
1287
330
1F
100
AcDbEntity
  8
0
  6
Continuous
 62
     7
100
AcDbCircle
 10
360.5891108467357
 20
-104.1287958249129
 30
0.0
 40
0.5
100
AcDbArc
 50
90.0
 51
180.0
  0
ARC
  5
1288
330
1F
100
AcDbEntity
  8
0
  6
Continuous
 62
     7
100
AcDbCircle
 10
360.5891108467357
 20
-102.1287958249129
 30
0.0
 40
0.5
100
AcDbArc
 50
180.0
 51
270.0
  0
ARC
  5
1289
330
1F
100
AcDbEntity
  8
0
  6
Continuous
 62
     7
100
AcDbCircle
 10
358.5891108467357
 20
-102.1287958249129
 30
0.0
 40
0.5
100
AcDbArc
 50
270.0
 51
0.0
  0
ARC
  5
128A
330
1F
100
AcDbEntity
  8
0
  6
Continuous
 62
     7
100
AcDbCircle
 10
358.5891108467357
 20
-104.1287958249129
 30
0.0
 40
0.5
100
AcDbArc
 50
0.0
 51
90.0
  0
ARC
  5
128B
330
1F
100
AcDbEntity
  8
100
  6
DASH_CENTER
 62
    30
100
AcDbCircle
 10
393.5305326330055
 20
-69.18782273443962
 30
0.0
 40
48.0000075079107
100
AcDbArc
 50
304.7059404485781
 51
325.49567903769
  0
ARC
  5
128C
330
1F
100
AcDbEntity
  8
0
  6
Continuous
 62
     7
100
AcDbCircle
 10
428.4715316865039
 20
-102.1290441231356
 30
0.0
 40
0.5
100
AcDbArc
 50
180.0
 51
270.0
  0
ARC
  5
128D
330
1F
100
AcDbEntity
  8
0
  6
Continuous
 62
     7
100
AcDbCircle
 10
426.4715316865038
 20
-102.1290441231356
 30
0.0
 40
0.5
100
AcDbArc
 50
270.0
 51
0.0
  0
ARC
  5
128E
330
1F
100
AcDbEntity
  8
0
  6
Continuous
 62
     7
100
AcDbCircle
 10
426.4715316865038
 20
-104.1290441231356
 30
0.0
 40
0.5
100
AcDbArc
 50
0.0
 51
90.0
  0
ARC
  5
128F
330
1F
100
AcDbEntity
  8
0
  6
Continuous
 62
     7
100
AcDbCircle
 10
428.4715316865039
 20
-104.1290441231356
 30
0.0
 40
0.5
100
AcDbArc
 50
90.0
 51
180.0
  0
ARC
  5
1290
330
1F
100
AcDbEntity
  8
100
  6
DASH_CENTER
 62
    30
100
AcDbCircle
 10
393.5304454157313
 20
-69.18750955414006
 30
0.0
 40
47.99997867884963
100
AcDbArc
 50
22.20524990337944
 51
55.49549144422619
  0
ARC
  5
1291
330
1F
100
AcDbEntity
  8
0
  6
Continuous
 62
     7
100
AcDbCircle
 10
426.4717799847266
 20
-34.24662328336731
 30
0.0
 40
0.5
100
AcDbArc
 50
270.0
 51
0.0
  0
ARC
  5
1292
330
1F
100
AcDbEntity
  8
0
  6
Continuous
 62
     7
100
AcDbCircle
 10
426.4717799847266
 20
-36.24662328336731
 30
0.0
 40
0.5
100
AcDbArc
 50
0.0
 51
90.0
  0
ARC
  5
1293
330
1F
100
AcDbEntity
  8
0
  6
Continuous
 62
     7
100
AcDbCircle
 10
428.4717799847268
 20
-36.24662328336731
 30
0.0
 40
0.5
100
AcDbArc
 50
90.0
 51
180.0
  0
ARC
  5
1294
330
1F
100
AcDbEntity
  8
0
  6
Continuous
 62
     7
100
AcDbCircle
 10
428.4717799847268
 20
-34.24662328336731
 30
0.0
 40
0.5
100
AcDbArc
 50
180.0
 51
270.0
  0
ARC
  5
1295
330
1F
100
AcDbEntity
  8
60
  6
Continuous
 62
     7
100
AcDbCircle
 10
371.530641772215
 20
-44.59101770117032
 30
0.0
 40
4.999996356490646
100
AcDbArc
 50
131.8097837566016
 51
179.9999066418416
  0
ARC
  5
1296
330
1F
100
AcDbEntity
  8
60
  6
Continuous
 62
     7
100
AcDbCircle
 10
416.5306144616171
 20
-45.72125775869492
 30
0.0
 40
9.999969046020099
100
AcDbArc
 50
180.0002967669588
 51
241.7266662850581
  0
ARC
  5
1297
330
1F
100
AcDbEntity
  8
60
  6
Continuous
 62
     7
100
AcDbCircle
 10
398.5306672800001
 20
-79.18779233789976
 30
0.0
 40
28.00003545395387
100
AcDbArc
 50
327.8631838874893
 51
61.7262783595675
  0
ARC
  5
1298
330
1F
100
AcDbEntity
  8
0
  6
Continuous
 62
     7
100
AcDbCircle
 10
50.94599584824089
 20
42.06714111867483
 30
0.0
 40
1.599996478112634
100
AcDbArc
 50
180.000137638248
 51
264.9982890533537
  0
ARC
  5
1299
330
1F
100
AcDbEntity
  8
0
  6
DASHED
 62
   171
100
AcDbCircle
 10
-523.1646841092395
 20
-98.35568586645223
 30
0.0
 40
1.89996970712414
100
AcDbArc
 50
180.0027874190154
 51
264.9994766390004
  0
ARC
  5
129A
330
1F
100
AcDbEntity
  8
0
  6
DASHED
 62
   171
100
AcDbCircle
 10
-523.1648322795442
 20
-92.0201976276186
 30
0.0
 40
1.900019516785108
100
AcDbArc
 50
95.00548058335873
 51
180.0024327769385
  0
ARC
  5
129B
330
1F
100
AcDbEntity
  8
0
  6
Continuous
 62
     7
100
AcDbCircle
 10
-471.6647528085653
 20
44.81229044585997
 30
0.0
 40
158.0000000000001
100
AcDbArc
 50
283.729702537229
 51
295.248588383835
  0
ARC
  5
129C
330
1F
100
AcDbEntity
  8
0
  6
DASHED
 62
     2
100
AcDbCircle
 10
-471.6647528085653
 20
44.81229044585997
 30
0.0
 40
155.0
100
AcDbArc
 50
255.9991976137434
 51
284.0008023862566
  0
ARC
  5
129D
330
1F
100
AcDbEntity
  8
0
  6
Continuous
 62
     7
100
AcDbCircle
 10
-471.6647528085653
 20
44.81229044585997
 30
0.0
 40
155.0
100
AcDbArc
 50
284.0008023862566
 51
180.0
  0
ARC
  5
129E
330
1F
100
AcDbEntity
  8
0
  6
DASHED
 62
     2
100
AcDbCircle
 10
-471.6647528085653
 20
44.81229044585997
 30
0.0
 40
158.0000000000001
100
AcDbArc
 50
256.270297462771
 51
283.729702537229
  0
ARC
  5
129F
330
1F
100
AcDbEntity
  8
0
  6
Continuous
 62
     7
100
AcDbCircle
 10
-471.6647528085653
 20
44.81229044585997
 30
0.0
 40
155.0000000000001
100
AcDbArc
 50
180.0
 51
255.9991976137434
  0
ARC
  5
12A0
330
1F
100
AcDbEntity
  8
0
  6
Continuous
 62
     7
100
AcDbCircle
 10
-471.6647528085653
 20
44.81229044585997
 30
0.0
 40
157.9999999999999
100
AcDbArc
 50
244.751411616165
 51
256.270297462771
  0
CIRCLE
  5
12A1
330
1F
100
AcDbEntity
  8
0
  6
Continuous
 62
     7
100
AcDbCircle
 10
-491.6647528085653
 20
-90.18770955414005
 30
0.0
 40
7.699999999999986
  0
CIRCLE
  5
12A2
330
1F
100
AcDbEntity
  8
0
  6
Continuous
 62
     7
100
AcDbCircle
 10
-491.6647528085653
 20
-90.18770955414005
 30
0.0
 40
6.062177826490994
  0
CIRCLE
  5
12A3
330
1F
100
AcDbEntity
  8
0
  6
Continuous
 62
     7
100
AcDbCircle
 10
-451.6647528085653
 20
-90.18770955414005
 30
0.0
 40
7.699999999999986
  0
CIRCLE
  5
12A4
330
1F
100
AcDbEntity
  8
0
  6
Continuous
 62
     7
100
AcDbCircle
 10
-451.6647528085653
 20
-90.18770955414005
 30
0.0
 40
6.062177826491107
  0
CIRCLE
  5
12A5
330
1F
100
AcDbEntity
  8
0
  6
DASHED
 62
     2
 48
0.7
100
AcDbCircle
 10
499.5304454157288
 20
-95.18780955414108
 30
0.0
 40
5.5
  0
CIRCLE
  5
12A6
330
1F
100
AcDbEntity
  8
0
  6
DASHED
 62
     2
 48
0.7
100
AcDbCircle
 10
499.5304454157288
 20
-95.18780955413992
 30
0.0
 40
4.5
  0
CIRCLE
  5
12A7
330
1F
100
AcDbEntity
  8
0
  6
Continuous
 62
     7
100
AcDbCircle
 10
-582.797674792993
 20
-106.1435235966351
 30
0.0
 40
2.349999999999909
  0
CIRCLE
  5
12A8
102
{ACAD_REACTORS
330
1367
330
1368
102
}
330
1F
100
AcDbEntity
  8
0
  6
Continuous
 62
     7
100
AcDbCircle
 10
-471.6647528085653
 20
44.81229044585997
 30
0.0
 40
24.0
  0
CIRCLE
  5
12A9
102
{ACAD_REACTORS
330
1367
102
}
330
1F
100
AcDbEntity
  8
0
  6
Continuous
 62
     7
100
AcDbCircle
 10
-471.6647528085653
 20
44.81229044585997
 30
0.0
 40
57.49999999999993
  0
CIRCLE
  5
12AA
330
1F
100
AcDbEntity
  8
0
  6
Continuous
 62
     7
100
AcDbCircle
 10
-402.6647528085653
 20
44.81229044585996
 30
0.0
 40
4.5
  0
CIRCLE
  5
12AB
330
1F
100
AcDbEntity
  8
0
  6
Continuous
 62
     7
100
AcDbCircle
 10
-471.6647528085653
 20
-24.18770955414003
 30
0.0
 40
4.5
  0
CIRCLE
  5
12AC
330
1F
100
AcDbEntity
  8
0
  6
Continuous
 62
     7
100
AcDbCircle
 10
-540.6647528085652
 20
44.81229044585999
 30
0.0
 40
4.5
  0
CIRCLE
  5
12AD
330
1F
100
AcDbEntity
  8
0
  6
Continuous
 62
     7
100
AcDbCircle
 10
-471.6647528085653
 20
113.8122904458599
 30
0.0
 40
4.5
  0
CIRCLE
  5
12AE
330
1F
100
AcDbEntity
  8
0
  6
Continuous
 62
     7
100
AcDbCircle
 10
-471.6647528085653
 20
44.81229044585997
 30
0.0
 40
60.99999999999994
  0
CIRCLE
  5
12AF
330
1F
100
AcDbEntity
  8
0
  6
Continuous
 62
     7
100
AcDbCircle
 10
-471.6647528085653
 20
44.81229044585997
 30
0.0
 40
74.99999999999992
  0
CIRCLE
  5
12B0
330
1F
100
AcDbEntity
  8
0
  6
Continuous
 62
     7
100
AcDbCircle
 10
-390.1647528085653
 20
-96.34985037100364
 30
0.0
 40
5.250000000000061
  0
CIRCLE
  5
12B1
330
1F
100
AcDbEntity
  8
0
  6
Continuous
 62
     7
100
AcDbCircle
 10
-553.1647528085652
 20
-96.34985037100351
 30
0.0
 40
5.249999999999988
  0
CIRCLE
  5
12B2
330
1F
100
AcDbEntity
  8
0
  6
Continuous
 62
     7
100
AcDbCircle
 10
-634.6647528085654
 20
44.81229044586006
 30
0.0
 40
5.249999999999886
  0
CIRCLE
  5
12B3
330
1F
100
AcDbEntity
  8
0
  6
Continuous
 62
     7
100
AcDbCircle
 10
-553.164752808565
 20
185.9744312627235
 30
0.0
 40
5.249999999999988
  0
CIRCLE
  5
12B4
330
1F
100
AcDbEntity
  8
0
  6
Continuous
 62
     7
100
AcDbCircle
 10
-390.1647528085653
 20
185.9744312627234
 30
0.0
 40
5.249999999999988
  0
CIRCLE
  5
12B5
330
1F
100
AcDbEntity
  8
0
  6
Continuous
 62
     7
100
AcDbCircle
 10
-308.6647528085653
 20
44.81229044585996
 30
0.0
 40
5.25
  0
CIRCLE
  5
12B6
330
1F
100
AcDbEntity
  8
0
  6
CENTER_DASH_DASH
 62
   171
100
AcDbCircle
 10
-411.5606764077093
 20
104.916366846716
 30
0.0
 40
3.300000000000239
  0
CIRCLE
  5
12B7
330
1F
100
AcDbEntity
  8
0
  6
CENTER_DASH_DASH
 62
   171
100
AcDbCircle
 10
-411.5606764077093
 20
-15.291785954996
 30
0.0
 40
3.300000000000239
  0
CIRCLE
  5
12B8
330
1F
100
AcDbEntity
  8
0
  6
CENTER_DASH_DASH
 62
   171
100
AcDbCircle
 10
-531.7688292094211
 20
104.916366846716
 30
0.0
 40
3.300000000000068
  0
CIRCLE
  5
12B9
330
1F
100
AcDbEntity
  8
0
  6
CENTER_DASH_DASH
 62
   171
100
AcDbCircle
 10
-531.7688292094211
 20
-15.291785954996
 30
0.0
 40
3.300000000000068
  0
CIRCLE
  5
12BA
330
1F
100
AcDbEntity
  8
0
  6
Continuous
 62
     7
100
AcDbCircle
 10
393.5304454157313
 20
-69.18770955414007
 30
0.0
 40
40.99996654157149
  0
CIRCLE
  5
12BB
330
1F
100
AcDbEntity
  8
0
  6
Continuous
 62
     7
100
AcDbCircle
 10
393.5304454157313
 20
-69.18770955414007
 30
0.0
 40
54.00003068536159
  0
CIRCLE
  5
12BC
330
1F
100
AcDbEntity
  8
0
  6
Continuous
 62
     7
100
AcDbCircle
 10
359.5893591449585
 20
-35.24637498514464
 30
0.0
 40
4.5
  0
CIRCLE
  5
12BD
330
1F
100
AcDbEntity
  8
0
  6
Continuous
 62
     7
100
AcDbCircle
 10
359.5891108467357
 20
-103.1287958249129
 30
0.0
 40
4.500000000000028
  0
CIRCLE
  5
12BE
330
1F
100
AcDbEntity
  8
0
  6
Continuous
 62
     7
100
AcDbCircle
 10
427.4715316865039
 20
-103.1290441231356
 30
0.0
 40
4.5
  0
CIRCLE
  5
12BF
330
1F
100
AcDbEntity
  8
0
  6
Continuous
 62
     7
100
AcDbCircle
 10
427.4717799847267
 20
-35.24662328336731
 30
0.0
 40
4.5
  0
CIRCLE
  5
12C0
330
1F
100
AcDbEntity
  8
60
  6
Continuous
 62
     7
100
AcDbCircle
 10
393.5304454157313
 20
-69.18770955414007
 30
0.0
 40
38.00000000000011
  0
SPLINE
  5
12C3
330
1F
100
AcDbEntity
  8
0
  6
Continuous
 62
     2
100
AcDbSpline
210
0.0
220
0.0
230
1.0
 70
  1064
 71
     3
 72
    19
 73
    15
 74
    13
 42
0.0000000001
 43
0.0000000001
 44
0.00000001
 40
0.0
 40
0.0
 40
0.0
 40
0.0
 40
4.820319278460426
 40
9.813544832997649
 40
11.59187901047692
 40
13.18014963726422
 40
14.69762220232134
 40
16.33162450634346
 40
17.94440735782921
 40
19.54369682585143
 40
21.66510073870038
 40
23.61446178729536
 40
25.48985349610738
 40
27.75195741047833
 40
27.75195741047833
 40
27.75195741047833
 40
27.75195741047833
 10
16.64589937013284
 20
90.95699716826279
 30
0.0
 10
17.86555980323349
 20
92.00119606963388
 30
0.0
 10
20.34863025860204
 20
94.12704958395252
 30
0.0
 10
23.75580524900398
 20
96.09404229613769
 30
0.0
 10
26.38689928898618
 20
96.93215868054766
 30
0.0
 10
27.85779956245057
 20
97.83404768768338
 30
0.0
 10
28.33878759988753
 20
99.40754103561122
 30
0.0
 10
28.7320638644836
 20
100.9459477306045
 30
0.0
 10
29.80228407865338
 20
102.2371383425624
 30
0.0
 10
31.48619498581342
 20
103.0184755821827
 30
0.0
 10
33.38799559279777
 20
102.7793587704458
 30
0.0
 10
35.43788124319001
 20
102.5619304337898
 30
0.0
 10
37.17908777030294
 20
103.8897566261553
 30
0.0
 10
37.78646898661597
 20
105.1327211606532
 30
0.0
 10
38.11854412393773
 20
105.8122904458599
 30
0.0
 11
16.64589937013284
 21
90.95699716826279
 31
0.0
 11
20.40172632954817
 21
93.97846069084007
 31
0.0
 11
24.77734517006072
 21
96.38392555628058
 31
0.0
 11
26.43397260195856
 21
97.03049960733412
 31
0.0
 11
27.71693138023703
 21
97.96677966945241
 31
0.0
 11
28.31312857724227
 21
99.36222650883141
 31
0.0
 11
28.84754146107402
 21
100.906365879629
 31
0.0
 11
29.88209754202355
 21
102.1436056470369
 31
0.0
 11
31.33488363891552
 21
102.81229044586
 31
0.0
 11
33.45601523601288
 21
102.7783006531798
 31
0.0
 11
35.40507992992881
 21
102.81229044586
 31
0.0
 11
36.95008566312817
 21
103.875329168982
 31
0.0
 11
38.11854412393773
 21
105.8122904458599
 31
0.0
  0
ARC
  5
12C4
330
1F
100
AcDbEntity
  8
0
  6
Continuous
 62
     7
100
AcDbCircle
 10
-521.3647528085653
 20
-121.1878095541399
 30
0.0
 40
4.0
100
AcDbArc
 50
270.0
 51
295.1506634125445
  0
ARC
  5
12C5
330
1F
100
AcDbEntity
  8
0
  6
Continuous
 62
     7
100
AcDbCircle
 10
60.64589937013283
 20
-120.1878095541399
 30
0.0
 40
5.0
100
AcDbArc
 50
270.0
 51
0.0
  0
ARC
  5
12C6
330
1F
100
AcDbEntity
  8
0
  6
Continuous
 62
     7
100
AcDbCircle
 10
60.04589937013282
 20
-119.5878095541399
 30
0.0
 40
3.0
100
AcDbArc
 50
270.0
 51
0.0
  0
ARC
  5
12C7
330
1F
100
AcDbEntity
  8
0
  6
Continuous
 62
     7
100
AcDbCircle
 10
-507.1647528085653
 20
-79.18780955413993
 30
0.0
 40
2.0
100
AcDbArc
 50
90.0
 51
180.0
  0
ARC
  5
12C8
330
1F
100
AcDbEntity
  8
0
  6
Continuous
 62
     7
100
AcDbCircle
 10
-436.1647528085653
 20
-79.18780955413993
 30
0.0
 40
2.0
100
AcDbArc
 50
0.0
 51
90.0
  0
ARC
  5
12C9
330
1F
100
AcDbEntity
  8
0
  6
Continuous
 62
     7
100
AcDbCircle
 10
458.5304454157298
 20
110.9164668467167
 30
0.0
 40
1.0
100
AcDbArc
 50
0.0
 51
90.0
  0
ARC
  5
12CA
330
1F
100
AcDbEntity
  8
0
  6
Continuous
 62
     7
100
AcDbCircle
 10
458.5304454157298
 20
110.9164668467167
 30
0.0
 40
1.0
100
AcDbArc
 50
0.0
 51
90.0
  0
ARC
  5
12CB
330
1F
100
AcDbEntity
  8
0
  6
Continuous
 62
     7
100
AcDbCircle
 10
69.64589937013285
 20
122.8122904458599
 30
0.0
 40
2.999999999999901
100
AcDbArc
 50
270.0
 51
0.0
  0
ARC
  5
12CC
330
1F
100
AcDbEntity
  8
0
  6
Continuous
 62
     7
100
AcDbCircle
 10
82.64589937013289
 20
189.81229044586
 30
0.0
 40
9.999999999999916
100
AcDbArc
 50
90.0
 51
180.0
  0
ARC
  5
12CD
330
1F
100
AcDbEntity
  8
0
  6
Continuous
 62
     7
100
AcDbCircle
 10
140.1305454157312
 20
201.8122904458601
 30
0.0
 40
2.0
100
AcDbArc
 50
270.0
 51
345.5224878140662
  0
ARC
  5
12CE
330
1F
100
AcDbEntity
  8
0
  6
Continuous
 62
     7
100
AcDbCircle
 10
144.0035287619386
 20
200.81229044586
 30
0.0
 40
1.999999999999914
100
AcDbArc
 50
90.0
 51
165.5224878140708
  0
ARC
  5
12CF
330
1F
100
AcDbEntity
  8
0
  6
Continuous
 62
     7
100
AcDbCircle
 10
54.64589937013284
 20
117.81229044586
 30
0.0
 40
1.999999999999899
100
AcDbArc
 50
90.0000000000006
 51
180.0
  0
ARC
  5
12D0
330
1F
100
AcDbEntity
  8
0
  6
Continuous
 62
     7
100
AcDbCircle
 10
50.64589937013284
 20
107.8122904458599
 30
0.0
 40
2.0
100
AcDbArc
 50
270.0000000000004
 51
0.0
  0
ARC
  5
12D1
330
1F
100
AcDbEntity
  8
0
  6
Continuous
 62
     7
100
AcDbCircle
 10
18.14589937013285
 20
104.3122904458599
 30
0.0
 40
1.5
100
AcDbArc
 50
90.00000000000026
 51
180.0
  0
ARC
  5
12D2
330
1F
100
AcDbEntity
  8
0
  6
DASHED
 62
     2
100
AcDbCircle
 10
-427.9647528085653
 20
-32.48770955414001
 30
0.0
 40
2.0
100
AcDbArc
 50
0.0
 51
90.0
  0
ARC
  5
12D3
330
1F
100
AcDbEntity
  8
0
  6
DASHED
 62
     2
100
AcDbCircle
 10
-427.6647528085653
 20
-32.25865192127593
 30
0.0
 40
4.0
100
AcDbArc
 50
0.0
 51
91.00721659603562
  0
ARC
  5
12D4
330
1F
100
AcDbEntity
  8
0
  6
Continuous
 62
     7
100
AcDbCircle
 10
-421.6647528085653
 20
-120.8878095541399
 30
0.0
 40
2.0
100
AcDbArc
 50
180.0
 51
270.0
  0
ARC
  5
12D5
330
1F
100
AcDbEntity
  8
0
  6
Continuous
 62
     7
100
AcDbCircle
 10
-421.9647528085651
 20
-121.1878095541399
 30
0.0
 40
4.0
100
AcDbArc
 50
180.0
 51
270.0
  0
ARC
  5
12D6
330
1F
100
AcDbEntity
  8
0
  6
Continuous
 62
     7
100
AcDbCircle
 10
-435.9647528085652
 20
-120.1878095541399
 30
0.0
 40
10.0
100
AcDbArc
 50
0.0
 51
90.0
  0
ARC
  5
12D7
330
1F
100
AcDbEntity
  8
0
  6
DASHED
 62
     2
100
AcDbCircle
 10
-515.3647528085651
 20
-32.48770955414001
 30
0.0
 40
2.0
100
AcDbArc
 50
90.0
 51
180.0
  0
ARC
  5
12D8
330
1F
100
AcDbEntity
  8
0
  6
DASHED
 62
     2
100
AcDbCircle
 10
-515.6647528085652
 20
-32.25865192127593
 30
0.0
 40
4.0
100
AcDbArc
 50
88.9927834039652
 51
180.0
  0
ARC
  5
12D9
330
1F
100
AcDbEntity
  8
0
  6
Continuous
 62
     7
100
AcDbCircle
 10
-521.6647528085652
 20
-120.8878095541399
 30
0.0
 40
2.0
100
AcDbArc
 50
270.0
 51
0.0
  0
ARC
  5
12DA
330
1F
100
AcDbEntity
  8
0
  6
Continuous
 62
     7
100
AcDbCircle
 10
-521.3647528085653
 20
-121.1878095541399
 30
0.0
 40
3.999999999999984
100
AcDbArc
 50
295.1506634125445
 51
0.0
  0
ARC
  5
12DB
330
1F
100
AcDbEntity
  8
0
  6
Continuous
 62
     7
100
AcDbCircle
 10
-507.3647528085652
 20
-120.1878095541399
 30
0.0
 40
10.0
100
AcDbArc
 50
90.0
 51
180.0
  0
ARC
  5
12DC
330
1F
100
AcDbEntity
  8
0
  6
DASHED
 62
     2
100
AcDbCircle
 10
-547.4742254613273
 20
19.25991568126856
 30
0.0
 40
0.9999999999999042
100
AcDbArc
 50
198.6269265586797
 51
280.000000000005
  0
ARC
  5
12DD
330
1F
100
AcDbEntity
  8
0
  6
DASHED
 62
     2
100
AcDbCircle
 10
-551.6417817253336
 20
42.89530175356157
 30
0.0
 40
0.9999999999999859
100
AcDbArc
 50
99.99999999999866
 51
181.3730734413212
  0
ARC
  5
12DE
330
1F
100
AcDbEntity
  8
0
  6
DASHED
 62
     2
100
AcDbCircle
 10
-550.832455751621
 20
-5.702469611600518
 30
0.0
 40
42.00000000000001
100
AcDbArc
 50
100.0000000000001
 51
180.0
  0
ARC
  5
12DF
330
1F
100
AcDbEntity
  8
0
  6
DASHED
 62
     2
100
AcDbCircle
 10
-550.832455751621
 20
-5.702469611600518
 30
0.0
 40
38.00000000000004
100
AcDbArc
 50
100.0000000000001
 51
180.0
  0
ARC
  5
12E0
330
1F
100
AcDbEntity
  8
0
  6
DASHED
 62
     2
100
AcDbCircle
 10
-550.832455751621
 20
-5.702469611600518
 30
0.0
 40
34.00000000000001
100
AcDbArc
 50
100.0000000000001
 51
180.0
  0
ARC
  5
12E1
330
1F
100
AcDbEntity
  8
0
  6
DASHED
 62
     2
100
AcDbCircle
 10
-550.832455751621
 20
-5.702469611600518
 30
0.0
 40
30.00000000000001
100
AcDbArc
 50
100.0000000000001
 51
180.0
  0
ARC
  5
12E2
330
1F
100
AcDbEntity
  8
0
  6
Continuous
 62
     7
100
AcDbCircle
 10
-417.4960348986868
 20
50.81229044585994
 30
0.0
 40
3.0
100
AcDbArc
 50
270.0
 51
6.32060418323963
  0
ARC
  5
12E3
330
1F
100
AcDbEntity
  8
0
  6
Continuous
 62
     7
100
AcDbCircle
 10
-445.3398596463888
 20
50.81229044585994
 30
0.0
 40
3.000000000000075
100
AcDbArc
 50
192.8395884069041
 51
270.0
  0
ARC
  5
12E4
330
1F
100
AcDbEntity
  8
0
  6
Continuous
 62
     7
100
AcDbCircle
 10
-445.3398596463888
 20
38.81229044585994
 30
0.0
 40
3.0
100
AcDbArc
 50
90.0
 51
167.1604115930957
  0
ARC
  5
12E5
330
1F
100
AcDbEntity
  8
0
  6
Continuous
 62
     7
100
AcDbCircle
 10
-417.4960348986868
 20
38.81229044585994
 30
0.0
 40
3.000000000000003
100
AcDbArc
 50
353.6793958167603
 51
90.0
  0
ARC
  5
12E6
330
1F
100
AcDbEntity
  8
0
  6
Continuous
 62
     7
100
AcDbCircle
 10
-465.6647528085652
 20
-9.35642746401858
 30
0.0
 40
3.0
100
AcDbArc
 50
180.0
 51
276.3206041832396
  0
ARC
  5
12E7
330
1F
100
AcDbEntity
  8
0
  6
Continuous
 62
     7
100
AcDbCircle
 10
-465.6647528085652
 20
18.48739728368362
 30
0.0
 40
3.000000000000031
100
AcDbArc
 50
102.8395884069066
 51
180.0
  0
ARC
  5
12E8
330
1F
100
AcDbEntity
  8
0
  6
Continuous
 62
     7
100
AcDbCircle
 10
-477.6647528085653
 20
18.48739728368362
 30
0.0
 40
3.0
100
AcDbArc
 50
0.0
 51
77.16041159309654
  0
ARC
  5
12E9
330
1F
100
AcDbEntity
  8
0
  6
Continuous
 62
     7
100
AcDbCircle
 10
-477.6647528085653
 20
-9.35642746401858
 30
0.0
 40
3.000000000000008
100
AcDbArc
 50
263.6793958167593
 51
0.0
  0
ARC
  5
12EA
330
1F
100
AcDbEntity
  8
0
  6
Continuous
 62
     7
100
AcDbCircle
 10
-525.833470718444
 20
38.81229044585996
 30
0.0
 40
3.0
100
AcDbArc
 50
90.0
 51
186.3206041832398
  0
ARC
  5
12EB
330
1F
100
AcDbEntity
  8
0
  6
Continuous
 62
     7
100
AcDbCircle
 10
-497.9896459707417
 20
38.81229044585996
 30
0.0
 40
2.999999999999912
100
AcDbArc
 50
12.83958840690504
 51
90.0
  0
ARC
  5
12EC
330
1F
100
AcDbEntity
  8
0
  6
Continuous
 62
     7
100
AcDbCircle
 10
-497.9896459707417
 20
50.81229044585995
 30
0.0
 40
3.0
100
AcDbArc
 50
270.0
 51
347.1604115930952
  0
ARC
  5
12ED
330
1F
100
AcDbEntity
  8
0
  6
Continuous
 62
     7
100
AcDbCircle
 10
-525.833470718444
 20
50.81229044585995
 30
0.0
 40
2.999999999999836
100
AcDbArc
 50
173.6793958167599
 51
270.0
  0
ARC
  5
12EE
330
1F
100
AcDbEntity
  8
0
  6
Continuous
 62
     7
100
AcDbCircle
 10
-477.6647528085653
 20
98.98100835573854
 30
0.0
 40
3.0
100
AcDbArc
 50
0.0
 51
96.32060418324076
  0
ARC
  5
12EF
330
1F
100
AcDbEntity
  8
0
  6
Continuous
 62
     7
100
AcDbCircle
 10
-477.6647528085653
 20
71.13718360803635
 30
0.0
 40
2.999999999999993
100
AcDbArc
 50
282.8395884069034
 51
0.0
  0
ARC
  5
12F0
330
1F
100
AcDbEntity
  8
0
  6
Continuous
 62
     7
100
AcDbCircle
 10
-465.6647528085652
 20
71.13718360803635
 30
0.0
 40
3.0
100
AcDbArc
 50
180.0
 51
257.1604115930934
  0
ARC
  5
12F1
330
1F
100
AcDbEntity
  8
0
  6
Continuous
 62
     7
100
AcDbCircle
 10
-465.6647528085652
 20
98.98100835573854
 30
0.0
 40
2.999999999999991
100
AcDbArc
 50
83.67939581676033
 51
180.0
  0
ARC
  5
12F2
330
1F
100
AcDbEntity
  8
0
  6
Continuous
 62
     7
100
AcDbCircle
 10
-402.1376804163183
 20
192.2401921624729
 30
0.0
 40
5.000000000000018
100
AcDbArc
 50
244.7514116161662
 51
305.0000000000003
  0
ARC
  5
12F3
330
1F
100
AcDbEntity
  8
0
  6
Continuous
 62
     7
100
AcDbCircle
 10
-564.5775247256643
 20
178.7384522466116
 30
0.0
 40
4.999999999999952
100
AcDbArc
 50
304.7514116161666
 51
4.9999999999999
  0
ARC
  5
12F4
330
1F
100
AcDbEntity
  8
0
  6
Continuous
 62
     7
100
AcDbCircle
 10
-541.1918252008119
 20
192.2401921624729
 30
0.0
 40
4.999999999999978
100
AcDbArc
 50
234.9999999999996
 51
295.2485883838367
  0
ARC
  5
12F5
330
1F
100
AcDbEntity
  8
0
  6
Continuous
 62
     7
100
AcDbCircle
 10
-378.7519808914663
 20
178.7384522466116
 30
0.0
 40
4.999999999999881
100
AcDbArc
 50
174.9999999999998
 51
235.2485883838346
  0
ARC
  5
12F6
330
1F
100
AcDbEntity
  8
0
  6
Continuous
 62
     7
100
AcDbCircle
 10
-564.5775247256643
 20
-89.1138713548918
 30
0.0
 40
5.000000000000111
100
AcDbArc
 50
354.9999999999998
 51
55.24858838383519
  0
ARC
  5
12F7
330
1F
100
AcDbEntity
  8
0
  6
Continuous
 62
     7
100
AcDbCircle
 10
-634.1045971179108
 20
58.31403036172121
 30
0.0
 40
4.999999999999941
100
AcDbArc
 50
294.9999999999985
 51
355.2485883838352
  0
ARC
  5
12F8
330
1F
100
AcDbEntity
  8
0
  6
Continuous
 62
     7
100
AcDbCircle
 10
-634.1045971179108
 20
31.31055052999894
 30
0.0
 40
4.999999999999893
100
AcDbArc
 50
4.75141161616503
 51
64.99999999999909
  0
ARC
  5
12F9
330
1F
100
AcDbEntity
  8
0
  6
Continuous
 62
     7
100
AcDbCircle
 10
-541.1918252008119
 20
-102.6156112707529
 30
0.0
 40
4.999999999999893
100
AcDbArc
 50
64.75141161616692
 51
125.0000000000004
  0
ARC
  5
12FA
330
1F
100
AcDbEntity
  8
0
  6
Continuous
 62
     7
100
AcDbCircle
 10
-402.1376804163185
 20
-102.615611270753
 30
0.0
 40
5.00000000000012
100
AcDbArc
 50
54.99999999999753
 51
115.2485883838336
  0
ARC
  5
12FB
330
1F
100
AcDbEntity
  8
0
  6
Continuous
 62
     7
100
AcDbCircle
 10
-378.7519808914664
 20
-89.11387135489183
 30
0.0
 40
5.000000000000012
100
AcDbArc
 50
124.7514116161654
 51
185.0000000000004
  0
ARC
  5
12FC
330
1F
100
AcDbEntity
  8
0
  6
Continuous
 62
     7
100
AcDbCircle
 10
-309.2249084992196
 20
31.31055052999879
 30
0.0
 40
5.000000000000058
100
AcDbArc
 50
115.0000000000008
 51
175.2485883838351
  0
ARC
  5
12FD
330
1F
100
AcDbEntity
  8
0
  6
Continuous
 62
     7
100
AcDbCircle
 10
-309.2249084992196
 20
58.31403036172114
 30
0.0
 40
5.000000000000174
100
AcDbArc
 50
184.7514116161647
 51
244.9999999999991
  0
ARC
  5
12FE
330
1F
100
AcDbEntity
  8
0
  6
CENTER_DASH_DASH
 62
   171
100
AcDbCircle
 10
-423.9711547324413
 20
113.959385124907
 30
0.0
 40
4.999999999999213
100
AcDbArc
 50
235.4043722677767
 51
285.316136723742
  0
ARC
  5
12FF
330
1F
100
AcDbEntity
  8
0
  6
CENTER_DASH_DASH
 62
   171
100
AcDbCircle
 10
-402.5176581295182
 20
92.50588852198408
 30
0.0
 40
4.999999999999912
100
AcDbArc
 50
164.6838632762515
 51
214.5956277322076
  0
ARC
  5
1300
330
1F
100
AcDbEntity
  8
0
  6
CENTER_DASH_DASH
 62
   171
100
AcDbCircle
 10
-402.5176581295182
 20
-2.88130763026387
 30
0.0
 40
5.0
100
AcDbArc
 50
145.4043722677838
 51
195.3161367237384
  0
ARC
  5
1301
330
1F
100
AcDbEntity
  8
0
  6
CENTER_DASH_DASH
 62
   171
100
AcDbCircle
 10
-421.6647528085653
 20
-24.96646264094997
 30
0.0
 40
4.999999999999669
100
AcDbArc
 50
74.68386327625205
 51
180.0
  0
ARC
  5
1302
330
1F
100
AcDbEntity
  8
0
  6
CENTER_DASH_DASH
 62
   171
100
AcDbCircle
 10
-445.1647528085652
 20
-28.5481212214689
 30
0.0
 40
0.9999999999997417
100
AcDbArc
 50
289.8612529467639
 51
0.0
  0
ARC
  5
1303
330
1F
100
AcDbEntity
  8
0
  6
CENTER_DASH_DASH
 62
   171
100
AcDbCircle
 10
-519.3583508846892
 20
113.959385124907
 30
0.0
 40
4.999999999998536
100
AcDbArc
 50
254.6838632762579
 51
304.5956277322217
  0
ARC
  5
1304
330
1F
100
AcDbEntity
  8
0
  6
CENTER_DASH_DASH
 62
   171
100
AcDbCircle
 10
-540.8118474876121
 20
92.50588852198408
 30
0.0
 40
4.999999999999531
100
AcDbArc
 50
325.4043722677927
 51
15.31613672374886
  0
ARC
  5
1305
330
1F
100
AcDbEntity
  8
0
  6
CENTER_DASH_DASH
 62
   171
100
AcDbCircle
 10
-540.8118474876121
 20
-2.88130763026387
 30
0.0
 40
4.999999999999565
100
AcDbArc
 50
344.6838632762612
 51
34.59562773221588
  0
ARC
  5
1306
330
1F
100
AcDbEntity
  8
0
  6
CENTER_DASH_DASH
 62
   171
100
AcDbCircle
 10
-521.6647528085652
 20
-24.96646264094997
 30
0.0
 40
5.0
100
AcDbArc
 50
0.0
 51
105.3161367237491
  0
ARC
  5
1307
330
1F
100
AcDbEntity
  8
0
  6
CENTER_DASH_DASH
 62
   171
100
AcDbCircle
 10
-498.1647528085653
 20
-28.5481212214689
 30
0.0
 40
1.0
100
AcDbArc
 50
180.0
 51
250.1387470532332
  0
ARC
  5
1308
330
1F
100
AcDbEntity
  8
0
  6
Continuous
 62
     7
100
AcDbCircle
 10
-274.6645528085652
 20
-17.18770955414003
 30
0.0
 40
2.0
100
AcDbArc
 50
0.0
 51
90.0
  0
ARC
  5
1309
330
1F
100
AcDbEntity
  8
0
  6
Continuous
 62
     7
100
AcDbCircle
 10
-270.6645528085652
 20
-26.18770955414004
 30
0.0
 40
2.0
100
AcDbArc
 50
180.0
 51
270.0
  0
ARC
  5
130A
330
1F
100
AcDbEntity
  8
0
  6
Continuous
 62
     7
100
AcDbCircle
 10
-270.6645528085652
 20
-112.1877095541401
 30
0.0
 40
2.0
100
AcDbArc
 50
90.0
 51
180.0
  0
ARC
  5
130B
330
1F
100
AcDbEntity
  8
0
  6
Continuous
 62
     7
100
AcDbCircle
 10
-274.6645528085652
 20
-121.1877095541401
 30
0.0
 40
2.0
100
AcDbArc
 50
270.0
 51
0.0
  0
ARC
  5
130C
330
1F
100
AcDbEntity
  8
0
  6
Continuous
 62
     7
100
AcDbCircle
 10
-242.6645528085652
 20
-29.18770955414004
 30
0.0
 40
1.0
100
AcDbArc
 50
0.0
 51
90.0
  0
ARC
  5
130D
330
1F
100
AcDbEntity
  8
0
  6
Continuous
 62
     7
100
AcDbCircle
 10
-242.6645528085652
 20
-109.18770955414
 30
0.0
 40
1.0
100
AcDbArc
 50
270.0
 51
0.0
  0
ARC
  5
130E
330
1F
100
AcDbEntity
  8
0
  6
Continuous
 62
     7
100
AcDbCircle
 10
491.7304454157296
 20
-39.38780955413991
 30
0.0
 40
5.200000000000009
100
AcDbArc
 50
90.0
 51
179.9999999999987
  0
ARC
  5
130F
330
1F
100
AcDbEntity
  8
0
  6
Continuous
 62
     7
100
AcDbCircle
 10
434.0304454157309
 20
-26.92770965375098
 30
0.0
 40
1.5
100
AcDbArc
 50
180.0
 51
268.3357672533152
  0
ARC
  5
1310
330
1F
100
AcDbEntity
  8
0
  6
Continuous
 62
     7
100
AcDbCircle
 10
434.0304454157309
 20
-26.44836690999364
 30
0.0
 40
1.500000000000043
100
AcDbArc
 50
92.15758012484322
 51
180.0
  0
ARC
  5
1311
330
1F
100
AcDbEntity
  8
0
  6
Continuous
 62
     7
100
AcDbCircle
 10
435.530445415731
 20
10.66011942304408
 30
0.0
 40
3.0
100
AcDbArc
 50
180.0
 51
266.39981802456
  0
ARC
  5
1312
330
1F
100
AcDbEntity
  8
0
  6
Continuous
 62
     7
100
AcDbCircle
 10
435.530445415731
 20
12.28643027482224
 30
0.0
 40
2.999999999999993
100
AcDbArc
 50
93.80768710588005
 51
180.0
  0
ARC
  5
1313
330
1F
100
AcDbEntity
  8
0
  6
Continuous
 62
     7
100
AcDbCircle
 10
458.5304454157298
 20
-21.29188595499681
 30
0.0
 40
1.0
100
AcDbArc
 50
270.0
 51
0.0
  0
ARC
  5
1314
330
1F
100
AcDbEntity
  8
0
  6
Continuous
 62
     7
100
AcDbCircle
 10
456.5305302461782
 20
-33.1878095541399
 30
0.0
 40
1.0
100
AcDbArc
 50
270.0
 51
359.4722842617373
  0
ARC
  5
1315
330
1F
100
AcDbEntity
  8
0
  6
Continuous
 62
     7
100
AcDbCircle
 10
606.6458993701327
 20
-18.78392752211789
 30
0.0
 40
5.000000000000495
100
AcDbArc
 50
284.0362434679321
 51
0.0
  0
ARC
  5
1316
330
1F
100
AcDbEntity
  8
0
  6
Continuous
 62
     7
100
AcDbCircle
 10
580.9900521350479
 20
-25.19788933088876
 30
0.0
 40
5.000000000000162
100
AcDbArc
 50
270.9391909457417
 51
284.0362434679322
  0
ARC
  5
1317
330
1F
100
AcDbEntity
  8
0
  6
Continuous
 62
     7
100
AcDbCircle
 10
580.9900521350479
 20
114.8222702226092
 30
0.0
 40
5.00000000000042
100
AcDbArc
 50
75.96375653207029
 51
89.06080905425827
  0
ARC
  5
1318
330
1F
100
AcDbEntity
  8
0
  6
Continuous
 62
     7
100
AcDbCircle
 10
606.6458993701327
 20
108.4083084138381
 30
0.0
 40
5.0
100
AcDbArc
 50
0.0
 51
75.96375653206528
  0
ARC
  5
1319
330
1F
100
AcDbEntity
  8
0
  6
Continuous
 62
     7
100
AcDbCircle
 10
458.6458993701331
 20
122.8121904458601
 30
0.0
 40
1.0
100
AcDbArc
 50
0.0
 51
90.0
  0
ARC
  5
131A
330
1F
100
AcDbEntity
  8
0
  6
Continuous
 62
     7
100
AcDbCircle
 10
460.645899370133
 20
122.7959313666911
 30
0.0
 40
1.0
100
AcDbArc
 50
180.0
 51
269.0608090542796
  0
ARC
  5
131B
330
1F
100
AcDbEntity
  8
0
  6
Continuous
 62
     7
100
AcDbCircle
 10
69.64589937013285
 20
-33.1877095541401
 30
0.0
 40
3.0
100
AcDbArc
 50
0.0
 51
90.0
  0
ARC
  5
131C
330
1F
100
AcDbEntity
  8
0
  6
Continuous
 62
     7
100
AcDbCircle
 10
82.64589937013289
 20
-100.1877095541401
 30
0.0
 40
10.00000000000003
100
AcDbArc
 50
180.0
 51
269.9999999999999
  0
ARC
  5
131D
330
1F
100
AcDbEntity
  8
0
  6
Continuous
 62
     7
100
AcDbCircle
 10
140.1305454157312
 20
-112.1877095541402
 30
0.0
 40
1.999999999999898
100
AcDbArc
 50
14.47751218593068
 51
90.0
  0
ARC
  5
131E
330
1F
100
AcDbEntity
  8
0
  6
Continuous
 62
     7
100
AcDbCircle
 10
144.0035287619386
 20
-111.1877095541401
 30
0.0
 40
2.000000000000115
100
AcDbArc
 50
194.477512185932
 51
270.0
  0
ARC
  5
131F
330
1F
100
AcDbEntity
  8
0
  6
Continuous
 62
     7
100
AcDbCircle
 10
54.64589937013284
 20
-28.1877095541401
 30
0.0
 40
2.000000000000014
100
AcDbArc
 50
180.0
 51
269.9999999999994
  0
ARC
  5
1320
330
1F
100
AcDbEntity
  8
0
  6
Continuous
 62
     7
100
AcDbCircle
 10
50.64589937013284
 20
-18.18770955414007
 30
0.0
 40
2.000000000000014
100
AcDbArc
 50
0.0
 51
89.9999999999996
  0
ARC
  5
1321
330
1F
100
AcDbEntity
  8
0
  6
Continuous
 62
     7
100
AcDbCircle
 10
18.14589937013284
 20
-14.68770955414004
 30
0.0
 40
1.499999999999993
100
AcDbArc
 50
180.0
 51
270.0000000000002
  0
ARC
  5
1322
330
1F
100
AcDbEntity
  8
0
  6
Continuous
 62
     7
100
AcDbCircle
 10
18.14589937013285
 20
104.3122904458599
 30
0.0
 40
1.5
100
AcDbArc
 50
90.00000000000026
 51
180.0
  0
HATCH
  5
1367
330
1F
100
AcDbEntity
  8
0
  6
Continuous
 62
    54
100
AcDbHatch
 10
0.0
 20
0.0
 30
0.0
210
0.0
220
0.0
230
1.0
  2
CUSTOM10
 70
     0
 71
     1
 91
        2
 92
        1
 93
        1
 72
     2
 10
-471.6647528085653
 20
44.81229044585997
 40
57.49999999999993
 50
0.0
 51
360.0
 73
     1
 97
        1
330
12A9
 92
       16
 93
        1
 72
     2
 10
-471.6647528085653
 20
44.81229044585997
 40
24.0
 50
0.0
 51
360.0
 73
     1
 97
        1
330
12A8
 75
     1
 76
     2
 52
0.0
 41
2.5
 77
     0
 78
     2
 53
0.0
 43
0.0
 44
0.0
 45
-2.5
 46
2.5
 79
     0
 53
90.00000000000005
 43
0.0
 44
0.0
 45
-2.499999999999999
 46
-2.5
 79
     0
 98
        1
 10
0.0
 20
0.0
  0
HATCH
  5
1368
330
1F
100
AcDbEntity
  8
0
  6
Continuous
 62
    54
100
AcDbHatch
 10
0.0
 20
0.0
 30
0.0
210
0.0
220
0.0
230
1.0
  2
CUSTOM11
 70
     0
 71
     1
 91
        1
 92
        1
 93
        1
 72
     2
 10
-471.6647528085653
 20
44.81229044585997
 40
24.0
 50
0.0
 51
360.0
 73
     1
 97
        1
330
12A8
 75
     1
 76
     2
 52
90.00000000000005
 41
2.5
 77
     0
 78
     2
 53
90.00000000000005
 43
0.0
 44
0.0
 45
-2.499999999999999
 46
-2.5
 79
     0
 53
180.0000000000001
 43
0.0
 44
0.0
 45
2.500000000000002
 46
-2.499999999999996
 79
     0
 98
        1
 10
0.0
 20
0.0
  0
ENDSEC
  0
SECTION
  2
OBJECTS
  0
DICTIONARY
  5
C
330
0
100
AcDbDictionary
281
     1
  3
ACAD_CIP_PREVIOUS_PRODUCT_INFO
350
18AD
  3
ACAD_COLOR
350
ADB
  3
ACAD_GROUP
350
D
  3
ACAD_LAYOUT
350
1A
  3
ACAD_MATERIAL
350
ADA
  3
ACAD_MLEADERSTYLE
350
18AA
  3
ACAD_MLINESTYLE
350
17
  3
ACAD_PLOTSETTINGS
350
19
  3
ACAD_PLOTSTYLENAME
350
E
  3
ACAD_SCALELIST
350
1898
  3
ACAD_TABLESTYLE
350
1896
  3
ACAD_VISUALSTYLE
350
187D
  3
ACDB_RECOMPOSE_DATA
350
18C7
  3
AcDbVariableDictionary
350
18BC
  3
DWGPROPS
350
18C8
  0
DICTIONARY
  5
18AE
330
10
100
AcDbDictionary
280
     1
281
     1
  3
ADSK_XREC_LAYER_RECONCILED
360
18AF
  0
DICTIONARY
  5
18B0
330
31
100
AcDbDictionary
280
     1
281
     1
  3
ADSK_XREC_LAYER_RECONCILED
360
18B1
  0
DICTIONARY
  5
18B2
330
32
100
AcDbDictionary
280
     1
281
     1
  3
ADSK_XREC_LAYER_RECONCILED
360
18B3
  0
DICTIONARY
  5
18B4
330
33
100
AcDbDictionary
280
     1
281
     1
  3
ADSK_XREC_LAYER_RECONCILED
360
18B5
  0
DICTIONARY
  5
18B6
330
34
100
AcDbDictionary
280
     1
281
     1
  3
ADSK_XREC_LAYER_RECONCILED
360
18B7
  0
DICTIONARY
  5
18B8
330
35
100
AcDbDictionary
280
     1
281
     1
  3
ADSK_XREC_LAYER_RECONCILED
360
18B9
  0
DICTIONARY
  5
18BA
330
36
100
AcDbDictionary
280
     1
281
     1
  3
ADSK_XREC_LAYER_RECONCILED
360
18BB
  0
XRECORD
  5
18AD
102
{ACAD_REACTORS
330
C
102
}
330
C
100
AcDbXrecord
280
     1
300
ACDLT
300
2012
300
ACDLT_F_S
  0
DICTIONARY
  5
ADB
102
{ACAD_REACTORS
330
C
102
}
330
C
100
AcDbDictionary
281
     1
  0
DICTIONARY
  5
D
102
{ACAD_REACTORS
330
C
102
}
330
C
100
AcDbDictionary
281
     1
  0
DICTIONARY
  5
1A
102
{ACAD_REACTORS
330
C
102
}
330
C
100
AcDbDictionary
281
     1
  3
Layout1
350
1E
  3
Layout2
350
26
  3
Model
350
22
  0
DICTIONARY
  5
ADA
102
{ACAD_REACTORS
330
C
102
}
330
C
100
AcDbDictionary
281
     1
  3
ByBlock
350
186D
  3
ByLayer
350
1865
  3
Global
350
1875
  0
DICTIONARY
  5
18AA
102
{ACAD_REACTORS
330
C
102
}
330
C
100
AcDbDictionary
281
     1
  3
Standard
350
18AB
  0
DICTIONARY
  5
17
102
{ACAD_REACTORS
330
C
102
}
330
C
100
AcDbDictionary
281
     1
  3
Standard
350
18
  0
DICTIONARY
  5
19
102
{ACAD_REACTORS
330
C
102
}
330
C
100
AcDbDictionary
281
     1
  0
ACDBDICTIONARYWDFLT
  5
E
102
{ACAD_REACTORS
330
C
102
}
330
C
100
AcDbDictionary
281
     1
  3
Normal
350
F
100
AcDbDictionaryWithDefault
340
F
  0
DICTIONARY
  5
1898
102
{ACAD_REACTORS
330
C
102
}
330
C
100
AcDbDictionary
281
     1
  3
A0
350
1899
  3
A1
350
189A
  3
A2
350
189B
  3
A3
350
189C
  3
A4
350
189D
  3
A5
350
189E
  3
A6
350
189F
  3
A7
350
18A0
  3
A8
350
18A1
  3
A9
350
18A2
  3
B0
350
18A3
  3
B1
350
18A4
  3
B2
350
18A5
  3
B3
350
18A6
  3
B4
350
18A7
  3
B5
350
18A8
  3
B6
350
18A9
  0
DICTIONARY
  5
1896
102
{ACAD_REACTORS
330
C
102
}
330
C
100
AcDbDictionary
281
     1
  3
Standard
350
1897
  0
DICTIONARY
  5
187D
102
{ACAD_REACTORS
330
C
102
}
330
C
100
AcDbDictionary
281
     1
  3
2dWireframe
350
1883
  3
Basic
350
1882
  3
Brighten
350
1889
  3
ColorChange
350
188D
  3
Conceptual
350
1886
  3
Dim
350
1888
  3
EdgeColorOff
350
1895
  3
Facepattern
350
188C
  3
Flat
350
187E
  3
FlatWithEdges
350
187F
  3
Gouraud
350
1880
  3
GouraudWithEdges
350
1881
  3
Hidden
350
1885
  3
JitterOff
350
1893
  3
Linepattern
350
188B
  3
OverhangOff
350
1894
  3
Realistic
350
1887
  3
Shaded
350
1892
  3
Shaded with edges
350
1891
  3
Shades of Gray
350
188E
  3
Sketchy
350
188F
  3
Thicken
350
188A
  3
Wireframe
350
1884
  3
X-Ray
350
1890
  0
XRECORD
  5
18C7
102
{ACAD_REACTORS
330
C
102
}
330
C
100
AcDbXrecord
280
     1
 90
        1
330
1897
  0
DICTIONARY
  5
18BC
102
{ACAD_REACTORS
330
C
102
}
330
C
100
AcDbDictionary
281
     1
  3
CANNOSCALE
350
18BF
  3
CMLEADERSTYLE
350
18BE
  3
CTABLESTYLE
350
18BD
  3
DIMASSOC
350
18C3
  3
INDEXCTL
350
18C1
  3
SORTENTS
350
18C0
  3
XCLIPFRAME
350
18C2
  0
XRECORD
  5
18C8
102
{ACAD_REACTORS
330
C
102
}
330
C
100
AcDbXrecord
280
     1
  1
DWGPROPS COOKIE
  2

  3

  4

  6

  7

  8
to.oishi
  9

300
=
301
=
302
=
303
=
304
=
305
=
306
=
307
=
308
=
309
=
 40
0.0243301273148148
 41
2455106.662517535
 42
2458818.413444919
  1

 90
        0
  0
XRECORD
  5
18AF
102
{ACAD_REACTORS
330
18AE
102
}
330
18AE
100
AcDbXrecord
280
     1
290
     1
  0
XRECORD
  5
18B1
102
{ACAD_REACTORS
330
18B0
102
}
330
18B0
100
AcDbXrecord
280
     1
290
     1
  0
XRECORD
  5
18B3
102
{ACAD_REACTORS
330
18B2
102
}
330
18B2
100
AcDbXrecord
280
     1
290
     1
  0
XRECORD
  5
18B5
102
{ACAD_REACTORS
330
18B4
102
}
330
18B4
100
AcDbXrecord
280
     1
290
     1
  0
XRECORD
  5
18B7
102
{ACAD_REACTORS
330
18B6
102
}
330
18B6
100
AcDbXrecord
280
     1
290
     1
  0
XRECORD
  5
18B9
102
{ACAD_REACTORS
330
18B8
102
}
330
18B8
100
AcDbXrecord
280
     1
290
     1
  0
XRECORD
  5
18BB
102
{ACAD_REACTORS
330
18BA
102
}
330
18BA
100
AcDbXrecord
280
     1
290
     1
  0
LAYOUT
  5
1E
102
{ACAD_XDICTIONARY
360
18C9
102
}
102
{ACAD_REACTORS
330
1A
102
}
330
1A
100
AcDbPlotSettings
  1

  2

  4

  6

 40
0.0
 41
0.0
 42
0.0
 43
0.0
 44
0.0
 45
0.0
 46
0.0
 47
0.0
 48
0.0
 49
0.0
140
0.0
141
0.0
142
1.0
143
1.0
 70
   688
 72
     0
 73
     0
 74
     5
  7
P社図面.ctb
 75
    16
147
1.0
148
0.0
149
0.0
100
AcDbLayout
  1
Layout1
 70
     1
 71
     1
 10
0.0
 20
0.0
 11
12.0
 21
9.0
 12
0.0
 22
0.0
 32
0.0
 14
1.000000000000000E+20
 24
1.000000000000000E+20
 34
1.000000000000000E+20
 15
-1.000000000000000E+20
 25
-1.000000000000000E+20
 35
-1.000000000000000E+20
146
0.0
 13
0.0
 23
0.0
 33
0.0
 16
1.0
 26
0.0
 36
0.0
 17
0.0
 27
1.0
 37
0.0
 76
     0
330
1B
  0
LAYOUT
  5
26
102
{ACAD_XDICTIONARY
360
18CD
102
}
102
{ACAD_REACTORS
330
1A
102
}
330
1A
100
AcDbPlotSettings
  1

  2

  4

  6

 40
0.0
 41
0.0
 42
0.0
 43
0.0
 44
0.0
 45
0.0
 46
0.0
 47
0.0
 48
0.0
 49
0.0
140
0.0
141
0.0
142
1.0
143
1.0
 70
   688
 72
     0
 73
     0
 74
     5
  7
P社図面.ctb
 75
    16
147
1.0
148
0.0
149
0.0
100
AcDbLayout
  1
Layout2
 70
     1
 71
     2
 10
0.0
 20
0.0
 11
0.0
 21
0.0
 12
0.0
 22
0.0
 32
0.0
 14
0.0
 24
0.0
 34
0.0
 15
0.0
 25
0.0
 35
0.0
146
0.0
 13
0.0
 23
0.0
 33
0.0
 16
1.0
 26
0.0
 36
0.0
 17
0.0
 27
1.0
 37
0.0
 76
     0
330
23
  0
LAYOUT
  5
22
102
{ACAD_XDICTIONARY
360
18CB
102
}
102
{ACAD_REACTORS
330
1A
102
}
330
1A
100
AcDbPlotSettings
  1

  2
RICOH IPSiO SP 6110 RPCS
  4
A3
  6

 40
5.873749732971191
 41
5.873747825622557
 42
5.873748779296875
 43
5.873748779296875
 44
296.9259948730469
 45
419.9466552734373
 46
0.0
 47
0.0
 48
0.0
 49
0.0
140
0.0
141
0.0
142
1.0
143
4.01299008278324
 70
 11952
 72
     1
 73
     1
 74
     1
  7
P社図面.ctb
 75
     0
147
0.2491907478890259
148
856.049583954848
149
572.0353094458326
100
AcDbLayout
  1
Model
 70
     1
 71
     0
 10
0.0
 20
0.0
 11
0.0
 21
0.0
 12
0.0
 22
0.0
 32
0.0
 14
-855.9995999999998
 24
-572.0004
 34
0.0
 15
781.9995999999998
 25
571.9996
 35
0.0
146
0.0
 13
0.0
 23
0.0
 33
0.0
 16
1.0
 26
0.0
 36
0.0
 17
0.0
 27
1.0
 37
0.0
 76
     0
330
1F
331
185F
  0
MATERIAL
  5
186D
102
{ACAD_XDICTIONARY
360
186E
102
}
102
{ACAD_REACTORS
330
ADA
102
}
330
ADA
100
AcDbMaterial
  1
ByBlock
 72
     0
 43
0.0208333333333333
 43
0.0
 43
0.0
 43
0.0
 43
0.0
 43
0.0208333333333333
 43
0.0
 43
0.0
 43
0.0
 43
0.0
 43
1.0
 43
0.0
 43
0.0
 43
0.0
 43
0.0
 43
1.0
 77
     0
 47
0.0208333333333333
 47
0.0
 47
0.0
 47
0.0
 47
0.0
 47
0.0208333333333333
 47
0.0
 47
0.0
 47
0.0
 47
0.0
 47
1.0
 47
0.0
 47
0.0
 47
0.0
 47
0.0
 47
1.0
171
     0
 49
0.0208333333333333
 49
0.0
 49
0.0
 49
0.0
 49
0.0
 49
0.0208333333333333
 49
0.0
 49
0.0
 49
0.0
 49
0.0
 49
1.0
 49
0.0
 49
0.0
 49
0.0
 49
0.0
 49
1.0
175
     0
142
0.0208333333333333
142
0.0
142
0.0
142
0.0
142
0.0
142
0.0208333333333333
142
0.0
142
0.0
142
0.0
142
0.0
142
1.0
142
0.0
142
0.0
142
0.0
142
0.0
142
1.0
179
     0
144
0.0208333333333333
144
0.0
144
0.0
144
0.0
144
0.0
144
0.0208333333333333
144
0.0
144
0.0
144
0.0
144
0.0
144
1.0
144
0.0
144
0.0
144
0.0
144
0.0
144
1.0
147
0.0208333333333333
147
0.0
147
0.0
147
0.0
147
0.0
147
0.0208333333333333
147
0.0
147
0.0
147
0.0
147
0.0
147
1.0
147
0.0
147
0.0
147
0.0
147
0.0
147
1.0
  0
MATERIAL
  5
1865
102
{ACAD_XDICTIONARY
360
1866
102
}
102
{ACAD_REACTORS
330
ADA
102
}
330
ADA
100
AcDbMaterial
  1
ByLayer
 72
     0
 43
0.0208333333333333
 43
0.0
 43
0.0
 43
0.0
 43
0.0
 43
0.0208333333333333
 43
0.0
 43
0.0
 43
0.0
 43
0.0
 43
1.0
 43
0.0
 43
0.0
 43
0.0
 43
0.0
 43
1.0
 77
     0
 47
0.0208333333333333
 47
0.0
 47
0.0
 47
0.0
 47
0.0
 47
0.0208333333333333
 47
0.0
 47
0.0
 47
0.0
 47
0.0
 47
1.0
 47
0.0
 47
0.0
 47
0.0
 47
0.0
 47
1.0
171
     0
 49
0.0208333333333333
 49
0.0
 49
0.0
 49
0.0
 49
0.0
 49
0.0208333333333333
 49
0.0
 49
0.0
 49
0.0
 49
0.0
 49
1.0
 49
0.0
 49
0.0
 49
0.0
 49
0.0
 49
1.0
175
     0
142
0.0208333333333333
142
0.0
142
0.0
142
0.0
142
0.0
142
0.0208333333333333
142
0.0
142
0.0
142
0.0
142
0.0
142
1.0
142
0.0
142
0.0
142
0.0
142
0.0
142
1.0
179
     0
144
0.0208333333333333
144
0.0
144
0.0
144
0.0
144
0.0
144
0.0208333333333333
144
0.0
144
0.0
144
0.0
144
0.0
144
1.0
144
0.0
144
0.0
144
0.0
144
0.0
144
1.0
147
0.0208333333333333
147
0.0
147
0.0
147
0.0
147
0.0
147
0.0208333333333333
147
0.0
147
0.0
147
0.0
147
0.0
147
1.0
147
0.0
147
0.0
147
0.0
147
0.0
147
1.0
  0
MATERIAL
  5
1875
102
{ACAD_XDICTIONARY
360
1876
102
}
102
{ACAD_REACTORS
330
ADA
102
}
330
ADA
100
AcDbMaterial
  1
Global
 72
     0
 43
0.0208333333333333
 43
0.0
 43
0.0
 43
0.0
 43
0.0
 43
0.0208333333333333
 43
0.0
 43
0.0
 43
0.0
 43
0.0
 43
1.0
 43
0.0
 43
0.0
 43
0.0
 43
0.0
 43
1.0
 77
     0
 47
0.0208333333333333
 47
0.0
 47
0.0
 47
0.0
 47
0.0
 47
0.0208333333333333
 47
0.0
 47
0.0
 47
0.0
 47
0.0
 47
1.0
 47
0.0
 47
0.0
 47
0.0
 47
0.0
 47
1.0
171
     0
 49
0.0208333333333333
 49
0.0
 49
0.0
 49
0.0
 49
0.0
 49
0.0208333333333333
 49
0.0
 49
0.0
 49
0.0
 49
0.0
 49
1.0
 49
0.0
 49
0.0
 49
0.0
 49
0.0
 49
1.0
175
     0
142
0.0208333333333333
142
0.0
142
0.0
142
0.0
142
0.0
142
0.0208333333333333
142
0.0
142
0.0
142
0.0
142
0.0
142
1.0
142
0.0
142
0.0
142
0.0
142
0.0
142
1.0
179
     0
144
0.0208333333333333
144
0.0
144
0.0
144
0.0
144
0.0
144
0.0208333333333333
144
0.0
144
0.0
144
0.0
144
0.0
144
1.0
144
0.0
144
0.0
144
0.0
144
0.0
144
1.0
147
0.0208333333333333
147
0.0
147
0.0
147
0.0
147
0.0
147
0.0208333333333333
147
0.0
147
0.0
147
0.0
147
0.0
147
1.0
147
0.0
147
0.0
147
0.0
147
0.0
147
1.0
  0
MLEADERSTYLE
  5
18AB
102
{ACAD_REACTORS
330
18AA
102
}
330
18AA
100
AcDbMLeaderStyle
170
     2
171
     1
172
     0
 90
        2
 40
0.0
 41
0.0
173
     1
 91
-1056964608
340
14
 92
       -2
290
     1
 42
2.0
291
     1
 43
0.36
  3
Standard
 44
4.0
300

342
11
174
     1
178
     6
175
     1
176
     0
 93
-1056964608
 45
4.0
292
     0
297
     0
 46
4.0
 94
-1056964608
 47
1.0
 49
1.0
140
1.0
293
     1
141
0.0
294
     1
177
     0
142
1.0
295
     0
296
     0
143
0.125
1001
ACAD_MLEADERVER
1070
     2
  0
MLINESTYLE
  5
18
102
{ACAD_REACTORS
330
17
102
}
330
17
100
AcDbMlineStyle
  2
STANDARD
 70
     0
  3

 62
   256
 51
90.0
 52
90.0
 71
     2
 49
0.5
 62
   256
  6
BYLAYER
 49
-0.5
 62
   256
  6
BYLAYER
  0
ACDBPLACEHOLDER
  5
F
102
{ACAD_REACTORS
330
E
102
}
330
E
  0
SCALE
  5
1899
102
{ACAD_REACTORS
330
1898
102
}
330
1898
100
AcDbScale
 70
     0
300
1:1
140
1.0
141
1.0
290
     1
  0
SCALE
  5
189A
102
{ACAD_REACTORS
330
1898
102
}
330
1898
100
AcDbScale
 70
     0
300
1:2
140
1.0
141
2.0
290
     0
  0
SCALE
  5
189B
102
{ACAD_REACTORS
330
1898
102
}
330
1898
100
AcDbScale
 70
     0
300
1:4
140
1.0
141
4.0
290
     0
  0
SCALE
  5
189C
102
{ACAD_REACTORS
330
1898
102
}
330
1898
100
AcDbScale
 70
     0
300
1:5
140
1.0
141
5.0
290
     0
  0
SCALE
  5
189D
102
{ACAD_REACTORS
330
1898
102
}
330
1898
100
AcDbScale
 70
     0
300
1:8
140
1.0
141
8.0
290
     0
  0
SCALE
  5
189E
102
{ACAD_REACTORS
330
1898
102
}
330
1898
100
AcDbScale
 70
     0
300
1:10
140
1.0
141
10.0
290
     0
  0
SCALE
  5
189F
102
{ACAD_REACTORS
330
1898
102
}
330
1898
100
AcDbScale
 70
     0
300
1:16
140
1.0
141
16.0
290
     0
  0
SCALE
  5
18A0
102
{ACAD_REACTORS
330
1898
102
}
330
1898
100
AcDbScale
 70
     0
300
1:20
140
1.0
141
20.0
290
     0
  0
SCALE
  5
18A1
102
{ACAD_REACTORS
330
1898
102
}
330
1898
100
AcDbScale
 70
     0
300
1:30
140
1.0
141
30.0
290
     0
  0
SCALE
  5
18A2
102
{ACAD_REACTORS
330
1898
102
}
330
1898
100
AcDbScale
 70
     0
300
1:40
140
1.0
141
40.0
290
     0
  0
SCALE
  5
18A3
102
{ACAD_REACTORS
330
1898
102
}
330
1898
100
AcDbScale
 70
     0
300
1:50
140
1.0
141
50.0
290
     0
  0
SCALE
  5
18A4
102
{ACAD_REACTORS
330
1898
102
}
330
1898
100
AcDbScale
 70
     0
300
1:100
140
1.0
141
100.0
290
     0
  0
SCALE
  5
18A5
102
{ACAD_REACTORS
330
1898
102
}
330
1898
100
AcDbScale
 70
     0
300
2:1
140
2.0
141
1.0
290
     0
  0
SCALE
  5
18A6
102
{ACAD_REACTORS
330
1898
102
}
330
1898
100
AcDbScale
 70
     0
300
4:1
140
4.0
141
1.0
290
     0
  0
SCALE
  5
18A7
102
{ACAD_REACTORS
330
1898
102
}
330
1898
100
AcDbScale
 70
     0
300
8:1
140
8.0
141
1.0
290
     0
  0
SCALE
  5
18A8
102
{ACAD_REACTORS
330
1898
102
}
330
1898
100
AcDbScale
 70
     0
300
10:1
140
10.0
141
1.0
290
     0
  0
SCALE
  5
18A9
102
{ACAD_REACTORS
330
1898
102
}
330
1898
100
AcDbScale
 70
     0
300
100:1
140
100.0
141
1.0
290
     0
  0
TABLESTYLE
  5
1897
102
{ACAD_XDICTIONARY
360
18C5
102
}
102
{ACAD_REACTORS
330
1896
102
}
330
1896
100
AcDbTableStyle
  3
Standard
 70
     0
 71
     0
 40
1.5
 41
1.5
280
     0
281
     0
  7
Standard
140
4.5
170
     2
 62
     0
 63
     7
283
     0
274
    -2
284
     1
 64
     0
275
    -2
285
     1
 65
     0
276
    -2
286
     1
 66
     0
277
    -2
287
     1
 67
     0
278
    -2
288
     1
 68
     0
279
    -2
289
     1
 69
     0
  7
Standard
140
6.0
170
     5
 62
     0
 63
     7
283
     0
274
    -2
284
     1
 64
     0
275
    -2
285
     1
 65
     0
276
    -2
286
     1
 66
     0
277
    -2
287
     1
 67
     0
278
    -2
288
     1
 68
     0
279
    -2
289
     1
 69
     0
  7
Standard
140
4.5
170
     5
 62
     0
 63
     7
283
     0
274
    -2
284
     1
 64
     0
275
    -2
285
     1
 65
     0
276
    -2
286
     1
 66
     0
277
    -2
287
     1
 67
     0
278
    -2
288
     1
 68
     0
279
    -2
289
     1
 69
     0
  0
VISUALSTYLE
  5
1883
102
{ACAD_XDICTIONARY
360
18DC
102
}
102
{ACAD_REACTORS
330
187D
102
}
330
187D
100
AcDbVisualStyle
  2
2dWireframe
 70
     4
 71
     0
 72
     2
 73
     0
 90
        0
 40
-0.6
 41
-30.0
 62
     5
 63
     7
 74
     1
 91
        4
 64
     7
 65
   257
 75
     1
175
     1
 42
1.0
 92
        0
 66
   257
 43
1.0
 76
     1
 77
     6
 78
     2
 67
     7
 79
     5
170
     0
171
     0
290
     0
174
     0
 93
        1
 44
0.0
173
     0
291
     0
 45
0.0
1001
ACAD
1000
AcDbSavedByObjectVersion
1070
     0
  0
VISUALSTYLE
  5
1882
102
{ACAD_XDICTIONARY
360
18DA
102
}
102
{ACAD_REACTORS
330
187D
102
}
330
187D
100
AcDbVisualStyle
  2
Basic
 70
     7
 71
     1
 72
     0
 73
     1
 90
        0
 40
-0.6
 41
-30.0
 62
     5
 63
     7
 74
     0
 91
        4
 64
     7
 65
   257
 75
     1
175
     1
 42
1.0
 92
        8
 66
     7
 43
1.0
 76
     1
 77
     6
 78
     2
 67
     7
 79
     5
170
     0
171
     0
290
     0
174
     0
 93
        1
 44
0.0
173
     0
291
     1
 45
0.0
1001
ACAD
1000
AcDbSavedByObjectVersion
1070
     0
  0
VISUALSTYLE
  5
1889
102
{ACAD_XDICTIONARY
360
18E8
102
}
102
{ACAD_REACTORS
330
187D
102
}
330
187D
100
AcDbVisualStyle
  2
Brighten
 70
    12
 71
     2
 72
     2
 73
     0
 90
        0
 40
-0.6
 41
-30.0
 62
     5
 63
     7
 74
     1
 91
        4
 64
     7
 65
   257
 75
     1
175
     1
 42
1.0
 92
        8
 66
     7
 43
1.0
 76
     1
 77
     6
 78
     2
 67
     7
 79
     5
170
     0
171
     0
290
     0
174
     0
 93
        1
 44
50.0
173
     0
291
     1
 45
0.0
1001
ACAD
1000
AcDbSavedByObjectVersion
1070
     0
  0
VISUALSTYLE
  5
188D
102
{ACAD_XDICTIONARY
360
18F0
102
}
102
{ACAD_REACTORS
330
187D
102
}
330
187D
100
AcDbVisualStyle
  2
ColorChange
 70
    16
 71
     2
 72
     2
 73
     3
 90
        0
 40
-0.6
 41
-30.0
 62
     5
 63
     8
 74
     1
 91
        4
 64
     7
 65
   257
 75
     1
175
     1
 42
1.0
 92
        8
 66
     8
 43
1.0
 76
     1
 77
     6
 78
     2
 67
     7
 79
     5
170
     0
171
     0
290
     0
174
     0
 93
        1
 44
0.0
173
     0
291
     1
 45
0.0
1001
ACAD
1000
AcDbSavedByObjectVersion
1070
     0
  0
VISUALSTYLE
  5
1886
102
{ACAD_XDICTIONARY
360
18E2
102
}
102
{ACAD_REACTORS
330
187D
102
}
330
187D
100
AcDbVisualStyle
  2
Conceptual
 70
     9
 71
     3
 72
     2
 73
     0
 90
        0
 40
-0.6
 41
-30.0
 62
     5
 63
     7
 74
     2
 91
        2
 64
     7
 65
   257
 75
     1
175
     1
 42
179.0
 92
        8
 66
     7
 43
1.0
 76
     1
 77
     6
 78
     2
 67
     7
 79
     3
170
     0
171
     0
290
     0
174
     0
 93
        1
 44
0.0
173
     0
291
     0
 45
0.0
1001
ACAD
1000
AcDbSavedByObjectVersion
1070
     0
  0
VISUALSTYLE
  5
1888
102
{ACAD_XDICTIONARY
360
18E6
102
}
102
{ACAD_REACTORS
330
187D
102
}
330
187D
100
AcDbVisualStyle
  2
Dim
 70
    11
 71
     2
 72
     2
 73
     0
 90
        0
 40
-0.6
 41
-30.0
 62
     5
 63
     7
 74
     1
 91
        4
 64
     7
 65
   257
 75
     1
175
     1
 42
1.0
 92
        8
 66
     7
 43
1.0
 76
     1
 77
     6
 78
     2
 67
     7
 79
     5
170
     0
171
     0
290
     0
174
     0
 93
        1
 44
-50.0
173
     0
291
     1
 45
0.0
1001
ACAD
1000
AcDbSavedByObjectVersion
1070
     0
  0
VISUALSTYLE
  5
1895
102
{ACAD_XDICTIONARY
360
1900
102
}
102
{ACAD_REACTORS
330
187D
102
}
330
187D
100
AcDbVisualStyle
  2
EdgeColorOff
 70
    22
 71
     2
 72
     2
 73
     0
 90
        0
 40
-0.6
 41
-30.0
 62
     5
 63
     7
 74
     1
 91
        4
 64
     7
 65
   257
 75
     1
175
     1
 42
1.0
 92
        8
 66
     7
 43
1.0
 76
     1
 77
     6
 78
     2
 67
     7
 79
     5
170
     0
171
     0
290
     0
174
     0
 93
        1
 44
0.0
173
     0
291
     1
 45
0.0
1001
ACAD
1000
AcDbSavedByObjectVersion
1070
     0
  0
VISUALSTYLE
  5
188C
102
{ACAD_XDICTIONARY
360
18EE
102
}
102
{ACAD_REACTORS
330
187D
102
}
330
187D
100
AcDbVisualStyle
  2
Facepattern
 70
    15
 71
     2
 72
     2
 73
     0
 90
        0
 40
-0.6
 41
-30.0
 62
     5
 63
     7
 74
     1
 91
        4
 64
     7
 65
   257
 75
     1
175
     1
 42
1.0
 92
        8
 66
     7
 43
1.0
 76
     1
 77
     6
 78
     2
 67
     7
 79
     5
170
     0
171
     0
290
     0
174
     0
 93
        1
 44
0.0
173
     0
291
     1
 45
0.0
1001
ACAD
1000
AcDbSavedByObjectVersion
1070
     0
  0
VISUALSTYLE
  5
187E
102
{ACAD_XDICTIONARY
360
18D2
102
}
102
{ACAD_REACTORS
330
187D
102
}
330
187D
100
AcDbVisualStyle
  2
Flat
 70
     0
 71
     2
 72
     1
 73
     1
 90
        2
 40
-0.6
 41
30.0
 62
     5
 63
     7
 74
     0
 91
        0
 64
     7
 65
   257
 75
     1
175
     1
 42
1.0
 92
        8
 66
     7
 43
1.0
 76
     1
 77
     6
 78
     2
 67
     7
 79
     5
170
     0
171
     0
290
     0
174
     0
 93
       13
 44
0.0
173
     0
291
     1
 45
0.0
1001
ACAD
1000
AcDbSavedByObjectVersion
1070
     0
  0
VISUALSTYLE
  5
187F
102
{ACAD_XDICTIONARY
360
18D4
102
}
102
{ACAD_REACTORS
330
187D
102
}
330
187D
100
AcDbVisualStyle
  2
FlatWithEdges
 70
     1
 71
     2
 72
     1
 73
     1
 90
        2
 40
-0.6
 41
30.0
 62
     5
 63
     7
 74
     1
 91
        0
 64
     7
 65
   257
 75
     1
175
     1
 42
1.0
 92
        0
 66
   257
 43
1.0
 76
     1
 77
     6
 78
     2
 67
     7
 79
     5
170
     0
171
     0
290
     0
174
     0
 93
       13
 44
0.0
173
     0
291
     1
 45
0.0
1001
ACAD
1000
AcDbSavedByObjectVersion
1070
     0
  0
VISUALSTYLE
  5
1880
102
{ACAD_XDICTIONARY
360
18D6
102
}
102
{ACAD_REACTORS
330
187D
102
}
330
187D
100
AcDbVisualStyle
  2
Gouraud
 70
     2
 71
     2
 72
     2
 73
     1
 90
        2
 40
-0.6
 41
30.0
 62
     5
 63
     7
 74
     0
 91
        0
 64
     7
 65
   257
 75
     1
175
     1
 42
1.0
 92
        0
 66
     7
 43
1.0
 76
     1
 77
     6
 78
     2
 67
     7
 79
     5
170
     0
171
     0
290
     0
174
     0
 93
       13
 44
0.0
173
     0
291
     1
 45
0.0
1001
ACAD
1000
AcDbSavedByObjectVersion
1070
     0
  0
VISUALSTYLE
  5
1881
102
{ACAD_XDICTIONARY
360
18D8
102
}
102
{ACAD_REACTORS
330
187D
102
}
330
187D
100
AcDbVisualStyle
  2
GouraudWithEdges
 70
     3
 71
     2
 72
     2
 73
     1
 90
        2
 40
-0.6
 41
30.0
 62
     5
 63
     7
 74
     1
 91
        0
 64
     7
 65
   257
 75
     1
175
     1
 42
1.0
 92
        0
 66
   257
 43
1.0
 76
     1
 77
     6
 78
     2
 67
     7
 79
     5
170
     0
171
     0
290
     0
174
     0
 93
       13
 44
0.0
173
     0
291
     1
 45
0.0
1001
ACAD
1000
AcDbSavedByObjectVersion
1070
     0
  0
VISUALSTYLE
  5
1885
102
{ACAD_XDICTIONARY
360
18E0
102
}
102
{ACAD_REACTORS
330
187D
102
}
330
187D
100
AcDbVisualStyle
  2
Hidden
 70
     6
 71
     1
 72
     2
 73
     2
 90
        0
 40
-0.6
 41
-30.0
 62
     5
 63
     7
 74
     2
 91
        2
 64
     7
 65
   257
 75
     2
175
     1
 42
40.0
 92
        0
 66
   257
 43
1.0
 76
     1
 77
     6
 78
     2
 67
     7
 79
     3
170
     0
171
     0
290
     0
174
     0
 93
        1
 44
0.0
173
     0
291
     0
 45
0.0
1001
ACAD
1000
AcDbSavedByObjectVersion
1070
     0
  0
VISUALSTYLE
  5
1893
102
{ACAD_XDICTIONARY
360
18FC
102
}
102
{ACAD_REACTORS
330
187D
102
}
330
187D
100
AcDbVisualStyle
  2
JitterOff
 70
    20
 71
     2
 72
     2
 73
     0
 90
        0
 40
-0.6
 41
-30.0
 62
     5
 63
     7
 74
     1
 91
        4
 64
     7
 65
   257
 75
     1
175
     1
 42
1.0
 92
       10
 66
     7
 43
1.0
 76
     1
 77
     6
 78
     2
 67
     7
 79
     5
170
     0
171
     0
290
     0
174
     0
 93
        1
 44
0.0
173
     0
291
     1
 45
0.0
1001
ACAD
1000
AcDbSavedByObjectVersion
1070
     0
  0
VISUALSTYLE
  5
188B
102
{ACAD_XDICTIONARY
360
18EC
102
}
102
{ACAD_REACTORS
330
187D
102
}
330
187D
100
AcDbVisualStyle
  2
Linepattern
 70
    14
 71
     2
 72
     2
 73
     0
 90
        0
 40
-0.6
 41
-30.0
 62
     5
 63
     7
 74
     1
 91
        4
 64
     7
 65
   257
 75
     7
175
     7
 42
1.0
 92
        8
 66
     7
 43
1.0
 76
     1
 77
     6
 78
     2
 67
     7
 79
     5
170
     0
171
     0
290
     0
174
     0
 93
        1
 44
0.0
173
     0
291
     1
 45
0.0
1001
ACAD
1000
AcDbSavedByObjectVersion
1070
     0
  0
VISUALSTYLE
  5
1894
102
{ACAD_XDICTIONARY
360
18FE
102
}
102
{ACAD_REACTORS
330
187D
102
}
330
187D
100
AcDbVisualStyle
  2
OverhangOff
 70
    21
 71
     2
 72
     2
 73
     0
 90
        0
 40
-0.6
 41
-30.0
 62
     5
 63
     7
 74
     1
 91
        4
 64
     7
 65
   257
 75
     1
175
     1
 42
1.0
 92
        9
 66
     7
 43
1.0
 76
     1
 77
     6
 78
     2
 67
     7
 79
     5
170
     0
171
     0
290
     0
174
     0
 93
        1
 44
0.0
173
     0
291
     1
 45
0.0
1001
ACAD
1000
AcDbSavedByObjectVersion
1070
     0
  0
VISUALSTYLE
  5
1887
102
{ACAD_XDICTIONARY
360
18E4
102
}
102
{ACAD_REACTORS
330
187D
102
}
330
187D
100
AcDbVisualStyle
  2
Realistic
 70
     8
 71
     2
 72
     3
 73
     0
 90
        2
 40
-0.6
 41
30.0
 62
     5
 63
     7
 74
     0
 91
        0
 64
     7
 65
   257
 75
     1
175
     1
 42
1.0
 92
        8
 66
   257
 43
1.0
 76
     1
 77
     6
 78
     2
 67
     7
 79
     3
170
     0
171
     0
290
     0
174
     0
 93
       13
 44
0.0
173
     0
291
     0
 45
0.0
1001
ACAD
1000
AcDbSavedByObjectVersion
1070
     0
  0
VISUALSTYLE
  5
1892
102
{ACAD_XDICTIONARY
360
18FA
102
}
102
{ACAD_REACTORS
330
187D
102
}
330
187D
100
AcDbVisualStyle
  2
Shaded
 70
    27
 71
     2
 72
     2
 73
     1
 90
        2
 40
-0.6
 41
30.0
 62
     5
 63
     7
 74
     0
 91
        4
 64
     7
 65
   257
 75
     1
175
     1
 42
1.0
 92
        8
 66
   257
 43
1.0
 76
     1
 77
     6
 78
     2
 67
     8
 79
     3
170
     0
171
     0
290
     0
174
     0
 93
        5
 44
0.0
173
     0
291
     0
 45
0.0
1001
ACAD
1000
AcDbSavedByObjectVersion
1070
     0
  0
VISUALSTYLE
  5
1891
102
{ACAD_XDICTIONARY
360
18F8
102
}
102
{ACAD_REACTORS
330
187D
102
}
330
187D
100
AcDbVisualStyle
  2
Shaded with edges
 70
    26
 71
     2
 72
     2
 73
     1
 90
        2
 40
-0.6
 41
30.0
 62
     5
 63
     7
 74
     1
 91
       10
 64
     7
 65
   257
 75
     2
175
     1
 42
1.0
 92
        8
 66
   257
 43
1.0
 76
     1
 77
     6
 78
     2
 67
     7
 79
     3
170
     0
171
     0
290
     0
174
     0
 93
        5
 44
0.0
173
     0
291
     0
 45
0.0
1001
ACAD
1000
AcDbSavedByObjectVersion
1070
     0
  0
VISUALSTYLE
  5
188E
102
{ACAD_XDICTIONARY
360
18F2
102
}
102
{ACAD_REACTORS
330
187D
102
}
330
187D
100
AcDbVisualStyle
  2
Shades of Gray
 70
    23
 71
     2
 72
     2
 73
     3
 90
        0
 40
-0.6
 41
-30.0
 62
     5
 63
     7
 74
     2
 91
        2
 64
     7
 65
     7
 75
     1
175
     1
 42
40.0
 92
        8
 66
     7
 43
1.0
 76
     1
 77
     6
 78
     2
 67
     7
 79
     3
170
     0
171
     0
290
     0
174
     0
 93
        1
 44
0.0
173
     0
291
     0
 45
0.0
1001
ACAD
1000
AcDbSavedByObjectVersion
1070
     0
  0
VISUALSTYLE
  5
188F
102
{ACAD_XDICTIONARY
360
18F4
102
}
102
{ACAD_REACTORS
330
187D
102
}
330
187D
100
AcDbVisualStyle
  2
Sketchy
 70
    24
 71
     1
 72
     2
 73
     2
 90
        0
 40
-0.6
 41
-30.0
 62
     5
 63
     7
 74
     2
 91
        2
 64
     7
 65
     7
 75
     1
175
     1
 42
40.0
 92
       11
 66
     7
 43
1.0
 76
     1
 77
     6
 78
     2
 67
     7
 79
     6
170
     0
171
     0
290
     0
174
     0
 93
        1
 44
0.0
173
     0
291
     0
 45
0.0
1001
ACAD
1000
AcDbSavedByObjectVersion
1070
     0
  0
VISUALSTYLE
  5
188A
102
{ACAD_XDICTIONARY
360
18EA
102
}
102
{ACAD_REACTORS
330
187D
102
}
330
187D
100
AcDbVisualStyle
  2
Thicken
 70
    13
 71
     2
 72
     2
 73
     0
 90
        0
 40
-0.6
 41
-30.0
 62
     5
 63
     7
 74
     1
 91
        4
 64
     7
 65
   257
 75
     1
175
     1
 42
1.0
 92
       12
 66
     7
 43
1.0
 76
     1
 77
     6
 78
     2
 67
     7
 79
     5
170
     0
171
     0
290
     0
174
     0
 93
        1
 44
0.0
173
     0
291
     1
 45
0.0
1001
ACAD
1000
AcDbSavedByObjectVersion
1070
     0
  0
VISUALSTYLE
  5
1884
102
{ACAD_XDICTIONARY
360
18DE
102
}
102
{ACAD_REACTORS
330
187D
102
}
330
187D
100
AcDbVisualStyle
  2
Wireframe
 70
     5
 71
     0
 72
     2
 73
     0
 90
        0
 40
-0.6
 41
-30.0
 62
     5
 63
     7
 74
     1
 91
        4
 64
     7
 65
   257
 75
     1
175
     1
 42
1.0
 92
        0
 66
   257
 43
1.0
 76
     1
 77
     6
 78
     2
 67
     7
 79
     3
170
     0
171
     0
290
     0
174
     0
 93
        1
 44
0.0
173
     0
291
     0
 45
0.0
1001
ACAD
1000
AcDbSavedByObjectVersion
1070
     0
  0
VISUALSTYLE
  5
1890
102
{ACAD_XDICTIONARY
360
18F6
102
}
102
{ACAD_REACTORS
330
187D
102
}
330
187D
100
AcDbVisualStyle
  2
X-Ray
 70
    25
 71
     2
 72
     2
 73
     1
 90
        1
 40
0.5
 41
-30.0
 62
     5
 63
     7
 74
     1
 91
        0
 64
     7
 65
   257
 75
     1
175
     1
 42
1.0
 92
        8
 66
     7
 43
1.0
 76
     1
 77
     6
 78
     2
 67
     7
 79
     3
170
     0
171
     0
290
     0
174
     0
 93
       13
 44
0.0
173
     0
291
     0
 45
0.0
1001
ACAD
1000
AcDbSavedByObjectVersion
1070
     0
  0
DICTIONARYVAR
  5
18BF
102
{ACAD_REACTORS
330
18BC
102
}
330
18BC
100
DictionaryVariables
280
     0
  1
1:1
  0
DICTIONARYVAR
  5
18BE
102
{ACAD_REACTORS
330
18BC
102
}
330
18BC
100
DictionaryVariables
280
     0
  1
STANDARD
  0
DICTIONARYVAR
  5
18BD
102
{ACAD_REACTORS
330
18BC
102
}
330
18BC
100
DictionaryVariables
280
     0
  1
STANDARD
  0
DICTIONARYVAR
  5
18C3
102
{ACAD_REACTORS
330
18BC
102
}
330
18BC
100
DictionaryVariables
280
     0
  1
1
  0
DICTIONARYVAR
  5
18C1
102
{ACAD_REACTORS
330
18BC
102
}
330
18BC
100
DictionaryVariables
280
     0
  1
0
  0
DICTIONARYVAR
  5
18C0
102
{ACAD_REACTORS
330
18BC
102
}
330
18BC
100
DictionaryVariables
280
     0
  1
127
  0
DICTIONARYVAR
  5
18C2
102
{ACAD_REACTORS
330
18BC
102
}
330
18BC
100
DictionaryVariables
280
     0
  1
0
  0
DICTIONARY
  5
18C9
330
1E
100
AcDbDictionary
280
     1
281
     1
  3
ACAD_XREC_ROUNDTRIP
360
18CA
  0
DICTIONARY
  5
18CD
330
26
100
AcDbDictionary
280
     1
281
     1
  3
ACAD_XREC_ROUNDTRIP
360
18CE
  0
DICTIONARY
  5
18CB
330
22
100
AcDbDictionary
280
     1
281
     1
  3
ACAD_XREC_ROUNDTRIP
360
18CC
  0
DICTIONARY
  5
186E
330
186D
100
AcDbDictionary
280
     1
281
     1
  3
ACAD_XREC_ROUNDTRIP
360
18D0
  3
BUMPTILE
360
1870
  3
DIFFUSETILE
360
186F
  3
OPACITYTILE
360
1873
  3
REFLECTIONTILE
360
1872
  3
REFRACTIONTILE
360
1874
  3
SPECULARTILE
360
1871
  0
DICTIONARY
  5
1866
330
1865
100
AcDbDictionary
280
     1
281
     1
  3
ACAD_XREC_ROUNDTRIP
360
18CF
  3
BUMPTILE
360
1868
  3
DIFFUSETILE
360
1867
  3
OPACITYTILE
360
186B
  3
REFLECTIONTILE
360
186A
  3
REFRACTIONTILE
360
186C
  3
SPECULARTILE
360
1869
  0
DICTIONARY
  5
1876
330
1875
100
AcDbDictionary
280
     1
281
     1
  3
ACAD_XREC_ROUNDTRIP
360
18D1
  3
BUMPTILE
360
1878
  3
DIFFUSETILE
360
1877
  3
OPACITYTILE
360
187B
  3
REFLECTIONTILE
360
187A
  3
REFRACTIONTILE
360
187C
  3
SPECULARTILE
360
1879
  0
DICTIONARY
  5
18C5
330
1897
100
AcDbDictionary
280
     1
281
     1
  3
ACAD_ROUNDTRIP_2008_TABLESTYLE_CELLSTYLEMAP
360
18C6
  3
ACAD_XREC_ROUNDTRIP
360
1902
  0
DICTIONARY
  5
18DC
330
1883
100
AcDbDictionary
280
     1
281
     1
  3
ACAD_XREC_ROUNDTRIP
360
18DD
  0
DICTIONARY
  5
18DA
330
1882
100
AcDbDictionary
280
     1
281
     1
  3
ACAD_XREC_ROUNDTRIP
360
18DB
  0
DICTIONARY
  5
18E8
330
1889
100
AcDbDictionary
280
     1
281
     1
  3
ACAD_XREC_ROUNDTRIP
360
18E9
  0
DICTIONARY
  5
18F0
330
188D
100
AcDbDictionary
280
     1
281
     1
  3
ACAD_XREC_ROUNDTRIP
360
18F1
  0
DICTIONARY
  5
18E2
330
1886
100
AcDbDictionary
280
     1
281
     1
  3
ACAD_XREC_ROUNDTRIP
360
18E3
  0
DICTIONARY
  5
18E6
330
1888
100
AcDbDictionary
280
     1
281
     1
  3
ACAD_XREC_ROUNDTRIP
360
18E7
  0
DICTIONARY
  5
1900
330
1895
100
AcDbDictionary
280
     1
281
     1
  3
ACAD_XREC_ROUNDTRIP
360
1901
  0
DICTIONARY
  5
18EE
330
188C
100
AcDbDictionary
280
     1
281
     1
  3
ACAD_XREC_ROUNDTRIP
360
18EF
  0
DICTIONARY
  5
18D2
330
187E
100
AcDbDictionary
280
     1
281
     1
  3
ACAD_XREC_ROUNDTRIP
360
18D3
  0
DICTIONARY
  5
18D4
330
187F
100
AcDbDictionary
280
     1
281
     1
  3
ACAD_XREC_ROUNDTRIP
360
18D5
  0
DICTIONARY
  5
18D6
330
1880
100
AcDbDictionary
280
     1
281
     1
  3
ACAD_XREC_ROUNDTRIP
360
18D7
  0
DICTIONARY
  5
18D8
330
1881
100
AcDbDictionary
280
     1
281
     1
  3
ACAD_XREC_ROUNDTRIP
360
18D9
  0
DICTIONARY
  5
18E0
330
1885
100
AcDbDictionary
280
     1
281
     1
  3
ACAD_XREC_ROUNDTRIP
360
18E1
  0
DICTIONARY
  5
18FC
330
1893
100
AcDbDictionary
280
     1
281
     1
  3
ACAD_XREC_ROUNDTRIP
360
18FD
  0
DICTIONARY
  5
18EC
330
188B
100
AcDbDictionary
280
     1
281
     1
  3
ACAD_XREC_ROUNDTRIP
360
18ED
  0
DICTIONARY
  5
18FE
330
1894
100
AcDbDictionary
280
     1
281
     1
  3
ACAD_XREC_ROUNDTRIP
360
18FF
  0
DICTIONARY
  5
18E4
330
1887
100
AcDbDictionary
280
     1
281
     1
  3
ACAD_XREC_ROUNDTRIP
360
18E5
  0
DICTIONARY
  5
18FA
330
1892
100
AcDbDictionary
280
     1
281
     1
  3
ACAD_XREC_ROUNDTRIP
360
18FB
  0
DICTIONARY
  5
18F8
330
1891
100
AcDbDictionary
280
     1
281
     1
  3
ACAD_XREC_ROUNDTRIP
360
18F9
  0
DICTIONARY
  5
18F2
330
188E
100
AcDbDictionary
280
     1
281
     1
  3
ACAD_XREC_ROUNDTRIP
360
18F3
  0
DICTIONARY
  5
18F4
330
188F
100
AcDbDictionary
280
     1
281
     1
  3
ACAD_XREC_ROUNDTRIP
360
18F5
  0
DICTIONARY
  5
18EA
330
188A
100
AcDbDictionary
280
     1
281
     1
  3
ACAD_XREC_ROUNDTRIP
360
18EB
  0
DICTIONARY
  5
18DE
330
1884
100
AcDbDictionary
280
     1
281
     1
  3
ACAD_XREC_ROUNDTRIP
360
18DF
  0
DICTIONARY
  5
18F6
330
1890
100
AcDbDictionary
280
     1
281
     1
  3
ACAD_XREC_ROUNDTRIP
360
18F7
  0
XRECORD
  5
18CA
102
{ACAD_REACTORS
330
18C9
102
}
330
18C9
100
AcDbXrecord
280
     1
102
SHADEPLOT
 70
     0
102
SHADEPLOTRESLEVEL
 70
     2
102
SHADEPLOTCUSTOMDPI
 70
   300
  0
XRECORD
  5
18CE
102
{ACAD_REACTORS
330
18CD
102
}
330
18CD
100
AcDbXrecord
280
     1
102
SHADEPLOT
 70
     0
102
SHADEPLOTRESLEVEL
 70
     2
102
SHADEPLOTCUSTOMDPI
 70
   300
  0
XRECORD
  5
18CC
102
{ACAD_REACTORS
330
18CB
102
}
330
18CB
100
AcDbXrecord
280
     1
102
SHADEPLOT
 70
     0
102
SHADEPLOTRESLEVEL
 70
     2
102
SHADEPLOTCUSTOMDPI
 70
   300
  0
XRECORD
  5
18D0
102
{ACAD_REACTORS
330
186E
102
}
330
186E
100
AcDbXrecord
280
     1
102
MATERIAL
148
0.0
149
0.0
149
0.0
 93
        0
 94
      127
282
     0
 72
     0
 77
     0
171
     0
175
     0
179
     0
273
     0
  0
XRECORD
  5
1870
102
{ACAD_REACTORS
330
186E
102
}
330
186E
100
AcDbXrecord
280
     1
270
     1
271
     1
  0
XRECORD
  5
186F
102
{ACAD_REACTORS
330
186E
102
}
330
186E
100
AcDbXrecord
280
     1
270
     1
271
     1
  0
XRECORD
  5
1873
102
{ACAD_REACTORS
330
186E
102
}
330
186E
100
AcDbXrecord
280
     1
270
     1
271
     1
  0
XRECORD
  5
1872
102
{ACAD_REACTORS
330
186E
102
}
330
186E
100
AcDbXrecord
280
     1
270
     1
271
     1
  0
XRECORD
  5
1874
102
{ACAD_REACTORS
330
186E
102
}
330
186E
100
AcDbXrecord
280
     1
270
     1
271
     1
  0
XRECORD
  5
1871
102
{ACAD_REACTORS
330
186E
102
}
330
186E
100
AcDbXrecord
280
     1
270
     1
271
     1
  0
XRECORD
  5
18CF
102
{ACAD_REACTORS
330
1866
102
}
330
1866
100
AcDbXrecord
280
     1
102
MATERIAL
148
0.0
149
0.0
149
0.0
 93
        0
 94
      127
282
     0
 72
     0
 77
     0
171
     0
175
     0
179
     0
273
     0
  0
XRECORD
  5
1868
102
{ACAD_REACTORS
330
1866
102
}
330
1866
100
AcDbXrecord
280
     1
270
     1
271
     1
  0
XRECORD
  5
1867
102
{ACAD_REACTORS
330
1866
102
}
330
1866
100
AcDbXrecord
280
     1
270
     1
271
     1
  0
XRECORD
  5
186B
102
{ACAD_REACTORS
330
1866
102
}
330
1866
100
AcDbXrecord
280
     1
270
     1
271
     1
  0
XRECORD
  5
186A
102
{ACAD_REACTORS
330
1866
102
}
330
1866
100
AcDbXrecord
280
     1
270
     1
271
     1
  0
XRECORD
  5
186C
102
{ACAD_REACTORS
330
1866
102
}
330
1866
100
AcDbXrecord
280
     1
270
     1
271
     1
  0
XRECORD
  5
1869
102
{ACAD_REACTORS
330
1866
102
}
330
1866
100
AcDbXrecord
280
     1
270
     1
271
     1
  0
XRECORD
  5
18D1
102
{ACAD_REACTORS
330
1876
102
}
330
1876
100
AcDbXrecord
280
     1
102
MATERIAL
148
0.0
149
0.0
149
0.0
 93
        0
 94
      127
282
     0
 72
     0
 77
     0
171
     0
175
     0
179
     0
273
     0
  0
XRECORD
  5
1878
102
{ACAD_REACTORS
330
1876
102
}
330
1876
100
AcDbXrecord
280
     1
270
     1
271
     1
  0
XRECORD
  5
1877
102
{ACAD_REACTORS
330
1876
102
}
330
1876
100
AcDbXrecord
280
     1
270
     1
271
     1
  0
XRECORD
  5
187B
102
{ACAD_REACTORS
330
1876
102
}
330
1876
100
AcDbXrecord
280
     1
270
     1
271
     1
  0
XRECORD
  5
187A
102
{ACAD_REACTORS
330
1876
102
}
330
1876
100
AcDbXrecord
280
     1
270
     1
271
     1
  0
XRECORD
  5
187C
102
{ACAD_REACTORS
330
1876
102
}
330
1876
100
AcDbXrecord
280
     1
270
     1
271
     1
  0
XRECORD
  5
1879
102
{ACAD_REACTORS
330
1876
102
}
330
1876
100
AcDbXrecord
280
     1
270
     1
271
     1
  0
CELLSTYLEMAP
  5
18C6
102
{ACAD_REACTORS
330
18C5
102
}
330
18C5
100
AcDbCellStyleMap
 90
        3
300
CELLSTYLE
  1
TABLEFORMAT_BEGIN
 90
        5
170
     1
 91
        0
 92
    32768
 62
   257
 93
        1
300
CONTENTFORMAT
  1
CONTENTFORMAT_BEGIN
 90
        0
 91
        0
 92
      512
 93
        0
300

 40
0.0
140
1.0
 94
        5
 62
     0
340
11
144
6.0
309
CONTENTFORMAT_END
171
     1
301
MARGIN
  1
CELLMARGIN_BEGIN
 40
1.5
 40
1.5
 40
1.5
 40
1.5
 40
4.5
 40
4.5
309
CELLMARGIN_END
 94
        6
 95
        1
302
GRIDFORMAT
  1
GRIDFORMAT_BEGIN
 90
        0
 91
        1
 62
     0
 92
       -2
340
0
 93
        0
 40
1.125
309
GRIDFORMAT_END
 95
        2
302
GRIDFORMAT
  1
GRIDFORMAT_BEGIN
 90
        0
 91
        1
 62
     0
 92
       -2
340
0
 93
        0
 40
1.125
309
GRIDFORMAT_END
 95
        4
302
GRIDFORMAT
  1
GRIDFORMAT_BEGIN
 90
        0
 91
        1
 62
     0
 92
       -2
340
0
 93
        0
 40
1.125
309
GRIDFORMAT_END
 95
        8
302
GRIDFORMAT
  1
GRIDFORMAT_BEGIN
 90
        0
 91
        1
 62
     0
 92
       -2
340
0
 93
        0
 40
1.125
309
GRIDFORMAT_END
 95
       16
302
GRIDFORMAT
  1
GRIDFORMAT_BEGIN
 90
        0
 91
        1
 62
     0
 92
       -2
340
0
 93
        0
 40
1.125
309
GRIDFORMAT_END
 95
       32
302
GRIDFORMAT
  1
GRIDFORMAT_BEGIN
 90
        0
 91
        1
 62
     0
 92
       -2
340
0
 93
        0
 40
1.125
309
GRIDFORMAT_END
309
TABLEFORMAT_END
  1
CELLSTYLE_BEGIN
 90
        1
 91
        1
300
_TITLE
309
CELLSTYLE_END
300
CELLSTYLE
  1
TABLEFORMAT_BEGIN
 90
        5
170
     1
 91
        0
 92
        0
 62
   257
 93
        1
300
CONTENTFORMAT
  1
CONTENTFORMAT_BEGIN
 90
        0
 91
        0
 92
      512
 93
        0
300

 40
0.0
140
1.0
 94
        5
 62
     0
340
11
144
4.5
309
CONTENTFORMAT_END
171
     1
301
MARGIN
  1
CELLMARGIN_BEGIN
 40
1.5
 40
1.5
 40
1.5
 40
1.5
 40
4.5
 40
4.5
309
CELLMARGIN_END
 94
        6
 95
        1
302
GRIDFORMAT
  1
GRIDFORMAT_BEGIN
 90
        0
 91
        1
 62
     0
 92
       -2
340
0
 93
        0
 40
1.125
309
GRIDFORMAT_END
 95
        2
302
GRIDFORMAT
  1
GRIDFORMAT_BEGIN
 90
        0
 91
        1
 62
     0
 92
       -2
340
0
 93
        0
 40
1.125
309
GRIDFORMAT_END
 95
        4
302
GRIDFORMAT
  1
GRIDFORMAT_BEGIN
 90
        0
 91
        1
 62
     0
 92
       -2
340
0
 93
        0
 40
1.125
309
GRIDFORMAT_END
 95
        8
302
GRIDFORMAT
  1
GRIDFORMAT_BEGIN
 90
        0
 91
        1
 62
     0
 92
       -2
340
0
 93
        0
 40
1.125
309
GRIDFORMAT_END
 95
       16
302
GRIDFORMAT
  1
GRIDFORMAT_BEGIN
 90
        0
 91
        1
 62
     0
 92
       -2
340
0
 93
        0
 40
1.125
309
GRIDFORMAT_END
 95
       32
302
GRIDFORMAT
  1
GRIDFORMAT_BEGIN
 90
        0
 91
        1
 62
     0
 92
       -2
340
0
 93
        0
 40
1.125
309
GRIDFORMAT_END
309
TABLEFORMAT_END
  1
CELLSTYLE_BEGIN
 90
        2
 91
        1
300
_HEADER
309
CELLSTYLE_END
300
CELLSTYLE
  1
TABLEFORMAT_BEGIN
 90
        5
170
     1
 91
        0
 92
        0
 62
   257
 93
        1
300
CONTENTFORMAT
  1
CONTENTFORMAT_BEGIN
 90
        0
 91
        0
 92
      512
 93
        0
300

 40
0.0
140
1.0
 94
        2
 62
     0
340
11
144
4.5
309
CONTENTFORMAT_END
171
     1
301
MARGIN
  1
CELLMARGIN_BEGIN
 40
1.5
 40
1.5
 40
1.5
 40
1.5
 40
4.5
 40
4.5
309
CELLMARGIN_END
 94
        6
 95
        1
302
GRIDFORMAT
  1
GRIDFORMAT_BEGIN
 90
        0
 91
        1
 62
     0
 92
       -2
340
0
 93
        0
 40
1.125
309
GRIDFORMAT_END
 95
        2
302
GRIDFORMAT
  1
GRIDFORMAT_BEGIN
 90
        0
 91
        1
 62
     0
 92
       -2
340
0
 93
        0
 40
1.125
309
GRIDFORMAT_END
 95
        4
302
GRIDFORMAT
  1
GRIDFORMAT_BEGIN
 90
        0
 91
        1
 62
     0
 92
       -2
340
0
 93
        0
 40
1.125
309
GRIDFORMAT_END
 95
        8
302
GRIDFORMAT
  1
GRIDFORMAT_BEGIN
 90
        0
 91
        1
 62
     0
 92
       -2
340
0
 93
        0
 40
1.125
309
GRIDFORMAT_END
 95
       16
302
GRIDFORMAT
  1
GRIDFORMAT_BEGIN
 90
        0
 91
        1
 62
     0
 92
       -2
340
0
 93
        0
 40
1.125
309
GRIDFORMAT_END
 95
       32
302
GRIDFORMAT
  1
GRIDFORMAT_BEGIN
 90
        0
 91
        1
 62
     0
 92
       -2
340
0
 93
        0
 40
1.125
309
GRIDFORMAT_END
309
TABLEFORMAT_END
  1
CELLSTYLE_BEGIN
 90
        3
 91
        2
300
_DATA
309
CELLSTYLE_END
  0
XRECORD
  5
1902
102
{ACAD_REACTORS
330
18C5
102
}
330
18C5
100
AcDbXrecord
280
     1
102
ACAD_ROUNDTRIP_PRE2007_TABLESTYLE
 90
      512
 91
        0
  1

 92
      512
 93
        0
  2

 94
      512
 95
        0
  3

  0
XRECORD
  5
18DD
102
{ACAD_REACTORS
330
18DC
102
}
330
18DC
100
AcDbXrecord
280
     1
102
RTVSPropertyOp0
 70
     1
102
RTVSPropertyOp1
 70
     1
102
RTVSPropertyOp2
 70
     1
102
RTVSPropertyOp3
 70
     1
102
RTVSPropertyOp4
 70
     1
102
RTVSPropertyOp5
 70
     1
102
RTVSPropertyOp6
 70
     1
102
RTVSPropertyOp7
 70
     1
102
RTVSPropertyOp8
 70
     1
102
RTVSPropertyOp9
 70
     1
102
RTVSPropertyOp10
 70
     1
102
RTVSPropertyOp11
 70
     1
102
RTVSPropertyOp12
 70
     1
102
RTVSPropertyOp13
 70
     1
102
RTVSPropertyOp14
 70
     1
102
RTVSPropertyOp15
 70
     1
102
RTVSPropertyOp16
 70
     1
102
RTVSPropertyOp17
 70
     1
102
RTVSPropertyOp18
 70
     1
102
RTVSPropertyOp19
 70
     1
102
RTVSPropertyOp20
 70
     1
102
RTVSPropertyOp21
 70
     1
102
RTVSPropertyOp22
 70
     1
102
RTVSPropertyOp23
 70
     1
102
RTVSPropertyOp24
 70
     1
102
RTVSPropertyOp25
 70
     1
102
RTVSPropertyOp26
 70
     1
102
RTVSPropertyOp27
 70
     1
102
RTVSPropertyOp28
 70
     1
102
RTVSPropertyOp29
 70
     1
102
RTVSPropertyOp30
 70
     1
102
RTVSPropertyOp31
 70
     1
102
RTVSPropertyOp32
 70
     1
  0
XRECORD
  5
18DB
102
{ACAD_REACTORS
330
18DA
102
}
330
18DA
100
AcDbXrecord
280
     1
102
RTVSPropertyOp0
 70
     1
102
RTVSPropertyOp1
 70
     1
102
RTVSPropertyOp2
 70
     1
102
RTVSPropertyOp3
 70
     1
102
RTVSPropertyOp4
 70
     1
102
RTVSPropertyOp5
 70
     1
102
RTVSPropertyOp6
 70
     1
102
RTVSPropertyOp7
 70
     1
102
RTVSPropertyOp8
 70
     1
102
RTVSPropertyOp9
 70
     1
102
RTVSPropertyOp10
 70
     1
102
RTVSPropertyOp11
 70
     1
102
RTVSPropertyOp12
 70
     1
102
RTVSPropertyOp13
 70
     1
102
RTVSPropertyOp14
 70
     1
102
RTVSPropertyOp15
 70
     1
102
RTVSPropertyOp16
 70
     1
102
RTVSPropertyOp17
 70
     1
102
RTVSPropertyOp18
 70
     1
102
RTVSPropertyOp19
 70
     1
102
RTVSPropertyOp20
 70
     1
102
RTVSPropertyOp21
 70
     1
102
RTVSPropertyOp22
 70
     1
102
RTVSPropertyOp23
 70
     1
102
RTVSPropertyOp24
 70
     1
102
RTVSPropertyOp25
 70
     1
102
RTVSPropertyOp26
 70
     1
102
RTVSPropertyOp27
 70
     1
102
RTVSPropertyOp28
 70
     1
102
RTVSPropertyOp29
 70
     1
102
RTVSPropertyOp30
 70
     1
102
RTVSPropertyOp31
 70
     1
102
RTVSPropertyOp32
 70
     1
  0
XRECORD
  5
18E9
102
{ACAD_REACTORS
330
18E8
102
}
330
18E8
100
AcDbXrecord
280
     1
102
RTVSPropertyOp0
 70
     1
102
RTVSPropertyOp1
 70
     1
102
RTVSPropertyOp2
 70
     1
102
RTVSPropertyOp3
 70
     1
102
RTVSPropertyOp4
 70
     1
102
RTVSPropertyOp5
 70
     1
102
RTVSPropertyOp6
 70
     1
102
RTVSPropertyOp7
 70
     1
102
RTVSPropertyOp8
 70
     1
102
RTVSPropertyOp9
 70
     1
102
RTVSPropertyOp10
 70
     1
102
RTVSPropertyOp11
 70
     1
102
RTVSPropertyOp12
 70
     1
102
RTVSPropertyOp13
 70
     1
102
RTVSPropertyOp14
 70
     1
102
RTVSPropertyOp15
 70
     1
102
RTVSPropertyOp16
 70
     1
102
RTVSPropertyOp17
 70
     1
102
RTVSPropertyOp18
 70
     1
102
RTVSPropertyOp19
 70
     1
102
RTVSPropertyOp20
 70
     1
102
RTVSPropertyOp21
 70
     1
102
RTVSPropertyOp22
 70
     1
102
RTVSPropertyOp23
 70
     1
102
RTVSPropertyOp24
 70
     1
102
RTVSPropertyOp25
 70
     1
102
RTVSPropertyOp26
 70
     1
102
RTVSPropertyOp27
 70
     1
102
RTVSPropertyOp28
 70
     1
102
RTVSPropertyOp29
 70
     1
102
RTVSPropertyOp30
 70
     1
102
RTVSPropertyOp31
 70
     1
102
RTVSPropertyOp32
 70
     1
  0
XRECORD
  5
18F1
102
{ACAD_REACTORS
330
18F0
102
}
330
18F0
100
AcDbXrecord
280
     1
102
RTVSPropertyOp0
 70
     1
102
RTVSPropertyOp1
 70
     1
102
RTVSPropertyOp2
 70
     1
102
RTVSPropertyOp3
 70
     1
102
RTVSPropertyOp4
 70
     1
102
RTVSPropertyOp5
 70
     1
102
RTVSPropertyOp6
 70
     1
102
RTVSPropertyOp7
 70
     1
102
RTVSPropertyOp8
 70
     1
102
RTVSPropertyOp9
 70
     1
102
RTVSPropertyOp10
 70
     1
102
RTVSPropertyOp11
 70
     1
102
RTVSPropertyOp12
 70
     1
102
RTVSPropertyOp13
 70
     1
102
RTVSPropertyOp14
 70
     1
102
RTVSPropertyOp15
 70
     1
102
RTVSPropertyOp16
 70
     1
102
RTVSPropertyOp17
 70
     1
102
RTVSPropertyOp18
 70
     1
102
RTVSPropertyOp19
 70
     1
102
RTVSPropertyOp20
 70
     1
102
RTVSPropertyOp21
 70
     1
102
RTVSPropertyOp22
 70
     1
102
RTVSPropertyOp23
 70
     1
102
RTVSPropertyOp24
 70
     1
102
RTVSPropertyOp25
 70
     1
102
RTVSPropertyOp26
 70
     1
102
RTVSPropertyOp27
 70
     1
102
RTVSPropertyOp28
 70
     1
102
RTVSPropertyOp29
 70
     1
102
RTVSPropertyOp30
 70
     1
102
RTVSPropertyOp31
 70
     1
102
RTVSPropertyOp32
 70
     1
  0
XRECORD
  5
18E3
102
{ACAD_REACTORS
330
18E2
102
}
330
18E2
100
AcDbXrecord
280
     1
102
RTVSPropertyOp0
 70
     1
102
RTVSPropertyOp1
 70
     1
102
RTVSPropertyOp2
 70
     1
102
RTVSPropertyOp3
 70
     1
102
RTVSPropertyOp4
 70
     1
102
RTVSPropertyOp5
 70
     1
102
RTVSPropertyOp6
 70
     1
102
RTVSPropertyOp7
 70
     1
102
RTVSPropertyOp8
 70
     1
102
RTVSPropertyOp9
 70
     1
102
RTVSPropertyOp10
 70
     1
102
RTVSPropertyOp11
 70
     1
102
RTVSPropertyOp12
 70
     1
102
RTVSPropertyOp13
 70
     1
102
RTVSPropertyOp14
 70
     1
102
RTVSPropertyOp15
 70
     1
102
RTVSPropertyOp16
 70
     1
102
RTVSPropertyOp17
 70
     1
102
RTVSPropertyOp18
 70
     1
102
RTVSPropertyOp19
 70
     1
102
RTVSPropertyOp20
 70
     1
102
RTVSPropertyOp21
 70
     1
102
RTVSPropertyOp22
 70
     1
102
RTVSPropertyOp23
 70
     1
102
RTVSPropertyOp24
 70
     1
102
RTVSPropertyOp25
 70
     1
102
RTVSPropertyOp26
 70
     1
102
RTVSPropertyOp27
 70
     1
102
RTVSPropertyOp28
 70
     1
102
RTVSPropertyOp29
 70
     1
102
RTVSPropertyOp30
 70
     1
102
RTVSPropertyOp31
 70
     1
102
RTVSPropertyOp32
 70
     1
  0
XRECORD
  5
18E7
102
{ACAD_REACTORS
330
18E6
102
}
330
18E6
100
AcDbXrecord
280
     1
102
RTVSPropertyOp0
 70
     1
102
RTVSPropertyOp1
 70
     1
102
RTVSPropertyOp2
 70
     1
102
RTVSPropertyOp3
 70
     1
102
RTVSPropertyOp4
 70
     1
102
RTVSPropertyOp5
 70
     1
102
RTVSPropertyOp6
 70
     1
102
RTVSPropertyOp7
 70
     1
102
RTVSPropertyOp8
 70
     1
102
RTVSPropertyOp9
 70
     1
102
RTVSPropertyOp10
 70
     1
102
RTVSPropertyOp11
 70
     1
102
RTVSPropertyOp12
 70
     1
102
RTVSPropertyOp13
 70
     1
102
RTVSPropertyOp14
 70
     1
102
RTVSPropertyOp15
 70
     1
102
RTVSPropertyOp16
 70
     1
102
RTVSPropertyOp17
 70
     1
102
RTVSPropertyOp18
 70
     1
102
RTVSPropertyOp19
 70
     1
102
RTVSPropertyOp20
 70
     1
102
RTVSPropertyOp21
 70
     1
102
RTVSPropertyOp22
 70
     1
102
RTVSPropertyOp23
 70
     1
102
RTVSPropertyOp24
 70
     1
102
RTVSPropertyOp25
 70
     1
102
RTVSPropertyOp26
 70
     1
102
RTVSPropertyOp27
 70
     1
102
RTVSPropertyOp28
 70
     1
102
RTVSPropertyOp29
 70
     1
102
RTVSPropertyOp30
 70
     1
102
RTVSPropertyOp31
 70
     1
102
RTVSPropertyOp32
 70
     1
  0
XRECORD
  5
1901
102
{ACAD_REACTORS
330
1900
102
}
330
1900
100
AcDbXrecord
280
     1
102
RTVSPropertyOp0
 70
     0
102
RTVSPropertyOp1
 70
     0
102
RTVSPropertyOp2
 70
     0
102
RTVSPropertyOp3
 70
     0
102
RTVSPropertyOp4
 70
     0
102
RTVSPropertyOp5
 70
     0
102
RTVSPropertyOp6
 70
     0
102
RTVSPropertyOp7
 70
     0
102
RTVSPropertyOp8
 70
     0
102
RTVSPropertyOp9
 70
     0
102
RTVSPropertyOp10
 70
     0
102
RTVSPropertyOp11
 70
     0
102
RTVSPropertyOp12
 70
     0
102
RTVSPropertyOp13
 70
     0
102
RTVSPropertyOp14
 70
     2
102
RTVSPropertyOp15
 70
     0
102
RTVSPropertyOp16
 70
     0
102
RTVSPropertyOp17
 70
     0
102
RTVSPropertyOp18
 70
     0
102
RTVSPropertyOp19
 70
     0
102
RTVSPropertyOp20
 70
     0
102
RTVSPropertyOp21
 70
     0
102
RTVSPropertyOp22
 70
     0
102
RTVSPropertyOp23
 70
     0
102
RTVSPropertyOp24
 70
     0
102
RTVSPropertyOp25
 70
     0
102
RTVSPropertyOp26
 70
     0
102
RTVSPropertyOp27
 70
     0
102
RTVSPropertyOp28
 70
     0
102
RTVSPropertyOp29
 70
     0
102
RTVSPropertyOp30
 70
     0
102
RTVSPropertyOp31
 70
     0
102
RTVSPropertyOp32
 70
     0
  0
XRECORD
  5
18EF
102
{ACAD_REACTORS
330
18EE
102
}
330
18EE
100
AcDbXrecord
280
     1
102
RTVSPropertyOp0
 70
     1
102
RTVSPropertyOp1
 70
     1
102
RTVSPropertyOp2
 70
     1
102
RTVSPropertyOp3
 70
     1
102
RTVSPropertyOp4
 70
     1
102
RTVSPropertyOp5
 70
     1
102
RTVSPropertyOp6
 70
     1
102
RTVSPropertyOp7
 70
     1
102
RTVSPropertyOp8
 70
     1
102
RTVSPropertyOp9
 70
     1
102
RTVSPropertyOp10
 70
     1
102
RTVSPropertyOp11
 70
     1
102
RTVSPropertyOp12
 70
     1
102
RTVSPropertyOp13
 70
     1
102
RTVSPropertyOp14
 70
     1
102
RTVSPropertyOp15
 70
     1
102
RTVSPropertyOp16
 70
     1
102
RTVSPropertyOp17
 70
     1
102
RTVSPropertyOp18
 70
     1
102
RTVSPropertyOp19
 70
     1
102
RTVSPropertyOp20
 70
     1
102
RTVSPropertyOp21
 70
     1
102
RTVSPropertyOp22
 70
     1
102
RTVSPropertyOp23
 70
     1
102
RTVSPropertyOp24
 70
     1
102
RTVSPropertyOp25
 70
     1
102
RTVSPropertyOp26
 70
     1
102
RTVSPropertyOp27
 70
     1
102
RTVSPropertyOp28
 70
     1
102
RTVSPropertyOp29
 70
     1
102
RTVSPropertyOp30
 70
     1
102
RTVSPropertyOp31
 70
     1
102
RTVSPropertyOp32
 70
     1
  0
XRECORD
  5
18D3
102
{ACAD_REACTORS
330
18D2
102
}
330
18D2
100
AcDbXrecord
280
     1
102
RTVSPropertyOp0
 70
     1
102
RTVSPropertyOp1
 70
     1
102
RTVSPropertyOp2
 70
     1
102
RTVSPropertyOp3
 70
     1
102
RTVSPropertyOp4
 70
     1
102
RTVSPropertyOp5
 70
     1
102
RTVSPropertyOp6
 70
     1
102
RTVSPropertyOp7
 70
     1
102
RTVSPropertyOp8
 70
     1
102
RTVSPropertyOp9
 70
     1
102
RTVSPropertyOp10
 70
     1
102
RTVSPropertyOp11
 70
     1
102
RTVSPropertyOp12
 70
     1
102
RTVSPropertyOp13
 70
     1
102
RTVSPropertyOp14
 70
     1
102
RTVSPropertyOp15
 70
     1
102
RTVSPropertyOp16
 70
     1
102
RTVSPropertyOp17
 70
     1
102
RTVSPropertyOp18
 70
     1
102
RTVSPropertyOp19
 70
     1
102
RTVSPropertyOp20
 70
     1
102
RTVSPropertyOp21
 70
     1
102
RTVSPropertyOp22
 70
     1
102
RTVSPropertyOp23
 70
     1
102
RTVSPropertyOp24
 70
     1
102
RTVSPropertyOp25
 70
     1
102
RTVSPropertyOp26
 70
     1
102
RTVSPropertyOp27
 70
     1
102
RTVSPropertyOp28
 70
     1
102
RTVSPropertyOp29
 70
     1
102
RTVSPropertyOp30
 70
     1
102
RTVSPropertyOp31
 70
     1
102
RTVSPropertyOp32
 70
     1
  0
XRECORD
  5
18D5
102
{ACAD_REACTORS
330
18D4
102
}
330
18D4
100
AcDbXrecord
280
     1
102
RTVSPropertyOp0
 70
     1
102
RTVSPropertyOp1
 70
     1
102
RTVSPropertyOp2
 70
     1
102
RTVSPropertyOp3
 70
     1
102
RTVSPropertyOp4
 70
     1
102
RTVSPropertyOp5
 70
     1
102
RTVSPropertyOp6
 70
     1
102
RTVSPropertyOp7
 70
     1
102
RTVSPropertyOp8
 70
     1
102
RTVSPropertyOp9
 70
     1
102
RTVSPropertyOp10
 70
     1
102
RTVSPropertyOp11
 70
     1
102
RTVSPropertyOp12
 70
     1
102
RTVSPropertyOp13
 70
     1
102
RTVSPropertyOp14
 70
     1
102
RTVSPropertyOp15
 70
     1
102
RTVSPropertyOp16
 70
     1
102
RTVSPropertyOp17
 70
     1
102
RTVSPropertyOp18
 70
     1
102
RTVSPropertyOp19
 70
     1
102
RTVSPropertyOp20
 70
     1
102
RTVSPropertyOp21
 70
     1
102
RTVSPropertyOp22
 70
     1
102
RTVSPropertyOp23
 70
     1
102
RTVSPropertyOp24
 70
     1
102
RTVSPropertyOp25
 70
     1
102
RTVSPropertyOp26
 70
     1
102
RTVSPropertyOp27
 70
     1
102
RTVSPropertyOp28
 70
     1
102
RTVSPropertyOp29
 70
     1
102
RTVSPropertyOp30
 70
     1
102
RTVSPropertyOp31
 70
     1
102
RTVSPropertyOp32
 70
     1
  0
XRECORD
  5
18D7
102
{ACAD_REACTORS
330
18D6
102
}
330
18D6
100
AcDbXrecord
280
     1
102
RTVSPropertyOp0
 70
     1
102
RTVSPropertyOp1
 70
     1
102
RTVSPropertyOp2
 70
     1
102
RTVSPropertyOp3
 70
     1
102
RTVSPropertyOp4
 70
     1
102
RTVSPropertyOp5
 70
     1
102
RTVSPropertyOp6
 70
     1
102
RTVSPropertyOp7
 70
     1
102
RTVSPropertyOp8
 70
     1
102
RTVSPropertyOp9
 70
     1
102
RTVSPropertyOp10
 70
     1
102
RTVSPropertyOp11
 70
     1
102
RTVSPropertyOp12
 70
     1
102
RTVSPropertyOp13
 70
     1
102
RTVSPropertyOp14
 70
     1
102
RTVSPropertyOp15
 70
     1
102
RTVSPropertyOp16
 70
     1
102
RTVSPropertyOp17
 70
     1
102
RTVSPropertyOp18
 70
     1
102
RTVSPropertyOp19
 70
     1
102
RTVSPropertyOp20
 70
     1
102
RTVSPropertyOp21
 70
     1
102
RTVSPropertyOp22
 70
     1
102
RTVSPropertyOp23
 70
     1
102
RTVSPropertyOp24
 70
     1
102
RTVSPropertyOp25
 70
     1
102
RTVSPropertyOp26
 70
     1
102
RTVSPropertyOp27
 70
     1
102
RTVSPropertyOp28
 70
     1
102
RTVSPropertyOp29
 70
     1
102
RTVSPropertyOp30
 70
     1
102
RTVSPropertyOp31
 70
     1
102
RTVSPropertyOp32
 70
     1
  0
XRECORD
  5
18D9
102
{ACAD_REACTORS
330
18D8
102
}
330
18D8
100
AcDbXrecord
280
     1
102
RTVSPropertyOp0
 70
     1
102
RTVSPropertyOp1
 70
     1
102
RTVSPropertyOp2
 70
     1
102
RTVSPropertyOp3
 70
     1
102
RTVSPropertyOp4
 70
     1
102
RTVSPropertyOp5
 70
     1
102
RTVSPropertyOp6
 70
     1
102
RTVSPropertyOp7
 70
     1
102
RTVSPropertyOp8
 70
     1
102
RTVSPropertyOp9
 70
     1
102
RTVSPropertyOp10
 70
     1
102
RTVSPropertyOp11
 70
     1
102
RTVSPropertyOp12
 70
     1
102
RTVSPropertyOp13
 70
     1
102
RTVSPropertyOp14
 70
     1
102
RTVSPropertyOp15
 70
     1
102
RTVSPropertyOp16
 70
     1
102
RTVSPropertyOp17
 70
     1
102
RTVSPropertyOp18
 70
     1
102
RTVSPropertyOp19
 70
     1
102
RTVSPropertyOp20
 70
     1
102
RTVSPropertyOp21
 70
     1
102
RTVSPropertyOp22
 70
     1
102
RTVSPropertyOp23
 70
     1
102
RTVSPropertyOp24
 70
     1
102
RTVSPropertyOp25
 70
     1
102
RTVSPropertyOp26
 70
     1
102
RTVSPropertyOp27
 70
     1
102
RTVSPropertyOp28
 70
     1
102
RTVSPropertyOp29
 70
     1
102
RTVSPropertyOp30
 70
     1
102
RTVSPropertyOp31
 70
     1
102
RTVSPropertyOp32
 70
     1
  0
XRECORD
  5
18E1
102
{ACAD_REACTORS
330
18E0
102
}
330
18E0
100
AcDbXrecord
280
     1
102
RTVSPropertyOp0
 70
     1
102
RTVSPropertyOp1
 70
     1
102
RTVSPropertyOp2
 70
     1
102
RTVSPropertyOp3
 70
     1
102
RTVSPropertyOp4
 70
     1
102
RTVSPropertyOp5
 70
     1
102
RTVSPropertyOp6
 70
     1
102
RTVSPropertyOp7
 70
     1
102
RTVSPropertyOp8
 70
     1
102
RTVSPropertyOp9
 70
     1
102
RTVSPropertyOp10
 70
     1
102
RTVSPropertyOp11
 70
     1
102
RTVSPropertyOp12
 70
     1
102
RTVSPropertyOp13
 70
     1
102
RTVSPropertyOp14
 70
     1
102
RTVSPropertyOp15
 70
     1
102
RTVSPropertyOp16
 70
     1
102
RTVSPropertyOp17
 70
     1
102
RTVSPropertyOp18
 70
     1
102
RTVSPropertyOp19
 70
     1
102
RTVSPropertyOp20
 70
     1
102
RTVSPropertyOp21
 70
     1
102
RTVSPropertyOp22
 70
     1
102
RTVSPropertyOp23
 70
     1
102
RTVSPropertyOp24
 70
     1
102
RTVSPropertyOp25
 70
     1
102
RTVSPropertyOp26
 70
     1
102
RTVSPropertyOp27
 70
     1
102
RTVSPropertyOp28
 70
     1
102
RTVSPropertyOp29
 70
     1
102
RTVSPropertyOp30
 70
     1
102
RTVSPropertyOp31
 70
     1
102
RTVSPropertyOp32
 70
     1
  0
XRECORD
  5
18FD
102
{ACAD_REACTORS
330
18FC
102
}
330
18FC
100
AcDbXrecord
280
     1
102
RTVSPropertyOp0
 70
     0
102
RTVSPropertyOp1
 70
     0
102
RTVSPropertyOp2
 70
     0
102
RTVSPropertyOp3
 70
     0
102
RTVSPropertyOp4
 70
     0
102
RTVSPropertyOp5
 70
     0
102
RTVSPropertyOp6
 70
     0
102
RTVSPropertyOp7
 70
     0
102
RTVSPropertyOp8
 70
     0
102
RTVSPropertyOp9
 70
     0
102
RTVSPropertyOp10
 70
     0
102
RTVSPropertyOp11
 70
     0
102
RTVSPropertyOp12
 70
     0
102
RTVSPropertyOp13
 70
     0
102
RTVSPropertyOp14
 70
     2
102
RTVSPropertyOp15
 70
     0
102
RTVSPropertyOp16
 70
     0
102
RTVSPropertyOp17
 70
     0
102
RTVSPropertyOp18
 70
     0
102
RTVSPropertyOp19
 70
     0
102
RTVSPropertyOp20
 70
     0
102
RTVSPropertyOp21
 70
     0
102
RTVSPropertyOp22
 70
     0
102
RTVSPropertyOp23
 70
     0
102
RTVSPropertyOp24
 70
     0
102
RTVSPropertyOp25
 70
     0
102
RTVSPropertyOp26
 70
     0
102
RTVSPropertyOp27
 70
     0
102
RTVSPropertyOp28
 70
     0
102
RTVSPropertyOp29
 70
     0
102
RTVSPropertyOp30
 70
     0
102
RTVSPropertyOp31
 70
     0
102
RTVSPropertyOp32
 70
     0
  0
XRECORD
  5
18ED
102
{ACAD_REACTORS
330
18EC
102
}
330
18EC
100
AcDbXrecord
280
     1
102
RTVSPropertyOp0
 70
     1
102
RTVSPropertyOp1
 70
     1
102
RTVSPropertyOp2
 70
     1
102
RTVSPropertyOp3
 70
     1
102
RTVSPropertyOp4
 70
     1
102
RTVSPropertyOp5
 70
     1
102
RTVSPropertyOp6
 70
     1
102
RTVSPropertyOp7
 70
     1
102
RTVSPropertyOp8
 70
     1
102
RTVSPropertyOp9
 70
     1
102
RTVSPropertyOp10
 70
     1
102
RTVSPropertyOp11
 70
     1
102
RTVSPropertyOp12
 70
     1
102
RTVSPropertyOp13
 70
     1
102
RTVSPropertyOp14
 70
     1
102
RTVSPropertyOp15
 70
     1
102
RTVSPropertyOp16
 70
     1
102
RTVSPropertyOp17
 70
     1
102
RTVSPropertyOp18
 70
     1
102
RTVSPropertyOp19
 70
     1
102
RTVSPropertyOp20
 70
     1
102
RTVSPropertyOp21
 70
     1
102
RTVSPropertyOp22
 70
     1
102
RTVSPropertyOp23
 70
     1
102
RTVSPropertyOp24
 70
     1
102
RTVSPropertyOp25
 70
     1
102
RTVSPropertyOp26
 70
     1
102
RTVSPropertyOp27
 70
     1
102
RTVSPropertyOp28
 70
     1
102
RTVSPropertyOp29
 70
     1
102
RTVSPropertyOp30
 70
     1
102
RTVSPropertyOp31
 70
     1
102
RTVSPropertyOp32
 70
     1
  0
XRECORD
  5
18FF
102
{ACAD_REACTORS
330
18FE
102
}
330
18FE
100
AcDbXrecord
280
     1
102
RTVSPropertyOp0
 70
     0
102
RTVSPropertyOp1
 70
     0
102
RTVSPropertyOp2
 70
     0
102
RTVSPropertyOp3
 70
     0
102
RTVSPropertyOp4
 70
     0
102
RTVSPropertyOp5
 70
     0
102
RTVSPropertyOp6
 70
     0
102
RTVSPropertyOp7
 70
     0
102
RTVSPropertyOp8
 70
     0
102
RTVSPropertyOp9
 70
     0
102
RTVSPropertyOp10
 70
     0
102
RTVSPropertyOp11
 70
     0
102
RTVSPropertyOp12
 70
     0
102
RTVSPropertyOp13
 70
     0
102
RTVSPropertyOp14
 70
     2
102
RTVSPropertyOp15
 70
     0
102
RTVSPropertyOp16
 70
     0
102
RTVSPropertyOp17
 70
     0
102
RTVSPropertyOp18
 70
     0
102
RTVSPropertyOp19
 70
     0
102
RTVSPropertyOp20
 70
     0
102
RTVSPropertyOp21
 70
     0
102
RTVSPropertyOp22
 70
     0
102
RTVSPropertyOp23
 70
     0
102
RTVSPropertyOp24
 70
     0
102
RTVSPropertyOp25
 70
     0
102
RTVSPropertyOp26
 70
     0
102
RTVSPropertyOp27
 70
     0
102
RTVSPropertyOp28
 70
     0
102
RTVSPropertyOp29
 70
     0
102
RTVSPropertyOp30
 70
     0
102
RTVSPropertyOp31
 70
     0
102
RTVSPropertyOp32
 70
     0
  0
XRECORD
  5
18E5
102
{ACAD_REACTORS
330
18E4
102
}
330
18E4
100
AcDbXrecord
280
     1
102
RTVSPropertyOp0
 70
     1
102
RTVSPropertyOp1
 70
     1
102
RTVSPropertyOp2
 70
     1
102
RTVSPropertyOp3
 70
     1
102
RTVSPropertyOp4
 70
     1
102
RTVSPropertyOp5
 70
     1
102
RTVSPropertyOp6
 70
     1
102
RTVSPropertyOp7
 70
     1
102
RTVSPropertyOp8
 70
     1
102
RTVSPropertyOp9
 70
     1
102
RTVSPropertyOp10
 70
     1
102
RTVSPropertyOp11
 70
     1
102
RTVSPropertyOp12
 70
     1
102
RTVSPropertyOp13
 70
     1
102
RTVSPropertyOp14
 70
     1
102
RTVSPropertyOp15
 70
     1
102
RTVSPropertyOp16
 70
     1
102
RTVSPropertyOp17
 70
     1
102
RTVSPropertyOp18
 70
     1
102
RTVSPropertyOp19
 70
     1
102
RTVSPropertyOp20
 70
     1
102
RTVSPropertyOp21
 70
     1
102
RTVSPropertyOp22
 70
     1
102
RTVSPropertyOp23
 70
     1
102
RTVSPropertyOp24
 70
     1
102
RTVSPropertyOp25
 70
     1
102
RTVSPropertyOp26
 70
     1
102
RTVSPropertyOp27
 70
     1
102
RTVSPropertyOp28
 70
     1
102
RTVSPropertyOp29
 70
     1
102
RTVSPropertyOp30
 70
     1
102
RTVSPropertyOp31
 70
     1
102
RTVSPropertyOp32
 70
     1
  0
XRECORD
  5
18FB
102
{ACAD_REACTORS
330
18FA
102
}
330
18FA
100
AcDbXrecord
280
     1
102
RTVSPropertyOp0
 70
     1
102
RTVSPropertyOp1
 70
     1
102
RTVSPropertyOp2
 70
     1
102
RTVSPropertyOp3
 70
     1
102
RTVSPropertyOp4
 70
     1
102
RTVSPropertyOp5
 70
     1
102
RTVSPropertyOp6
 70
     1
102
RTVSPropertyOp7
 70
     1
102
RTVSPropertyOp8
 70
     1
102
RTVSPropertyOp9
 70
     1
102
RTVSPropertyOp10
 70
     1
102
RTVSPropertyOp11
 70
     1
102
RTVSPropertyOp12
 70
     1
102
RTVSPropertyOp13
 70
     1
102
RTVSPropertyOp14
 70
     1
102
RTVSPropertyOp15
 70
     1
102
RTVSPropertyOp16
 70
     1
102
RTVSPropertyOp17
 70
     1
102
RTVSPropertyOp18
 70
     1
102
RTVSPropertyOp19
 70
     1
102
RTVSPropertyOp20
 70
     1
102
RTVSPropertyOp21
 70
     1
102
RTVSPropertyOp22
 70
     1
102
RTVSPropertyOp23
 70
     1
102
RTVSPropertyOp24
 70
     1
102
RTVSPropertyOp25
 70
     1
102
RTVSPropertyOp26
 70
     1
102
RTVSPropertyOp27
 70
     1
102
RTVSPropertyOp28
 70
     1
102
RTVSPropertyOp29
 70
     1
102
RTVSPropertyOp30
 70
     1
102
RTVSPropertyOp31
 70
     1
102
RTVSPropertyOp32
 70
     1
  0
XRECORD
  5
18F9
102
{ACAD_REACTORS
330
18F8
102
}
330
18F8
100
AcDbXrecord
280
     1
102
RTVSPropertyOp0
 70
     1
102
RTVSPropertyOp1
 70
     1
102
RTVSPropertyOp2
 70
     1
102
RTVSPropertyOp3
 70
     1
102
RTVSPropertyOp4
 70
     1
102
RTVSPropertyOp5
 70
     1
102
RTVSPropertyOp6
 70
     1
102
RTVSPropertyOp7
 70
     1
102
RTVSPropertyOp8
 70
     1
102
RTVSPropertyOp9
 70
     1
102
RTVSPropertyOp10
 70
     1
102
RTVSPropertyOp11
 70
     1
102
RTVSPropertyOp12
 70
     1
102
RTVSPropertyOp13
 70
     1
102
RTVSPropertyOp14
 70
     1
102
RTVSPropertyOp15
 70
     1
102
RTVSPropertyOp16
 70
     1
102
RTVSPropertyOp17
 70
     1
102
RTVSPropertyOp18
 70
     1
102
RTVSPropertyOp19
 70
     1
102
RTVSPropertyOp20
 70
     1
102
RTVSPropertyOp21
 70
     1
102
RTVSPropertyOp22
 70
     1
102
RTVSPropertyOp23
 70
     1
102
RTVSPropertyOp24
 70
     1
102
RTVSPropertyOp25
 70
     1
102
RTVSPropertyOp26
 70
     1
102
RTVSPropertyOp27
 70
     1
102
RTVSPropertyOp28
 70
     1
102
RTVSPropertyOp29
 70
     1
102
RTVSPropertyOp30
 70
     1
102
RTVSPropertyOp31
 70
     1
102
RTVSPropertyOp32
 70
     1
  0
XRECORD
  5
18F3
102
{ACAD_REACTORS
330
18F2
102
}
330
18F2
100
AcDbXrecord
280
     1
102
RTVSPropertyOp0
 70
     1
102
RTVSPropertyOp1
 70
     1
102
RTVSPropertyOp2
 70
     1
102
RTVSPropertyOp3
 70
     1
102
RTVSPropertyOp4
 70
     1
102
RTVSPropertyOp5
 70
     1
102
RTVSPropertyOp6
 70
     1
102
RTVSPropertyOp7
 70
     1
102
RTVSPropertyOp8
 70
     1
102
RTVSPropertyOp9
 70
     1
102
RTVSPropertyOp10
 70
     1
102
RTVSPropertyOp11
 70
     1
102
RTVSPropertyOp12
 70
     1
102
RTVSPropertyOp13
 70
     1
102
RTVSPropertyOp14
 70
     1
102
RTVSPropertyOp15
 70
     1
102
RTVSPropertyOp16
 70
     1
102
RTVSPropertyOp17
 70
     1
102
RTVSPropertyOp18
 70
     1
102
RTVSPropertyOp19
 70
     1
102
RTVSPropertyOp20
 70
     1
102
RTVSPropertyOp21
 70
     1
102
RTVSPropertyOp22
 70
     1
102
RTVSPropertyOp23
 70
     1
102
RTVSPropertyOp24
 70
     1
102
RTVSPropertyOp25
 70
     1
102
RTVSPropertyOp26
 70
     1
102
RTVSPropertyOp27
 70
     1
102
RTVSPropertyOp28
 70
     1
102
RTVSPropertyOp29
 70
     1
102
RTVSPropertyOp30
 70
     1
102
RTVSPropertyOp31
 70
     1
102
RTVSPropertyOp32
 70
     1
  0
XRECORD
  5
18F5
102
{ACAD_REACTORS
330
18F4
102
}
330
18F4
100
AcDbXrecord
280
     1
102
RTVSPropertyOp0
 70
     1
102
RTVSPropertyOp1
 70
     1
102
RTVSPropertyOp2
 70
     1
102
RTVSPropertyOp3
 70
     1
102
RTVSPropertyOp4
 70
     1
102
RTVSPropertyOp5
 70
     1
102
RTVSPropertyOp6
 70
     1
102
RTVSPropertyOp7
 70
     1
102
RTVSPropertyOp8
 70
     1
102
RTVSPropertyOp9
 70
     1
102
RTVSPropertyOp10
 70
     1
102
RTVSPropertyOp11
 70
     1
102
RTVSPropertyOp12
 70
     1
102
RTVSPropertyOp13
 70
     1
102
RTVSPropertyOp14
 70
     1
102
RTVSPropertyOp15
 70
     1
102
RTVSPropertyOp16
 70
     1
102
RTVSPropertyOp17
 70
     1
102
RTVSPropertyOp18
 70
     1
102
RTVSPropertyOp19
 70
     1
102
RTVSPropertyOp20
 70
     1
102
RTVSPropertyOp21
 70
     1
102
RTVSPropertyOp22
 70
     1
102
RTVSPropertyOp23
 70
     1
102
RTVSPropertyOp24
 70
     1
102
RTVSPropertyOp25
 70
     1
102
RTVSPropertyOp26
 70
     1
102
RTVSPropertyOp27
 70
     1
102
RTVSPropertyOp28
 70
     1
102
RTVSPropertyOp29
 70
     1
102
RTVSPropertyOp30
 70
     1
102
RTVSPropertyOp31
 70
     1
102
RTVSPropertyOp32
 70
     1
  0
XRECORD
  5
18EB
102
{ACAD_REACTORS
330
18EA
102
}
330
18EA
100
AcDbXrecord
280
     1
102
RTVSPropertyOp0
 70
     1
102
RTVSPropertyOp1
 70
     1
102
RTVSPropertyOp2
 70
     1
102
RTVSPropertyOp3
 70
     1
102
RTVSPropertyOp4
 70
     1
102
RTVSPropertyOp5
 70
     1
102
RTVSPropertyOp6
 70
     1
102
RTVSPropertyOp7
 70
     1
102
RTVSPropertyOp8
 70
     1
102
RTVSPropertyOp9
 70
     1
102
RTVSPropertyOp10
 70
     1
102
RTVSPropertyOp11
 70
     1
102
RTVSPropertyOp12
 70
     1
102
RTVSPropertyOp13
 70
     1
102
RTVSPropertyOp14
 70
     1
102
RTVSPropertyOp15
 70
     1
102
RTVSPropertyOp16
 70
     1
102
RTVSPropertyOp17
 70
     1
102
RTVSPropertyOp18
 70
     1
102
RTVSPropertyOp19
 70
     1
102
RTVSPropertyOp20
 70
     1
102
RTVSPropertyOp21
 70
     1
102
RTVSPropertyOp22
 70
     1
102
RTVSPropertyOp23
 70
     1
102
RTVSPropertyOp24
 70
     1
102
RTVSPropertyOp25
 70
     1
102
RTVSPropertyOp26
 70
     1
102
RTVSPropertyOp27
 70
     1
102
RTVSPropertyOp28
 70
     1
102
RTVSPropertyOp29
 70
     1
102
RTVSPropertyOp30
 70
     1
102
RTVSPropertyOp31
 70
     1
102
RTVSPropertyOp32
 70
     1
  0
XRECORD
  5
18DF
102
{ACAD_REACTORS
330
18DE
102
}
330
18DE
100
AcDbXrecord
280
     1
102
RTVSPropertyOp0
 70
     1
102
RTVSPropertyOp1
 70
     1
102
RTVSPropertyOp2
 70
     1
102
RTVSPropertyOp3
 70
     1
102
RTVSPropertyOp4
 70
     1
102
RTVSPropertyOp5
 70
     1
102
RTVSPropertyOp6
 70
     1
102
RTVSPropertyOp7
 70
     1
102
RTVSPropertyOp8
 70
     1
102
RTVSPropertyOp9
 70
     1
102
RTVSPropertyOp10
 70
     1
102
RTVSPropertyOp11
 70
     1
102
RTVSPropertyOp12
 70
     1
102
RTVSPropertyOp13
 70
     1
102
RTVSPropertyOp14
 70
     1
102
RTVSPropertyOp15
 70
     1
102
RTVSPropertyOp16
 70
     1
102
RTVSPropertyOp17
 70
     1
102
RTVSPropertyOp18
 70
     1
102
RTVSPropertyOp19
 70
     1
102
RTVSPropertyOp20
 70
     1
102
RTVSPropertyOp21
 70
     1
102
RTVSPropertyOp22
 70
     1
102
RTVSPropertyOp23
 70
     1
102
RTVSPropertyOp24
 70
     1
102
RTVSPropertyOp25
 70
     1
102
RTVSPropertyOp26
 70
     1
102
RTVSPropertyOp27
 70
     1
102
RTVSPropertyOp28
 70
     1
102
RTVSPropertyOp29
 70
     1
102
RTVSPropertyOp30
 70
     1
102
RTVSPropertyOp31
 70
     1
102
RTVSPropertyOp32
 70
     1
  0
XRECORD
  5
18F7
102
{ACAD_REACTORS
330
18F6
102
}
330
18F6
100
AcDbXrecord
280
     1
102
RTVSPropertyOp0
 70
     1
102
RTVSPropertyOp1
 70
     1
102
RTVSPropertyOp2
 70
     1
102
RTVSPropertyOp3
 70
     1
102
RTVSPropertyOp4
 70
     1
102
RTVSPropertyOp5
 70
     1
102
RTVSPropertyOp6
 70
     1
102
RTVSPropertyOp7
 70
     1
102
RTVSPropertyOp8
 70
     1
102
RTVSPropertyOp9
 70
     1
102
RTVSPropertyOp10
 70
     1
102
RTVSPropertyOp11
 70
     1
102
RTVSPropertyOp12
 70
     1
102
RTVSPropertyOp13
 70
     1
102
RTVSPropertyOp14
 70
     1
102
RTVSPropertyOp15
 70
     1
102
RTVSPropertyOp16
 70
     1
102
RTVSPropertyOp17
 70
     1
102
RTVSPropertyOp18
 70
     1
102
RTVSPropertyOp19
 70
     1
102
RTVSPropertyOp20
 70
     1
102
RTVSPropertyOp21
 70
     1
102
RTVSPropertyOp22
 70
     1
102
RTVSPropertyOp23
 70
     1
102
RTVSPropertyOp24
 70
     1
102
RTVSPropertyOp25
 70
     1
102
RTVSPropertyOp26
 70
     1
102
RTVSPropertyOp27
 70
     1
102
RTVSPropertyOp28
 70
     1
102
RTVSPropertyOp29
 70
     1
102
RTVSPropertyOp30
 70
     1
102
RTVSPropertyOp31
 70
     1
102
RTVSPropertyOp32
 70
     1
  0
ENDSEC
  0
EOF
