  0
SECTION
  2
HEADER
  9
$ACADVER
  1
AC1015
  9
$ACADMAINTVER
 70
    20
  9
$DWGCODEPAGE
  3
ANSI_932
  9
$INSBASE
 10
0.0
 20
0.0
 30
0.0
  9
$EXTMIN
 10
-427.9997999999999
 20
-286.0002
 30
0.0
  9
$EXTMAX
 10
390.9998
 20
285.9998
 30
0.0
  9
$LIMMIN
 10
0.0
 20
0.0
  9
$LIMMAX
 10
12.0
 20
9.0
  9
$ORTHOMODE
 70
     0
  9
$REGENMODE
 70
     1
  9
$FILLMODE
 70
     1
  9
$QTEXTMODE
 70
     0
  9
$MIRRTEXT
 70
     1
  9
$LTSCALE
 40
1.0
  9
$ATTMODE
 70
     1
  9
$TEXTSIZE
 40
0.2
  9
$TRACEWID
 40
0.05
  9
$TEXTSTYLE
  7
CONVERTER_2
  9
$CLAYER
  8
0
  9
$CELTYPE
  6
ByLayer
  9
$CECOLOR
 62
     4
  9
$CELTSCALE
 40
1.0
  9
$DISPSILH
 70
     0
  9
$DIMSCALE
 40
1.0
  9
$DIMASZ
 40
0.18
  9
$DIMEXO
 40
0.0625
  9
$DIMDLI
 40
0.38
  9
$DIMRND
 40
0.0
  9
$DIMDLE
 40
0.0
  9
$DIMEXE
 40
0.18
  9
$DIMTP
 40
0.0
  9
$DIMTM
 40
0.0
  9
$DIMTXT
 40
0.18
  9
$DIMCEN
 40
0.09
  9
$DIMTSZ
 40
0.0
  9
$DIMTOL
 70
     0
  9
$DIMLIM
 70
     0
  9
$DIMTIH
 70
     1
  9
$DIMTOH
 70
     1
  9
$DIMSE1
 70
     0
  9
$DIMSE2
 70
     0
  9
$DIMTAD
 70
     0
  9
$DIMZIN
 70
     0
  9
$DIMBLK
  1

  9
$DIMASO
 70
     1
  9
$DIMSHO
 70
     1
  9
$DIMPOST
  1

  9
$DIMAPOST
  1

  9
$DIMALT
 70
     0
  9
$DIMALTD
 70
     2
  9
$DIMALTF
 40
25.4
  9
$DIMLFAC
 40
1.0
  9
$DIMTOFL
 70
     0
  9
$DIMTVP
 40
0.0
  9
$DIMTIX
 70
     0
  9
$DIMSOXD
 70
     0
  9
$DIMSAH
 70
     0
  9
$DIMBLK1
  1

  9
$DIMBLK2
  1

  9
$DIMSTYLE
  2
Standard
  9
$DIMCLRD
 70
     0
  9
$DIMCLRE
 70
     0
  9
$DIMCLRT
 70
     0
  9
$DIMTFAC
 40
1.0
  9
$DIMGAP
 40
0.09
  9
$DIMJUST
 70
     0
  9
$DIMSD1
 70
     0
  9
$DIMSD2
 70
     0
  9
$DIMTOLJ
 70
     1
  9
$DIMTZIN
 70
     0
  9
$DIMALTZ
 70
     0
  9
$DIMALTTZ
 70
     0
  9
$DIMUPT
 70
     0
  9
$DIMDEC
 70
     4
  9
$DIMTDEC
 70
     4
  9
$DIMALTU
 70
     2
  9
$DIMALTTD
 70
     2
  9
$DIMTXSTY
  7
Standard
  9
$DIMAUNIT
 70
     0
  9
$DIMADEC
 70
     0
  9
$DIMALTRND
 40
0.0
  9
$DIMAZIN
 70
     0
  9
$DIMDSEP
 70
    46
  9
$DIMATFIT
 70
     3
  9
$DIMFRAC
 70
     0
  9
$DIMLDRBLK
  1

  9
$DIMLUNIT
 70
     2
  9
$DIMLWD
 70
    -2
  9
$DIMLWE
 70
    -2
  9
$DIMTMOVE
 70
     0
  9
$LUNITS
 70
     2
  9
$LUPREC
 70
     4
  9
$SKETCHINC
 40
0.1
  9
$FILLETRAD
 40
0.5
  9
$AUNITS
 70
     0
  9
$AUPREC
 70
     0
  9
$MENU
  1
.
  9
$ELEVATION
 40
0.0
  9
$PELEVATION
 40
0.0
  9
$THICKNESS
 40
0.0
  9
$LIMCHECK
 70
     0
  9
$CHAMFERA
 40
0.5
  9
$CHAMFERB
 40
0.5
  9
$CHAMFERC
 40
1.0
  9
$CHAMFERD
 40
0.0
  9
$SKPOLY
 70
     0
  9
$TDCREATE
 40
2455106.656021771
  9
$TDUCREATE
 40
2455106.281021771
  9
$TDUPDATE
 40
2456737.538832581
  9
$TDUUPDATE
 40
2456737.163832581
  9
$TDINDWG
 40
0.0691148032
  9
$TDUSRTIMER
 40
0.0691126389
  9
$USRTIMER
 70
     1
  9
$ANGBASE
 50
0.0
  9
$ANGDIR
 70
     0
  9
$PDMODE
 70
     0
  9
$PDSIZE
 40
0.0
  9
$PLINEWID
 40
0.0
  9
$SPLFRAME
 70
     0
  9
$SPLINETYPE
 70
     6
  9
$SPLINESEGS
 70
     8
  9
$HANDSEED
  5
1682
  9
$SURFTAB1
 70
     6
  9
$SURFTAB2
 70
     6
  9
$SURFTYPE
 70
     6
  9
$SURFU
 70
     6
  9
$SURFV
 70
     6
  9
$UCSBASE
  2

  9
$UCSNAME
  2

  9
$UCSORG
 10
0.0
 20
0.0
 30
0.0
  9
$UCSXDIR
 10
1.0
 20
0.0
 30
0.0
  9
$UCSYDIR
 10
0.0
 20
1.0
 30
0.0
  9
$UCSORTHOREF
  2

  9
$UCSORTHOVIEW
 70
     0
  9
$UCSORGTOP
 10
0.0
 20
0.0
 30
0.0
  9
$UCSORGBOTTOM
 10
0.0
 20
0.0
 30
0.0
  9
$UCSORGLEFT
 10
0.0
 20
0.0
 30
0.0
  9
$UCSORGRIGHT
 10
0.0
 20
0.0
 30
0.0
  9
$UCSORGFRONT
 10
0.0
 20
0.0
 30
0.0
  9
$UCSORGBACK
 10
0.0
 20
0.0
 30
0.0
  9
$PUCSBASE
  2

  9
$PUCSNAME
  2

  9
$PUCSORG
 10
0.0
 20
0.0
 30
0.0
  9
$PUCSXDIR
 10
1.0
 20
0.0
 30
0.0
  9
$PUCSYDIR
 10
0.0
 20
1.0
 30
0.0
  9
$PUCSORTHOREF
  2

  9
$PUCSORTHOVIEW
 70
     0
  9
$PUCSORGTOP
 10
0.0
 20
0.0
 30
0.0
  9
$PUCSORGBOTTOM
 10
0.0
 20
0.0
 30
0.0
  9
$PUCSORGLEFT
 10
0.0
 20
0.0
 30
0.0
  9
$PUCSORGRIGHT
 10
0.0
 20
0.0
 30
0.0
  9
$PUCSORGFRONT
 10
0.0
 20
0.0
 30
0.0
  9
$PUCSORGBACK
 10
0.0
 20
0.0
 30
0.0
  9
$USERI1
 70
     0
  9
$USERI2
 70
     0
  9
$USERI3
 70
     0
  9
$USERI4
 70
     0
  9
$USERI5
 70
     0
  9
$USERR1
 40
14.0
  9
$USERR2
 40
0.0
  9
$USERR3
 40
0.0
  9
$USERR4
 40
0.0
  9
$USERR5
 40
0.0
  9
$WORLDVIEW
 70
     1
  9
$SHADEDGE
 70
     3
  9
$SHADEDIF
 70
    70
  9
$TILEMODE
 70
     1
  9
$MAXACTVP
 70
    64
  9
$PINSBASE
 10
0.0
 20
0.0
 30
0.0
  9
$PLIMCHECK
 70
     0
  9
$PEXTMIN
 10
1.000000000000000E+20
 20
1.000000000000000E+20
 30
1.000000000000000E+20
  9
$PEXTMAX
 10
-1.000000000000000E+20
 20
-1.000000000000000E+20
 30
-1.000000000000000E+20
  9
$PLIMMIN
 10
0.0
 20
0.0
  9
$PLIMMAX
 10
12.0
 20
9.0
  9
$UNITMODE
 70
     0
  9
$VISRETAIN
 70
     1
  9
$PLINEGEN
 70
     0
  9
$PSLTSCALE
 70
     1
  9
$TREEDEPTH
 70
  3020
  9
$CMLSTYLE
  2
Standard
  9
$CMLJUST
 70
     0
  9
$CMLSCALE
 40
1.0
  9
$PROXYGRAPHICS
 70
     1
  9
$MEASUREMENT
 70
     1
  9
$CELWEIGHT
370
    -1
  9
$ENDCAPS
280
     0
  9
$JOINSTYLE
280
     0
  9
$LWDISPLAY
290
     0
  9
$INSUNITS
 70
     1
  9
$HYPERLINKBASE
  1

  9
$STYLESHEET
  1
P社図面.ctb
  9
$XEDIT
290
     1
  9
$CEPSNTYPE
380
     0
  9
$PSTYLEMODE
290
     1
  9
$FINGERPRINTGUID
  2
{D11CCC2E-BE08-4748-AA39-AD0316C08700}
  9
$VERSIONGUID
  2
{D2D59F4B-C670-4373-BAEA-02A8D93ACE9A}
  9
$EXTNAMES
290
     1
  9
$PSVPSCALE
 40
0.0
  9
$OLESTARTUP
290
     0
  0
ENDSEC
  0
SECTION
  2
CLASSES
  0
CLASS
  1
ACDBDICTIONARYWDFLT
  2
AcDbDictionaryWithDefault
  3
ObjectDBX Classes
 90
        0
280
     0
281
     0
  0
CLASS
  1

  2
exOdDbSpline
  3

 90
    32768
280
     0
281
     1
  0
CLASS
  1

  2
exOdDbPolyline
  3

 90
    32768
280
     0
281
     1
  0
CLASS
  1

  2
exOdDbCircle
  3

 90
    32768
280
     0
281
     1
  0
CLASS
  1
ACDBPLACEHOLDER
  2
AcDbPlaceHolder
  3
ObjectDBX Classes
 90
        0
280
     0
281
     0
  0
CLASS
  1
LAYOUT
  2
AcDbLayout
  3
ObjectDBX Classes
 90
        0
280
     0
281
     0
  0
CLASS
  1
DICTIONARYVAR
  2
AcDbDictionaryVar
  3
ObjectDBX Classes
 90
        0
280
     0
281
     0
  0
ENDSEC
  0
SECTION
  2
TABLES
  0
TABLE
  2
VPORT
  5
8
330
0
100
AcDbSymbolTable
 70
     8
  0
VPORT
  5
1644
330
8
100
AcDbSymbolTableRecord
100
AcDbViewportTableRecord
  2
*Active
 70
     0
 10
0.0
 20
0.0
 11
1.0
 21
1.0
 12
12.65230472493965
 22
23.1460828424116
 13
0.0
 23
0.0
 14
0.5
 24
0.5
 15
0.5
 25
0.5
 16
0.0
 26
0.0
 36
1.0
 17
0.0
 27
0.0
 37
0.0
 40
462.1623027302314
 41
1.714078374455732
 42
50.0
 43
0.0
 44
0.0
 50
0.0
 51
0.0
 71
     0
 72
   100
 73
     1
 74
     3
 75
     0
 76
     0
 77
     0
 78
     0
281
     0
 65
     1
110
0.0
120
0.0
130
0.0
111
1.0
121
0.0
131
0.0
112
0.0
122
1.0
132
0.0
 79
     0
146
0.0
  0
ENDTAB
  0
TABLE
  2
LTYPE
  5
5
330
0
100
AcDbSymbolTable
 70
     8
  0
LTYPE
  5
14
330
5
100
AcDbSymbolTableRecord
100
AcDbLinetypeTableRecord
  2
ByBlock
 70
     0
  3

 72
    65
 73
     0
 40
0.0
  0
LTYPE
  5
15
330
5
100
AcDbSymbolTableRecord
100
AcDbLinetypeTableRecord
  2
ByLayer
 70
     0
  3

 72
    65
 73
     0
 40
0.0
  0
LTYPE
  5
16
330
5
100
AcDbSymbolTableRecord
100
AcDbLinetypeTableRecord
  2
Continuous
 70
     0
  3
Solid line
 72
    65
 73
     0
 40
0.0
  0
LTYPE
  5
2A
330
5
100
AcDbSymbolTableRecord
100
AcDbLinetypeTableRecord
  2
DASHED
 70
     0
  3
Dashed
 72
    65
 73
     2
 40
15.0
 49
7.0
 74
     0
 49
-8.0
 74
     0
  0
LTYPE
  5
2B
330
5
100
AcDbSymbolTableRecord
100
AcDbLinetypeTableRecord
  2
DOTTED
 70
     0
  3
Dotted
 72
    65
 73
     2
 40
1.0
 49
0.0
 74
     0
 49
-1.0
 74
     0
  0
LTYPE
  5
2E
330
5
100
AcDbSymbolTableRecord
100
AcDbLinetypeTableRecord
  2
DASH_CENTER
 70
     0
  3
Dash_Center
 72
    65
 73
     4
 40
14.0
 49
11.0
 74
     0
 49
-1.0
 74
     0
 49
1.0
 74
     0
 49
-1.0
 74
     0
  0
LTYPE
  5
30
330
5
100
AcDbSymbolTableRecord
100
AcDbLinetypeTableRecord
  2
CENTER_DASH_DASH
 70
     0
  3
Center_Dash_Dash
 72
    65
 73
     6
 40
14.0
 49
9.0
 74
     0
 49
-1.0
 74
     0
 49
1.0
 74
     0
 49
-1.0
 74
     0
 49
1.0
 74
     0
 49
-1.0
 74
     0
  0
ENDTAB
  0
TABLE
  2
LAYER
  5
2
330
0
100
AcDbSymbolTable
 70
     4
  0
LAYER
  5
10
330
2
100
AcDbSymbolTableRecord
100
AcDbLayerTableRecord
  2
0
 70
     0
 62
     7
  6
Continuous
370
    -3
390
F
  0
LAYER
  5
31
330
2
100
AcDbSymbolTableRecord
100
AcDbLayerTableRecord
  2
1
 70
     0
 62
     7
  6
Continuous
370
    -3
390
F
  0
LAYER
  5
118D
330
2
100
AcDbSymbolTableRecord
100
AcDbLayerTableRecord
  2
Defpoints
 70
     0
 62
     7
  6
Continuous
290
     0
370
    -3
390
F
  0
ENDTAB
  0
TABLE
  2
STYLE
  5
3
330
0
100
AcDbSymbolTable
 70
    22
  0
STYLE
  5
11
330
3
100
AcDbSymbolTableRecord
100
AcDbTextStyleTableRecord
  2
Standard
 70
     0
 40
0.0
 41
1.0
 50
0.0
 71
     0
 42
0.2
  3
txt
  4

  0
STYLE
  5
4F0
330
3
100
AcDbSymbolTableRecord
100
AcDbTextStyleTableRecord
  2
CONVERTER_2
 70
     0
 40
0.0
 41
0.89
 50
0.0
 71
     0
 42
0.2
  3
simplex.shx
  4

  0
STYLE
  5
6EE
330
3
100
AcDbSymbolTableRecord
100
AcDbTextStyleTableRecord
  2
CONVERTER_7
 70
     0
 40
0.0
 41
0.6230000000000001
 50
0.0
 71
     0
 42
0.2
  3
txt.shx
  4

  0
STYLE
  5
725
330
3
100
AcDbSymbolTableRecord
100
AcDbTextStyleTableRecord
  2
CONVERTER_19
 70
     0
 40
0.0
 41
0.8009999999999999
 50
0.0
 71
     0
 42
0.2
  3
simplex.shx
  4

  0
ENDTAB
  0
TABLE
  2
VIEW
  5
6
330
0
100
AcDbSymbolTable
 70
     0
  0
ENDTAB
  0
TABLE
  2
UCS
  5
7
330
0
100
AcDbSymbolTable
 70
     0
  0
ENDTAB
  0
TABLE
  2
APPID
  5
9
330
0
100
AcDbSymbolTable
 70
     1
  0
APPID
  5
12
330
9
100
AcDbSymbolTableRecord
100
AcDbRegAppTableRecord
  2
ACAD
 70
     0
  0
ENDTAB
  0
TABLE
  2
DIMSTYLE
  5
A
330
0
100
AcDbSymbolTable
 70
    29
100
AcDbDimStyleTable
 71
     1
340
27
  0
DIMSTYLE
105
27
330
A
100
AcDbSymbolTableRecord
100
AcDbDimStyleTableRecord
  2
Standard
 70
     0
340
11
  0
ENDTAB
  0
TABLE
  2
BLOCK_RECORD
  5
1
330
0
100
AcDbSymbolTable
 70
    66
  0
BLOCK_RECORD
  5
1F
330
1
100
AcDbSymbolTableRecord
100
AcDbBlockTableRecord
  2
*Model_Space
340
22
  0
BLOCK_RECORD
  5
1B
330
1
100
AcDbSymbolTableRecord
100
AcDbBlockTableRecord
  2
*Paper_Space
340
1E
  0
BLOCK_RECORD
  5
23
330
1
100
AcDbSymbolTableRecord
100
AcDbBlockTableRecord
  2
*Paper_Space0
340
26
  0
ENDTAB
  0
ENDSEC
  0
SECTION
  2
BLOCKS
  0
BLOCK
  5
20
330
1F
100
AcDbEntity
  8
0
100
AcDbBlockBegin
  2
*Model_Space
 70
     0
 10
0.0
 20
0.0
 30
0.0
  3
*Model_Space
  1

  0
ENDBLK
  5
21
330
1F
100
AcDbEntity
  8
0
100
AcDbBlockEnd
  0
BLOCK
  5
1C
330
1B
100
AcDbEntity
 67
     1
  8
0
100
AcDbBlockBegin
  2
*Paper_Space
 70
     0
 10
0.0
 20
0.0
 30
0.0
  3
*Paper_Space
  1

  0
ENDBLK
  5
1D
330
1B
100
AcDbEntity
 67
     1
  8
0
100
AcDbBlockEnd
  0
BLOCK
  5
24
330
23
100
AcDbEntity
  8
0
100
AcDbBlockBegin
  2
*Paper_Space0
 70
     0
 10
0.0
 20
0.0
 30
0.0
  3
*Paper_Space0
  1

  0
ENDBLK
  5
25
330
23
100
AcDbEntity
  8
0
100
AcDbBlockEnd
  0
ENDSEC
  0
SECTION
  2
ENTITIES
  0
MTEXT
  5
796
330
1F
100
AcDbEntity
  8
0
 62
     2
100
AcDbMText
 10
205.5000000000006
 20
-240.9997577209246
 30
0.0
 40
6.0
 41
0.0
 71
     5
 72
     1
  1
 
  7
CONVERTER_2
 73
     1
 44
1.32052821128451
1001
ACAD
1000
MTEXTBEGIN
1070
    73
1070
     1
1070
    44
1040
1.32052821128451
1070
    74
1070
     0
1000
MTEXTEND
  0
MTEXT
  5
797
330
1F
100
AcDbEntity
  8
0
 62
     2
100
AcDbMText
 10
209.5000000000006
 20
-267.9996999999998
 30
0.0
 40
6.0
 41
0.0
 71
     5
 72
     1
  1
 
  7
CONVERTER_2
 73
     1
 44
1.32052821128451
1001
ACAD
1000
MTEXTBEGIN
1070
    73
1070
     1
1070
    44
1040
1.32052821128451
1070
    74
1070
     0
1000
MTEXTEND
  0
MTEXT
  5
798
330
1F
100
AcDbEntity
  8
0
 62
     2
100
AcDbMText
 10
88.50020000000002
 20
-279.9996999999998
 30
0.0
 40
4.0
 41
0.0
 71
     5
 72
     1
  1
 
  7
CONVERTER_7
 73
     1
 44
1.32052821128451
1001
ACAD
1000
MTEXTBEGIN
1070
    73
1070
     1
1070
    44
1040
1.32052821128451
1070
    74
1070
     0
1000
MTEXTEND
  0
MTEXT
  5
799
330
1F
100
AcDbEntity
  8
0
 62
     2
100
AcDbMText
 10
49.50020000000002
 20
-279.9996999999998
 30
0.0
 40
4.0
 41
0.0
 71
     5
 72
     1
  1
 
  7
CONVERTER_7
 73
     1
 44
1.32052821128451
1001
ACAD
1000
MTEXTBEGIN
1070
    73
1070
     1
1070
    44
1040
1.32052821128451
1070
    74
1070
     0
1000
MTEXTEND
  0
MTEXT
  5
79A
330
1F
100
AcDbEntity
  8
0
 62
     2
100
AcDbMText
 10
127.5002
 20
-279.9996999999998
 30
0.0
 40
4.0
 41
0.0
 71
     5
 72
     1
  1
 
  7
CONVERTER_7
 73
     1
 44
1.32052821128451
1001
ACAD
1000
MTEXTBEGIN
1070
    73
1070
     1
1070
    44
1040
1.32052821128451
1070
    74
1070
     0
1000
MTEXTEND
  0
MTEXT
  5
79B
330
1F
100
AcDbEntity
  8
0
 62
     2
100
AcDbMText
 10
166.5002
 20
-279.9996999999998
 30
0.0
 40
4.0
 41
0.0
 71
     5
 72
     1
  1
 
  7
CONVERTER_7
 73
     1
 44
1.32052821128451
1001
ACAD
1000
MTEXTBEGIN
1070
    73
1070
     1
1070
    44
1040
1.32052821128451
1070
    74
1070
     0
1000
MTEXTEND
  0
MTEXT
  5
79C
330
1F
100
AcDbEntity
  8
0
 62
     2
100
AcDbMText
 10
205.5000000000006
 20
-279.9996999999998
 30
0.0
 40
4.0
 41
0.0
 71
     5
 72
     1
  1
 
  7
CONVERTER_7
 73
     1
 44
1.32052821128451
1001
ACAD
1000
MTEXTBEGIN
1070
    73
1070
     1
1070
    44
1040
1.32052821128451
1070
    74
1070
     0
1000
MTEXTEND
  0
MTEXT
  5
79D
330
1F
100
AcDbEntity
  8
0
 62
     2
100
AcDbMText
 10
92.50020000000002
 20
-267.9996999999998
 30
0.0
 40
6.0
 41
0.0
 71
     5
 72
     1
  1
 
  7
CONVERTER_2
 73
     1
 44
1.32052821128451
1001
ACAD
1000
MTEXTBEGIN
1070
    73
1070
     1
1070
    44
1040
1.32052821128451
1070
    74
1070
     0
1000
MTEXTEND
  0
MTEXT
  5
79E
330
1F
100
AcDbEntity
  8
0
 62
     2
100
AcDbMText
 10
170.5002
 20
-267.9996999999998
 30
0.0
 40
6.0
 41
0.0
 71
     5
 72
     1
  1
 
  7
CONVERTER_2
 73
     1
 44
1.32052821128451
1001
ACAD
1000
MTEXTBEGIN
1070
    73
1070
     1
1070
    44
1040
1.32052821128451
1070
    74
1070
     0
1000
MTEXTEND
  0
MTEXT
  5
79F
330
1F
100
AcDbEntity
  8
0
 62
     2
100
AcDbMText
 10
131.5002
 20
-267.9996999999998
 30
0.0
 40
6.0
 41
0.0
 71
     5
 72
     1
  1
 
  7
CONVERTER_2
 73
     1
 44
1.32052821128451
1001
ACAD
1000
MTEXTBEGIN
1070
    73
1070
     1
1070
    44
1040
1.32052821128451
1070
    74
1070
     0
1000
MTEXTEND
  0
MTEXT
  5
7A7
330
1F
100
AcDbEntity
  8
0
 62
     2
100
AcDbMText
 10
205.5000000000006
 20
-255.4997860470252
 30
0.0
 40
4.0
 41
0.0
 71
     5
 72
     1
  1
 
  7
CONVERTER_7
 73
     1
 44
1.32052821128451
1001
ACAD
1000
MTEXTBEGIN
1070
    73
1070
     1
1070
    44
1040
1.32052821128451
1070
    74
1070
     0
1000
MTEXTEND
  0
TEXT
  5
7C3
330
1F
100
AcDbEntity
  8
0
 62
     2
100
AcDbText
 10
-6.636492892626449
 20
-131.9527423779153
 30
0.0
 40
8.0
  1
ASAPDBS2P100W
 41
0.8009999999999999
  7
CONVERTER_19
100
AcDbText
  0
POINT
  5
F29
330
1F
100
AcDbEntity
  8
0
 62
     1
100
AcDbPoint
 10
-33.99776007066049
 20
-62.10247769284769
 30
0.0
  0
LINE
  5
F30
330
1F
100
AcDbEntity
  8
0
  6
CENTER_DASH_DASH
 62
     2
100
AcDbLine
 10
-214.09865344859
 20
53.8086915741583
 30
0.0
 11
-290.8844793413926
 21
53.8086915741583
 31
0.0
  0
LINE
  5
F31
330
1F
100
AcDbEntity
  8
0
  6
DASH_CENTER
 62
     2
100
AcDbLine
 10
182.998517348035
 20
-36.19130842584171
 30
0.0
 11
191.298517348035
 21
-36.19130842584171
 31
0.0
  0
LINE
  5
F32
330
1F
100
AcDbEntity
  8
0
  6
DASHED
 62
     2
 48
0.5
100
AcDbLine
 10
117.3573509199622
 20
-14.21308240071943
 30
0.0
 11
117.3573509199622
 21
-58.16953445096396
 31
0.0
  0
LINE
  5
F33
330
1F
100
AcDbEntity
  8
0
  6
DASHED
 62
     2
 48
0.5
100
AcDbLine
 10
125.3573509199622
 20
-6.437298913499889
 30
0.0
 11
125.3573509199622
 21
-65.94531793818351
 31
0.0
  0
LINE
  5
F34
330
1F
100
AcDbEntity
  8
0
  6
DASHED
 62
     2
 48
0.5
100
AcDbLine
 10
133.3573509199622
 20
-2.138999474616499
 30
0.0
 11
133.3573509199622
 21
-70.2436173770669
 31
0.0
  0
LINE
  5
F35
330
1F
100
AcDbEntity
  8
0
  6
DASHED
 62
     2
 48
0.5
100
AcDbLine
 10
141.3573509199622
 20
-0.05519895402864
 30
0.0
 11
141.3573509199622
 21
-72.32741789765476
 31
0.0
  0
LINE
  5
F36
330
1F
100
AcDbEntity
  8
0
  6
DASHED
 62
     2
 48
0.5
100
AcDbLine
 10
149.3573509199622
 20
0.19656140200098
 30
0.0
 11
149.3573509199622
 21
-72.57917825368437
 31
0.0
  0
LINE
  5
F37
330
1F
100
AcDbEntity
  8
0
  6
DASHED
 62
     2
 48
0.5
100
AcDbLine
 10
157.3573509199622
 20
-1.343988106236229
 30
0.0
 11
157.3573509199622
 21
-71.03862874544716
 31
0.0
  0
LINE
  5
F38
330
1F
100
AcDbEntity
  8
0
  6
DASHED
 62
     2
 48
0.5
100
AcDbLine
 10
165.3573509199622
 20
-4.94079808910713
 30
0.0
 11
165.3573509199622
 21
-67.44181876257624
 31
0.0
  0
LINE
  5
F39
330
1F
100
AcDbEntity
  8
0
  6
DASHED
 62
     2
 48
0.5
100
AcDbLine
 10
173.3573509199622
 20
-11.47586671108532
 30
0.0
 11
173.3573509199622
 21
-60.90675014059805
 31
0.0
  0
LINE
  5
F3A
330
1F
100
AcDbEntity
  8
0
  6
DASHED
 62
     2
100
AcDbLine
 10
181.3573509199622
 20
-25.36949148021357
 30
0.0
 11
181.3573509199622
 21
-46.8126099836517
 31
0.0
  0
LINE
  5
F3B
330
1F
100
AcDbEntity
  8
0
  6
DASHED
 62
     2
 48
0.5
100
AcDbLine
 10
129.1435668742504
 20
-68.30136439048439
 30
0.0
 11
163.8534678218195
 21
-68.30136439048439
 31
0.0
  0
LINE
  5
F3C
330
1F
100
AcDbEntity
  8
0
  6
DASHED
 62
     2
 48
0.5
100
AcDbLine
 10
119.094955510533
 20
-60.30136439048439
 30
0.0
 11
173.902079185537
 21
-60.3013643904844
 31
0.0
  0
LINE
  5
F3D
330
1F
100
AcDbEntity
  8
0
  6
DASHED
 62
     2
100
AcDbLine
 10
109.9986832705402
 20
-36.30136439048439
 30
0.0
 11
182.9983514255296
 21
-36.3013643904844
 31
0.0
  0
LINE
  5
F3E
330
1F
100
AcDbEntity
  8
0
  6
DASH_CENTER
 62
     2
100
AcDbLine
 10
102.578500268593
 20
-36.19130842584169
 30
0.0
 11
182.998517348035
 21
-36.19130842584171
 31
0.0
  0
LINE
  5
F3F
330
1F
100
AcDbEntity
  8
0
  6
DASHED
 62
     2
 48
0.5
100
AcDbLine
 10
113.7461724424243
 20
-52.30136439048439
 30
0.0
 11
179.2508622536457
 21
-52.3013643904844
 31
0.0
  0
LINE
  5
F40
330
1F
100
AcDbEntity
  8
0
  6
DASHED
 62
     2
 48
0.5
100
AcDbLine
 10
110.086238736574
 20
-44.30136439048438
 30
0.0
 11
182.0861133928701
 21
-44.3013643904844
 31
0.0
  0
LINE
  5
F41
330
1F
100
AcDbEntity
  8
0
  6
DASHED
 62
     2
 48
0.5
100
AcDbLine
 10
110.8614750588813
 20
-28.30136439048439
 30
0.0
 11
182.1355596371887
 21
-28.3013643904844
 31
0.0
  0
LINE
  5
F42
330
1F
100
AcDbEntity
  8
0
  6
DASHED
 62
     2
 48
0.5
100
AcDbLine
 10
113.6388204755254
 20
-20.30136439048439
 30
0.0
 11
179.3582142205445
 21
-20.3013643904844
 31
0.0
  0
LINE
  5
F43
330
1F
100
AcDbEntity
  8
0
  6
DASHED
 62
     2
 48
0.5
100
AcDbLine
 10
118.9028551166716
 20
-12.30136439048439
 30
0.0
 11
174.0941795793984
 21
-12.3013643904844
 31
0.0
  0
LINE
  5
F44
330
1F
100
AcDbEntity
  8
0
  6
DASHED
 62
     2
 48
0.5
100
AcDbLine
 10
128.7423502666579
 20
-4.301364390484399
 30
0.0
 11
164.2546844294121
 21
-4.301364390484399
 31
0.0
  0
LINE
  5
F45
330
1F
100
AcDbEntity
  8
0
  6
DASHED
 62
     2
100
AcDbLine
 10
-140.8855802081496
 20
27.36799774038278
 30
0.0
 11
-140.6120983107114
 21
27.3679977403828
 31
0.0
  0
LINE
  5
F46
330
1F
100
AcDbEntity
  8
0
  6
DASHED
 62
     2
 48
0.5
100
AcDbLine
 10
-140.8855802081496
 20
27.36799774038278
 30
0.0
 11
-140.8855802081496
 21
80.57678798848082
 31
0.0
  0
LINE
  5
F47
330
1F
100
AcDbEntity
  8
0
  6
DASHED
 62
     2
 48
0.5
100
AcDbLine
 10
-148.8855802081495
 20
19.75079737188105
 30
0.0
 11
-148.8855802081495
 21
87.86658577643557
 31
0.0
  0
LINE
  5
F48
330
1F
100
AcDbEntity
  8
0
  6
DASHED
 62
     2
 48
0.5
100
AcDbLine
 10
-156.8855802081495
 20
15.39841522341388
 30
0.0
 11
-156.8855802081495
 21
92.21896792490273
 31
0.0
  0
LINE
  5
F49
330
1F
100
AcDbEntity
  8
0
  6
DASHED
 62
     2
 48
0.5
100
AcDbLine
 10
-164.8855802081496
 20
13.03175567667328
 30
0.0
 11
-164.8855802081496
 21
94.58562747164334
 31
0.0
  0
LINE
  5
F4A
330
1F
100
AcDbEntity
  8
0
  6
DASHED
 62
     2
 48
0.5
100
AcDbLine
 10
-172.8855802081496
 20
12.30968347716099
 30
0.0
 11
-172.8855802081496
 21
95.30769967115562
 31
0.0
  0
LINE
  5
F4B
330
1F
100
AcDbEntity
  8
0
  6
DASHED
 62
     2
 48
0.5
100
AcDbLine
 10
-180.8855802081496
 20
13.14449546896407
 30
0.0
 11
-180.8855802081496
 21
94.47288767935255
 31
0.0
  0
LINE
  5
F4C
330
1F
100
AcDbEntity
  8
0
  6
DASHED
 62
     2
 48
0.5
100
AcDbLine
 10
-188.8855802081496
 20
15.63820537436331
 30
0.0
 11
-188.8855802081496
 21
91.9791777739533
 31
0.0
  0
LINE
  5
F4D
330
1F
100
AcDbEntity
  8
0
  6
DASHED
 62
     2
 48
0.5
100
AcDbLine
 10
-196.8855802081496
 20
20.15761152350039
 30
0.0
 11
-196.8855802081496
 21
87.4597716248162
 31
0.0
  0
LINE
  5
F4E
330
1F
100
AcDbEntity
  8
0
  6
DASHED
 62
     2
 48
0.5
100
AcDbLine
 10
-204.8855802081496
 20
27.73563344085079
 30
0.0
 11
-204.8855802081496
 21
79.8817497074658
 31
0.0
  0
LINE
  5
F4F
330
1F
100
AcDbEntity
  8
0
  6
DASHED
 62
     2
 48
0.5
100
AcDbLine
 10
-195.7522408217841
 20
19.36799774038281
 30
0.0
 11
-149.4450660753958
 21
19.3679977403828
 31
0.0
  0
LINE
  5
F50
330
1F
100
AcDbEntity
  8
0
  6
DASHED
 62
     2
 48
0.5
100
AcDbLine
 10
-204.5852085864686
 20
27.36799774038281
 30
0.0
 11
-140.8855802081496
 21
27.36799774038278
 31
0.0
  0
LINE
  5
F51
330
1F
100
AcDbEntity
  8
0
  6
DASHED
 62
     2
 48
0.5
100
AcDbLine
 10
-209.7764803206512
 20
35.36799774038281
 30
0.0
 11
-135.4208265765288
 21
35.3679977403828
 31
0.0
  0
LINE
  5
F52
330
1F
100
AcDbEntity
  8
0
  6
DASHED
 62
     2
 48
0.5
100
AcDbLine
 10
-212.7638362848396
 20
43.36799774038281
 30
0.0
 11
-132.4334706123404
 21
43.36799774038279
 31
0.0
  0
LINE
  5
F53
330
1F
100
AcDbEntity
  8
0
  6
DASHED
 62
     2
 48
0.5
100
AcDbLine
 10
-212.5241216814081
 20
51.36799774038281
 30
0.0
 11
-131.1704865375406
 21
51.3679977403828
 31
0.0
  0
LINE
  5
F54
330
1F
100
AcDbEntity
  8
0
  6
DASHED
 62
     2
 48
0.5
100
AcDbLine
 10
-213.724607722627
 20
59.36799774038281
 30
0.0
 11
-131.472699174553
 21
59.3679977403828
 31
0.0
  0
LINE
  5
F55
330
1F
100
AcDbEntity
  8
0
  6
DASHED
 62
     2
 48
0.5
100
AcDbLine
 10
-211.8210350220053
 20
67.36799774038281
 30
0.0
 11
-133.3762718751747
 21
67.36799774038281
 31
0.0
  0
LINE
  5
F56
330
1F
100
AcDbEntity
  8
0
  6
DASHED
 62
     2
 48
0.5
100
AcDbLine
 10
-206.2913279881838
 20
75.36799774038282
 30
0.0
 11
-137.1381639196651
 21
75.36799774038282
 31
0.0
  0
LINE
  5
F57
330
1F
100
AcDbEntity
  8
0
  6
DASHED
 62
     2
 48
0.5
100
AcDbLine
 10
-201.7276324724316
 20
83.36799774038281
 30
0.0
 11
-143.4696744247484
 21
83.36799774038281
 31
0.0
  0
LINE
  5
F58
330
1F
100
AcDbEntity
  8
0
  6
Continuous
 62
     7
100
AcDbLine
 10
-42.59865344859
 20
-20.1484357124754
 30
0.0
 11
-42.59865344859
 21
-70.1913084258417
 31
0.0
  0
LINE
  5
F59
330
1F
100
AcDbEntity
  8
0
  6
Continuous
 62
     7
100
AcDbLine
 10
-59.6158306018523
 20
-1.191308425841699
 30
0.0
 11
-43.59865344859
 21
-1.191308425841699
 31
0.0
  0
LINE
  5
F5A
330
1F
100
AcDbEntity
  8
0
  6
Continuous
 62
     7
100
AcDbLine
 10
-42.59865344859
 20
-4.1913084258417
 30
0.0
 11
-42.59865344859
 21
-20.1484357124754
 31
0.0
  0
LINE
  5
F5C
330
1F
100
AcDbEntity
  8
0
  6
Continuous
 62
     7
100
AcDbLine
 10
-122.59865344859
 20
-83.89130842584171
 30
0.0
 11
-99.09865344858999
 21
-83.89130842584171
 31
0.0
  0
LINE
  5
F5D
330
1F
100
AcDbEntity
  8
0
  6
Continuous
 62
     7
100
AcDbLine
 10
-122.89865344859
 20
-86.19130842584169
 30
0.0
 11
-99.09865344859001
 21
-86.19130842584169
 31
0.0
  0
LINE
  5
F65
330
1F
100
AcDbEntity
  8
0
  6
CENTER_DASH_DASH
 62
     2
100
AcDbLine
 10
-66.60483548620229
 20
53.8086915741583
 30
0.0
 11
-214.09865344859
 21
53.8086915741583
 31
0.0
  0
LINE
  5
F66
330
1F
100
AcDbEntity
  8
0
  6
CENTER_DASH_DASH
 62
     2
100
AcDbLine
 10
-307.740117229318
 20
53.8086915741583
 30
0.0
 11
-290.8844793413926
 21
53.8086915741583
 31
0.0
  0
LINE
  5
F6D
330
1F
100
AcDbEntity
  8
0
  6
Continuous
 62
     7
100
AcDbLine
 10
236.498517348035
 20
-83.89130842584155
 30
0.0
 11
241.998517348035
 21
-83.89130842584155
 31
0.0
  0
LINE
  5
F6E
330
1F
100
AcDbEntity
  8
0
  6
DASH_CENTER
 62
     2
100
AcDbLine
 10
236.498517348035
 20
-83.89130842584155
 30
0.0
 11
236.498517348035
 21
-94.93737125904772
 31
0.0
  0
LINE
  5
F6F
330
1F
100
AcDbEntity
  8
0
  6
Continuous
 62
     7
100
AcDbLine
 10
236.498517348035
 20
-83.89130842584155
 30
0.0
 11
265.998517348035
 21
-83.89130842584155
 31
0.0
  0
LINE
  5
F70
330
1F
100
AcDbEntity
  8
0
  6
Continuous
 62
     7
100
AcDbLine
 10
236.498517348035
 20
-83.89130842584155
 30
0.0
 11
265.998517348035
 21
-83.89130842584155
 31
0.0
  0
LINE
  5
F71
330
1F
100
AcDbEntity
  8
0
  6
Continuous
 62
     7
100
AcDbLine
 10
93.54752804797078
 20
93.8086915741583
 30
0.0
 11
109.4985173480351
 21
93.8086915741583
 31
0.0
  0
LINE
  5
F72
330
1F
100
AcDbEntity
  8
0
  6
Continuous
 62
     7
100
AcDbLine
 10
82.49851734803497
 20
84.68845604455829
 30
0.0
 11
82.49851734803497
 21
14.8086915741583
 31
0.0
  0
LINE
  5
F73
330
1F
100
AcDbEntity
  8
0
  6
Continuous
 62
     7
100
AcDbLine
 10
82.49851734803497
 20
91.8086915741583
 30
0.0
 11
82.49851734803497
 21
84.68845604455829
 31
0.0
  0
LINE
  5
F75
330
1F
100
AcDbEntity
  8
0
  6
Continuous
 62
     7
100
AcDbLine
 10
166.498517348035
 20
161.7953463097273
 30
0.0
 11
125.498517348035
 21
161.7953463097273
 31
0.0
  0
LINE
  5
F76
330
1F
100
AcDbEntity
  8
0
  6
Continuous
 62
     7
100
AcDbLine
 10
112.498517348035
 20
148.7953463097273
 30
0.0
 11
112.4985173480351
 21
96.8086915741583
 31
0.0
  0
LINE
  5
F77
330
1F
100
AcDbEntity
  8
0
  6
Continuous
 62
     7
100
AcDbLine
 10
179.498517348035
 20
148.7953463097273
 30
0.0
 11
179.498517348035
 21
-12.87286079311966
 31
0.0
  0
LINE
  5
F78
330
1F
100
AcDbEntity
  8
0
  6
Continuous
 62
     7
100
AcDbLine
 10
190.8984173480348
 20
112.6820315741583
 30
0.0
 11
190.8984173480348
 21
111.4520747562012
 31
0.0
  0
LINE
  5
F79
330
1F
100
AcDbEntity
  8
0
  6
Continuous
 62
     7
100
AcDbLine
 10
190.8984173480348
 20
112.6820315741583
 30
0.0
 11
196.498517348035
 21
112.3086915741583
 31
0.0
  0
LINE
  5
F7A
330
1F
100
AcDbEntity
  8
0
  6
Continuous
 62
     7
100
AcDbLine
 10
190.8984173480348
 20
-5.064648425841689
 30
0.0
 11
190.8984173480348
 21
-10.17019160788477
 31
0.0
  0
LINE
  5
F7B
330
1F
100
AcDbEntity
  8
0
  6
Continuous
 62
     7
100
AcDbLine
 10
190.8984173480348
 20
-5.064648425841689
 30
0.0
 11
196.498517348035
 21
-4.691308425841679
 31
0.0
  0
LINE
  5
F7C
330
1F
100
AcDbEntity
  8
0
  6
DASH_CENTER
 62
     2
100
AcDbLine
 10
336.698517348035
 20
53.8086915741583
 30
0.0
 11
334.3985173480349
 21
53.8086915741583
 31
0.0
  0
LINE
  5
FAD
330
1F
100
AcDbEntity
  8
0
  6
Continuous
 62
     7
100
AcDbLine
 10
280.2134064715827
 20
-34.2913084258417
 30
0.0
 11
276.9821498717941
 21
-8.7913084258417
 31
0.0
  0
LINE
  5
FB0
330
1F
100
AcDbEntity
  8
0
  6
Continuous
 62
     7
100
AcDbLine
 10
280.2134064715827
 20
-34.2913084258417
 30
0.0
 11
282.235795430292
 21
-50.2513279583236
 31
0.0
  0
LINE
  5
FB2
330
1F
100
AcDbEntity
  8
0
  6
DASH_CENTER
 62
     2
100
AcDbLine
 10
-93.4682896708435
 20
-36.19130842584171
 30
0.0
 11
-29.9190956281265
 21
-36.19130842584171
 31
0.0
  0
LINE
  5
FB3
330
1F
100
AcDbEntity
  8
0
  6
Continuous
 62
     7
100
AcDbLine
 10
-172.5986534485899
 20
-71.19130842584169
 30
0.0
 11
-78.59865344859
 21
-71.19130842584169
 31
0.0
  0
LINE
  5
FB5
330
1F
100
AcDbEntity
  8
0
  6
Continuous
 62
     7
100
AcDbLine
 10
-77.59865344859
 20
2.80869157415831
 30
0.0
 11
-77.59865344859003
 21
-0.1913084258417
 31
0.0
  0
LINE
  5
FB6
330
1F
100
AcDbEntity
  8
0
  6
Continuous
 62
     7
100
AcDbLine
 10
-76.59865344858999
 20
-76.19130842584169
 30
0.0
 11
-73.59865344859
 21
-76.19130842584169
 31
0.0
  0
LINE
  5
FB7
330
1F
100
AcDbEntity
  8
0
  6
Continuous
 62
     7
100
AcDbLine
 10
-72.59865344859
 20
-75.1913084258417
 30
0.0
 11
-72.59865344859003
 21
-72.1913084258417
 31
0.0
  0
LINE
  5
FB8
330
1F
100
AcDbEntity
  8
0
  6
Continuous
 62
     7
100
AcDbLine
 10
-76.59865344858999
 20
3.808691574158299
 30
0.0
 11
-73.59865344859
 21
3.808691574158299
 31
0.0
  0
LINE
  5
FB9
330
1F
100
AcDbEntity
  8
0
  6
Continuous
 62
     7
100
AcDbLine
 10
-71.59865344859003
 20
-1.191308425841699
 30
0.0
 11
-59.6158306018523
 21
-1.191308425841699
 31
0.0
  0
LINE
  5
FBA
330
1F
100
AcDbEntity
  8
0
  6
Continuous
 62
     7
100
AcDbLine
 10
-72.59865344859003
 20
-0.19130842584169
 30
0.0
 11
-72.59865344859001
 21
2.808691574158299
 31
0.0
  0
LINE
  5
FBB
330
1F
100
AcDbEntity
  8
0
  6
Continuous
 62
     7
100
AcDbLine
 10
-42.59865344859
 20
-2.191308425841699
 30
0.0
 11
-42.59865344859
 21
-4.1913084258417
 31
0.0
  0
LINE
  5
FBC
330
1F
100
AcDbEntity
  8
0
  6
Continuous
 62
     7
100
AcDbLine
 10
-43.59865344859
 20
-71.19130842584169
 30
0.0
 11
-71.59865344859003
 21
-71.19130842584169
 31
0.0
  0
LINE
  5
FBD
330
1F
100
AcDbEntity
  8
0
  6
Continuous
 62
     7
100
AcDbLine
 10
-78.59865344859002
 20
-1.191308425841699
 30
0.0
 11
-91.61173583899079
 21
-1.191308425841689
 31
0.0
  0
LINE
  5
FBE
330
1F
100
AcDbEntity
  8
0
  6
Continuous
 62
     7
100
AcDbLine
 10
-77.59865344859
 20
-72.1913084258417
 30
0.0
 11
-77.59865344859
 21
-75.1913084258417
 31
0.0
  0
LINE
  5
FBF
330
1F
100
AcDbEntity
  8
0
  6
CENTER_DASH_DASH
 62
     2
100
AcDbLine
 10
-172.5986534485899
 20
-71.19130842584169
 30
0.0
 11
-172.5986534485899
 21
170.9714129581399
 31
0.0
  0
LINE
  5
FC0
330
1F
100
AcDbEntity
  8
0
  6
Continuous
 62
     7
100
AcDbLine
 10
-72.59865344859003
 20
-72.1913084258417
 30
0.0
 11
-72.59865344859003
 21
-0.19130842584169
 31
0.0
  0
LINE
  5
FC1
330
1F
100
AcDbEntity
  8
0
  6
Continuous
 62
     7
100
AcDbLine
 10
-77.59865344859
 20
-72.1913084258417
 30
0.0
 11
-77.59865344859003
 21
-0.1913084258417
 31
0.0
  0
LINE
  5
FC2
330
1F
100
AcDbEntity
  8
0
  6
Continuous
 62
     7
100
AcDbLine
 10
-167.2764686959299
 20
131.6269050556984
 30
0.0
 11
-167.8042192463678
 21
129.6573131877418
 31
0.0
  0
LINE
  5
FC3
330
1F
100
AcDbEntity
  8
0
  6
Continuous
 62
     7
100
AcDbLine
 10
-179.5711128684027
 20
133.504267421498
 30
0.0
 11
-186.2737514310131
 21
125.5163738346464
 31
0.0
  0
LINE
  5
FC4
330
1F
100
AcDbEntity
  8
0
  6
Continuous
 62
     7
100
AcDbLine
 10
-179.5711128684027
 20
133.504267421498
 30
0.0
 11
-179.222489897412
 21
129.519488629131
 31
0.0
  0
LINE
  5
FC5
330
1F
100
AcDbEntity
  8
0
  6
Continuous
 62
     7
100
AcDbLine
 10
-152.4107679305934
 20
129.1509060247056
 30
0.0
 11
-153.704863156106
 21
124.3212768932603
 31
0.0
  0
LINE
  5
FC6
330
1F
100
AcDbEntity
  8
0
  6
Continuous
 62
     7
100
AcDbLine
 10
-246.09865344859
 20
-86.19130842584169
 30
0.0
 11
-222.29865344859
 21
-86.19130842584169
 31
0.0
  0
LINE
  5
FC7
330
1F
100
AcDbEntity
  8
0
  6
Continuous
 62
     7
100
AcDbLine
 10
-246.09865344859
 20
-83.89130842584171
 30
0.0
 11
-246.09865344859
 21
-86.19130842584169
 31
0.0
  0
LINE
  5
FC8
330
1F
100
AcDbEntity
  8
0
  6
Continuous
 62
     7
100
AcDbLine
 10
-246.09865344859
 20
-83.89130842584171
 30
0.0
 11
-222.59865344859
 21
-83.89130842584171
 31
0.0
  0
LINE
  5
FC9
330
1F
100
AcDbEntity
  8
0
  6
DASH_CENTER
 62
     2
100
AcDbLine
 10
-232.59865344859
 20
-77.67587216012408
 30
0.0
 11
-232.59865344859
 21
-96.43290944972171
 31
0.0
  0
LINE
  5
FCD
330
1F
100
AcDbEntity
  8
0
  6
Continuous
 62
     7
100
AcDbLine
 10
-210.59865344859
 20
-71.19130842584169
 30
0.0
 11
-172.5986534485899
 21
-71.19130842584169
 31
0.0
  0
LINE
  5
FCE
330
1F
100
AcDbEntity
  8
0
  6
DASHED
 62
     2
100
AcDbLine
 10
-218.29865344859
 20
-81.19130842584169
 30
0.0
 11
-218.29865344859
 21
-82.19130842584169
 31
0.0
  0
LINE
  5
FD0
330
1F
100
AcDbEntity
  8
0
  6
Continuous
 62
     7
100
AcDbLine
 10
-99.09865344859001
 20
-86.19130842584169
 30
0.0
 11
-99.09865344858999
 21
-83.89130842584171
 31
0.0
  0
LINE
  5
FD1
330
1F
100
AcDbEntity
  8
0
  6
DASH_CENTER
 62
     2
100
AcDbLine
 10
-112.59865344859
 20
-96.43290944972171
 30
0.0
 11
-112.59865344859
 21
-77.67587216012408
 31
0.0
  0
LINE
  5
FD6
330
1F
100
AcDbEntity
  8
0
  6
DASHED
 62
     2
100
AcDbLine
 10
-126.89865344859
 20
-82.19130842584169
 30
0.0
 11
-126.89865344859
 21
-81.19130842584169
 31
0.0
  0
LINE
  5
FD8
330
1F
100
AcDbEntity
  8
0
  6
Continuous
 62
     7
100
AcDbLine
 10
-124.59865344859
 20
-71.19130842584169
 30
0.0
 11
-124.59865344859
 21
-81.8913084258417
 31
0.0
  0
LINE
  5
FE1
330
1F
100
AcDbEntity
  8
0
  6
Continuous
 62
     7
100
AcDbLine
 10
-220.59865344859
 20
-60.32820914818062
 30
0.0
 11
-220.59865344859
 21
-81.8913084258417
 31
0.0
  0
LINE
  5
FE2
330
1F
100
AcDbEntity
  8
0
  6
DASHED
 62
     2
100
AcDbLine
 10
-171.59865344859
 20
109.3086915741583
 30
0.0
 11
-171.59865344859
 21
105.2572531047539
 31
0.0
  0
LINE
  5
FE3
330
1F
100
AcDbEntity
  8
0
  6
DASHED
 62
     2
100
AcDbLine
 10
-173.59865344859
 20
109.3086915741583
 30
0.0
 11
-173.59865344859
 21
107.7572531047539
 31
0.0
  0
LINE
  5
FE4
330
1F
100
AcDbEntity
  8
0
  6
DASHED
 62
     2
100
AcDbLine
 10
-171.59865344859
 20
102.757303104754
 30
0.0
 11
-171.59865344859
 21
100.2572531047539
 31
0.0
  0
LINE
  5
FE5
330
1F
100
AcDbEntity
  8
0
  6
DASHED
 62
     2
100
AcDbLine
 10
-171.59865344859
 20
108.8572031047539
 30
0.0
 11
-171.59865344859
 21
105.2572531047539
 31
0.0
  0
LINE
  5
FE6
330
1F
100
AcDbEntity
  8
0
  6
DASHED
 62
     2
100
AcDbLine
 10
-171.59865344859
 20
108.007303104754
 30
0.0
 11
-171.59865344859
 21
105.2572531047539
 31
0.0
  0
LINE
  5
FE7
330
1F
100
AcDbEntity
  8
0
  6
DASHED
 62
     2
100
AcDbLine
 10
-167.6987534485901
 20
105.925003104754
 30
0.0
 11
-167.6987534485901
 21
99.58950310475383
 31
0.0
  0
LINE
  5
FE8
330
1F
100
AcDbEntity
  8
0
  6
DASHED
 62
     2
100
AcDbLine
 10
-171.59865344859
 20
108.007303104754
 30
0.0
 11
-169.4331534485902
 21
107.8178031047538
 31
0.0
  0
LINE
  5
FE9
330
1F
100
AcDbEntity
  8
0
  6
DASHED
 62
     2
100
AcDbLine
 10
-171.59865344859
 20
97.50730310475402
 30
0.0
 11
-169.4331534485902
 21
97.69670310475399
 31
0.0
  0
LINE
  5
FEA
330
1F
100
AcDbEntity
  8
0
  6
DASHED
 62
     2
100
AcDbLine
 10
-178.2986534485899
 20
97.75725310475392
 30
0.0
 11
-173.59865344859
 21
97.75725310475392
 31
0.0
  0
LINE
  5
FEB
330
1F
100
AcDbEntity
  8
0
  6
DASHED
 62
     2
100
AcDbLine
 10
-173.59865344859
 20
97.75725310475392
 30
0.0
 11
-173.59865344859
 21
96.261606668413
 31
0.0
  0
LINE
  5
FEC
330
1F
100
AcDbEntity
  8
0
  6
DASHED
 62
     2
100
AcDbLine
 10
-178.2986534485899
 20
107.7572531047539
 30
0.0
 11
-173.59865344859
 21
107.7572531047539
 31
0.0
  0
LINE
  5
FED
330
1F
100
AcDbEntity
  8
0
  6
DASHED
 62
     2
100
AcDbLine
 10
-173.59865344859
 20
107.7572531047539
 30
0.0
 11
-173.59865344859
 21
97.75725310475392
 31
0.0
  0
LINE
  5
FEE
330
1F
100
AcDbEntity
  8
0
  6
DASHED
 62
     2
100
AcDbLine
 10
-171.59865344859
 20
105.2572531047539
 30
0.0
 11
-171.59865344859
 21
100.2572531047539
 31
0.0
  0
LINE
  5
FEF
330
1F
100
AcDbEntity
  8
0
  6
DASHED
 62
     2
100
AcDbLine
 10
-171.59865344859
 20
105.2572531047539
 30
0.0
 11
-171.59865344859
 21
103.1592031047538
 31
0.0
  0
LINE
  5
FF0
330
1F
100
AcDbEntity
  8
0
  6
DASHED
 62
     2
100
AcDbLine
 10
-171.59865344859
 20
105.2572531047539
 30
0.0
 11
-171.59865344859
 21
100.2572531047539
 31
0.0
  0
LINE
  5
FF1
330
1F
100
AcDbEntity
  8
0
  6
DASHED
 62
     2
100
AcDbLine
 10
-178.2986534485899
 20
97.75725310475392
 30
0.0
 11
-178.2986534485899
 21
107.7572531047539
 31
0.0
  0
LINE
  5
FF2
330
1F
100
AcDbEntity
  8
0
  6
DASHED
 62
     2
100
AcDbLine
 10
-171.59865344859
 20
100.2572531047539
 30
0.0
 11
-171.59865344859
 21
96.65720310475387
 31
0.0
  0
LINE
  5
FF3
330
1F
100
AcDbEntity
  8
0
  6
DASHED
 62
     2
100
AcDbLine
 10
-171.59865344859
 20
100.2572531047539
 30
0.0
 11
-171.59865344859
 21
96.261606668413
 31
0.0
  0
LINE
  5
FF4
330
1F
100
AcDbEntity
  8
0
  6
DASHED
 62
     2
100
AcDbLine
 10
-171.59865344859
 20
100.2572531047539
 30
0.0
 11
-171.59865344859
 21
97.50730310475402
 31
0.0
  0
LINE
  5
FF5
330
1F
100
AcDbEntity
  8
0
  6
DASHED
 62
     2
100
AcDbLine
 10
-182.893060768217
 20
105.2572531047539
 30
0.0
 11
-182.893060768217
 21
100.2572531047539
 31
0.0
  0
LINE
  5
FF6
330
1F
100
AcDbEntity
  8
0
  6
DASHED
 62
     2
100
AcDbLine
 10
-182.893060768217
 20
105.2572531047539
 30
0.0
 11
-171.59865344859
 21
105.2572531047539
 31
0.0
  0
LINE
  5
FF7
330
1F
100
AcDbEntity
  8
0
  6
DASHED
 62
     2
100
AcDbLine
 10
-182.893060768217
 20
100.2572531047539
 30
0.0
 11
-171.59865344859
 21
100.2572531047539
 31
0.0
  0
LINE
  5
100E
330
1F
100
AcDbEntity
  8
0
  6
Continuous
 62
     7
100
AcDbLine
 10
112.498517348035
 20
148.2953463097273
 30
0.0
 11
112.4985173480351
 21
96.8086915741583
 31
0.0
  0
LINE
  5
100F
330
1F
100
AcDbEntity
  8
0
  6
Continuous
 62
     7
100
AcDbLine
 10
83.49851734803499
 20
93.8086915741583
 30
0.0
 11
93.54752804797078
 21
93.8086915741583
 31
0.0
  0
LINE
  5
1010
330
1F
100
AcDbEntity
  8
0
  6
Continuous
 62
     7
100
AcDbLine
 10
82.49851734803497
 20
92.8086915741583
 30
0.0
 11
82.49851734803497
 21
91.8086915741583
 31
0.0
  0
LINE
  5
1011
330
1F
100
AcDbEntity
  8
0
  6
Continuous
 62
     7
100
AcDbLine
 10
83.49851734803499
 20
13.8086915741583
 30
0.0
 11
109.498517348035
 21
13.8086915741583
 31
0.0
  0
LINE
  5
1012
330
1F
100
AcDbEntity
  8
0
  6
Continuous
 62
     7
100
AcDbLine
 10
112.498517348035
 20
10.8086915741583
 30
0.0
 11
112.498517348035
 21
-15.12000092013622
 31
0.0
  0
LINE
  5
1013
330
1F
100
AcDbEntity
  8
0
  6
DASH_CENTER
 62
     2
100
AcDbLine
 10
146.498517348035
 20
8.608691574158299
 30
0.0
 11
146.498517348035
 21
-80.99130842584168
 31
0.0
  0
LINE
  5
1014
330
1F
100
AcDbEntity
  8
0
  6
Continuous
 62
     7
100
AcDbLine
 10
179.498517348035
 20
148.2953463097273
 30
0.0
 11
179.498517348035
 21
-12.87286079311966
 31
0.0
  0
LINE
  5
1015
330
1F
100
AcDbEntity
  8
0
  6
Continuous
 62
     7
100
AcDbLine
 10
180.9979572168647
 20
142.8086915741583
 30
0.0
 11
181.498517348035
 21
142.8086915741583
 31
0.0
  0
LINE
  5
1016
330
1F
100
AcDbEntity
  8
0
  6
Continuous
 62
     7
100
AcDbLine
 10
112.4985173480351
 20
96.8086915741583
 30
0.0
 11
112.498517348035
 21
10.8086915741583
 31
0.0
  0
LINE
  5
1017
330
1F
100
AcDbEntity
  8
0
  6
Continuous
 62
     7
100
AcDbLine
 10
186.998517348035
 20
114.6198747562014
 30
0.0
 11
186.998517348035
 21
108.5197747562013
 31
0.0
  0
LINE
  5
1018
330
1F
100
AcDbEntity
  8
0
  6
Continuous
 62
     7
100
AcDbLine
 10
186.998517348035
 20
120.7197747562013
 30
0.0
 11
186.998517348035
 21
115.0217747562012
 31
0.0
  0
LINE
  5
1019
330
1F
100
AcDbEntity
  8
0
  6
Continuous
 62
     7
100
AcDbLine
 10
186.998517348035
 20
114.6198747562014
 30
0.0
 11
185.498517348035
 21
114.2179747562013
 31
0.0
  0
LINE
  5
101A
330
1F
100
AcDbEntity
  8
0
  6
Continuous
 62
     7
100
AcDbLine
 10
186.998517348035
 20
115.0217747562012
 30
0.0
 11
185.498517348035
 21
114.6198747562014
 31
0.0
  0
LINE
  5
101B
330
1F
100
AcDbEntity
  8
0
  6
Continuous
 62
     7
100
AcDbLine
 10
186.998517348035
 20
108.5197747562013
 30
0.0
 11
185.498517348035
 21
108.5197747562013
 31
0.0
  0
LINE
  5
101C
330
1F
100
AcDbEntity
  8
0
  6
Continuous
 62
     7
100
AcDbLine
 10
186.998517348035
 20
119.8698747562014
 30
0.0
 11
186.998517348035
 21
109.3698747562014
 31
0.0
  0
LINE
  5
101D
330
1F
100
AcDbEntity
  8
0
  6
Continuous
 62
     7
100
AcDbLine
 10
190.8984173480348
 20
117.7875747562014
 30
0.0
 11
190.8984173480348
 21
112.8153649074915
 31
0.0
  0
LINE
  5
101E
330
1F
100
AcDbEntity
  8
0
  6
Continuous
 62
     7
100
AcDbLine
 10
186.998517348035
 20
119.8698747562014
 30
0.0
 11
189.1640173480348
 21
119.6803747562012
 31
0.0
  0
LINE
  5
101F
330
1F
100
AcDbEntity
  8
0
  6
Continuous
 62
     7
100
AcDbLine
 10
186.998517348035
 20
109.3698747562014
 30
0.0
 11
189.1640173480348
 21
109.5592747562014
 31
0.0
  0
LINE
  5
1020
330
1F
100
AcDbEntity
  8
0
  6
CENTER_DASH_DASH
 62
   171
100
AcDbLine
 10
185.6139713024379
 20
107.6198747562014
 30
0.0
 11
185.6139713024379
 21
107.6036156770313
 31
0.0
  0
LINE
  5
1021
330
1F
100
AcDbEntity
  8
0
  6
Continuous
 62
     7
100
AcDbLine
 10
185.498517348035
 20
117.9198747562014
 30
0.0
 11
185.498517348035
 21
119.6172868124563
 31
0.0
  0
LINE
  5
1022
330
1F
100
AcDbEntity
  8
0
  6
Continuous
 62
     7
100
AcDbLine
 10
185.498517348035
 20
119.2179747562013
 30
0.0
 11
185.498517348035
 21
114.6198747562014
 31
0.0
  0
LINE
  5
1023
330
1F
100
AcDbEntity
  8
0
  6
Continuous
 62
     7
100
AcDbLine
 10
181.498517348035
 20
142.8086915741583
 30
0.0
 11
182.498517348035
 21
142.8086915741583
 31
0.0
  0
LINE
  5
1024
330
1F
100
AcDbEntity
  8
0
  6
Continuous
 62
     7
100
AcDbLine
 10
184.498517348035
 20
-23.70131242904489
 30
0.0
 11
184.498517348035
 21
-13.99990366413972
 31
0.0
  0
LINE
  5
1025
330
1F
100
AcDbEntity
  8
0
  6
Continuous
 62
     7
100
AcDbLine
 10
181.498517348035
 20
109.004346834327
 30
0.0
 11
181.498517348035
 21
121.6172868124563
 31
0.0
  0
LINE
  5
1026
330
1F
100
AcDbEntity
  8
0
  6
Continuous
 62
     7
100
AcDbLine
 10
181.498517348035
 20
109.004346834327
 30
0.0
 11
184.498517348035
 21
109.004346834327
 31
0.0
  0
LINE
  5
1027
330
1F
100
AcDbEntity
  8
0
  6
Continuous
 62
     7
100
AcDbLine
 10
184.498517348035
 20
121.6172868124563
 30
0.0
 11
181.498517348035
 21
121.6172868124563
 31
0.0
  0
LINE
  5
1028
330
1F
100
AcDbEntity
  8
0
  6
Continuous
 62
     7
100
AcDbLine
 10
181.498517348035
 20
121.6172868124563
 30
0.0
 11
181.498517348035
 21
142.8086915741583
 31
0.0
  0
LINE
  5
1029
330
1F
100
AcDbEntity
  8
0
  6
Continuous
 62
     7
100
AcDbLine
 10
185.498517348035
 20
120.6172868124563
 30
0.0
 11
185.498517348035
 21
114.6198747562014
 31
0.0
  0
LINE
  5
102A
330
1F
100
AcDbEntity
  8
0
  6
Continuous
 62
     7
100
AcDbLine
 10
185.498517348035
 20
104.6699780235543
 30
0.0
 11
185.498517348035
 21
114.6198747562014
 31
0.0
  0
LINE
  5
102B
330
1F
100
AcDbEntity
  8
0
  6
Continuous
 62
     7
100
AcDbLine
 10
181.498517348035
 20
-16.82639169480461
 30
0.0
 11
181.498517348035
 21
109.004346834327
 31
0.0
  0
LINE
  5
102C
330
1F
100
AcDbEntity
  8
0
  6
Continuous
 62
     7
100
AcDbLine
 10
184.498517348035
 20
121.6172868124563
 30
0.0
 11
184.498517348035
 21
140.8086915741583
 31
0.0
  0
LINE
  5
102D
330
1F
100
AcDbEntity
  8
0
  6
Continuous
 62
     7
100
AcDbLine
 10
185.498517348035
 20
120.7197747562013
 30
0.0
 11
186.998517348035
 21
120.7197747562013
 31
0.0
  0
LINE
  5
102E
330
1F
100
AcDbEntity
  8
0
  6
Continuous
 62
     7
100
AcDbLine
 10
186.998517348035
 20
-0.9023916078846999
 30
0.0
 11
186.998517348035
 21
-7.00249160788481
 31
0.0
  0
LINE
  5
102F
330
1F
100
AcDbEntity
  8
0
  6
Continuous
 62
     7
100
AcDbLine
 10
186.998517348035
 20
-7.40439160788465
 30
0.0
 11
186.998517348035
 21
-13.10239160788474
 31
0.0
  0
LINE
  5
1030
330
1F
100
AcDbEntity
  8
0
  6
Continuous
 62
     7
100
AcDbLine
 10
185.498517348035
 20
-6.60059160788474
 30
0.0
 11
186.998517348035
 21
-7.00249160788481
 31
0.0
  0
LINE
  5
1031
330
1F
100
AcDbEntity
  8
0
  6
Continuous
 62
     7
100
AcDbLine
 10
185.498517348035
 20
-7.00249160788481
 30
0.0
 11
186.998517348035
 21
-7.40439160788465
 31
0.0
  0
LINE
  5
1032
330
1F
100
AcDbEntity
  8
0
  6
Continuous
 62
     7
100
AcDbLine
 10
185.498517348035
 20
-0.9023916078846999
 30
0.0
 11
186.998517348035
 21
-0.9023916078846999
 31
0.0
  0
LINE
  5
1033
330
1F
100
AcDbEntity
  8
0
  6
Continuous
 62
     7
100
AcDbLine
 10
186.998517348035
 20
-1.75249160788481
 30
0.0
 11
186.998517348035
 21
-12.25249160788481
 31
0.0
  0
LINE
  5
1034
330
1F
100
AcDbEntity
  8
0
  6
Continuous
 62
     7
100
AcDbLine
 10
190.8984173480348
 20
-3.83469160788464
 30
0.0
 11
190.8984173480348
 21
-5.064648425841689
 31
0.0
  0
LINE
  5
1035
330
1F
100
AcDbEntity
  8
0
  6
Continuous
 62
     7
100
AcDbLine
 10
189.1640173480348
 20
-12.06299160788463
 30
0.0
 11
186.998517348035
 21
-12.25249160788481
 31
0.0
  0
LINE
  5
1036
330
1F
100
AcDbEntity
  8
0
  6
Continuous
 62
     7
100
AcDbLine
 10
189.1640173480348
 20
-1.94189160788478
 30
0.0
 11
186.998517348035
 21
-1.75249160788481
 31
0.0
  0
LINE
  5
1037
330
1F
100
AcDbEntity
  8
0
  6
CENTER_DASH_DASH
 62
   171
100
AcDbLine
 10
185.6139713024379
 20
0.01376747128533
 30
0.0
 11
185.6139713024379
 21
-0.00249160788481
 31
0.0
  0
LINE
  5
1038
330
1F
100
AcDbEntity
  8
0
  6
Continuous
 62
     7
100
AcDbLine
 10
185.498517348035
 20
-11.99990366413972
 30
0.0
 11
185.498517348035
 21
-10.30249160788476
 31
0.0
  0
LINE
  5
1039
330
1F
100
AcDbEntity
  8
0
  6
Continuous
 62
     7
100
AcDbLine
 10
185.498517348035
 20
-7.00249160788481
 30
0.0
 11
185.498517348035
 21
-11.60059160788474
 31
0.0
  0
LINE
  5
103A
330
1F
100
AcDbEntity
  8
0
  6
Continuous
 62
     7
100
AcDbLine
 10
181.498517348035
 20
-13.99990366413972
 30
0.0
 11
181.498517348035
 21
-1.386963686010399
 31
0.0
  0
LINE
  5
103B
330
1F
100
AcDbEntity
  8
0
  6
Continuous
 62
     7
100
AcDbLine
 10
184.498517348035
 20
-1.386963686010399
 30
0.0
 11
181.498517348035
 21
-1.386963686010399
 31
0.0
  0
LINE
  5
103C
330
1F
100
AcDbEntity
  8
0
  6
Continuous
 62
     7
100
AcDbLine
 10
181.498517348035
 20
-13.99990366413972
 30
0.0
 11
184.498517348035
 21
-13.99990366413972
 31
0.0
  0
LINE
  5
103D
330
1F
100
AcDbEntity
  8
0
  6
Continuous
 62
     7
100
AcDbLine
 10
185.498517348035
 20
-7.00249160788481
 30
0.0
 11
185.498517348035
 21
-12.99990366413972
 31
0.0
  0
LINE
  5
103E
330
1F
100
AcDbEntity
  8
0
  6
Continuous
 62
     7
100
AcDbLine
 10
185.498517348035
 20
-7.00249160788481
 30
0.0
 11
185.498517348035
 21
2.947405124762279
 31
0.0
  0
LINE
  5
103F
330
1F
100
AcDbEntity
  8
0
  6
Continuous
 62
     7
100
AcDbLine
 10
186.998517348035
 20
-13.10239160788474
 30
0.0
 11
185.498517348035
 21
-13.10239160788474
 31
0.0
  0
LINE
  5
1040
330
1F
100
AcDbEntity
  8
0
  6
Continuous
 62
     7
100
AcDbLine
 10
184.498517348035
 20
-1.386963686010399
 30
0.0
 11
184.498517348035
 21
109.004346834327
 31
0.0
  0
LINE
  5
1041
330
1F
100
AcDbEntity
  8
0
  6
Continuous
 62
     7
100
AcDbLine
 10
190.8984173480348
 20
112.8153649074915
 30
0.0
 11
190.8984173480348
 21
112.6820315741583
 31
0.0
  0
LINE
  5
1042
330
1F
100
AcDbEntity
  8
0
  6
Continuous
 62
     7
100
AcDbLine
 10
196.498517348035
 20
112.3086915741583
 30
0.0
 11
196.498517348035
 21
111.4086915741583
 31
0.0
  0
LINE
  5
1045
330
1F
100
AcDbEntity
  8
0
  6
Continuous
 62
     7
100
AcDbLine
 10
283.5617373822311
 20
-60.71521986237371
 30
0.0
 11
286.498517348035
 21
-83.89130842584155
 31
0.0
  0
LINE
  5
1048
330
1F
100
AcDbEntity
  8
0
  6
Continuous
 62
     7
100
AcDbLine
 10
282.235795430292
 20
-50.2513279583236
 30
0.0
 11
283.5617373822311
 21
-60.71521986237371
 31
0.0
  0
LINE
  5
108B
330
1F
100
AcDbEntity
  8
0
  6
Continuous
 62
     7
100
AcDbLine
 10
230.998517348035
 20
-86.19130842584173
 30
0.0
 11
241.998517348035
 21
-86.19130842584173
 31
0.0
  0
LINE
  5
108C
330
1F
100
AcDbEntity
  8
0
  6
Continuous
 62
     7
100
AcDbLine
 10
230.998517348035
 20
-83.89130842584155
 30
0.0
 11
236.498517348035
 21
-83.89130842584155
 31
0.0
  0
LINE
  5
108D
330
1F
100
AcDbEntity
  8
0
  6
DOTTED
 62
     2
100
AcDbLine
 10
230.998517348035
 20
-83.89130842584155
 30
0.0
 11
230.998517348035
 21
-86.19130842584173
 31
0.0
  0
LINE
  5
108E
330
1F
100
AcDbEntity
  8
0
  6
DOTTED
 62
     2
100
AcDbLine
 10
241.998517348035
 20
-83.89130842584155
 30
0.0
 11
241.998517348035
 21
-86.19130842584173
 31
0.0
  0
LINE
  5
108F
330
1F
100
AcDbEntity
  8
0
  6
Continuous
 62
     7
100
AcDbLine
 10
265.998517348035
 20
-86.19130842584173
 30
0.0
 11
271.498517348035
 21
-86.19130842584173
 31
0.0
  0
LINE
  5
1090
330
1F
100
AcDbEntity
  8
0
  6
Continuous
 62
     7
100
AcDbLine
 10
265.998517348035
 20
-83.89130842584155
 30
0.0
 11
276.998517348035
 21
-83.89130842584155
 31
0.0
  0
LINE
  5
1091
330
1F
100
AcDbEntity
  8
0
  6
DOTTED
 62
     2
100
AcDbLine
 10
265.998517348035
 20
-83.89130842584155
 30
0.0
 11
265.998517348035
 21
-86.19130842584173
 31
0.0
  0
LINE
  5
1092
330
1F
100
AcDbEntity
  8
0
  6
Continuous
 62
     7
100
AcDbLine
 10
276.998517348035
 20
-86.19130842584173
 30
0.0
 11
286.498517348035
 21
-86.19130842584173
 31
0.0
  0
LINE
  5
1093
330
1F
100
AcDbEntity
  8
0
  6
Continuous
 62
     7
100
AcDbLine
 10
276.998517348035
 20
-83.89130842584155
 30
0.0
 11
286.498517348035
 21
-83.89130842584155
 31
0.0
  0
LINE
  5
1094
330
1F
100
AcDbEntity
  8
0
  6
DOTTED
 62
     2
100
AcDbLine
 10
276.998517348035
 20
-83.89130842584155
 30
0.0
 11
276.998517348035
 21
-86.19130842584173
 31
0.0
  0
LINE
  5
1095
330
1F
100
AcDbEntity
  8
0
  6
DASH_CENTER
 62
     2
100
AcDbLine
 10
271.498517348035
 20
-76.6647103512057
 30
0.0
 11
271.498517348035
 21
-86.19130842584173
 31
0.0
  0
LINE
  5
1096
330
1F
100
AcDbEntity
  8
0
  6
DASH_CENTER
 62
     2
100
AcDbLine
 10
236.498517348035
 20
-76.6647103512057
 30
0.0
 11
236.498517348035
 21
-83.89130842584155
 31
0.0
  0
LINE
  5
1097
330
1F
100
AcDbEntity
  8
0
  6
Continuous
 62
     7
100
AcDbLine
 10
201.4985173480352
 20
-75.66346865762556
 30
0.0
 11
201.4985173480352
 21
-83.89130842584155
 31
0.0
  0
LINE
  5
1098
330
1F
100
AcDbEntity
  8
0
  6
DASH_CENTER
 62
     2
100
AcDbLine
 10
201.4985173480352
 20
-75.66346865762556
 30
0.0
 11
201.4985173480352
 21
-94.43675041225764
 31
0.0
  0
LINE
  5
1099
330
1F
100
AcDbEntity
  8
0
  6
Continuous
 62
     7
100
AcDbLine
 10
201.4985173480352
 20
-83.89130842584155
 30
0.0
 11
236.498517348035
 21
-83.89130842584155
 31
0.0
  0
LINE
  5
109A
330
1F
100
AcDbEntity
  8
0
  6
Continuous
 62
     7
100
AcDbLine
 10
206.4985173480352
 20
10.80869157415827
 30
0.0
 11
206.4985173480352
 21
-3.19130842584173
 31
0.0
  0
LINE
  5
109B
330
1F
100
AcDbEntity
  8
0
  6
Continuous
 62
     7
100
AcDbLine
 10
286.498517348035
 20
-86.19130842584173
 30
0.0
 11
286.498517348035
 21
-83.89130842584155
 31
0.0
  0
LINE
  5
109C
330
1F
100
AcDbEntity
  8
0
  6
Continuous
 62
     7
100
AcDbLine
 10
274.498517348035
 20
10.80869157415827
 30
0.0
 11
276.9821498717941
 21
-8.7913084258417
 31
0.0
  0
LINE
  5
109D
330
1F
100
AcDbEntity
  8
0
  6
Continuous
 62
     7
100
AcDbLine
 10
274.498517348035
 20
10.80869157415827
 30
0.0
 11
206.4985173480352
 21
10.80869157415827
 31
0.0
  0
LINE
  5
109E
330
1F
100
AcDbEntity
  8
0
  6
Continuous
 62
     7
100
AcDbLine
 10
274.498517348035
 20
11.95963497038429
 30
0.0
 11
274.498517348035
 21
10.80869157415827
 31
0.0
  0
LINE
  5
109F
330
1F
100
AcDbEntity
  8
0
  6
Continuous
 62
     7
100
AcDbLine
 10
271.498517348035
 20
-86.19130842584173
 30
0.0
 11
276.998517348035
 21
-86.19130842584173
 31
0.0
  0
LINE
  5
10A0
330
1F
100
AcDbEntity
  8
0
  6
DASH_CENTER
 62
     2
100
AcDbLine
 10
271.498517348035
 20
-86.19130842584173
 30
0.0
 11
271.498517348035
 21
-96.18892337602257
 31
0.0
  0
LINE
  5
10A1
330
1F
100
AcDbEntity
  8
0
  6
Continuous
 62
     7
100
AcDbLine
 10
186.4985173480352
 20
-86.19130842584173
 30
0.0
 11
267.998517348035
 21
-86.19130842584173
 31
0.0
  0
LINE
  5
10A2
330
1F
100
AcDbEntity
  8
0
  6
Continuous
 62
     7
100
AcDbLine
 10
186.4985173480352
 20
-83.89130842584155
 30
0.0
 11
186.4985173480352
 21
-86.19130842584173
 31
0.0
  0
LINE
  5
10A3
330
1F
100
AcDbEntity
  8
0
  6
Continuous
 62
     7
100
AcDbLine
 10
186.4985173480352
 20
-86.19130842584173
 30
0.0
 11
267.998517348035
 21
-86.19130842584173
 31
0.0
  0
LINE
  5
10A4
330
1F
100
AcDbEntity
  8
0
  6
Continuous
 62
     7
100
AcDbLine
 10
186.4985173480352
 20
-83.89130842584155
 30
0.0
 11
186.4985173480352
 21
-86.19130842584173
 31
0.0
  0
LINE
  5
10A5
330
1F
100
AcDbEntity
  8
0
  6
Continuous
 62
     7
100
AcDbLine
 10
186.4985173480352
 20
-83.89130842584155
 30
0.0
 11
203.4985173480352
 21
-83.89130842584155
 31
0.0
  0
LINE
  5
10A6
330
1F
100
AcDbEntity
  8
0
  6
Continuous
 62
     7
100
AcDbLine
 10
195.9985173480352
 20
-83.89130842584155
 30
0.0
 11
206.9985173480352
 21
-83.89130842584155
 31
0.0
  0
LINE
  5
10A7
330
1F
100
AcDbEntity
  8
0
  6
Continuous
 62
     7
100
AcDbLine
 10
195.9985173480352
 20
-83.89130842584155
 30
0.0
 11
206.9985173480352
 21
-83.89130842584155
 31
0.0
  0
LINE
  5
10A8
330
1F
100
AcDbEntity
  8
0
  6
DOTTED
 62
     2
100
AcDbLine
 10
195.9985173480352
 20
-83.89130842584155
 30
0.0
 11
195.9985173480352
 21
-86.19130842584173
 31
0.0
  0
LINE
  5
10A9
330
1F
100
AcDbEntity
  8
0
  6
Continuous
 62
     7
100
AcDbLine
 10
201.4985173480352
 20
-83.89130842584155
 30
0.0
 11
236.498517348035
 21
-83.89130842584155
 31
0.0
  0
LINE
  5
10AA
330
1F
100
AcDbEntity
  8
0
  6
Continuous
 62
     7
100
AcDbLine
 10
201.4985173480352
 20
-3.19130842584171
 30
0.0
 11
201.4985173480352
 21
-75.66346865762556
 31
0.0
  0
LINE
  5
10AB
330
1F
100
AcDbEntity
  8
0
  6
Continuous
 62
     7
100
AcDbLine
 10
201.4985173480352
 20
-3.19130842584171
 30
0.0
 11
206.4985173480352
 21
-3.19130842584173
 31
0.0
  0
LINE
  5
10AC
330
1F
100
AcDbEntity
  8
0
  6
Continuous
 62
     7
100
AcDbLine
 10
321.998517348035
 20
111.4086915741583
 30
0.0
 11
196.498517348035
 21
111.4086915741583
 31
0.0
  0
LINE
  5
10AD
330
1F
100
AcDbEntity
  8
0
  6
Continuous
 62
     7
100
AcDbLine
 10
196.498517348035
 20
111.4086915741583
 30
0.0
 11
196.498517348035
 21
-3.7913084258417
 31
0.0
  0
LINE
  5
10AE
330
1F
100
AcDbEntity
  8
0
  6
Continuous
 62
     7
100
AcDbLine
 10
321.998517348035
 20
-3.7913084258417
 30
0.0
 11
196.498517348035
 21
-3.7913084258417
 31
0.0
  0
LINE
  5
10AF
330
1F
100
AcDbEntity
  8
0
  6
Continuous
 62
     7
100
AcDbLine
 10
196.498517348035
 20
-3.7913084258417
 30
0.0
 11
196.498517348035
 21
-4.691308425841679
 31
0.0
  0
LINE
  5
10B0
330
1F
100
AcDbEntity
  8
0
  6
Continuous
 62
     7
100
AcDbLine
 10
321.998517348035
 20
111.4086915741583
 30
0.0
 11
321.998517348035
 21
111.3086915741583
 31
0.0
  0
LINE
  5
10B9
330
1F
100
AcDbEntity
  8
0
  6
Continuous
 62
     7
100
AcDbLine
 10
324.298517348035
 20
111.3086915741583
 30
0.0
 11
321.998517348035
 21
111.3086915741583
 31
0.0
  0
LINE
  5
10BA
330
1F
100
AcDbEntity
  8
0
  6
Continuous
 62
     7
100
AcDbLine
 10
321.998517348035
 20
111.3086915741583
 30
0.0
 11
321.998517348035
 21
-3.6913084258417
 31
0.0
  0
LINE
  5
10BB
330
1F
100
AcDbEntity
  8
0
  6
Continuous
 62
     7
100
AcDbLine
 10
324.298517348035
 20
-3.6913084258417
 30
0.0
 11
321.998517348035
 21
-3.6913084258417
 31
0.0
  0
LINE
  5
10BC
330
1F
100
AcDbEntity
  8
0
  6
Continuous
 62
     7
100
AcDbLine
 10
321.998517348035
 20
-3.6913084258417
 30
0.0
 11
321.998517348035
 21
-3.7913084258417
 31
0.0
  0
LINE
  5
10BD
330
1F
100
AcDbEntity
  8
0
  6
Continuous
 62
     7
100
AcDbLine
 10
324.298517348035
 20
-3.6913084258417
 30
0.0
 11
324.298517348035
 21
73.3086915741583
 31
0.0
  0
LINE
  5
10BE
330
1F
100
AcDbEntity
  8
0
  6
Continuous
 62
     7
100
AcDbLine
 10
324.298517348035
 20
73.3086915741583
 30
0.0
 11
333.3985173480349
 21
73.3086915741583
 31
0.0
  0
LINE
  5
10BF
330
1F
100
AcDbEntity
  8
0
  6
Continuous
 62
     7
100
AcDbLine
 10
324.298517348035
 20
73.3086915741583
 30
0.0
 11
324.298517348035
 21
111.3086915741583
 31
0.0
  0
LINE
  5
10C0
330
1F
100
AcDbEntity
  8
0
  6
Continuous
 62
     7
100
AcDbLine
 10
334.698517348035
 20
71.3086915741583
 30
0.0
 11
334.9831317321551
 21
71.3086915741583
 31
0.0
  0
LINE
  5
10C1
330
1F
100
AcDbEntity
  8
0
  6
DASH_CENTER
 62
     2
100
AcDbLine
 10
349.197275468608
 20
53.8086915741583
 30
0.0
 11
336.698517348035
 21
53.8086915741583
 31
0.0
  0
LINE
  5
10C2
330
1F
100
AcDbEntity
  8
0
  6
Continuous
 62
     7
100
AcDbLine
 10
334.3985173480349
 20
71.6086915741583
 30
0.0
 11
334.3985173480349
 21
72.3086915741583
 31
0.0
  0
LINE
  5
10C3
330
1F
100
AcDbEntity
  8
0
  6
DASH_CENTER
 62
     2
100
AcDbLine
 10
336.3985173480349
 20
53.8086915741583
 30
0.0
 11
74.6003929001911
 21
53.8086915741583
 31
0.0
  0
LINE
  5
10C4
330
1F
100
AcDbEntity
  8
0
  6
Continuous
 62
     7
100
AcDbLine
 10
334.3985173480349
 20
53.8086915741583
 30
0.0
 11
334.3985173480349
 21
71.3086915741583
 31
0.0
  0
LINE
  5
10C5
330
1F
100
AcDbEntity
  8
0
  6
Continuous
 62
     7
100
AcDbLine
 10
333.3985173480349
 20
34.3086915741583
 30
0.0
 11
324.298517348035
 21
34.3086915741583
 31
0.0
  0
LINE
  5
10C6
330
1F
100
AcDbEntity
  8
0
  6
Continuous
 62
     7
100
AcDbLine
 10
334.9831317321551
 20
36.3086915741583
 30
0.0
 11
334.698517348035
 21
36.3086915741583
 31
0.0
  0
LINE
  5
10C7
330
1F
100
AcDbEntity
  8
0
  6
Continuous
 62
     7
100
AcDbLine
 10
334.3985173480349
 20
35.3086915741583
 30
0.0
 11
334.3985173480349
 21
36.00869157415831
 31
0.0
  0
LINE
  5
10C8
330
1F
100
AcDbEntity
  8
0
  6
Continuous
 62
     7
100
AcDbLine
 10
334.3985173480349
 20
36.3086915741583
 30
0.0
 11
334.3985173480349
 21
53.8086915741583
 31
0.0
  0
LINE
  5
10C9
330
1F
100
AcDbEntity
  8
0
  6
Continuous
 62
     7
100
AcDbLine
 10
207.045446607738
 20
46.78901739402177
 30
0.0
 11
226.5115120436229
 21
46.78901739402177
 31
0.0
  0
LINE
  5
10CA
330
1F
100
AcDbEntity
  8
0
  6
Continuous
 62
     7
100
AcDbLine
 10
226.5115120436229
 20
52.80343296337072
 30
0.0
 11
207.485522652447
 21
52.80343296337072
 31
0.0
  0
LINE
  5
10CB
330
1F
100
AcDbEntity
  8
0
  6
Continuous
 62
     7
100
AcDbLine
 10
207.3859242281536
 20
40.85151084395165
 30
0.0
 11
226.8432386070797
 21
40.85151084395165
 31
0.0
  0
LINE
  5
10CC
330
1F
100
AcDbEntity
  8
0
  6
Continuous
 62
     7
100
AcDbLine
 10
226.6111104679163
 20
35.05596587742605
 30
0.0
 11
207.3859242281536
 21
35.05596587742605
 31
0.0
  0
LINE
  5
10CD
330
1F
100
AcDbEntity
  8
0
  6
Continuous
 62
     7
100
AcDbLine
 10
207.1438133939838
 20
29.46587969789399
 30
0.0
 11
227.318925422319
 21
29.46587969789399
 31
0.0
  0
LINE
  5
10CE
330
1F
100
AcDbEntity
  8
0
  6
Continuous
 62
     7
100
AcDbLine
 10
207.1438133939838
 20
24.14249845933915
 30
0.0
 11
226.963250355396
 21
24.14249845933915
 31
0.0
  0
LINE
  5
10CF
330
1F
100
AcDbEntity
  8
0
  6
Continuous
 62
     7
100
AcDbLine
 10
227.1948852837936
 20
19.14414624060031
 30
0.0
 11
206.8021494122764
 21
19.14414624060031
 31
0.0
  0
LINE
  5
10D0
330
1F
100
AcDbEntity
  8
0
  6
Continuous
 62
     7
100
AcDbLine
 10
206.8021494122763
 20
14.52558603455838
 30
0.0
 11
227.1948852837936
 21
14.52558603455838
 31
0.0
  0
LINE
  5
10D6
330
1F
100
AcDbEntity
  8
1
  6
DOTTED
 62
     2
100
AcDbLine
 10
-227.09865344859
 20
-83.89130842584171
 30
0.0
 11
-227.09865344859
 21
-86.19130842584169
 31
0.0
  0
LINE
  5
10D7
330
1F
100
AcDbEntity
  8
1
  6
DOTTED
 62
     2
100
AcDbLine
 10
-238.09865344859
 20
-83.89130842584171
 30
0.0
 11
-238.09865344859
 21
-86.19130842584169
 31
0.0
  0
LINE
  5
10D8
330
1F
100
AcDbEntity
  8
1
  6
DOTTED
 62
     2
100
AcDbLine
 10
-107.09865344859
 20
-83.89130842584171
 30
0.0
 11
-107.09865344859
 21
-86.19130842584169
 31
0.0
  0
LINE
  5
10D9
330
1F
100
AcDbEntity
  8
1
  6
DOTTED
 62
     2
100
AcDbLine
 10
-118.09865344859
 20
-83.89130842584171
 30
0.0
 11
-118.09865344859
 21
-86.19130842584169
 31
0.0
  0
LINE
  5
10DA
330
1F
100
AcDbEntity
  8
0
  6
DOTTED
 62
     2
100
AcDbLine
 10
206.9985173480352
 20
-83.89130842584155
 30
0.0
 11
206.9985173480352
 21
-86.19130842584173
 31
0.0
  0
ARC
  5
10DB
330
1F
100
AcDbEntity
  8
0
  6
DASH_CENTER
 62
     2
100
AcDbCircle
 10
146.498517348035
 20
-36.19130842584171
 30
0.0
 40
36.49999999999997
100
AcDbArc
 50
359.827239675638
 51
0.0
  0
ARC
  5
10DC
330
1F
100
AcDbEntity
  8
0
  6
DASH_CENTER
 62
     2
100
AcDbCircle
 10
146.498517348035
 20
-36.19130842584171
 30
0.0
 40
36.50000000000004
100
AcDbArc
 50
317.3798042033789
 51
318.6582073838725
  0
ARC
  5
10DD
330
1F
100
AcDbEntity
  8
0
  6
DASHED
 62
     2
100
AcDbCircle
 10
146.498517348035
 20
-36.19130842584171
 30
0.0
 40
36.50000000000002
100
AcDbArc
 50
85.5077523859158
 51
86.94277457154063
  0
ARC
  5
10DE
330
1F
100
AcDbEntity
  8
0
  6
Continuous
 62
     7
100
AcDbCircle
 10
-172.5986534485899
 20
53.8086915741583
 30
0.0
 40
39.99999999999996
100
AcDbArc
 50
183.4982093950572
 51
147.3855894712077
  0
ARC
  5
10DF
330
1F
100
AcDbEntity
  8
0
  6
Continuous
 62
     7
100
AcDbCircle
 10
-172.5986534485899
 20
53.8086915741583
 30
0.0
 40
40.0
100
AcDbArc
 50
147.3855894712077
 51
183.4982093950572
  0
ARC
  5
10E0
330
1F
100
AcDbEntity
  8
0
  6
Continuous
 62
     7
100
AcDbCircle
 10
-176.5986534485899
 20
46.8086915741583
 30
0.0
 40
114.5
100
AcDbArc
 50
97.28485610518983
 51
176.4950156031133
  0
ARC
  5
10E1
330
1F
100
AcDbEntity
  8
0
  6
Continuous
 62
     7
100
AcDbCircle
 10
-177.59865344859
 20
60.80869157415829
 30
0.0
 40
100.5
100
AcDbArc
 50
325.7711336721874
 51
3.117401115788869
  0
ARC
  5
10E2
330
1F
100
AcDbEntity
  8
0
  6
Continuous
 62
     7
100
AcDbCircle
 10
-177.59865344859
 20
60.80869157415829
 30
0.0
 40
100.4999999999999
100
AcDbArc
 50
3.117401115788869
 51
97.97002710801994
  0
ARC
  5
10E3
330
1F
100
AcDbEntity
  8
0
  6
Continuous
 62
     7
100
AcDbCircle
 10
-171.74865344859
 20
54.53334246880949
 30
0.0
 40
125.7358283857965
100
AcDbArc
 50
245.9956945922976
 51
270.8225982749842
  0
ARC
  5
10E4
330
1F
100
AcDbEntity
  8
0
  6
Continuous
 62
     7
100
AcDbCircle
 10
-176.5986534485899
 20
46.8086915741583
 30
0.0
 40
114.4999999999999
100
AcDbArc
 50
176.4950156031133
 51
180.0
  0
ARC
  5
10E5
330
1F
100
AcDbEntity
  8
0
  6
Continuous
 62
     7
100
AcDbCircle
 10
-172.5986534485899
 20
53.8086915741583
 30
0.0
 40
77.99999999999996
100
AcDbArc
 50
75.00000000000001
 51
86.08748921097065
  0
ARC
  5
10E6
330
1F
100
AcDbEntity
  8
0
  6
Continuous
 62
     7
100
AcDbCircle
 10
-172.5986534485899
 20
53.8086915741583
 30
0.0
 40
73.00000000000001
100
AcDbArc
 50
75.00000000000001
 51
100.7970132673434
  0
ARC
  5
10E7
330
1F
100
AcDbEntity
  8
0
  6
Continuous
 62
     7
100
AcDbCircle
 10
-172.5986534485899
 20
53.8086915741583
 30
0.0
 40
76.00000000000003
100
AcDbArc
 50
86.3831134824351
 51
95.0
  0
ARC
  5
10F0
330
1F
100
AcDbEntity
  8
0
  6
Continuous
 62
     7
100
AcDbCircle
 10
-171.74865344859
 20
47.52028822904212
 30
0.0
 40
119.3633984373972
100
AcDbArc
 50
179.1415140718535
 51
244.6261171178204
  0
ARC
  5
10F1
330
1F
100
AcDbEntity
  8
0
  6
DASHED
 62
     2
100
AcDbCircle
 10
-169.598672965256
 20
105.9250244050742
 30
0.0
 40
1.900019516785245
100
AcDbArc
 50
359.9993576810981
 51
84.99630987471311
  0
ARC
  5
10F2
330
1F
100
AcDbEntity
  8
0
  6
DASHED
 62
     2
100
AcDbCircle
 10
-169.5986231554265
 20
99.58953616470344
 30
0.0
 40
1.899969707124024
100
AcDbArc
 50
275.0023138190496
 51
359.9990030390615
  0
ARC
  5
10F5
330
1F
100
AcDbEntity
  8
0
  6
Continuous
 62
     7
100
AcDbCircle
 10
146.498517348035
 20
-36.19130842584171
 30
0.0
 40
40.0
100
AcDbArc
 50
35.65908769613876
 51
148.2116693829484
  0
ARC
  5
10F6
330
1F
100
AcDbEntity
  8
0
  6
Continuous
 62
     7
100
AcDbCircle
 10
146.498517348035
 20
-36.19130842584171
 30
0.0
 40
40.0
100
AcDbArc
 50
18.19487233876679
 51
28.95502437185985
  0
ARC
  5
10F7
330
1F
100
AcDbEntity
  8
0
  6
Continuous
 62
     7
100
AcDbCircle
 10
146.498517348035
 20
-36.19130842584171
 30
0.0
 40
40.0
100
AcDbArc
 50
28.95502437185985
 51
35.65908769613876
  0
ARC
  5
10F8
330
1F
100
AcDbEntity
  8
0
  6
Continuous
 62
     7
100
AcDbCircle
 10
181.4979572168647
 20
144.8086915741583
 30
0.0
 40
2.000000000000003
100
AcDbArc
 50
178.6439439538401
 51
270.0
  0
ARC
  5
10F9
330
1F
100
AcDbEntity
  8
0
  6
Continuous
 62
     7
100
AcDbCircle
 10
188.998497831369
 20
117.7875960565216
 30
0.0
 40
1.900019516785245
100
AcDbArc
 50
359.9993576810984
 51
84.99630987471231
  0
ARC
  5
10FA
330
1F
100
AcDbEntity
  8
0
  6
Continuous
 62
     7
100
AcDbCircle
 10
188.9985476411985
 20
111.4521078161508
 30
0.0
 40
1.899969707123979
100
AcDbArc
 50
275.0023138190488
 51
359.9990030390606
  0
ARC
  5
10FB
330
1F
100
AcDbEntity
  8
0
  6
Continuous
 62
     7
100
AcDbCircle
 10
146.498517348035
 20
-36.19130842584171
 30
0.0
 40
40.0
100
AcDbArc
 50
148.2116693829484
 51
18.19487233876679
  0
ARC
  5
10FC
330
1F
100
AcDbEntity
  8
0
  6
Continuous
 62
     7
100
AcDbCircle
 10
188.998497831369
 20
-10.17021290820499
 30
0.0
 40
1.900019516785276
100
AcDbArc
 50
275.0036901252885
 51
0.00064231890265
  0
ARC
  5
10FD
330
1F
100
AcDbEntity
  8
0
  6
Continuous
 62
     7
100
AcDbCircle
 10
188.9985476411985
 20
-3.834724667834219
 30
0.0
 40
1.899969707123998
100
AcDbArc
 50
0.00099696093849
 51
84.99768618095044
  0
ARC
  5
1109
330
1F
100
AcDbEntity
  8
0
  6
Continuous
 62
     7
100
AcDbCircle
 10
216.698517348035
 20
53.8086915741583
 30
0.0
 40
119.9999999999999
100
AcDbArc
 50
8.38553864708132
 51
8.42817865748916
  0
ARC
  5
110A
330
1F
100
AcDbEntity
  8
0
  6
Continuous
 62
     7
100
AcDbCircle
 10
216.698517348035
 20
53.8086915741583
 30
0.0
 40
120.0
100
AcDbArc
 50
0.0
 51
8.178609975690351
  0
ARC
  5
110B
330
1F
100
AcDbEntity
  8
0
  6
Continuous
 62
     7
100
AcDbCircle
 10
216.698517348035
 20
53.8086915741583
 30
0.0
 40
120.0
100
AcDbArc
 50
351.5718213425108
 51
351.6144613529187
  0
ARC
  5
110C
330
1F
100
AcDbEntity
  8
0
  6
Continuous
 62
     7
100
AcDbCircle
 10
216.698517348035
 20
53.8086915741583
 30
0.0
 40
120.0
100
AcDbArc
 50
351.8213900243097
 51
0.0
  0
ARC
  5
110D
330
1F
100
AcDbEntity
  8
0
  6
Continuous
 62
     7
100
AcDbCircle
 10
207.485522652447
 20
49.79622517869625
 30
0.0
 40
3.00720778467447
100
AcDbArc
 50
90.0
 51
270.0
  0
ARC
  5
110E
330
1F
100
AcDbEntity
  8
0
  6
Continuous
 62
     7
100
AcDbCircle
 10
207.3859242281536
 20
37.95373836068886
 30
0.0
 40
2.897772483262798
100
AcDbArc
 50
90.0
 51
270.0
  0
ARC
  5
110F
330
1F
100
AcDbEntity
  8
0
  6
Continuous
 62
     7
100
AcDbCircle
 10
207.1438133939838
 20
26.80418907861657
 30
0.0
 40
2.661690619277418
100
AcDbArc
 50
90.0
 51
270.0
  0
ARC
  5
1110
330
1F
100
AcDbEntity
  8
0
  6
Continuous
 62
     7
100
AcDbCircle
 10
206.8021494122764
 20
16.83486613757935
 30
0.0
 40
2.309280103020959
100
AcDbArc
 50
90.0
 51
269.9999999999972
  0
ARC
  5
1111
330
1F
100
AcDbEntity
  8
0
  6
Continuous
 62
     7
100
AcDbCircle
 10
206.2784013910092
 20
8.481476788219499
 30
0.0
 40
1.855942965107112
100
AcDbArc
 50
83.18865364414721
 51
270.0
  0
ARC
  5
1112
330
1F
100
AcDbEntity
  8
0
  6
Continuous
 62
     7
100
AcDbCircle
 10
227.1948852837936
 20
16.83486613757935
 30
0.0
 40
2.30928010302097
100
AcDbArc
 50
270.0
 51
90.0
  0
ARC
  5
1113
330
1F
100
AcDbEntity
  8
0
  6
Continuous
 62
     7
100
AcDbCircle
 10
226.8532213020861
 20
26.80418907861657
 30
0.0
 40
2.661690619277418
100
AcDbArc
 50
270.0
 51
90.0
  0
ARC
  5
1114
330
1F
100
AcDbEntity
  8
0
  6
Continuous
 62
     7
100
AcDbCircle
 10
226.6111104679163
 20
37.95373836068886
 30
0.0
 40
2.897772483262813
100
AcDbArc
 50
270.0
 51
90.0
  0
ARC
  5
1115
330
1F
100
AcDbEntity
  8
0
  6
Continuous
 62
     7
100
AcDbCircle
 10
226.5115120436229
 20
49.79622517869625
 30
0.0
 40
3.007207784674462
100
AcDbArc
 50
270.0
 51
90.0
  0
CIRCLE
  5
1118
330
1F
100
AcDbEntity
  8
0
  6
DASHED
 62
     2
 48
0.5
100
AcDbCircle
 10
-172.5986534485899
 20
53.8086915741583
 30
0.0
 40
41.5
  0
CIRCLE
  5
1119
330
1F
100
AcDbEntity
  8
0
  6
DASHED
 62
     2
 48
0.5
100
AcDbCircle
 10
146.498517348035
 20
-36.19130842584171
 30
0.0
 40
36.5
  0
CIRCLE
  5
111E
330
1F
100
AcDbEntity
  8
0
  6
Continuous
 62
     7
100
AcDbCircle
 10
-172.5986534485899
 20
53.8086915741583
 30
0.0
 40
36.99999999999997
  0
CIRCLE
  5
111F
330
1F
100
AcDbEntity
  8
0
  6
Continuous
 62
     7
100
AcDbCircle
 10
146.498517348035
 20
-36.19130842584171
 30
0.0
 40
31.99999999999995
  0
CIRCLE
  5
1120
330
1F
100
AcDbEntity
  8
0
  6
Continuous
 62
     7
100
AcDbCircle
 10
146.498517348035
 20
-36.19130842584171
 30
0.0
 40
35.0
  0
ARC
  5
1129
330
1F
100
AcDbEntity
  8
0
  6
Continuous
 62
     7
100
AcDbCircle
 10
166.498517348035
 20
148.7953463097273
 30
0.0
 40
13.0
100
AcDbArc
 50
0.0
 51
90.0
  0
ARC
  5
112A
330
1F
100
AcDbEntity
  8
0
  6
Continuous
 62
     7
100
AcDbCircle
 10
125.498517348035
 20
148.7953463097273
 30
0.0
 40
13.0
100
AcDbArc
 50
90.0
 51
180.0
  0
ARC
  5
112F
330
1F
100
AcDbEntity
  8
0
  6
Continuous
 62
     7
100
AcDbCircle
 10
-91.61173583899079
 20
2.308691574158309
 30
0.0
 40
3.499999999999984
100
AcDbArc
 50
145.7711336721874
 51
270.0
  0
ARC
  5
1130
330
1F
100
AcDbEntity
  8
0
  6
Continuous
 62
     7
100
AcDbCircle
 10
-78.59865344859002
 20
-0.1913084258417
 30
0.0
 40
1.0
100
AcDbArc
 50
270.0
 51
359.9999999999997
  0
ARC
  5
1131
330
1F
100
AcDbEntity
  8
0
  6
Continuous
 62
     7
100
AcDbCircle
 10
-71.59865344859003
 20
-0.1913084258417
 30
0.0
 40
1.0
100
AcDbArc
 50
179.9999999999997
 51
270.0
  0
ARC
  5
1132
330
1F
100
AcDbEntity
  8
0
  6
Continuous
 62
     7
100
AcDbCircle
 10
-78.59865344859
 20
-72.1913084258417
 30
0.0
 40
1.0
100
AcDbArc
 50
0.0
 51
90.0
  0
ARC
  5
1133
330
1F
100
AcDbEntity
  8
0
  6
Continuous
 62
     7
100
AcDbCircle
 10
-71.59865344859003
 20
-72.1913084258417
 30
0.0
 40
1.0
100
AcDbArc
 50
90.0
 51
180.0
  0
ARC
  5
1134
330
1F
100
AcDbEntity
  8
0
  6
Continuous
 62
     7
100
AcDbCircle
 10
-43.59865344859
 20
-70.1913084258417
 30
0.0
 40
1.0
100
AcDbArc
 50
270.0
 51
0.0
  0
ARC
  5
1135
330
1F
100
AcDbEntity
  8
0
  6
Continuous
 62
     7
100
AcDbCircle
 10
-43.59865344859
 20
-2.191308425841699
 30
0.0
 40
1.0
100
AcDbArc
 50
0.0
 51
90.0
  0
ARC
  5
1136
330
1F
100
AcDbEntity
  8
0
  6
Continuous
 62
     7
100
AcDbCircle
 10
-76.59865344858999
 20
2.808691574158299
 30
0.0
 40
1.0
100
AcDbArc
 50
90.0
 51
179.9999999999996
  0
ARC
  5
1137
330
1F
100
AcDbEntity
  8
0
  6
Continuous
 62
     7
100
AcDbCircle
 10
-73.59865344859001
 20
2.808691574158299
 30
0.0
 40
1.0
100
AcDbArc
 50
359.9999999999996
 51
89.99999999999918
  0
ARC
  5
1138
330
1F
100
AcDbEntity
  8
0
  6
Continuous
 62
     7
100
AcDbCircle
 10
-76.59865344858999
 20
-75.1913084258417
 30
0.0
 40
1.0
100
AcDbArc
 50
180.0
 51
270.0
  0
ARC
  5
1139
330
1F
100
AcDbEntity
  8
0
  6
Continuous
 62
     7
100
AcDbCircle
 10
-73.59865344859
 20
-75.1913084258417
 30
0.0
 40
1.0
100
AcDbArc
 50
270.0
 51
0.0
  0
ARC
  5
113C
330
1F
100
AcDbEntity
  8
0
  6
Continuous
 62
     7
100
AcDbCircle
 10
-222.59865344859
 20
-81.8913084258417
 30
0.0
 40
2.0
100
AcDbArc
 50
270.0
 51
0.0
  0
ARC
  5
113D
330
1F
100
AcDbEntity
  8
0
  6
Continuous
 62
     7
100
AcDbCircle
 10
-222.29865344859
 20
-82.19130842584169
 30
0.0
 40
4.0
100
AcDbArc
 50
270.0
 51
0.0
  0
ARC
  5
113E
330
1F
100
AcDbEntity
  8
0
  6
Continuous
 62
     7
100
AcDbCircle
 10
-208.2986534485899
 20
-81.19130842584169
 30
0.0
 40
10.0
100
AcDbArc
 50
90.0
 51
180.0
  0
ARC
  5
1141
330
1F
100
AcDbEntity
  8
0
  6
Continuous
 62
     7
100
AcDbCircle
 10
-122.59865344859
 20
-81.8913084258417
 30
0.0
 40
2.0
100
AcDbArc
 50
180.0
 51
270.0
  0
ARC
  5
1142
330
1F
100
AcDbEntity
  8
0
  6
Continuous
 62
     7
100
AcDbCircle
 10
-122.89865344859
 20
-82.19130842584169
 30
0.0
 40
4.0
100
AcDbArc
 50
180.0
 51
270.0
  0
ARC
  5
1143
330
1F
100
AcDbEntity
  8
0
  6
Continuous
 62
     7
100
AcDbCircle
 10
-136.89865344859
 20
-81.19130842584169
 30
0.0
 40
10.00000000000001
100
AcDbArc
 50
0.0
 51
90.0
  0
ARC
  5
1145
330
1F
100
AcDbEntity
  8
0
  6
DASHED
 62
     2
100
AcDbCircle
 10
-170.59865344859
 20
96.261606668413
 30
0.0
 40
1.0
100
AcDbArc
 50
180.0
 51
267.3027318660642
  0
ARC
  5
1146
330
1F
100
AcDbEntity
  8
0
  6
DASHED
 62
     2
100
AcDbCircle
 10
-174.59865344859
 20
96.261606668413
 30
0.0
 40
0.9999999999999879
100
AcDbArc
 50
272.6972681339359
 51
0.0
  0
ARC
  5
1149
330
1F
100
AcDbEntity
  8
0
  6
Continuous
 62
     7
100
AcDbCircle
 10
83.49851734803499
 20
92.8086915741583
 30
0.0
 40
1.0
100
AcDbArc
 50
90.0
 51
180.0
  0
ARC
  5
114A
330
1F
100
AcDbEntity
  8
0
  6
Continuous
 62
     7
100
AcDbCircle
 10
83.49851734803499
 20
14.8086915741583
 30
0.0
 40
1.0
100
AcDbArc
 50
180.0
 51
270.0
  0
ARC
  5
114B
330
1F
100
AcDbEntity
  8
0
  6
Continuous
 62
     7
100
AcDbCircle
 10
109.4985173480351
 20
96.8086915741583
 30
0.0
 40
3.0
100
AcDbArc
 50
270.0
 51
0.0
  0
ARC
  5
114C
330
1F
100
AcDbEntity
  8
0
  6
Continuous
 62
     7
100
AcDbCircle
 10
109.498517348035
 20
10.8086915741583
 30
0.0
 40
3.0
100
AcDbArc
 50
0.0
 51
90.0
  0
ARC
  5
114D
330
1F
100
AcDbEntity
  8
0
  6
Continuous
 62
     7
100
AcDbCircle
 10
184.498517348035
 20
120.6172868124563
 30
0.0
 40
1.0
100
AcDbArc
 50
0.0
 51
90.0
  0
ARC
  5
114E
330
1F
100
AcDbEntity
  8
0
  6
Continuous
 62
     7
100
AcDbCircle
 10
184.498517348035
 20
104.6699780235543
 30
0.0
 40
1.0
100
AcDbArc
 50
270.0
 51
0.0
  0
ARC
  5
114F
330
1F
100
AcDbEntity
  8
0
  6
Continuous
 62
     7
100
AcDbCircle
 10
182.498517348035
 20
140.8086915741583
 30
0.0
 40
2.0
100
AcDbArc
 50
0.0
 51
90.0
  0
ARC
  5
1150
330
1F
100
AcDbEntity
  8
0
  6
Continuous
 62
     7
100
AcDbCircle
 10
184.498517348035
 20
-12.99990366413972
 30
0.0
 40
1.0
100
AcDbArc
 50
270.0
 51
0.0
  0
ARC
  5
1151
330
1F
100
AcDbEntity
  8
0
  6
Continuous
 62
     7
100
AcDbCircle
 10
184.498517348035
 20
2.947405124762279
 30
0.0
 40
1.0
100
AcDbArc
 50
0.0
 51
90.0
  0
ARC
  5
115B
330
1F
100
AcDbEntity
  8
0
  6
Continuous
 62
     7
100
AcDbCircle
 10
333.3985173480349
 20
72.3086915741583
 30
0.0
 40
1.0
100
AcDbArc
 50
0.0
 51
90.0
  0
ARC
  5
115C
330
1F
100
AcDbEntity
  8
0
  6
Continuous
 62
     7
100
AcDbCircle
 10
334.9831317321551
 20
70.8086915741583
 30
0.0
 40
0.500000000000075
100
AcDbArc
 50
8.178609975689441
 51
90.0
  0
ARC
  5
115D
330
1F
100
AcDbEntity
  8
0
  6
Continuous
 62
     7
100
AcDbCircle
 10
334.698517348035
 20
71.6086915741583
 30
0.0
 40
0.3000000000001251
100
AcDbArc
 50
180.0
 51
270.0
  0
ARC
  5
115E
330
1F
100
AcDbEntity
  8
0
  6
Continuous
 62
     7
100
AcDbCircle
 10
333.3985173480349
 20
35.3086915741583
 30
0.0
 40
1.0
100
AcDbArc
 50
270.0
 51
0.0
  0
ARC
  5
115F
330
1F
100
AcDbEntity
  8
0
  6
Continuous
 62
     7
100
AcDbCircle
 10
334.9831317321551
 20
36.8086915741583
 30
0.0
 40
0.5
100
AcDbArc
 50
270.0
 51
351.8213900243106
  0
ARC
  5
1160
330
1F
100
AcDbEntity
  8
0
  6
Continuous
 62
     7
100
AcDbCircle
 10
334.698517348035
 20
36.00869157415831
 30
0.0
 40
0.2999999999999901
100
AcDbArc
 50
90.0
 51
180.0
  0
ENDSEC
  0
SECTION
  2
OBJECTS
  0
DICTIONARY
  5
C
330
0
100
AcDbDictionary
281
     1
  3
ACAD_COLOR
350
72E
  3
ACAD_GROUP
350
D
  3
ACAD_LAYOUT
350
1A
  3
ACAD_MATERIAL
350
72D
  3
ACAD_MLINESTYLE
350
17
  3
ACAD_PLOTSETTINGS
350
19
  3
ACAD_PLOTSTYLENAME
350
E
  3
ACDBHEADERROUNDTRIPXREC
350
1645
  3
AcDbVariableDictionary
350
15DA
  0
DICTIONARY
  5
72E
102
{ACAD_REACTORS
330
C
102
}
330
C
100
AcDbDictionary
281
     1
  0
DICTIONARY
  5
D
102
{ACAD_REACTORS
330
C
102
}
330
C
100
AcDbDictionary
281
     1
  0
DICTIONARY
  5
1A
102
{ACAD_REACTORS
330
C
102
}
330
C
100
AcDbDictionary
281
     1
  3
Layout1
350
1E
  3
Layout2
350
26
  3
Model
350
22
  0
DICTIONARY
  5
72D
102
{ACAD_REACTORS
330
C
102
}
330
C
100
AcDbDictionary
281
     1
  0
DICTIONARY
  5
17
102
{ACAD_REACTORS
330
C
102
}
330
C
100
AcDbDictionary
281
     1
  3
Standard
350
18
  0
DICTIONARY
  5
19
102
{ACAD_REACTORS
330
C
102
}
330
C
100
AcDbDictionary
281
     1
  0
ACDBDICTIONARYWDFLT
  5
E
102
{ACAD_REACTORS
330
C
102
}
330
C
100
AcDbDictionary
281
     1
  3
Normal
350
F
100
AcDbDictionaryWithDefault
340
F
  0
DICTIONARY
  5
1645
102
{ACAD_REACTORS
330
C
102
}
330
C
100
AcDbDictionary
281
     1
  3
COLORDICT
350
1647
  3
MATERIALDICT
350
1646
  0
DICTIONARY
  5
15DA
102
{ACAD_REACTORS
330
C
102
}
330
C
100
AcDbDictionary
281
     1
  3
DIMASSOC
350
15DB
  3
PROJECTNAME
350
15DC
  0
LAYOUT
  5
1E
102
{ACAD_XDICTIONARY
360
1648
102
}
102
{ACAD_REACTORS
330
1A
102
}
330
1A
100
AcDbPlotSettings
  1

  2

  4

  6

 40
0.0
 41
0.0
 42
0.0
 43
0.0
 44
0.0
 45
0.0
 46
0.0
 47
0.0
 48
0.0
 49
0.0
140
0.0
141
0.0
142
1.0
143
1.0
 70
   688
 72
     0
 73
     0
 74
     5
  7
P社図面.ctb
 75
    16
147
1.0
148
0.0
149
0.0
100
AcDbLayout
  1
Layout1
 70
     1
 71
     1
 10
0.0
 20
0.0
 11
12.0
 21
9.0
 12
0.0
 22
0.0
 32
0.0
 14
1.000000000000000E+20
 24
1.000000000000000E+20
 34
1.000000000000000E+20
 15
-1.000000000000000E+20
 25
-1.000000000000000E+20
 35
-1.000000000000000E+20
146
0.0
 13
0.0
 23
0.0
 33
0.0
 16
1.0
 26
0.0
 36
0.0
 17
0.0
 27
1.0
 37
0.0
 76
     0
330
1B
  0
LAYOUT
  5
26
102
{ACAD_XDICTIONARY
360
164C
102
}
102
{ACAD_REACTORS
330
1A
102
}
330
1A
100
AcDbPlotSettings
  1

  2

  4

  6

 40
0.0
 41
0.0
 42
0.0
 43
0.0
 44
0.0
 45
0.0
 46
0.0
 47
0.0
 48
0.0
 49
0.0
140
0.0
141
0.0
142
1.0
143
1.0
 70
   688
 72
     0
 73
     0
 74
     5
  7
P社図面.ctb
 75
    16
147
1.0
148
0.0
149
0.0
100
AcDbLayout
  1
Layout2
 70
     1
 71
     2
 10
0.0
 20
0.0
 11
0.0
 21
0.0
 12
0.0
 22
0.0
 32
0.0
 14
0.0
 24
0.0
 34
0.0
 15
0.0
 25
0.0
 35
0.0
146
0.0
 13
0.0
 23
0.0
 33
0.0
 16
1.0
 26
0.0
 36
0.0
 17
0.0
 27
1.0
 37
0.0
 76
     0
330
23
  0
LAYOUT
  5
22
102
{ACAD_XDICTIONARY
360
164A
102
}
102
{ACAD_REACTORS
330
1A
102
}
330
1A
100
AcDbPlotSettings
  1

  2
Acrobat Distiller
  4
A3
  6

 40
3.174999952316284
 41
3.174999952316284
 42
3.17498779296875
 43
3.17498779296875
 44
297.0318298339844
 45
420.1583251953125
 46
0.0
 47
0.0
 48
0.0
 49
0.0
140
0.0
141
0.0
142
1.0
143
1.979296968291566
 70
 11952
 72
     1
 73
     1
 74
     1
  7
P社図面.ctb
 75
     0
147
0.5052298952709213
148
428.024791977424
149
286.0176547229164
100
AcDbLayout
  1
Model
 70
     1
 71
     0
 10
0.0
 20
0.0
 11
0.0
 21
0.0
 12
0.0
 22
0.0
 32
0.0
 14
-427.9997999999999
 24
-286.0002
 34
0.0
 15
390.9998
 25
285.9998
 35
0.0
146
0.0
 13
0.0
 23
0.0
 33
0.0
 16
1.0
 26
0.0
 36
0.0
 17
0.0
 27
1.0
 37
0.0
 76
     0
330
1F
  0
MLINESTYLE
  5
18
102
{ACAD_REACTORS
330
17
102
}
330
17
100
AcDbMlineStyle
  2
STANDARD
 70
     0
  3

 62
   256
 51
90.0
 52
90.0
 71
     2
 49
0.5
 62
   256
  6
BYLAYER
 49
-0.5
 62
   256
  6
BYLAYER
  0
ACDBPLACEHOLDER
  5
F
102
{ACAD_REACTORS
330
E
102
}
330
E
  0
XRECORD
  5
1647
102
{ACAD_REACTORS
330
1645
102
}
330
1645
100
AcDbXrecord
280
     1
340
72E
  0
XRECORD
  5
1646
102
{ACAD_REACTORS
330
1645
102
}
330
1645
100
AcDbXrecord
280
     1
340
72D
  0
DICTIONARYVAR
  5
15DB
102
{ACAD_REACTORS
330
15DA
102
}
330
15DA
100
DictionaryVariables
280
     0
  1
1
  0
DICTIONARYVAR
  5
15DC
102
{ACAD_REACTORS
330
15DA
102
}
330
15DA
100
DictionaryVariables
280
     0
  1

  0
DICTIONARY
  5
1648
330
1E
100
AcDbDictionary
280
     1
281
     1
  3
ACAD_XREC_ROUNDTRIP
360
1649
  0
DICTIONARY
  5
164C
330
26
100
AcDbDictionary
280
     1
281
     1
  3
ACAD_XREC_ROUNDTRIP
360
164D
  0
DICTIONARY
  5
164A
330
22
100
AcDbDictionary
280
     1
281
     1
  3
ACAD_XREC_ROUNDTRIP
360
164B
  0
XRECORD
  5
1649
102
{ACAD_REACTORS
330
1648
102
}
330
1648
100
AcDbXrecord
280
     1
102
SHADEPLOT
 70
     0
102
SHADEPLOTRESLEVEL
 70
     2
102
SHADEPLOTCUSTOMDPI
 70
   300
  0
XRECORD
  5
164D
102
{ACAD_REACTORS
330
164C
102
}
330
164C
100
AcDbXrecord
280
     1
102
SHADEPLOT
 70
     0
102
SHADEPLOTRESLEVEL
 70
     2
102
SHADEPLOTCUSTOMDPI
 70
   300
  0
XRECORD
  5
164B
102
{ACAD_REACTORS
330
164A
102
}
330
164A
100
AcDbXrecord
280
     1
102
SHADEPLOT
 70
     0
102
SHADEPLOTRESLEVEL
 70
     2
102
SHADEPLOTCUSTOMDPI
 70
   300
  0
ENDSEC
  0
EOF
