  0
SECTION
  2
HEADER
  9
$ACADVER
  1
AC1015
  9
$ACADMAINTVER
 70
    20
  9
$DWGCODEPAGE
  3
ANSI_932
  9
$INSBASE
 10
0.0
 20
0.0
 30
0.0
  9
$EXTMIN
 10
-449.6604629464434
 20
-286.0002
 30
0.0
  9
$EXTMAX
 10
451.476483853936
 20
285.9998
 30
0.0
  9
$LIMMIN
 10
0.0
 20
0.0
  9
$LIMMAX
 10
12.0
 20
9.0
  9
$ORTHOMODE
 70
     0
  9
$REGENMODE
 70
     1
  9
$FILLMODE
 70
     1
  9
$QTEXTMODE
 70
     0
  9
$MIRRTEXT
 70
     1
  9
$LTSCALE
 40
1.0
  9
$ATTMODE
 70
     1
  9
$TEXTSIZE
 40
0.2
  9
$TRACEWID
 40
0.05
  9
$TEXTSTYLE
  7
CONVERTER_5
  9
$CLAYER
  8
0
  9
$CELTYPE
  6
ByLayer
  9
$CECOLOR
 62
     4
  9
$CELTSCALE
 40
1.0
  9
$DISPSILH
 70
     0
  9
$DIMSCALE
 40
1.0
  9
$DIMASZ
 40
0.18
  9
$DIMEXO
 40
0.0625
  9
$DIMDLI
 40
0.38
  9
$DIMRND
 40
0.0
  9
$DIMDLE
 40
0.0
  9
$DIMEXE
 40
0.18
  9
$DIMTP
 40
0.0
  9
$DIMTM
 40
0.0
  9
$DIMTXT
 40
0.18
  9
$DIMCEN
 40
0.09
  9
$DIMTSZ
 40
0.0
  9
$DIMTOL
 70
     0
  9
$DIMLIM
 70
     0
  9
$DIMTIH
 70
     1
  9
$DIMTOH
 70
     1
  9
$DIMSE1
 70
     0
  9
$DIMSE2
 70
     0
  9
$DIMTAD
 70
     0
  9
$DIMZIN
 70
     0
  9
$DIMBLK
  1

  9
$DIMASO
 70
     1
  9
$DIMSHO
 70
     1
  9
$DIMPOST
  1

  9
$DIMAPOST
  1

  9
$DIMALT
 70
     0
  9
$DIMALTD
 70
     2
  9
$DIMALTF
 40
25.4
  9
$DIMLFAC
 40
1.0
  9
$DIMTOFL
 70
     0
  9
$DIMTVP
 40
0.0
  9
$DIMTIX
 70
     0
  9
$DIMSOXD
 70
     0
  9
$DIMSAH
 70
     0
  9
$DIMBLK1
  1

  9
$DIMBLK2
  1

  9
$DIMSTYLE
  2
Standard
  9
$DIMCLRD
 70
     0
  9
$DIMCLRE
 70
     0
  9
$DIMCLRT
 70
     0
  9
$DIMTFAC
 40
1.0
  9
$DIMGAP
 40
0.09
  9
$DIMJUST
 70
     0
  9
$DIMSD1
 70
     0
  9
$DIMSD2
 70
     0
  9
$DIMTOLJ
 70
     1
  9
$DIMTZIN
 70
     0
  9
$DIMALTZ
 70
     0
  9
$DIMALTTZ
 70
     0
  9
$DIMUPT
 70
     0
  9
$DIMDEC
 70
     4
  9
$DIMTDEC
 70
     4
  9
$DIMALTU
 70
     2
  9
$DIMALTTD
 70
     2
  9
$DIMTXSTY
  7
Standard
  9
$DIMAUNIT
 70
     0
  9
$DIMADEC
 70
     0
  9
$DIMALTRND
 40
0.0
  9
$DIMAZIN
 70
     0
  9
$DIMDSEP
 70
    46
  9
$DIMATFIT
 70
     3
  9
$DIMFRAC
 70
     0
  9
$DIMLDRBLK
  1

  9
$DIMLUNIT
 70
     2
  9
$DIMLWD
 70
    -2
  9
$DIMLWE
 70
    -2
  9
$DIMTMOVE
 70
     0
  9
$LUNITS
 70
     2
  9
$LUPREC
 70
     4
  9
$SKETCHINC
 40
0.1
  9
$FILLETRAD
 40
0.5
  9
$AUNITS
 70
     0
  9
$AUPREC
 70
     0
  9
$MENU
  1
.
  9
$ELEVATION
 40
0.0
  9
$PELEVATION
 40
0.0
  9
$THICKNESS
 40
0.0
  9
$LIMCHECK
 70
     0
  9
$CHAMFERA
 40
0.5
  9
$CHAMFERB
 40
0.5
  9
$CHAMFERC
 40
1.0
  9
$CHAMFERD
 40
0.0
  9
$SKPOLY
 70
     0
  9
$TDCREATE
 40
2455106.660698241
  9
$TDUCREATE
 40
2455106.285698241
  9
$TDUPDATE
 40
2456808.386693033
  9
$TDUUPDATE
 40
2456808.011693033
  9
$TDINDWG
 40
0.0791732292
  9
$TDUSRTIMER
 40
0.0791714236
  9
$USRTIMER
 70
     1
  9
$ANGBASE
 50
0.0
  9
$ANGDIR
 70
     0
  9
$PDMODE
 70
     0
  9
$PDSIZE
 40
0.0
  9
$PLINEWID
 40
0.0
  9
$SPLFRAME
 70
     0
  9
$SPLINETYPE
 70
     6
  9
$SPLINESEGS
 70
     8
  9
$HANDSEED
  5
1CC4
  9
$SURFTAB1
 70
     6
  9
$SURFTAB2
 70
     6
  9
$SURFTYPE
 70
     6
  9
$SURFU
 70
     6
  9
$SURFV
 70
     6
  9
$UCSBASE
  2

  9
$UCSNAME
  2

  9
$UCSORG
 10
0.0
 20
0.0
 30
0.0
  9
$UCSXDIR
 10
1.0
 20
0.0
 30
0.0
  9
$UCSYDIR
 10
0.0
 20
1.0
 30
0.0
  9
$UCSORTHOREF
  2

  9
$UCSORTHOVIEW
 70
     0
  9
$UCSORGTOP
 10
0.0
 20
0.0
 30
0.0
  9
$UCSORGBOTTOM
 10
0.0
 20
0.0
 30
0.0
  9
$UCSORGLEFT
 10
0.0
 20
0.0
 30
0.0
  9
$UCSORGRIGHT
 10
0.0
 20
0.0
 30
0.0
  9
$UCSORGFRONT
 10
0.0
 20
0.0
 30
0.0
  9
$UCSORGBACK
 10
0.0
 20
0.0
 30
0.0
  9
$PUCSBASE
  2

  9
$PUCSNAME
  2

  9
$PUCSORG
 10
0.0
 20
0.0
 30
0.0
  9
$PUCSXDIR
 10
1.0
 20
0.0
 30
0.0
  9
$PUCSYDIR
 10
0.0
 20
1.0
 30
0.0
  9
$PUCSORTHOREF
  2

  9
$PUCSORTHOVIEW
 70
     0
  9
$PUCSORGTOP
 10
0.0
 20
0.0
 30
0.0
  9
$PUCSORGBOTTOM
 10
0.0
 20
0.0
 30
0.0
  9
$PUCSORGLEFT
 10
0.0
 20
0.0
 30
0.0
  9
$PUCSORGRIGHT
 10
0.0
 20
0.0
 30
0.0
  9
$PUCSORGFRONT
 10
0.0
 20
0.0
 30
0.0
  9
$PUCSORGBACK
 10
0.0
 20
0.0
 30
0.0
  9
$USERI1
 70
     0
  9
$USERI2
 70
     0
  9
$USERI3
 70
     0
  9
$USERI4
 70
     0
  9
$USERI5
 70
     0
  9
$USERR1
 40
14.0
  9
$USERR2
 40
0.0
  9
$USERR3
 40
0.0
  9
$USERR4
 40
0.0
  9
$USERR5
 40
0.0
  9
$WORLDVIEW
 70
     1
  9
$SHADEDGE
 70
     3
  9
$SHADEDIF
 70
    70
  9
$TILEMODE
 70
     1
  9
$MAXACTVP
 70
    64
  9
$PINSBASE
 10
0.0
 20
0.0
 30
0.0
  9
$PLIMCHECK
 70
     0
  9
$PEXTMIN
 10
1.000000000000000E+20
 20
1.000000000000000E+20
 30
1.000000000000000E+20
  9
$PEXTMAX
 10
-1.000000000000000E+20
 20
-1.000000000000000E+20
 30
-1.000000000000000E+20
  9
$PLIMMIN
 10
0.0
 20
0.0
  9
$PLIMMAX
 10
12.0
 20
9.0
  9
$UNITMODE
 70
     0
  9
$VISRETAIN
 70
     1
  9
$PLINEGEN
 70
     0
  9
$PSLTSCALE
 70
     1
  9
$TREEDEPTH
 70
  3020
  9
$CMLSTYLE
  2
Standard
  9
$CMLJUST
 70
     0
  9
$CMLSCALE
 40
1.0
  9
$PROXYGRAPHICS
 70
     1
  9
$MEASUREMENT
 70
     1
  9
$CELWEIGHT
370
    -1
  9
$ENDCAPS
280
     0
  9
$JOINSTYLE
280
     0
  9
$LWDISPLAY
290
     0
  9
$INSUNITS
 70
     1
  9
$HYPERLINKBASE
  1

  9
$STYLESHEET
  1
P社図面.ctb
  9
$XEDIT
290
     1
  9
$CEPSNTYPE
380
     0
  9
$PSTYLEMODE
290
     1
  9
$FINGERPRINTGUID
  2
{18AAC068-A0B9-43AD-BB0F-3D96D8B8B7ED}
  9
$VERSIONGUID
  2
{7BDD9BD2-8260-4908-ADA6-929F5ADBF0FA}
  9
$EXTNAMES
290
     1
  9
$PSVPSCALE
 40
0.0
  9
$OLESTARTUP
290
     0
  0
ENDSEC
  0
SECTION
  2
CLASSES
  0
CLASS
  1
ACDBDICTIONARYWDFLT
  2
AcDbDictionaryWithDefault
  3
ObjectDBX Classes
 90
        0
280
     0
281
     0
  0
CLASS
  1

  2
exOdDbCircle
  3

 90
    32768
280
     0
281
     1
  0
CLASS
  1

  2
exOdDbSpline
  3

 90
    32768
280
     0
281
     1
  0
CLASS
  1

  2
exOdDbPolyline
  3

 90
    32768
280
     0
281
     1
  0
CLASS
  1
ACDBPLACEHOLDER
  2
AcDbPlaceHolder
  3
ObjectDBX Classes
 90
        0
280
     0
281
     0
  0
CLASS
  1
LAYOUT
  2
AcDbLayout
  3
ObjectDBX Classes
 90
        0
280
     0
281
     0
  0
CLASS
  1
DICTIONARYVAR
  2
AcDbDictionaryVar
  3
ObjectDBX Classes
 90
        0
280
     0
281
     0
  0
ENDSEC
  0
SECTION
  2
TABLES
  0
TABLE
  2
VPORT
  5
8
330
0
100
AcDbSymbolTable
 70
     9
  0
VPORT
  5
1C97
330
8
100
AcDbSymbolTableRecord
100
AcDbViewportTableRecord
  2
*Active
 70
     0
 10
0.0
 20
0.0
 11
1.0
 21
1.0
 12
-4.645149669516285
 22
41.8009468207889
 13
0.0
 23
0.0
 14
0.5
 24
0.5
 15
0.5
 25
0.5
 16
0.0
 26
0.0
 36
1.0
 17
0.0
 27
0.0
 37
0.0
 40
548.9665394159831
 41
1.808575803981623
 42
50.0
 43
0.0
 44
0.0
 50
0.0
 51
0.0
 71
     0
 72
   100
 73
     1
 74
     3
 75
     0
 76
     0
 77
     0
 78
     0
281
     0
 65
     1
110
0.0
120
0.0
130
0.0
111
1.0
121
0.0
131
0.0
112
0.0
122
1.0
132
0.0
 79
     0
146
0.0
  0
ENDTAB
  0
TABLE
  2
LTYPE
  5
5
330
0
100
AcDbSymbolTable
 70
     8
  0
LTYPE
  5
14
330
5
100
AcDbSymbolTableRecord
100
AcDbLinetypeTableRecord
  2
ByBlock
 70
     0
  3

 72
    65
 73
     0
 40
0.0
  0
LTYPE
  5
15
330
5
100
AcDbSymbolTableRecord
100
AcDbLinetypeTableRecord
  2
ByLayer
 70
     0
  3

 72
    65
 73
     0
 40
0.0
  0
LTYPE
  5
16
330
5
100
AcDbSymbolTableRecord
100
AcDbLinetypeTableRecord
  2
Continuous
 70
     0
  3
Solid line
 72
    65
 73
     0
 40
0.0
  0
LTYPE
  5
2A
330
5
100
AcDbSymbolTableRecord
100
AcDbLinetypeTableRecord
  2
DASHED
 70
     0
  3
Dashed
 72
    65
 73
     2
 40
15.0
 49
7.0
 74
     0
 49
-8.0
 74
     0
  0
LTYPE
  5
2B
330
5
100
AcDbSymbolTableRecord
100
AcDbLinetypeTableRecord
  2
DOTTED
 70
     0
  3
Dotted
 72
    65
 73
     2
 40
1.0
 49
0.0
 74
     0
 49
-1.0
 74
     0
  0
LTYPE
  5
2E
330
5
100
AcDbSymbolTableRecord
100
AcDbLinetypeTableRecord
  2
DASH_CENTER
 70
     0
  3
Dash_Center
 72
    65
 73
     4
 40
14.0
 49
11.0
 74
     0
 49
-1.0
 74
     0
 49
1.0
 74
     0
 49
-1.0
 74
     0
  0
LTYPE
  5
2F
330
5
100
AcDbSymbolTableRecord
100
AcDbLinetypeTableRecord
  2
PHANTOM
 70
     0
  3
Phantom
 72
    65
 73
     6
 40
13.0
 49
10.0
 74
     0
 49
-1.0
 74
     0
 49
0.0
 74
     0
 49
-1.0
 74
     0
 49
0.0
 74
     0
 49
-1.0
 74
     0
  0
LTYPE
  5
30
330
5
100
AcDbSymbolTableRecord
100
AcDbLinetypeTableRecord
  2
CENTER_DASH_DASH
 70
     0
  3
Center_Dash_Dash
 72
    65
 73
     6
 40
14.0
 49
9.0
 74
     0
 49
-1.0
 74
     0
 49
1.0
 74
     0
 49
-1.0
 74
     0
 49
1.0
 74
     0
 49
-1.0
 74
     0
  0
ENDTAB
  0
TABLE
  2
LAYER
  5
2
330
0
100
AcDbSymbolTable
 70
     5
  0
LAYER
  5
10
330
2
100
AcDbSymbolTableRecord
100
AcDbLayerTableRecord
  2
0
 70
     0
 62
     7
  6
Continuous
370
    -3
390
F
  0
LAYER
  5
31
330
2
100
AcDbSymbolTableRecord
100
AcDbLayerTableRecord
  2
1
 70
     0
 62
     7
  6
Continuous
370
    -3
390
F
  0
LAYER
  5
32
330
2
100
AcDbSymbolTableRecord
100
AcDbLayerTableRecord
  2
60
 70
     0
 62
     7
  6
Continuous
370
    -3
390
F
  0
LAYER
  5
10AD
330
2
100
AcDbSymbolTableRecord
100
AcDbLayerTableRecord
  2
Defpoints
 70
     0
 62
     7
  6
Continuous
290
     0
370
    -3
390
F
  0
ENDTAB
  0
TABLE
  2
STYLE
  5
3
330
0
100
AcDbSymbolTable
 70
    22
  0
STYLE
  5
11
330
3
100
AcDbSymbolTableRecord
100
AcDbTextStyleTableRecord
  2
Standard
 70
     0
 40
0.0
 41
1.0
 50
0.0
 71
     0
 42
0.2
  3
txt
  4

  0
STYLE
  5
2BE
330
3
100
AcDbSymbolTableRecord
100
AcDbTextStyleTableRecord
  2
CONVERTER_2
 70
     0
 40
0.0
 41
0.89
 50
0.0
 71
     0
 42
0.2
  3
simplex.shx
  4

  0
STYLE
  5
32B
330
3
100
AcDbSymbolTableRecord
100
AcDbTextStyleTableRecord
  2
CONVERTER_3
 70
     0
 40
0.0
 41
0.8009999999999999
 50
0.0
 71
     0
 42
0.2
  3
simplex.shx
  4

  0
STYLE
  5
A8D
330
3
100
AcDbSymbolTableRecord
100
AcDbTextStyleTableRecord
  2
CONVERTER_5
 70
     0
 40
0.0
 41
1.068
 50
0.0
 71
     0
 42
0.2
  3
simplex.shx
  4
bigfont.shx
  0
STYLE
  5
B03
330
3
100
AcDbSymbolTableRecord
100
AcDbTextStyleTableRecord
  2
CONVERTER_8
 70
     0
 40
0.0
 41
0.6230000000000001
 50
0.0
 71
     0
 42
0.2
  3
txt.shx
  4

  0
STYLE
  5
B16
330
3
100
AcDbSymbolTableRecord
100
AcDbTextStyleTableRecord
  2
CONVERTER_11
 70
     0
 40
0.0
 41
0.73514
 50
0.0
 71
     0
 42
0.2
  3
txt.shx
  4

  0
ENDTAB
  0
TABLE
  2
VIEW
  5
6
330
0
100
AcDbSymbolTable
 70
     0
  0
ENDTAB
  0
TABLE
  2
UCS
  5
7
330
0
100
AcDbSymbolTable
 70
     0
  0
ENDTAB
  0
TABLE
  2
APPID
  5
9
330
0
100
AcDbSymbolTable
 70
     1
  0
APPID
  5
12
330
9
100
AcDbSymbolTableRecord
100
AcDbRegAppTableRecord
  2
ACAD
 70
     0
  0
ENDTAB
  0
TABLE
  2
DIMSTYLE
  5
A
330
0
100
AcDbSymbolTable
 70
    36
100
AcDbDimStyleTable
 71
     1
340
27
  0
DIMSTYLE
105
27
330
A
100
AcDbSymbolTableRecord
100
AcDbDimStyleTableRecord
  2
Standard
 70
     0
340
11
  0
ENDTAB
  0
TABLE
  2
BLOCK_RECORD
  5
1
330
0
100
AcDbSymbolTable
 70
    88
  0
BLOCK_RECORD
  5
1F
330
1
100
AcDbSymbolTableRecord
100
AcDbBlockTableRecord
  2
*Model_Space
340
22
  0
BLOCK_RECORD
  5
1B
330
1
100
AcDbSymbolTableRecord
100
AcDbBlockTableRecord
  2
*Paper_Space
340
1E
  0
BLOCK_RECORD
  5
23
330
1
100
AcDbSymbolTableRecord
100
AcDbBlockTableRecord
  2
*Paper_Space0
340
26
  0
ENDTAB
  0
ENDSEC
  0
SECTION
  2
BLOCKS
  0
BLOCK
  5
20
330
1F
100
AcDbEntity
  8
0
100
AcDbBlockBegin
  2
*Model_Space
 70
     0
 10
0.0
 20
0.0
 30
0.0
  3
*Model_Space
  1

  0
ENDBLK
  5
21
330
1F
100
AcDbEntity
  8
0
100
AcDbBlockEnd
  0
BLOCK
  5
1C
330
1B
100
AcDbEntity
 67
     1
  8
0
100
AcDbBlockBegin
  2
*Paper_Space
 70
     0
 10
0.0
 20
0.0
 30
0.0
  3
*Paper_Space
  1

  0
ENDBLK
  5
1D
330
1B
100
AcDbEntity
 67
     1
  8
0
100
AcDbBlockEnd
  0
BLOCK
  5
24
330
23
100
AcDbEntity
  8
0
100
AcDbBlockBegin
  2
*Paper_Space0
 70
     0
 10
0.0
 20
0.0
 30
0.0
  3
*Paper_Space0
  1

  0
ENDBLK
  5
25
330
23
100
AcDbEntity
  8
0
100
AcDbBlockEnd
  0
ENDSEC
  0
SECTION
  2
ENTITIES
  0
MTEXT
  5
BAB
330
1F
100
AcDbEntity
  8
0
 62
     2
100
AcDbMText
 10
205.5000000000006
 20
-240.9997577209246
 30
0.0
 40
6.0
 41
0.0
 71
     5
 72
     1
  1
 
  7
CONVERTER_2
 73
     1
 44
1.32052821128451
1001
ACAD
1000
MTEXTBEGIN
1070
    73
1070
     1
1070
    44
1040
1.32052821128451
1070
    74
1070
     0
1000
MTEXTEND
  0
MTEXT
  5
BAC
330
1F
100
AcDbEntity
  8
0
 62
     2
100
AcDbMText
 10
209.5000000000006
 20
-267.9996999999998
 30
0.0
 40
6.0
 41
0.0
 71
     5
 72
     1
  1
 
  7
CONVERTER_2
 73
     1
 44
1.32052821128451
1001
ACAD
1000
MTEXTBEGIN
1070
    73
1070
     1
1070
    44
1040
1.32052821128451
1070
    74
1070
     0
1000
MTEXTEND
  0
MTEXT
  5
BAD
330
1F
100
AcDbEntity
  8
0
 62
     2
100
AcDbMText
 10
88.50020000000002
 20
-279.9996999999998
 30
0.0
 40
4.0
 41
0.0
 71
     5
 72
     1
  1
 
  7
CONVERTER_8
 73
     1
 44
1.32052821128451
1001
ACAD
1000
MTEXTBEGIN
1070
    73
1070
     1
1070
    44
1040
1.32052821128451
1070
    74
1070
     0
1000
MTEXTEND
  0
MTEXT
  5
BAE
330
1F
100
AcDbEntity
  8
0
 62
     2
100
AcDbMText
 10
49.50020000000002
 20
-279.9996999999998
 30
0.0
 40
4.0
 41
0.0
 71
     5
 72
     1
  1
 
  7
CONVERTER_8
 73
     1
 44
1.32052821128451
1001
ACAD
1000
MTEXTBEGIN
1070
    73
1070
     1
1070
    44
1040
1.32052821128451
1070
    74
1070
     0
1000
MTEXTEND
  0
MTEXT
  5
BAF
330
1F
100
AcDbEntity
  8
0
 62
     2
100
AcDbMText
 10
127.5002
 20
-279.9996999999998
 30
0.0
 40
4.0
 41
0.0
 71
     5
 72
     1
  1
 
  7
CONVERTER_8
 73
     1
 44
1.32052821128451
1001
ACAD
1000
MTEXTBEGIN
1070
    73
1070
     1
1070
    44
1040
1.32052821128451
1070
    74
1070
     0
1000
MTEXTEND
  0
MTEXT
  5
BB0
330
1F
100
AcDbEntity
  8
0
 62
     2
100
AcDbMText
 10
166.5002
 20
-279.9996999999998
 30
0.0
 40
4.0
 41
0.0
 71
     5
 72
     1
  1
 
  7
CONVERTER_8
 73
     1
 44
1.32052821128451
1001
ACAD
1000
MTEXTBEGIN
1070
    73
1070
     1
1070
    44
1040
1.32052821128451
1070
    74
1070
     0
1000
MTEXTEND
  0
MTEXT
  5
BB1
330
1F
100
AcDbEntity
  8
0
 62
     2
100
AcDbMText
 10
205.5000000000006
 20
-279.9996999999998
 30
0.0
 40
4.0
 41
0.0
 71
     5
 72
     1
  1
 
  7
CONVERTER_8
 73
     1
 44
1.32052821128451
1001
ACAD
1000
MTEXTBEGIN
1070
    73
1070
     1
1070
    44
1040
1.32052821128451
1070
    74
1070
     0
1000
MTEXTEND
  0
MTEXT
  5
BB2
330
1F
100
AcDbEntity
  8
0
 62
     2
100
AcDbMText
 10
92.50020000000002
 20
-267.9996999999998
 30
0.0
 40
6.0
 41
0.0
 71
     5
 72
     1
  1
 
  7
CONVERTER_2
 73
     1
 44
1.32052821128451
1001
ACAD
1000
MTEXTBEGIN
1070
    73
1070
     1
1070
    44
1040
1.32052821128451
1070
    74
1070
     0
1000
MTEXTEND
  0
MTEXT
  5
BB3
330
1F
100
AcDbEntity
  8
0
 62
     2
100
AcDbMText
 10
170.5002
 20
-267.9996999999998
 30
0.0
 40
6.0
 41
0.0
 71
     5
 72
     1
  1
 
  7
CONVERTER_2
 73
     1
 44
1.32052821128451
1001
ACAD
1000
MTEXTBEGIN
1070
    73
1070
     1
1070
    44
1040
1.32052821128451
1070
    74
1070
     0
1000
MTEXTEND
  0
MTEXT
  5
BB4
330
1F
100
AcDbEntity
  8
0
 62
     2
100
AcDbMText
 10
131.5002
 20
-267.9996999999998
 30
0.0
 40
6.0
 41
0.0
 71
     5
 72
     1
  1
 
  7
CONVERTER_2
 73
     1
 44
1.32052821128451
1001
ACAD
1000
MTEXTBEGIN
1070
    73
1070
     1
1070
    44
1040
1.32052821128451
1070
    74
1070
     0
1000
MTEXTEND
  0
MTEXT
  5
BBC
330
1F
100
AcDbEntity
  8
0
 62
     2
100
AcDbMText
 10
205.5000000000006
 20
-255.4997860470252
 30
0.0
 40
4.0
 41
0.0
 71
     5
 72
     1
  1
 
  7
CONVERTER_8
 73
     1
 44
1.32052821128451
1001
ACAD
1000
MTEXTBEGIN
1070
    73
1070
     1
1070
    44
1040
1.32052821128451
1070
    74
1070
     0
1000
MTEXTEND
  0
MTEXT
  5
BBD
330
1F
100
AcDbEntity
  8
0
 62
     2
100
AcDbMText
 10
59.15722816266982
 20
-248.9482291377618
 30
0.0
 40
6.0
 41
0.0
 71
     5
 72
     1
  1
 
  7
CONVERTER_11
 73
     1
 44
1.32052821128451
1001
ACAD
1000
MTEXTBEGIN
1070
    73
1070
     1
1070
    44
1040
1.32052821128451
1070
    74
1070
     0
1000
MTEXTEND
  0
MTEXT
  5
BBE
330
1F
100
AcDbEntity
  8
0
 62
     2
100
AcDbMText
 10
41.35722816266964
 20
-248.9482291377618
 30
0.0
 40
6.0
 41
0.0
 71
     5
 72
     1
  1
 
  7
CONVERTER_11
 73
     1
 44
1.32052821128451
1001
ACAD
1000
MTEXTBEGIN
1070
    73
1070
     1
1070
    44
1040
1.32052821128451
1070
    74
1070
     0
1000
MTEXTEND
  0
TEXT
  5
BD7
330
1F
100
AcDbEntity
  8
0
 62
     2
100
AcDbText
 10
-7.980210767160365
 20
-161.6303994524854
 30
0.0
 40
8.0
  1
ASAPDBT2P300W
 41
0.8009999999999999
  7
CONVERTER_3
100
AcDbText
  0
LINE
  5
E63
330
1F
100
AcDbEntity
  8
0
  6
Continuous
 62
     7
100
AcDbLine
 10
364.9187481167132
 20
-39.14756558851349
 30
0.0
 11
364.9187481167132
 21
-47.24756558851351
 31
0.0
  0
LINE
  5
E64
330
1F
100
AcDbEntity
  8
0
  6
Continuous
 62
     7
100
AcDbLine
 10
364.0187481167132
 20
-39.14756558851349
 30
0.0
 11
364.9187481167132
 21
-39.14756558851349
 31
0.0
  0
LINE
  5
E65
330
1F
100
AcDbEntity
  8
0
  6
Continuous
 62
     7
100
AcDbLine
 10
364.0187481167132
 20
-39.14756558851349
 30
0.0
 11
364.0187481167132
 21
-46.34756558851356
 31
0.0
  0
LINE
  5
E66
330
1F
100
AcDbEntity
  8
0
  6
Continuous
 62
     7
100
AcDbLine
 10
364.0187481167132
 20
-46.34756558851356
 30
0.0
 11
364.0187481167132
 21
-26.16567191209205
 31
0.0
  0
LINE
  5
E67
330
1F
100
AcDbEntity
  8
0
  6
Continuous
 62
     7
100
AcDbLine
 10
362.0678320269186
 20
-46.34756558851356
 30
0.0
 11
364.0187481167132
 21
-46.34756558851356
 31
0.0
  0
LINE
  5
E68
330
1F
100
AcDbEntity
  8
0
  6
Continuous
 62
     7
100
AcDbLine
 10
362.3652795217159
 20
-47.24756558851351
 30
0.0
 11
364.9187481167132
 21
-47.24756558851351
 31
0.0
  0
LINE
  5
E69
330
1F
100
AcDbEntity
  8
0
  6
Continuous
 62
     7
100
AcDbLine
 10
363.1187481167132
 20
-25.26567191209202
 30
0.0
 11
354.4396511161556
 21
-25.26567191209202
 31
0.0
  0
LINE
  5
E6A
330
1F
100
AcDbEntity
  8
0
  6
Continuous
 62
     7
100
AcDbLine
 10
357.1665065551191
 20
-46.34756558851356
 30
0.0
 11
362.0678320269186
 21
-46.34756558851356
 31
0.0
  0
LINE
  5
E6B
330
1F
100
AcDbEntity
  8
0
  6
Continuous
 62
     7
100
AcDbLine
 10
357.2805509057
 20
-47.24756558851351
 30
0.0
 11
362.3652795217159
 21
-47.24756558851351
 31
0.0
  0
LINE
  5
E6C
330
1F
100
AcDbEntity
  8
0
  6
Continuous
 62
     2
100
AcDbLine
 10
234.4707832710065
 20
39.88246003591138
 30
0.0
 11
217.4707832710065
 21
39.88246003591138
 31
0.0
  0
LINE
  5
E6D
330
1F
100
AcDbEntity
  8
0
  6
Continuous
 62
     7
100
AcDbLine
 10
224.4707832710064
 20
-61.79567191209224
 30
0.0
 11
215.9261521251945
 21
-61.79567191209224
 31
0.0
  0
LINE
  5
E6E
330
1F
100
AcDbEntity
  8
0
  6
Continuous
 62
     7
100
AcDbLine
 10
224.4707832710064
 20
-41.03898752290319
 30
0.0
 11
224.4707832710064
 21
-61.79567191209224
 31
0.0
  0
LINE
  5
E6F
330
1F
100
AcDbEntity
  8
0
  6
Continuous
 62
     7
100
AcDbLine
 10
224.4707832710064
 20
-64.79567191209224
 30
0.0
 11
224.4707832710064
 21
-85.87938044239683
 31
0.0
  0
LINE
  5
E8C
330
1F
100
AcDbEntity
  8
60
  6
Continuous
 62
     7
100
AcDbLine
 10
268.2709832710056
 20
-27.58860258457713
 30
0.0
 11
268.2709832710056
 21
-39.82927191209234
 31
0.0
  0
LINE
  5
E8D
330
1F
100
AcDbEntity
  8
0
  6
Continuous
 62
     7
100
AcDbLine
 10
253.7707832710065
 20
-59.79567191209321
 30
0.0
 11
253.7707832710065
 21
-23.95104076628033
 31
0.0
  0
LINE
  5
E8E
330
1F
100
AcDbEntity
  8
0
  6
Continuous
 62
     7
100
AcDbLine
 10
251.7707832710065
 20
-61.79567191209321
 30
0.0
 11
224.4707832710064
 21
-61.79567191209224
 31
0.0
  0
LINE
  5
E8F
330
1F
100
AcDbEntity
  8
0
  6
Continuous
 62
     7
100
AcDbLine
 10
257.4628142926849
 20
-9.639174796347276
 30
0.0
 11
257.0385502239733
 21
-10.06343886505894
 31
0.0
  0
LINE
  5
E90
330
1F
100
AcDbEntity
  8
0
  6
Continuous
 62
     7
100
AcDbLine
 10
253.9272803867525
 20
-10.48770293377055
 30
0.0
 11
253.5030163180408
 21
-10.06343886505894
 31
0.0
  0
LINE
  5
E91
330
1F
100
AcDbEntity
  8
0
  6
Continuous
 62
     7
100
AcDbLine
 10
253.0787522493282
 20
-6.952169027838124
 30
0.0
 11
253.9272803867525
 21
-6.103640890413942
 31
0.0
  0
LINE
  5
E92
330
1F
100
AcDbEntity
  8
0
  6
Continuous
 62
     7
100
AcDbLine
 10
256.8264181896174
 20
-9.002778693278912
 30
0.0
 11
257.4628142926849
 21
-9.639174796347276
 31
0.0
  0
LINE
  5
E93
330
1F
100
AcDbEntity
  8
0
  6
Continuous
 62
     7
100
AcDbLine
 10
254.5636764898199
 20
-9.851306830703094
 30
0.0
 11
253.9272803867525
 21
-10.48770293377055
 31
0.0
  0
LINE
  5
E94
330
1F
100
AcDbEntity
  8
0
  6
Continuous
 62
     7
100
AcDbLine
 10
253.7151483523967
 20
-7.588565130906516
 30
0.0
 11
253.0787522493282
 21
-6.952169027838124
 31
0.0
  0
LINE
  5
E95
330
1F
100
AcDbEntity
  8
0
  6
Continuous
 62
     7
100
AcDbLine
 10
257.4628142926849
 20
-6.952169027838124
 30
0.0
 11
256.8264181896174
 21
-7.588565130906516
 31
0.0
  0
LINE
  5
E96
330
1F
100
AcDbEntity
  8
0
  6
Continuous
 62
     7
100
AcDbLine
 10
256.6142861552616
 20
-10.48770293377055
 30
0.0
 11
255.9778900521933
 21
-9.851306830703094
 31
0.0
  0
LINE
  5
E97
330
1F
100
AcDbEntity
  8
0
  6
Continuous
 62
     7
100
AcDbLine
 10
253.0787522493282
 20
-9.639174796347276
 30
0.0
 11
253.7151483523967
 21
-9.002778693278912
 31
0.0
  0
LINE
  5
E98
330
1F
100
AcDbEntity
  8
0
  6
Continuous
 62
     7
100
AcDbLine
 10
257.0385502239733
 20
-10.06343886505894
 30
0.0
 11
256.6142861552616
 21
-10.48770293377055
 31
0.0
  0
LINE
  5
E99
330
1F
100
AcDbEntity
  8
0
  6
Continuous
 62
     7
100
AcDbLine
 10
253.5030163180408
 20
-10.06343886505894
 30
0.0
 11
253.0787522493282
 21
-9.639174796347276
 31
0.0
  0
LINE
  5
E9A
330
1F
100
AcDbEntity
  8
0
  6
Continuous
 62
     7
100
AcDbLine
 10
256.6142861552616
 20
-6.103640890413942
 30
0.0
 11
257.4628142926849
 21
-6.952169027838124
 31
0.0
  0
LINE
  5
E9B
330
1F
100
AcDbEntity
  8
0
  6
Continuous
 62
     7
100
AcDbLine
 10
255.9778900521933
 20
-6.740036993482306
 30
0.0
 11
256.6142861552616
 21
-6.103640890413942
 31
0.0
  0
LINE
  5
E9C
330
1F
100
AcDbEntity
  8
0
  6
Continuous
 62
     7
100
AcDbLine
 10
253.9272803867525
 20
-6.103640890413942
 30
0.0
 11
254.5636764898199
 21
-6.740036993482306
 31
0.0
  0
LINE
  5
E9D
330
1F
100
AcDbEntity
  8
0
  6
Continuous
 62
     7
100
AcDbLine
 10
201.6142861552616
 20
-61.10364089041394
 30
0.0
 11
202.0385502239733
 21
-61.52790495912654
 31
0.0
  0
LINE
  5
E9E
330
1F
100
AcDbEntity
  8
0
  6
Continuous
 62
     7
100
AcDbLine
 10
202.4628142926849
 20
-64.6391747963473
 30
0.0
 11
202.0385502239733
 21
-65.06343886505894
 31
0.0
  0
LINE
  5
E9F
330
1F
100
AcDbEntity
  8
0
  6
Continuous
 62
     7
100
AcDbLine
 10
198.9272803867525
 20
-65.48770293377052
 30
0.0
 11
198.0787522493283
 21
-64.6391747963473
 31
0.0
  0
LINE
  5
EA0
330
1F
100
AcDbEntity
  8
0
  6
Continuous
 62
     7
100
AcDbLine
 10
200.9778900521932
 20
-61.7400369934823
 30
0.0
 11
201.6142861552616
 21
-61.10364089041394
 31
0.0
  0
LINE
  5
EA1
330
1F
100
AcDbEntity
  8
0
  6
Continuous
 62
     7
100
AcDbLine
 10
201.8264181896173
 20
-64.00277869327891
 30
0.0
 11
202.4628142926849
 21
-64.6391747963473
 31
0.0
  0
LINE
  5
EA2
330
1F
100
AcDbEntity
  8
0
  6
Continuous
 62
     7
100
AcDbLine
 10
199.5636764898208
 20
-64.85130683070313
 30
0.0
 11
198.9272803867525
 21
-65.48770293377052
 31
0.0
  0
LINE
  5
EA3
330
1F
100
AcDbEntity
  8
0
  6
Continuous
 62
     7
100
AcDbLine
 10
198.9272803867525
 20
-61.10364089041394
 30
0.0
 11
199.5636764898208
 21
-61.7400369934823
 31
0.0
  0
LINE
  5
EA4
330
1F
100
AcDbEntity
  8
0
  6
Continuous
 62
     7
100
AcDbLine
 10
202.4628142926849
 20
-61.95216902783812
 30
0.0
 11
201.8264181896173
 21
-62.58856513090652
 31
0.0
  0
LINE
  5
EA5
330
1F
100
AcDbEntity
  8
0
  6
Continuous
 62
     7
100
AcDbLine
 10
201.6142861552616
 20
-65.48770293377052
 30
0.0
 11
200.9778900521932
 21
-64.85130683070313
 31
0.0
  0
LINE
  5
EA6
330
1F
100
AcDbEntity
  8
0
  6
Continuous
 62
     7
100
AcDbLine
 10
202.0385502239733
 20
-61.52790495912654
 30
0.0
 11
202.4628142926849
 21
-61.95216902783812
 31
0.0
  0
LINE
  5
EA7
330
1F
100
AcDbEntity
  8
0
  6
Continuous
 62
     7
100
AcDbLine
 10
202.0385502239733
 20
-65.06343886505894
 30
0.0
 11
201.6142861552616
 21
-65.48770293377052
 31
0.0
  0
LINE
  5
EA8
330
1F
100
AcDbEntity
  8
0
  6
Continuous
 62
     7
100
AcDbLine
 10
198.0787522493283
 20
-61.95216902783812
 30
0.0
 11
198.9272803867525
 21
-61.10364089041394
 31
0.0
  0
LINE
  5
EA9
330
1F
100
AcDbEntity
  8
0
  6
Continuous
 62
     7
100
AcDbLine
 10
198.7151483523967
 20
-62.58856513090652
 30
0.0
 11
198.0787522493283
 21
-61.95216902783812
 31
0.0
  0
LINE
  5
EAA
330
1F
100
AcDbEntity
  8
0
  6
Continuous
 62
     7
100
AcDbLine
 10
198.0787522493283
 20
-64.6391747963473
 30
0.0
 11
198.7151483523967
 21
-64.00277869327891
 31
0.0
  0
LINE
  5
EAB
330
1F
100
AcDbEntity
  8
0
  6
Continuous
 62
     7
100
AcDbLine
 10
253.0787522493282
 20
-116.9521690278382
 30
0.0
 11
253.5030163180399
 21
-116.5279049591265
 31
0.0
  0
LINE
  5
EAC
330
1F
100
AcDbEntity
  8
0
  6
Continuous
 62
     7
100
AcDbLine
 10
256.6142861552616
 20
-116.1036408904139
 30
0.0
 11
257.0385502239733
 21
-116.5279049591265
 31
0.0
  0
LINE
  5
EAD
330
1F
100
AcDbEntity
  8
0
  6
Continuous
 62
     7
100
AcDbLine
 10
257.4628142926849
 20
-119.6391747963472
 30
0.0
 11
256.6142861552616
 21
-120.4877029337705
 31
0.0
  0
LINE
  5
EAE
330
1F
100
AcDbEntity
  8
0
  6
Continuous
 62
     7
100
AcDbLine
 10
253.7151483523967
 20
-117.5885651309065
 30
0.0
 11
253.0787522493282
 21
-116.9521690278382
 31
0.0
  0
LINE
  5
EAF
330
1F
100
AcDbEntity
  8
0
  6
Continuous
 62
     7
100
AcDbLine
 10
255.9778900521933
 20
-116.7400369934824
 30
0.0
 11
256.6142861552616
 21
-116.1036408904139
 31
0.0
  0
LINE
  5
EB0
330
1F
100
AcDbEntity
  8
0
  6
Continuous
 62
     7
100
AcDbLine
 10
256.8264181896174
 20
-119.0027786932789
 30
0.0
 11
257.4628142926849
 21
-119.6391747963472
 31
0.0
  0
LINE
  5
EB1
330
1F
100
AcDbEntity
  8
0
  6
Continuous
 62
     7
100
AcDbLine
 10
253.0787522493282
 20
-119.6391747963472
 30
0.0
 11
253.7151483523967
 21
-119.0027786932789
 31
0.0
  0
LINE
  5
EB2
330
1F
100
AcDbEntity
  8
0
  6
Continuous
 62
     7
100
AcDbLine
 10
253.9272803867525
 20
-116.1036408904139
 30
0.0
 11
254.5636764898208
 21
-116.7400369934824
 31
0.0
  0
LINE
  5
EB3
330
1F
100
AcDbEntity
  8
0
  6
Continuous
 62
     7
100
AcDbLine
 10
257.4628142926849
 20
-116.9521690278382
 30
0.0
 11
256.8264181896174
 21
-117.5885651309065
 31
0.0
  0
LINE
  5
EB4
330
1F
100
AcDbEntity
  8
0
  6
Continuous
 62
     7
100
AcDbLine
 10
253.5030163180399
 20
-116.5279049591265
 30
0.0
 11
253.9272803867525
 21
-116.1036408904139
 31
0.0
  0
LINE
  5
EB5
330
1F
100
AcDbEntity
  8
0
  6
Continuous
 62
     7
100
AcDbLine
 10
257.0385502239733
 20
-116.5279049591265
 30
0.0
 11
257.4628142926849
 21
-116.9521690278382
 31
0.0
  0
LINE
  5
EB6
330
1F
100
AcDbEntity
  8
0
  6
Continuous
 62
     7
100
AcDbLine
 10
253.9272803867525
 20
-120.4877029337705
 30
0.0
 11
253.0787522493282
 21
-119.6391747963472
 31
0.0
  0
LINE
  5
EB7
330
1F
100
AcDbEntity
  8
0
  6
Continuous
 62
     7
100
AcDbLine
 10
254.5636764898208
 20
-119.851306830703
 30
0.0
 11
253.9272803867525
 21
-120.4877029337705
 31
0.0
  0
LINE
  5
EB8
330
1F
100
AcDbEntity
  8
0
  6
Continuous
 62
     7
100
AcDbLine
 10
256.6142861552616
 20
-120.4877029337705
 30
0.0
 11
255.9778900521933
 21
-119.851306830703
 31
0.0
  0
LINE
  5
EB9
330
1F
100
AcDbEntity
  8
0
  6
Continuous
 62
     7
100
AcDbLine
 10
308.9272803867525
 20
-65.48770293377052
 30
0.0
 11
308.5030163180408
 21
-65.06343886505894
 31
0.0
  0
LINE
  5
EBA
330
1F
100
AcDbEntity
  8
0
  6
Continuous
 62
     7
100
AcDbLine
 10
308.0787522493283
 20
-61.95216902783812
 30
0.0
 11
308.5030163180408
 21
-61.52790495912654
 31
0.0
  0
LINE
  5
EBB
330
1F
100
AcDbEntity
  8
0
  6
Continuous
 62
     7
100
AcDbLine
 10
311.6142861552616
 20
-61.10364089041394
 30
0.0
 11
312.4628142926849
 21
-61.95216902783812
 31
0.0
  0
LINE
  5
EBC
330
1F
100
AcDbEntity
  8
0
  6
Continuous
 62
     7
100
AcDbLine
 10
309.5636764898199
 20
-64.85130683070313
 30
0.0
 11
308.9272803867525
 21
-65.48770293377052
 31
0.0
  0
LINE
  5
EBD
330
1F
100
AcDbEntity
  8
0
  6
Continuous
 62
     7
100
AcDbLine
 10
308.7151483523967
 20
-62.58856513090652
 30
0.0
 11
308.0787522493283
 21
-61.95216902783812
 31
0.0
  0
LINE
  5
EBE
330
1F
100
AcDbEntity
  8
0
  6
Continuous
 62
     7
100
AcDbLine
 10
310.9778900521933
 20
-61.7400369934823
 30
0.0
 11
311.6142861552616
 21
-61.10364089041394
 31
0.0
  0
LINE
  5
EBF
330
1F
100
AcDbEntity
  8
0
  6
Continuous
 62
     7
100
AcDbLine
 10
311.6142861552616
 20
-65.48770293377052
 30
0.0
 11
310.9778900521933
 21
-64.85130683070313
 31
0.0
  0
LINE
  5
EC0
330
1F
100
AcDbEntity
  8
0
  6
Continuous
 62
     7
100
AcDbLine
 10
308.0787522493283
 20
-64.6391747963473
 30
0.0
 11
308.7151483523967
 21
-64.00277869327891
 31
0.0
  0
LINE
  5
EC1
330
1F
100
AcDbEntity
  8
0
  6
Continuous
 62
     7
100
AcDbLine
 10
308.9272803867525
 20
-61.10364089041394
 30
0.0
 11
309.5636764898199
 21
-61.7400369934823
 31
0.0
  0
LINE
  5
EC2
330
1F
100
AcDbEntity
  8
0
  6
Continuous
 62
     7
100
AcDbLine
 10
308.5030163180408
 20
-65.06343886505894
 30
0.0
 11
308.0787522493283
 21
-64.6391747963473
 31
0.0
  0
LINE
  5
EC3
330
1F
100
AcDbEntity
  8
0
  6
Continuous
 62
     7
100
AcDbLine
 10
308.5030163180408
 20
-61.52790495912654
 30
0.0
 11
308.9272803867525
 21
-61.10364089041394
 31
0.0
  0
LINE
  5
EC4
330
1F
100
AcDbEntity
  8
0
  6
Continuous
 62
     7
100
AcDbLine
 10
312.4628142926849
 20
-64.6391747963473
 30
0.0
 11
311.6142861552616
 21
-65.48770293377052
 31
0.0
  0
LINE
  5
EC5
330
1F
100
AcDbEntity
  8
0
  6
Continuous
 62
     7
100
AcDbLine
 10
311.8264181896175
 20
-64.00277869327891
 30
0.0
 11
312.4628142926849
 21
-64.6391747963473
 31
0.0
  0
LINE
  5
EC6
330
1F
100
AcDbEntity
  8
0
  6
Continuous
 62
     7
100
AcDbLine
 10
312.4628142926849
 20
-61.95216902783812
 30
0.0
 11
311.8264181896175
 21
-62.58856513090652
 31
0.0
  0
LINE
  5
EC7
330
1F
100
AcDbEntity
  8
0
  6
Continuous
 62
     7
100
AcDbLine
 10
251.7707832710065
 20
-64.79567191209224
 30
0.0
 11
215.9261521251945
 21
-64.79567191209224
 31
0.0
  0
LINE
  5
EC8
330
1F
100
AcDbEntity
  8
0
  6
Continuous
 62
     7
100
AcDbLine
 10
253.7707832710065
 20
-66.79567191209224
 30
0.0
 11
253.7707832710065
 21
-102.6403030579041
 31
0.0
  0
LINE
  5
EC9
330
1F
100
AcDbEntity
  8
0
  6
Continuous
 62
     7
100
AcDbLine
 10
256.7707832710066
 20
-66.79567191209224
 30
0.0
 11
256.7707832710066
 21
-102.6403030579041
 31
0.0
  0
LINE
  5
ECA
330
1F
100
AcDbEntity
  8
0
  6
Continuous
 62
     7
100
AcDbLine
 10
258.7707832710066
 20
-64.79567191209224
 30
0.0
 11
294.6154144168184
 21
-64.79567191209224
 31
0.0
  0
LINE
  5
ECB
330
1F
100
AcDbEntity
  8
0
  6
Continuous
 62
     7
100
AcDbLine
 10
258.7707832710066
 20
-61.79567191209224
 30
0.0
 11
294.6154144168184
 21
-61.79567191209224
 31
0.0
  0
LINE
  5
ECC
330
1F
100
AcDbEntity
  8
0
  6
Continuous
 62
     7
100
AcDbLine
 10
256.7707832710066
 20
-59.79567191209224
 30
0.0
 11
256.7707832710066
 21
-23.95104076628033
 31
0.0
  0
LINE
  5
ECE
330
1F
100
AcDbEntity
  8
0
  6
Continuous
 62
     7
100
AcDbLine
 10
276.2707832710066
 20
113.9152561757408
 30
0.0
 11
276.2707832710066
 21
94.93199879068175
 31
0.0
  0
LINE
  5
ED1
330
1F
100
AcDbEntity
  8
0
  6
Continuous
 62
     7
100
AcDbLine
 10
276.2707832710066
 20
124.9784166411381
 30
0.0
 11
276.2707832710066
 21
113.9152561757408
 31
0.0
  0
LINE
  5
ED2
330
1F
100
AcDbEntity
  8
0
  6
Continuous
 62
     7
100
AcDbLine
 10
224.4707832710066
 20
208.7043280879079
 30
0.0
 11
224.4707832710065
 21
-6.056175058957848
 31
0.0
  0
LINE
  5
ED3
330
1F
100
AcDbEntity
  8
0
  6
Continuous
 62
     7
100
AcDbLine
 10
234.4707832710065
 20
-1.713531643991927
 30
0.0
 11
234.4707832710065
 21
61.52619613990424
 31
0.0
  0
LINE
  5
ED4
330
1F
100
AcDbEntity
  8
0
  6
Continuous
 62
     7
100
AcDbLine
 10
224.4707832710066
 20
208.7043280879079
 30
0.0
 11
232.9707832710066
 21
208.7043280879079
 31
0.0
  0
LINE
  5
ED5
330
1F
100
AcDbEntity
  8
0
  6
Continuous
 62
     7
100
AcDbLine
 10
234.4707832710066
 20
205.7043280879079
 30
0.0
 11
261.2707832710066
 21
205.7043280879079
 31
0.0
  0
LINE
  5
ED6
330
1F
100
AcDbEntity
  8
0
  6
Continuous
 62
     7
100
AcDbLine
 10
234.4707832710066
 20
205.7043280879079
 30
0.0
 11
234.4707832710066
 21
207.2043280879079
 31
0.0
  0
LINE
  5
ED7
330
1F
100
AcDbEntity
  8
0
  6
Continuous
 62
     7
100
AcDbLine
 10
276.2707832710066
 20
190.7043280879079
 30
0.0
 11
276.2707832710066
 21
124.9784166411381
 31
0.0
  0
LINE
  5
ED8
330
1F
100
AcDbEntity
  8
0
  6
Continuous
 62
     7
100
AcDbLine
 10
132.2707832710066
 20
125.7043280879078
 30
0.0
 11
132.2707832710065
 21
50.70432808790781
 31
0.0
  0
LINE
  5
ED9
330
1F
100
AcDbEntity
  8
0
  6
Continuous
 62
     7
100
AcDbLine
 10
132.2707832710066
 20
125.7043280879078
 30
0.0
 11
147.4707832710065
 21
125.7043280879078
 31
0.0
  0
LINE
  5
EDA
330
1F
100
AcDbEntity
  8
0
  6
Continuous
 62
     7
100
AcDbLine
 10
150.2707832710066
 20
128.7043280879077
 30
0.0
 11
150.2707832710066
 21
195.7043280879079
 31
0.0
  0
LINE
  5
EDB
330
1F
100
AcDbEntity
  8
0
  6
Continuous
 62
     7
100
AcDbLine
 10
218.9707832710066
 20
208.7043280879079
 30
0.0
 11
224.4707832710066
 21
208.7043280879079
 31
0.0
  0
LINE
  5
EDC
330
1F
100
AcDbEntity
  8
0
  6
Continuous
 62
     7
100
AcDbLine
 10
217.4707832710066
 20
207.2043280879079
 30
0.0
 11
217.4707832710065
 21
61.52619613990424
 31
0.0
  0
LINE
  5
EDD
330
1F
100
AcDbEntity
  8
0
  6
Continuous
 62
     7
100
AcDbLine
 10
150.2707832710066
 20
128.7043280879077
 30
0.0
 11
150.2707832710065
 21
50.70432808790781
 31
0.0
  0
LINE
  5
EDE
330
1F
100
AcDbEntity
  8
0
  6
Continuous
 62
     7
100
AcDbLine
 10
128.2707832710066
 20
125.7043280879078
 30
0.0
 11
132.2707832710066
 21
125.7043280879078
 31
0.0
  0
LINE
  5
EDF
330
1F
100
AcDbEntity
  8
0
  6
Continuous
 62
     7
100
AcDbLine
 10
132.2707832710065
 20
50.70432808790781
 30
0.0
 11
132.2707832710066
 21
-24.29567191209219
 31
0.0
  0
LINE
  5
EE0
330
1F
100
AcDbEntity
  8
0
  6
Continuous
 62
     7
100
AcDbLine
 10
147.4707832710065
 20
-24.2956719120922
 30
0.0
 11
132.2707832710066
 21
-24.29567191209219
 31
0.0
  0
LINE
  5
EE1
330
1F
100
AcDbEntity
  8
0
  6
Continuous
 62
     7
100
AcDbLine
 10
150.2707832710065
 20
50.70432808790781
 30
0.0
 11
150.2707832710066
 21
-27.29567191209219
 31
0.0
  0
LINE
  5
EE2
330
1F
100
AcDbEntity
  8
0
  6
Continuous
 62
     7
100
AcDbLine
 10
132.2707832710066
 20
-24.29567191209219
 30
0.0
 11
128.2707832710066
 21
-24.29567191209219
 31
0.0
  0
LINE
  5
EE3
330
1F
100
AcDbEntity
  8
0
  6
Continuous
 62
     7
100
AcDbLine
 10
150.2707832710066
 20
-94.29567191209219
 30
0.0
 11
150.2707832710066
 21
-27.29567191209219
 31
0.0
  0
LINE
  5
EE4
330
1F
100
AcDbEntity
  8
0
  6
Continuous
 62
     7
100
AcDbLine
 10
150.2707832710066
 20
-94.29567191209219
 30
0.0
 11
150.2707832710066
 21
-27.29567191209219
 31
0.0
  0
LINE
  5
EE5
330
1F
100
AcDbEntity
  8
0
  6
DASH_CENTER
 62
     2
100
AcDbLine
 10
89.68850385612281
 20
50.70432808790781
 30
0.0
 11
408.7707832710067
 21
50.70432808790781
 31
0.0
  0
LINE
  5
EE7
330
1F
100
AcDbEntity
  8
0
  6
Continuous
 62
     7
100
AcDbLine
 10
215.9707832710065
 20
55.95432808790775
 30
0.0
 11
213.8052832710064
 21
55.76492808790778
 31
0.0
  0
LINE
  5
EE8
330
1F
100
AcDbEntity
  8
0
  6
Continuous
 62
     7
100
AcDbLine
 10
215.9707832710065
 20
56.80442808790792
 30
0.0
 11
217.4707832710065
 21
56.80442808790792
 31
0.0
  0
LINE
  5
EE9
330
1F
100
AcDbEntity
  8
0
  6
Continuous
 62
     7
100
AcDbLine
 10
215.9707832710065
 20
50.70432808790781
 30
0.0
 11
217.4707832710065
 21
51.10622808790783
 31
0.0
  0
LINE
  5
EEA
330
1F
100
AcDbEntity
  8
0
  6
Continuous
 62
     7
100
AcDbLine
 10
215.9707832710065
 20
50.70432808790781
 30
0.0
 11
215.9707832710065
 21
56.80442808790792
 31
0.0
  0
LINE
  5
EEB
330
1F
100
AcDbEntity
  8
0
  6
Continuous
 62
     7
100
AcDbLine
 10
217.4707832710065
 20
51.10622808790783
 30
0.0
 11
217.4707832710065
 21
56.32856970514797
 31
0.0
  0
LINE
  5
EEC
330
1F
100
AcDbEntity
  8
0
  6
Continuous
 62
     7
100
AcDbLine
 10
217.4707832710065
 20
56.32856970514797
 30
0.0
 11
217.4707832710065
 21
54.00432808790793
 31
0.0
  0
LINE
  5
EED
330
1F
100
AcDbEntity
  8
0
  6
Continuous
 62
     7
100
AcDbLine
 10
217.4707832710065
 20
56.32856970514797
 30
0.0
 11
217.4707832710065
 21
56.80442808790792
 31
0.0
  0
LINE
  5
EEE
330
1F
100
AcDbEntity
  8
0
  6
Continuous
 62
     2
100
AcDbLine
 10
217.4707832710065
 20
61.52619613990424
 30
0.0
 11
234.4707832710065
 21
61.52619613990424
 31
0.0
  0
LINE
  5
EEF
330
1F
100
AcDbEntity
  8
0
  6
Continuous
 62
     7
100
AcDbLine
 10
217.4707832710065
 20
61.52619613990424
 30
0.0
 11
217.4707832710065
 21
-10.41694272917806
 31
0.0
  0
LINE
  5
EF0
330
1F
100
AcDbEntity
  8
0
  6
Continuous
 62
     7
100
AcDbLine
 10
234.4707832710065
 20
61.52619613990424
 30
0.0
 11
234.4707832710066
 21
205.7043280879079
 31
0.0
  0
LINE
  5
EF1
330
1F
100
AcDbEntity
  8
0
  6
Continuous
 62
     7
100
AcDbLine
 10
217.4707832710066
 20
207.2043280879079
 30
0.0
 11
217.4707832710066
 21
206.7043280879078
 31
0.0
  0
LINE
  5
EF2
330
1F
100
AcDbEntity
  8
0
  6
Continuous
 62
     7
100
AcDbLine
 10
217.4707832710066
 20
198.8654482945074
 30
0.0
 11
217.4707832710066
 21
206.7043280879078
 31
0.0
  0
LINE
  5
EF3
330
1F
100
AcDbEntity
  8
0
  6
Continuous
 62
     7
100
AcDbLine
 10
217.4707832710066
 20
186.242227287531
 30
0.0
 11
217.4707832710066
 21
196.4645689047713
 31
0.0
  0
LINE
  5
EF4
330
1F
100
AcDbEntity
  8
0
  6
Continuous
 62
     7
100
AcDbLine
 10
217.4707832710066
 20
197.8664689047714
 30
0.0
 11
217.4707832710066
 21
195.1664689047714
 31
0.0
  0
LINE
  5
EF5
330
1F
100
AcDbEntity
  8
0
  6
Continuous
 62
     7
100
AcDbLine
 10
213.8052832710065
 20
186.8058689047714
 30
0.0
 11
215.9707832710065
 21
186.6164689047714
 31
0.0
  0
LINE
  5
EF6
330
1F
100
AcDbEntity
  8
0
  6
Continuous
 62
     7
100
AcDbLine
 10
213.8052832710065
 20
196.9269689047711
 30
0.0
 11
215.9707832710065
 21
197.1164689047714
 31
0.0
  0
LINE
  5
EF7
330
1F
100
AcDbEntity
  8
0
  6
Continuous
 62
     7
100
AcDbLine
 10
212.0708832710067
 20
188.6986689047712
 30
0.0
 11
212.0708832710067
 21
195.0341689047714
 31
0.0
  0
LINE
  5
EF8
330
1F
100
AcDbEntity
  8
0
  6
Continuous
 62
     7
100
AcDbLine
 10
215.9707832710065
 20
186.6164689047714
 30
0.0
 11
215.9707832710065
 21
197.1164689047714
 31
0.0
  0
LINE
  5
EF9
330
1F
100
AcDbEntity
  8
0
  6
Continuous
 62
     7
100
AcDbLine
 10
217.4707832710066
 20
197.9663689047713
 30
0.0
 11
215.9707832710065
 21
197.9663689047713
 31
0.0
  0
LINE
  5
EFA
330
1F
100
AcDbEntity
  8
0
  6
Continuous
 62
     7
100
AcDbLine
 10
217.4707832710066
 20
185.7663689047713
 30
0.0
 11
215.9707832710065
 21
185.7663689047713
 31
0.0
  0
LINE
  5
EFB
330
1F
100
AcDbEntity
  8
0
  6
Continuous
 62
     7
100
AcDbLine
 10
217.4707832710066
 20
191.8664689047714
 30
0.0
 11
215.9707832710065
 21
192.2683689047711
 31
0.0
  0
LINE
  5
EFC
330
1F
100
AcDbEntity
  8
0
  6
Continuous
 62
     7
100
AcDbLine
 10
217.4707832710066
 20
191.4645689047713
 30
0.0
 11
215.9707832710065
 21
191.8664689047714
 31
0.0
  0
LINE
  5
EFD
330
1F
100
AcDbEntity
  8
0
  6
Continuous
 62
     7
100
AcDbLine
 10
215.9707832710065
 20
192.2683689047711
 30
0.0
 11
215.9707832710065
 21
197.9663689047713
 31
0.0
  0
LINE
  5
EFE
330
1F
100
AcDbEntity
  8
0
  6
Continuous
 62
     7
100
AcDbLine
 10
215.9707832710065
 20
185.7663689047713
 30
0.0
 11
215.9707832710065
 21
191.8664689047714
 31
0.0
  0
LINE
  5
EFF
330
1F
100
AcDbEntity
  8
0
  6
Continuous
 62
     7
100
AcDbLine
 10
217.4707832710066
 20
191.8664689047714
 30
0.0
 11
217.4707832710066
 21
197.9663689047713
 31
0.0
  0
LINE
  5
F00
330
1F
100
AcDbEntity
  8
0
  6
Continuous
 62
     7
100
AcDbLine
 10
217.4707832710066
 20
186.242227287531
 30
0.0
 11
217.4707832710066
 21
191.4645689047713
 31
0.0
  0
LINE
  5
F01
330
1F
100
AcDbEntity
  8
0
  6
Continuous
 62
     7
100
AcDbLine
 10
217.4707832710066
 20
188.5664689047711
 30
0.0
 11
217.4707832710066
 21
186.242227287531
 31
0.0
  0
LINE
  5
F02
330
1F
100
AcDbEntity
  8
0
  6
Continuous
 62
     7
100
AcDbLine
 10
217.4707832710066
 20
185.7663689047713
 30
0.0
 11
217.4707832710066
 21
186.242227287531
 31
0.0
  0
LINE
  5
F03
330
1F
100
AcDbEntity
  8
0
  6
Continuous
 62
     7
100
AcDbLine
 10
217.4707832710066
 20
181.5751787424202
 30
0.0
 11
217.4707832710066
 21
197.9663689047713
 31
0.0
  0
LINE
  5
F04
330
1F
100
AcDbEntity
  8
0
  6
Continuous
 62
     7
100
AcDbLine
 10
217.4707832710066
 20
197.9663689047713
 30
0.0
 11
217.4707832710066
 21
198.8654482945074
 31
0.0
  0
LINE
  5
F05
330
1F
100
AcDbEntity
  8
0
  6
Continuous
 62
     7
100
AcDbLine
 10
160.2707832710066
 20
205.7043280879079
 30
0.0
 11
216.4707832710066
 21
205.7043280879078
 31
0.0
  0
LINE
  5
F06
330
1F
100
AcDbEntity
  8
0
  6
Continuous
 62
     2
100
AcDbLine
 10
234.4707832710066
 20
181.5751787424202
 30
0.0
 11
217.4707832710066
 21
181.5751787424202
 31
0.0
  0
LINE
  5
F07
330
1F
100
AcDbEntity
  8
0
  6
Continuous
 62
     2
100
AcDbLine
 10
234.4707832710066
 20
198.8654482945074
 30
0.0
 11
217.4707832710066
 21
198.8654482945074
 31
0.0
  0
LINE
  5
F08
330
1F
100
AcDbEntity
  8
60
  6
Continuous
 62
     7
100
AcDbLine
 10
268.2709832710056
 20
-27.58860258457713
 30
0.0
 11
268.2709832710056
 21
-39.82927191209234
 31
0.0
  0
LINE
  5
F0E
330
1F
100
AcDbEntity
  8
60
  6
Continuous
 62
     7
100
AcDbLine
 10
228.2709832710056
 20
-63.29567191209202
 30
0.0
 11
228.2709832710056
 21
-90.0353577733731
 31
0.0
  0
LINE
  5
F0F
330
1F
100
AcDbEntity
  8
60
  6
Continuous
 62
     7
100
AcDbLine
 10
228.2709832710056
 20
-63.29567191209202
 30
0.0
 11
228.2709832710056
 21
-36.55598605081133
 31
0.0
  0
LINE
  5
F10
330
1F
100
AcDbEntity
  8
0
  6
DASH_CENTER
 62
     2
100
AcDbLine
 10
325.0031524618566
 20
-63.29567191209225
 30
0.0
 11
182.2707832710066
 21
-63.29567191209225
 31
0.0
  0
LINE
  5
F11
330
1F
100
AcDbEntity
  8
0
  6
Continuous
 62
     7
100
AcDbLine
 10
204.8327024193331
 20
-104.2956719120927
 30
0.0
 11
160.2707832710065
 21
-104.2956719120922
 31
0.0
  0
LINE
  5
F13
330
1F
100
AcDbEntity
  8
0
  6
Continuous
 62
     7
100
AcDbLine
 10
212.0708832710066
 20
50.70432808790781
 30
0.0
 11
212.0708832710066
 21
53.87212808790792
 31
0.0
  0
LINE
  5
F14
330
1F
100
AcDbEntity
  8
0
  6
DASH_CENTER
 62
     2
100
AcDbLine
 10
212.0708832710066
 20
50.70432808790781
 30
0.0
 11
217.4707832710065
 21
50.70432808790781
 31
0.0
  0
LINE
  5
F15
330
1F
100
AcDbEntity
  8
0
  6
Continuous
 62
     7
100
AcDbLine
 10
276.2707832710066
 20
50.70432808790781
 30
0.0
 11
276.2707832710066
 21
94.93199879068175
 31
0.0
  0
LINE
  5
F1C
330
1F
100
AcDbEntity
  8
0
  6
DASH_CENTER
 62
     2
100
AcDbLine
 10
255.2707832710066
 20
-140.2956719120922
 30
0.0
 11
255.2707832710066
 21
13.7043280879077
 31
0.0
  0
LINE
  5
F1D
330
1F
100
AcDbEntity
  8
0
  6
Continuous
 62
     7
100
AcDbLine
 10
233.2104511511469
 20
-32.35473225665385
 30
0.0
 11
233.7987629145783
 21
-31.94360113816839
 31
0.0
  0
LINE
  5
F20
330
1F
100
AcDbEntity
  8
0
  6
Continuous
 62
     7
100
AcDbLine
 10
354.2707832710065
 20
-22.29567191209222
 30
0.0
 11
354.2707832710065
 21
-24.14384901855249
 31
0.0
  0
LINE
  5
F21
330
1F
100
AcDbEntity
  8
0
  6
Continuous
 62
     7
100
AcDbLine
 10
386.8632316140504
 20
-20.83725258810125
 30
0.0
 11
354.2707832710065
 21
-21.14472851586584
 31
0.0
  0
LINE
  5
F22
330
1F
100
AcDbEntity
  8
0
  6
Continuous
 62
     7
100
AcDbLine
 10
354.2707832710065
 20
-21.14472851586584
 30
0.0
 11
354.2707832710065
 21
-22.29567191209222
 31
0.0
  0
LINE
  5
F23
330
1F
100
AcDbEntity
  8
0
  6
Continuous
 62
     7
100
AcDbLine
 10
346.2707832710066
 20
122.6288563897945
 30
0.0
 11
386.8632316140504
 21
122.2459087639167
 31
0.0
  0
LINE
  5
F25
330
1F
100
AcDbEntity
  8
0
  6
Continuous
 62
     7
100
AcDbLine
 10
354.2707832710065
 20
-21.14472851586584
 30
0.0
 11
354.2707832710065
 21
-22.29567191209222
 31
0.0
  0
LINE
  5
F26
330
1F
100
AcDbEntity
  8
0
  6
Continuous
 62
     7
100
AcDbLine
 10
406.2707832710065
 20
-0.242516096147682
 30
0.0
 11
406.2707832710065
 21
101.6511722719632
 31
0.0
  0
LINE
  5
F27
330
1F
100
AcDbEntity
  8
0
  6
Continuous
 62
     7
100
AcDbLine
 10
403.7155140848215
 20
-6.919040874041883
 30
0.0
 11
394.21362700304
 21
-17.51422233451413
 31
0.0
  0
LINE
  5
F28
330
1F
100
AcDbEntity
  8
0
  6
Continuous
 62
     7
100
AcDbLine
 10
386.8632316140504
 20
-20.83725258810125
 30
0.0
 11
354.2707832710065
 21
-21.14472851586584
 31
0.0
  0
LINE
  5
F29
330
1F
100
AcDbEntity
  8
0
  6
Continuous
 62
     7
100
AcDbLine
 10
394.21362700304
 20
118.9228785103296
 30
0.0
 11
403.7155140848215
 21
108.3276970498574
 31
0.0
  0
LINE
  5
F2A
330
1F
100
AcDbEntity
  8
0
  6
Continuous
 62
     7
100
AcDbLine
 10
346.2707832710066
 20
122.6288563897945
 30
0.0
 11
306.2707832710066
 21
123.0062148803606
 31
0.0
  0
LINE
  5
F2D
330
1F
100
AcDbEntity
  8
0
  6
Continuous
 62
     7
100
AcDbLine
 10
285.2707832710066
 20
123.2043280879078
 30
0.0
 11
306.2707832710066
 21
123.0062148803606
 31
0.0
  0
LINE
  5
F2E
330
1F
100
AcDbEntity
  8
0
  6
Continuous
 62
     7
100
AcDbLine
 10
285.2707832710066
 20
113.9152561757408
 30
0.0
 11
285.2707832710066
 21
94.93199879068175
 31
0.0
  0
LINE
  5
F2F
330
1F
100
AcDbEntity
  8
0
  6
Continuous
 62
     7
100
AcDbLine
 10
285.2707832710066
 20
113.9152561757408
 30
0.0
 11
285.2707832710066
 21
107.9152561757408
 31
0.0
  0
LINE
  5
F30
330
1F
100
AcDbEntity
  8
0
  6
Continuous
 62
     7
100
AcDbLine
 10
276.2707832710066
 20
124.9784166411381
 30
0.0
 11
276.2707832710066
 21
94.93199879068175
 31
0.0
  0
LINE
  5
F31
330
1F
100
AcDbEntity
  8
0
  6
Continuous
 62
     7
100
AcDbLine
 10
276.2707832710066
 20
124.9784166411381
 30
0.0
 11
284.2707832710066
 21
124.9784166411381
 31
0.0
  0
LINE
  5
F32
330
1F
100
AcDbEntity
  8
0
  6
Continuous
 62
     7
100
AcDbLine
 10
285.2707832710066
 20
94.93199879068175
 30
0.0
 11
285.2707832710066
 21
-5.632858938738735
 31
0.0
  0
LINE
  5
F33
330
1F
100
AcDbEntity
  8
0
  6
Continuous
 62
     2
100
AcDbLine
 10
285.2707832710066
 20
94.93199879068175
 30
0.0
 11
276.2707832710066
 21
94.93199879068175
 31
0.0
  0
LINE
  5
F34
330
1F
100
AcDbEntity
  8
0
  6
Continuous
 62
     7
100
AcDbLine
 10
285.2707832710066
 20
123.2043280879078
 30
0.0
 11
285.2707832710066
 21
113.9152561757408
 31
0.0
  0
LINE
  5
F35
330
1F
100
AcDbEntity
  8
0
  6
Continuous
 62
     7
100
AcDbLine
 10
285.2707832710066
 20
123.9784166411381
 30
0.0
 11
285.2707832710066
 21
123.2043280879078
 31
0.0
  0
LINE
  5
F36
330
1F
100
AcDbEntity
  8
0
  6
Continuous
 62
     7
100
AcDbLine
 10
285.2707832710066
 20
112.5133561757408
 30
0.0
 11
285.2707832710066
 21
102.2910145585007
 31
0.0
  0
LINE
  5
F37
330
1F
100
AcDbEntity
  8
0
  6
Continuous
 62
     7
100
AcDbLine
 10
285.2707832710066
 20
111.2152561757408
 30
0.0
 11
285.2707832710066
 21
113.9152561757408
 31
0.0
  0
LINE
  5
F38
330
1F
100
AcDbEntity
  8
0
  6
Continuous
 62
     7
100
AcDbLine
 10
285.2707832710066
 20
100.9008897843488
 30
0.0
 11
285.2707832710066
 21
102.2910145585007
 31
0.0
  0
LINE
  5
F39
330
1F
100
AcDbEntity
  8
0
  6
CENTER_DASH_DASH
 62
   171
100
AcDbLine
 10
285.3862372254096
 20
100.9152561757408
 30
0.0
 11
285.3862372254096
 21
100.8989970965707
 31
0.0
  0
LINE
  5
F3A
330
1F
100
AcDbEntity
  8
0
  6
Continuous
 62
     7
100
AcDbLine
 10
286.7707832710065
 20
102.6652561757408
 30
0.0
 11
288.9362832710067
 21
102.8546561757408
 31
0.0
  0
LINE
  5
F3B
330
1F
100
AcDbEntity
  8
0
  6
Continuous
 62
     7
100
AcDbLine
 10
286.7707832710065
 20
113.1652561757408
 30
0.0
 11
288.9362832710067
 21
112.9757561757408
 31
0.0
  0
LINE
  5
F3C
330
1F
100
AcDbEntity
  8
0
  6
Continuous
 62
     7
100
AcDbLine
 10
290.6706832710065
 20
111.0829561757409
 30
0.0
 11
290.6706832710065
 21
104.7474561757407
 31
0.0
  0
LINE
  5
F3D
330
1F
100
AcDbEntity
  8
0
  6
Continuous
 62
     7
100
AcDbLine
 10
286.7707832710065
 20
113.1652561757408
 30
0.0
 11
286.7707832710065
 21
102.6652561757408
 31
0.0
  0
LINE
  5
F3E
330
1F
100
AcDbEntity
  8
0
  6
Continuous
 62
     7
100
AcDbLine
 10
286.7707832710065
 20
114.0151561757408
 30
0.0
 11
285.2707832710066
 21
114.0151561757408
 31
0.0
  0
LINE
  5
F3F
330
1F
100
AcDbEntity
  8
0
  6
Continuous
 62
     7
100
AcDbLine
 10
286.7707832710065
 20
101.8151561757408
 30
0.0
 11
285.2707832710066
 21
101.8151561757408
 31
0.0
  0
LINE
  5
F40
330
1F
100
AcDbEntity
  8
0
  6
Continuous
 62
     7
100
AcDbLine
 10
286.7707832710065
 20
108.3171561757407
 30
0.0
 11
285.2707832710066
 21
107.9152561757408
 31
0.0
  0
LINE
  5
F41
330
1F
100
AcDbEntity
  8
0
  6
Continuous
 62
     7
100
AcDbLine
 10
286.7707832710065
 20
107.9152561757408
 30
0.0
 11
285.2707832710066
 21
107.5133561757408
 31
0.0
  0
LINE
  5
F42
330
1F
100
AcDbEntity
  8
0
  6
Continuous
 62
     7
100
AcDbLine
 10
286.7707832710065
 20
114.0151561757408
 30
0.0
 11
286.7707832710065
 21
108.3171561757407
 31
0.0
  0
LINE
  5
F43
330
1F
100
AcDbEntity
  8
0
  6
Continuous
 62
     7
100
AcDbLine
 10
286.7707832710065
 20
107.9152561757408
 30
0.0
 11
286.7707832710065
 21
101.8151561757408
 31
0.0
  0
LINE
  5
F44
330
1F
100
AcDbEntity
  8
0
  6
Continuous
 62
     7
100
AcDbLine
 10
285.2707832710066
 20
114.0151561757408
 30
0.0
 11
285.2707832710066
 21
113.9152561757408
 31
0.0
  0
LINE
  5
F45
330
1F
100
AcDbEntity
  8
0
  6
Continuous
 62
     7
100
AcDbLine
 10
285.2707832710066
 20
107.5133561757408
 30
0.0
 11
285.2707832710066
 21
102.2910145585007
 31
0.0
  0
LINE
  5
F46
330
1F
100
AcDbEntity
  8
0
  6
Continuous
 62
     7
100
AcDbLine
 10
285.2707832710066
 20
102.2910145585007
 30
0.0
 11
285.2707832710066
 21
104.6152561757408
 31
0.0
  0
LINE
  5
F47
330
1F
100
AcDbEntity
  8
0
  6
Continuous
 62
     7
100
AcDbLine
 10
285.2707832710066
 20
102.2910145585007
 30
0.0
 11
285.2707832710066
 21
101.8151561757408
 31
0.0
  0
LINE
  5
F48
330
1F
100
AcDbEntity
  8
0
  6
Continuous
 62
     7
100
AcDbLine
 10
276.2707832710066
 20
-1.781445915173577
 30
0.0
 11
276.2707832710066
 21
94.93199879068175
 31
0.0
  0
LINE
  5
F49
330
1F
100
AcDbEntity
  8
0
  6
Continuous
 62
     2
100
AcDbLine
 10
285.2707832710066
 20
113.9152561757408
 30
0.0
 11
276.2707832710066
 21
113.9152561757408
 31
0.0
  0
LINE
  5
F52
330
1F
100
AcDbEntity
  8
0
  6
Continuous
 62
     7
100
AcDbLine
 10
362.0080613532632
 20
-83.35569144457384
 30
0.0
 11
379.8972369526985
 21
-86.93714180559082
 31
0.0
  0
LINE
  5
F53
330
1F
100
AcDbEntity
  8
0
  6
Continuous
 62
     7
100
AcDbLine
 10
363.3340033052024
 20
-93.81958334862401
 30
0.0
 11
377.9341702651633
 21
-96.74256730274795
 31
0.0
  0
LINE
  5
F54
330
1F
100
AcDbEntity
  8
0
  6
Continuous
 62
     7
100
AcDbLine
 10
379.2669680255855
 20
-97.00939620124485
 30
0.0
 11
396.8298150973465
 21
-100.5255149086728
 31
0.0
  0
LINE
  5
F55
330
1F
100
AcDbEntity
  8
0
  6
Continuous
 62
     7
100
AcDbLine
 10
396.8298150973465
 20
-100.5255149086728
 30
0.0
 11
397.1242751004767
 21
-99.05470108409884
 31
0.0
  0
LINE
  5
F56
330
1F
100
AcDbEntity
  8
0
  6
Continuous
 62
     7
100
AcDbLine
 10
398.4984217817506
 20
-92.19090323608993
 30
0.0
 11
418.1092727760635
 21
-96.11703661116003
 31
0.0
  0
LINE
  5
F57
330
1F
100
AcDbEntity
  8
0
  6
Continuous
 62
     7
100
AcDbLine
 10
398.4984217817506
 20
-92.19090323608993
 30
0.0
 11
398.7928817848816
 21
-90.72008941151592
 31
0.0
  0
LINE
  5
F58
330
1F
100
AcDbEntity
  8
0
  6
Continuous
 62
     7
100
AcDbLine
 10
418.1092727760635
 20
-96.11703661116003
 30
0.0
 11
418.0111194416873
 21
-96.60730788601695
 31
0.0
  0
LINE
  5
F59
330
1F
100
AcDbEntity
  8
0
  6
Continuous
 62
     7
100
AcDbLine
 10
397.8113484411135
 20
-95.62280216009495
 30
0.0
 11
417.4221994354276
 21
-99.54893553516397
 31
0.0
  0
LINE
  5
F5A
330
1F
100
AcDbEntity
  8
0
  6
Continuous
 62
     7
100
AcDbLine
 10
397.8113484411135
 20
-95.62280216009495
 30
0.0
 11
398.4984217817506
 21
-92.19090323608993
 31
0.0
  0
LINE
  5
F5B
330
1F
100
AcDbEntity
  8
0
  6
Continuous
 62
     7
100
AcDbLine
 10
397.1242751004767
 20
-99.05470108409884
 30
0.0
 11
416.7351260947894
 21
-102.9808344591689
 31
0.0
  0
LINE
  5
F5C
330
1F
100
AcDbEntity
  8
0
  6
Continuous
 62
     7
100
AcDbLine
 10
397.8113484411135
 20
-95.62280216009495
 30
0.0
 11
397.1242751004767
 21
-99.05470108409884
 31
0.0
  0
LINE
  5
F5D
330
1F
100
AcDbEntity
  8
0
  6
Continuous
 62
     7
100
AcDbLine
 10
416.7351260947894
 20
-102.9808344591689
 30
0.0
 11
416.8332794291664
 21
-102.490563184311
 31
0.0
  0
LINE
  5
F5E
330
1F
100
AcDbEntity
  8
0
  6
Continuous
 62
     7
100
AcDbLine
 10
417.3240461010506
 20
-100.0392068100219
 30
0.0
 11
422.2267588496285
 21
-101.0207401537899
 31
0.0
  0
LINE
  5
F5F
330
1F
100
AcDbEntity
  8
0
  6
Continuous
 62
     7
100
AcDbLine
 10
417.3240461010506
 20
-100.0392068100219
 30
0.0
 11
417.4221994354276
 21
-99.54893553516397
 31
0.0
  0
LINE
  5
F60
330
1F
100
AcDbEntity
  8
0
  6
Continuous
 62
     7
100
AcDbLine
 10
416.8332794291664
 20
-102.490563184311
 30
0.0
 11
421.7359921777443
 21
-103.472096528079
 31
0.0
  0
LINE
  5
F61
330
1F
100
AcDbEntity
  8
0
  6
Continuous
 62
     7
100
AcDbLine
 10
416.8332794291664
 20
-102.490563184311
 30
0.0
 11
416.8853711375892
 21
-102.2303675581508
 31
0.0
  0
LINE
  5
F62
330
1F
100
AcDbEntity
  8
0
  6
Continuous
 62
     7
100
AcDbLine
 10
417.5203527698033
 20
-99.05866426030705
 30
0.0
 11
422.4230655183824
 21
-100.0401976040739
 31
0.0
  0
LINE
  5
F63
330
1F
100
AcDbEntity
  8
0
  6
Continuous
 62
     7
100
AcDbLine
 10
417.5203527698033
 20
-99.05866426030705
 30
0.0
 11
417.4221994354276
 21
-99.54893553516397
 31
0.0
  0
LINE
  5
F64
330
1F
100
AcDbEntity
  8
0
  6
Continuous
 62
     7
100
AcDbLine
 10
418.0111194416873
 20
-96.60730788601695
 30
0.0
 11
422.9138321902651
 21
-97.58884122978493
 31
0.0
  0
LINE
  5
F65
330
1F
100
AcDbEntity
  8
0
  6
Continuous
 62
     7
100
AcDbLine
 10
418.0111194416873
 20
-96.60730788601695
 30
0.0
 11
417.9514739175584
 21
-96.90523446528494
 31
0.0
  0
LINE
  5
F66
330
1F
100
AcDbEntity
  8
0
  6
Continuous
 62
     7
100
AcDbLine
 10
417.7217094231633
 20
-98.05289727571205
 30
0.0
 11
422.6244221717426
 21
-99.03443061947994
 31
0.0
  0
LINE
  5
F67
330
1F
100
AcDbEntity
  8
0
  6
Continuous
 62
     7
100
AcDbLine
 10
417.7217094231633
 20
-98.05289727571205
 30
0.0
 11
417.6725611339194
 21
-98.29839066193194
 31
0.0
  0
LINE
  5
F68
330
1F
100
AcDbEntity
  8
0
  6
Continuous
 62
     7
100
AcDbLine
 10
417.8183240138207
 20
-97.57031195314485
 30
0.0
 11
422.7210367623994
 21
-98.55184529691285
 31
0.0
  0
LINE
  5
F69
330
1F
100
AcDbEntity
  8
0
  6
Continuous
 62
     7
100
AcDbLine
 10
417.8183240138207
 20
-97.57031195314485
 30
0.0
 11
417.7698377232925
 21
-97.81249868700491
 31
0.0
  0
LINE
  5
F6A
330
1F
100
AcDbEntity
  8
0
  6
Continuous
 62
     7
100
AcDbLine
 10
417.6303695597194
 20
-98.50913558468882
 30
0.0
 11
422.5330823082974
 21
-99.49066892845685
 31
0.0
  0
LINE
  5
F6B
330
1F
100
AcDbEntity
  8
0
  6
Continuous
 62
     7
100
AcDbLine
 10
417.6303695597194
 20
-98.50913558468882
 30
0.0
 11
417.5767181530482
 21
-98.77712183001783
 31
0.0
  0
LINE
  5
F6C
330
1F
100
AcDbEntity
  8
0
  6
Continuous
 62
     7
100
AcDbLine
 10
417.5203527698033
 20
-99.05866426030705
 30
0.0
 11
422.4230655183824
 21
-100.0401976040739
 31
0.0
  0
LINE
  5
F6D
330
1F
100
AcDbEntity
  8
0
  6
Continuous
 62
     7
100
AcDbLine
 10
417.8183240138207
 20
-97.57031195314485
 30
0.0
 11
422.7210367623994
 21
-98.55184529691285
 31
0.0
  0
LINE
  5
F6E
330
1F
100
AcDbEntity
  8
0
  6
Continuous
 62
     7
100
AcDbLine
 10
417.8674718080452
 20
-97.32482103952694
 30
0.0
 11
422.7701845566237
 21
-98.30635438329494
 31
0.0
  0
LINE
  5
F6F
330
1F
100
AcDbEntity
  8
0
  6
Continuous
 62
     7
100
AcDbLine
 10
417.8674718080452
 20
-97.32482103952694
 30
0.0
 11
417.8183240138207
 21
-97.57031195314485
 31
0.0
  0
LINE
  5
F70
330
1F
100
AcDbEntity
  8
0
  6
Continuous
 62
     7
100
AcDbLine
 10
417.9058815875657
 20
-97.13296600278994
 30
0.0
 11
422.8085943361445
 21
-98.11449934655795
 31
0.0
  0
LINE
  5
F71
330
1F
100
AcDbEntity
  8
0
  6
Continuous
 62
     7
100
AcDbLine
 10
417.9058815875657
 20
-97.13296600278994
 30
0.0
 11
417.8674718080452
 21
-97.32482103952694
 31
0.0
  0
LINE
  5
F72
330
1F
100
AcDbEntity
  8
0
  6
Continuous
 62
     7
100
AcDbLine
 10
417.9514739175584
 20
-96.90523446528494
 30
0.0
 11
422.8541866661363
 21
-97.88676780905184
 31
0.0
  0
LINE
  5
F73
330
1F
100
AcDbEntity
  8
0
  6
Continuous
 62
     7
100
AcDbLine
 10
417.9514739175584
 20
-96.90523446528494
 30
0.0
 11
417.9058815875657
 21
-97.13296600278994
 31
0.0
  0
LINE
  5
F74
330
1F
100
AcDbEntity
  8
0
  6
Continuous
 62
     7
100
AcDbLine
 10
417.7698377232925
 20
-97.81249868700491
 30
0.0
 11
422.6725504718717
 21
-98.79403203077295
 31
0.0
  0
LINE
  5
F75
330
1F
100
AcDbEntity
  8
0
  6
Continuous
 62
     7
100
AcDbLine
 10
417.7698377232925
 20
-97.81249868700491
 30
0.0
 11
417.7217094231633
 21
-98.05289727571205
 31
0.0
  0
LINE
  5
F76
330
1F
100
AcDbEntity
  8
0
  6
Continuous
 62
     7
100
AcDbLine
 10
417.6725611339194
 20
-98.29839066193194
 30
0.0
 11
422.5752738824972
 21
-99.27992400569904
 31
0.0
  0
LINE
  5
F77
330
1F
100
AcDbEntity
  8
0
  6
Continuous
 62
     7
100
AcDbLine
 10
417.6725611339194
 20
-98.29839066193194
 30
0.0
 11
417.6303695597194
 21
-98.50913558468882
 31
0.0
  0
LINE
  5
F78
330
1F
100
AcDbEntity
  8
0
  6
Continuous
 62
     7
100
AcDbLine
 10
417.5767181530482
 20
-98.77712183001783
 30
0.0
 11
422.4794309016275
 21
-99.75865517378494
 31
0.0
  0
LINE
  5
F79
330
1F
100
AcDbEntity
  8
0
  6
Continuous
 62
     7
100
AcDbLine
 10
417.5767181530482
 20
-98.77712183001783
 30
0.0
 11
417.5203527698033
 21
-99.05866426030705
 31
0.0
  0
LINE
  5
F7A
330
1F
100
AcDbEntity
  8
0
  6
Continuous
 62
     7
100
AcDbLine
 10
417.2730420730864
 20
-100.2939695236038
 30
0.0
 11
422.1757548216644
 21
-101.2755028673709
 31
0.0
  0
LINE
  5
F7B
330
1F
100
AcDbEntity
  8
0
  6
Continuous
 62
     7
100
AcDbLine
 10
417.2730420730864
 20
-100.2939695236038
 30
0.0
 11
417.3240461010506
 21
-100.0392068100219
 31
0.0
  0
LINE
  5
F7C
330
1F
100
AcDbEntity
  8
0
  6
Continuous
 62
     7
100
AcDbLine
 10
417.2209948778415
 20
-100.5539428085368
 30
0.0
 11
422.1237076264203
 21
-101.5354761523039
 31
0.0
  0
LINE
  5
F7D
330
1F
100
AcDbEntity
  8
0
  6
Continuous
 62
     7
100
AcDbLine
 10
417.2209948778415
 20
-100.5539428085368
 30
0.0
 11
417.2730420730864
 21
-100.2939695236038
 31
0.0
  0
LINE
  5
F7E
330
1F
100
AcDbEntity
  8
0
  6
Continuous
 62
     7
100
AcDbLine
 10
417.1825887253104
 20
-100.7457797286328
 30
0.0
 11
422.0853014738882
 21
-101.7273130723999
 31
0.0
  0
LINE
  5
F7F
330
1F
100
AcDbEntity
  8
0
  6
Continuous
 62
     7
100
AcDbLine
 10
417.1825887253104
 20
-100.7457797286328
 30
0.0
 11
417.2209948778415
 21
-100.5539428085368
 31
0.0
  0
LINE
  5
F80
330
1F
100
AcDbEntity
  8
0
  6
Continuous
 62
     7
100
AcDbLine
 10
417.1492038295274
 20
-100.9125357081429
 30
0.0
 11
422.0519165781066
 21
-101.8940690519108
 31
0.0
  0
LINE
  5
F81
330
1F
100
AcDbEntity
  8
0
  6
Continuous
 62
     7
100
AcDbLine
 10
417.1492038295274
 20
-100.9125357081429
 30
0.0
 11
417.1825887253104
 21
-100.7457797286328
 31
0.0
  0
LINE
  5
F82
330
1F
100
AcDbEntity
  8
0
  6
Continuous
 62
     7
100
AcDbLine
 10
417.1086436372535
 20
-101.1151319551419
 30
0.0
 11
422.0113563858314
 21
-102.0966652989088
 31
0.0
  0
LINE
  5
F83
330
1F
100
AcDbEntity
  8
0
  6
Continuous
 62
     7
100
AcDbLine
 10
417.1086436372535
 20
-101.1151319551419
 30
0.0
 11
417.1492038295274
 21
-100.9125357081429
 31
0.0
  0
LINE
  5
F84
330
1F
100
AcDbEntity
  8
0
  6
Continuous
 62
     7
100
AcDbLine
 10
417.0641328608696
 20
-101.3374611833959
 30
0.0
 11
421.9668456094474
 21
-102.3189945271629
 31
0.0
  0
LINE
  5
F85
330
1F
100
AcDbEntity
  8
0
  6
Continuous
 62
     7
100
AcDbLine
 10
417.0641328608696
 20
-101.3374611833959
 30
0.0
 11
417.1086436372535
 21
-101.1151319551419
 31
0.0
  0
LINE
  5
F86
330
1F
100
AcDbEntity
  8
0
  6
Continuous
 62
     7
100
AcDbLine
 10
417.0311072739607
 20
-101.5024224320358
 30
0.0
 11
421.9338200225384
 21
-102.4839557758029
 31
0.0
  0
LINE
  5
F87
330
1F
100
AcDbEntity
  8
0
  6
Continuous
 62
     7
100
AcDbLine
 10
417.0311072739607
 20
-101.5024224320358
 30
0.0
 11
417.0641328608696
 21
-101.3374611833959
 31
0.0
  0
LINE
  5
F88
330
1F
100
AcDbEntity
  8
0
  6
Continuous
 62
     7
100
AcDbLine
 10
416.9991596136695
 20
-101.6619994880639
 30
0.0
 11
421.9018723622487
 21
-102.643532831832
 31
0.0
  0
LINE
  5
F89
330
1F
100
AcDbEntity
  8
0
  6
Continuous
 62
     7
100
AcDbLine
 10
416.9991596136695
 20
-101.6619994880639
 30
0.0
 11
417.0311072739607
 21
-101.5024224320358
 31
0.0
  0
LINE
  5
F8A
330
1F
100
AcDbEntity
  8
0
  6
Continuous
 62
     7
100
AcDbLine
 10
416.9657765313824
 20
-101.8287464092539
 30
0.0
 11
421.8684892799602
 21
-102.810279753022
 31
0.0
  0
LINE
  5
F8B
330
1F
100
AcDbEntity
  8
0
  6
Continuous
 62
     7
100
AcDbLine
 10
416.9657765313824
 20
-101.8287464092539
 30
0.0
 11
416.9991596136695
 21
-101.6619994880639
 31
0.0
  0
LINE
  5
F8C
330
1F
100
AcDbEntity
  8
0
  6
Continuous
 62
     7
100
AcDbLine
 10
416.9259331433583
 20
-102.0277622528319
 30
0.0
 11
421.8286458919376
 21
-103.0092955965989
 31
0.0
  0
LINE
  5
F8D
330
1F
100
AcDbEntity
  8
0
  6
Continuous
 62
     7
100
AcDbLine
 10
416.9259331433583
 20
-102.0277622528319
 30
0.0
 11
416.9657765313824
 21
-101.8287464092539
 31
0.0
  0
LINE
  5
F8E
330
1F
100
AcDbEntity
  8
0
  6
Continuous
 62
     7
100
AcDbLine
 10
416.8853711375892
 20
-102.2303675581508
 30
0.0
 11
421.7880838861676
 21
-103.2119009019178
 31
0.0
  0
LINE
  5
F8F
330
1F
100
AcDbEntity
  8
0
  6
Continuous
 62
     7
100
AcDbLine
 10
416.8853711375892
 20
-102.2303675581508
 30
0.0
 11
416.9259331433583
 21
-102.0277622528319
 31
0.0
  0
LINE
  5
F90
330
1F
100
AcDbEntity
  8
0
  6
Continuous
 62
     7
100
AcDbLine
 10
381.2300347131206
 20
-87.203970704088
 30
0.0
 11
398.7928817848816
 21
-90.72008941151592
 31
0.0
  0
LINE
  5
F95
330
1F
100
AcDbEntity
  8
0
  6
Continuous
 62
     7
100
AcDbLine
 10
354.2707832710065
 20
-24.14384901855249
 30
0.0
 11
366.2707832710062
 21
-116.9956719120918
 31
0.0
  0
LINE
  5
F96
330
1F
100
AcDbEntity
  8
0
  6
DASH_CENTER
 62
     2
100
AcDbLine
 10
351.2707832710062
 20
-119.295671912092
 30
0.0
 11
351.2707832710062
 21
-129.2932868622728
 31
0.0
  0
LINE
  5
F97
330
1F
100
AcDbEntity
  8
0
  6
Continuous
 62
     7
100
AcDbLine
 10
351.2707832710062
 20
-119.295671912092
 30
0.0
 11
356.7707832710062
 21
-119.295671912092
 31
0.0
  0
LINE
  5
F98
330
1F
100
AcDbEntity
  8
0
  6
Continuous
 62
     7
100
AcDbLine
 10
366.2707832710062
 20
-119.295671912092
 30
0.0
 11
366.2707832710062
 21
-116.9956719120918
 31
0.0
  0
LINE
  5
F99
330
1F
100
AcDbEntity
  8
0
  6
DASH_CENTER
 62
     2
100
AcDbLine
 10
316.2707832710065
 20
-109.7690738374569
 30
0.0
 11
316.2707832710065
 21
-128.0417347452988
 31
0.0
  0
LINE
  5
F9A
330
1F
100
AcDbEntity
  8
0
  6
DASH_CENTER
 62
     2
100
AcDbLine
 10
351.2707832710062
 20
-109.7690738374561
 30
0.0
 11
351.2707832710062
 21
-119.295671912092
 31
0.0
  0
LINE
  5
F9B
330
1F
100
AcDbEntity
  8
0
  6
DASHED
 62
     2
100
AcDbLine
 10
356.7707832710062
 20
-116.9956719120918
 30
0.0
 11
356.7707832710062
 21
-119.295671912092
 31
0.0
  0
LINE
  5
F9C
330
1F
100
AcDbEntity
  8
0
  6
Continuous
 62
     7
100
AcDbLine
 10
356.7707832710062
 20
-116.9956719120918
 30
0.0
 11
366.2707832710062
 21
-116.9956719120918
 31
0.0
  0
LINE
  5
F9D
330
1F
100
AcDbEntity
  8
0
  6
Continuous
 62
     7
100
AcDbLine
 10
356.7707832710062
 20
-119.295671912092
 30
0.0
 11
366.2707832710062
 21
-119.295671912092
 31
0.0
  0
LINE
  5
F9E
330
1F
100
AcDbEntity
  8
0
  6
DASHED
 62
     2
100
AcDbLine
 10
345.7707832710063
 20
-116.9956719120918
 30
0.0
 11
345.7707832710063
 21
-119.295671912092
 31
0.0
  0
LINE
  5
F9F
330
1F
100
AcDbEntity
  8
0
  6
Continuous
 62
     7
100
AcDbLine
 10
345.7707832710063
 20
-116.9956719120918
 30
0.0
 11
356.7707832710062
 21
-116.9956719120918
 31
0.0
  0
LINE
  5
FA0
330
1F
100
AcDbEntity
  8
0
  6
Continuous
 62
     7
100
AcDbLine
 10
345.7707832710063
 20
-119.295671912092
 30
0.0
 11
351.2707832710062
 21
-119.295671912092
 31
0.0
  0
LINE
  5
FA1
330
1F
100
AcDbEntity
  8
0
  6
DASHED
 62
     2
100
AcDbLine
 10
321.7707832710066
 20
-116.9956719120921
 30
0.0
 11
321.7707832710066
 21
-119.2956719120922
 31
0.0
  0
LINE
  5
FA2
330
1F
100
AcDbEntity
  8
0
  6
DASHED
 62
     2
100
AcDbLine
 10
310.7707832710063
 20
-116.9956719120918
 30
0.0
 11
310.7707832710063
 21
-119.295671912092
 31
0.0
  0
LINE
  5
FA3
330
1F
100
AcDbEntity
  8
0
  6
Continuous
 62
     7
100
AcDbLine
 10
310.7707832710063
 20
-116.9956719120918
 30
0.0
 11
321.7707832710066
 21
-116.9956719120921
 31
0.0
  0
LINE
  5
FA4
330
1F
100
AcDbEntity
  8
0
  6
Continuous
 62
     7
100
AcDbLine
 10
310.7707832710063
 20
-119.295671912092
 30
0.0
 11
321.7707832710066
 21
-119.2956719120922
 31
0.0
  0
LINE
  5
FA5
330
1F
100
AcDbEntity
  8
0
  6
Continuous
 62
     7
100
AcDbLine
 10
291.8946825718735
 20
-116.9956719120918
 30
0.0
 11
345.7707832710063
 21
-116.9956719120918
 31
0.0
  0
LINE
  5
FA6
330
1F
100
AcDbEntity
  8
0
  6
Continuous
 62
     7
100
AcDbLine
 10
288.270783271007
 20
-119.295671912092
 30
0.0
 11
345.7707832710063
 21
-119.295671912092
 31
0.0
  0
LINE
  5
FA7
330
1F
100
AcDbEntity
  8
0
  6
DASHED
 62
     2
100
AcDbLine
 10
290.7707832710066
 20
-116.9956719120921
 30
0.0
 11
290.7707832710066
 21
-119.2956719120922
 31
0.0
  0
LINE
  5
FA8
330
1F
100
AcDbEntity
  8
0
  6
DASHED
 62
     2
100
AcDbLine
 10
286.7707832710065
 20
-116.9956719120918
 30
0.0
 11
286.7707832710065
 21
-119.295671912092
 31
0.0
  0
LINE
  5
FA9
330
1F
100
AcDbEntity
  8
0
  6
DASH_CENTER
 62
     2
100
AcDbLine
 10
281.2707832710066
 20
-101.385858982187
 30
0.0
 11
281.2707832710064
 21
-127.5411138985079
 31
0.0
  0
LINE
  5
FAA
330
1F
100
AcDbEntity
  8
0
  6
DASHED
 62
     2
100
AcDbLine
 10
275.7707832710064
 20
-116.9956719120918
 30
0.0
 11
275.7707832710064
 21
-119.295671912092
 31
0.0
  0
LINE
  5
FAB
330
1F
100
AcDbEntity
  8
0
  6
DASHED
 62
     2
100
AcDbLine
 10
266.2707832710065
 20
-116.9956719120921
 30
0.0
 11
291.8946825718749
 21
-116.995671912091
 31
0.0
  0
LINE
  5
FAC
330
1F
100
AcDbEntity
  8
0
  6
DASHED
 62
     2
100
AcDbLine
 10
266.2707832710065
 20
-116.9956719120921
 30
0.0
 11
266.2707832710065
 21
-119.2956719120922
 31
0.0
  0
LINE
  5
FAD
330
1F
100
AcDbEntity
  8
0
  6
DASHED
 62
     2
100
AcDbLine
 10
266.7707832710066
 20
-116.9956719120921
 30
0.0
 11
266.7707832710066
 21
-119.2956719120922
 31
0.0
  0
LINE
  5
FAE
330
1F
100
AcDbEntity
  8
0
  6
DASHED
 62
     2
100
AcDbLine
 10
288.2707832710103
 20
-119.2956719120901
 30
0.0
 11
266.2707832710065
 21
-119.2956719120922
 31
0.0
  0
LINE
  5
FB2
330
1F
100
AcDbEntity
  8
0
  6
Continuous
 62
     7
100
AcDbLine
 10
285.2707832710066
 20
-0.4064999999256429
 30
0.0
 11
285.2707832710066
 21
-0.8823583826844867
 31
0.0
  0
LINE
  5
FB3
330
1F
100
AcDbEntity
  8
0
  6
Continuous
 62
     7
100
AcDbLine
 10
285.2707832710066
 20
-3.206599999926055
 30
0.0
 11
285.2707832710066
 21
-0.8823583826844867
 31
0.0
  0
LINE
  5
FB4
330
1F
100
AcDbEntity
  8
0
  6
Continuous
 62
     7
100
AcDbLine
 10
285.2707832710066
 20
-0.8823583826844867
 30
0.0
 11
285.2707832710066
 21
-5.632858938738735
 31
0.0
  0
LINE
  5
FB5
330
1F
100
AcDbEntity
  8
0
  6
Continuous
 62
     7
100
AcDbLine
 10
286.7707832710065
 20
-0.4064999999256429
 30
0.0
 11
286.7707832710065
 21
-6.506599999926208
 31
0.0
  0
LINE
  5
FB6
330
1F
100
AcDbEntity
  8
0
  6
Continuous
 62
     7
100
AcDbLine
 10
285.2707832710066
 20
-0.4064999999256429
 30
0.0
 11
286.7707832710065
 21
-0.4064999999256429
 31
0.0
  0
LINE
  5
FB7
330
1F
100
AcDbEntity
  8
0
  6
Continuous
 62
     7
100
AcDbLine
 10
288.9362832710067
 20
-1.445999999925504
 30
0.0
 11
286.7707832710065
 21
-1.256599999926237
 31
0.0
  0
LINE
  5
FB8
330
1F
100
AcDbEntity
  8
0
  6
CENTER_DASH_DASH
 62
   171
100
AcDbLine
 10
285.3862372254107
 20
0.5096590792443863
 30
0.0
 11
285.3862372254107
 21
0.4934000000737911
 31
0.0
  0
LINE
  5
FB9
330
1F
100
AcDbEntity
  8
0
  6
Continuous
 62
     7
100
AcDbLine
 10
285.2707832710066
 20
-0.8823583826844867
 30
0.0
 11
285.2707832710066
 21
0.5077663914660775
 31
0.0
  0
LINE
  5
FBA
330
1F
100
AcDbEntity
  8
0
  6
Continuous
 62
     7
100
AcDbLine
 10
285.2707832710066
 20
-0.8823583826844867
 30
0.0
 11
285.2707832710066
 21
-5.632858938738735
 31
0.0
  0
LINE
  5
FBB
330
1F
100
AcDbEntity
  8
0
  6
Continuous
 62
     7
100
AcDbLine
 10
290.6706832710069
 20
-8.781021771144168
 30
0.0
 11
290.6706832710069
 21
-3.338799999926038
 31
0.0
  0
LINE
  5
FBC
330
1F
100
AcDbEntity
  8
0
  6
Continuous
 62
     7
100
AcDbLine
 10
305.2980622295369
 20
-21.7954145634269
 30
0.0
 11
374.2707832710065
 21
-21.14472851586584
 31
0.0
  0
LINE
  5
FBD
330
1F
100
AcDbEntity
  8
0
  6
Continuous
 62
     7
100
AcDbLine
 10
305.7088641226811
 20
-22.29567191209222
 30
0.0
 11
354.2707832710065
 21
-22.29567191209222
 31
0.0
  0
LINE
  5
FC0
330
1F
100
AcDbEntity
  8
0
  6
Continuous
 62
     7
100
AcDbLine
 10
212.0708832710066
 20
47.53652808790767
 30
0.0
 11
212.0708832710066
 21
50.70432808790781
 31
0.0
  0
LINE
  5
FC1
330
1F
100
AcDbEntity
  8
0
  6
Continuous
 62
     7
100
AcDbLine
 10
217.4707832710065
 20
44.60422808790773
 30
0.0
 11
217.4707832710065
 21
45.08008647066768
 31
0.0
  0
LINE
  5
FC2
330
1F
100
AcDbEntity
  8
0
  6
Continuous
 62
     7
100
AcDbLine
 10
217.4707832710065
 20
47.40432808790766
 30
0.0
 11
217.4707832710065
 21
45.08008647066768
 31
0.0
  0
LINE
  5
FC3
330
1F
100
AcDbEntity
  8
0
  6
Continuous
 62
     7
100
AcDbLine
 10
217.4707832710065
 20
45.08008647066768
 30
0.0
 11
217.4707832710065
 21
50.3024280879078
 31
0.0
  0
LINE
  5
FC4
330
1F
100
AcDbEntity
  8
0
  6
Continuous
 62
     7
100
AcDbLine
 10
215.9707832710065
 20
44.60422808790773
 30
0.0
 11
215.9707832710065
 21
50.70432808790781
 31
0.0
  0
LINE
  5
FC5
330
1F
100
AcDbEntity
  8
0
  6
Continuous
 62
     7
100
AcDbLine
 10
217.4707832710065
 20
44.60422808790773
 30
0.0
 11
215.9707832710065
 21
44.60422808790773
 31
0.0
  0
LINE
  5
FC6
330
1F
100
AcDbEntity
  8
0
  6
Continuous
 62
     7
100
AcDbLine
 10
213.8052832710064
 20
45.64372808790785
 30
0.0
 11
215.9707832710065
 21
45.45432808790784
 31
0.0
  0
LINE
  5
FC7
330
1F
100
AcDbEntity
  8
0
  6
Continuous
 62
     7
100
AcDbLine
 10
215.9707832710065
 20
50.30242808790774
 30
0.0
 11
217.4707832710065
 21
50.70432808790781
 31
0.0
  0
LINE
  5
FC9
330
1F
100
AcDbEntity
  8
0
  6
Continuous
 62
     7
100
AcDbLine
 10
128.2707832710065
 20
46.10622808790759
 30
0.0
 11
128.2707832710065
 21
56.32856970514769
 31
0.0
  0
LINE
  5
FCA
330
1F
100
AcDbEntity
  8
0
  6
Continuous
 62
     7
100
AcDbLine
 10
128.2707832710065
 20
47.40432808790757
 30
0.0
 11
128.2707832710065
 21
44.70432808790772
 31
0.0
  0
LINE
  5
FCB
330
1F
100
AcDbEntity
  8
0
  6
Continuous
 62
     7
100
AcDbLine
 10
126.7707832710065
 20
55.95432808790775
 30
0.0
 11
124.6052832710064
 21
55.76492808790755
 31
0.0
  0
LINE
  5
FCC
330
1F
100
AcDbEntity
  8
0
  6
Continuous
 62
     7
100
AcDbLine
 10
126.7707832710065
 20
45.45432808790775
 30
0.0
 11
124.6052832710064
 21
45.6438280879077
 31
0.0
  0
LINE
  5
FCD
330
1F
100
AcDbEntity
  8
0
  6
Continuous
 62
     7
100
AcDbLine
 10
122.8708832710065
 20
47.53662808790733
 30
0.0
 11
122.8708832710065
 21
53.87212808790741
 31
0.0
  0
LINE
  5
FCE
330
1F
100
AcDbEntity
  8
0
  6
Continuous
 62
     7
100
AcDbLine
 10
126.7707832710065
 20
45.45432808790775
 30
0.0
 11
126.7707832710065
 21
55.95432808790775
 31
0.0
  0
LINE
  5
FCF
330
1F
100
AcDbEntity
  8
0
  6
Continuous
 62
     7
100
AcDbLine
 10
126.7707832710065
 20
44.60442808790756
 30
0.0
 11
128.2707832710065
 21
44.60442808790756
 31
0.0
  0
LINE
  5
FD0
330
1F
100
AcDbEntity
  8
0
  6
Continuous
 62
     7
100
AcDbLine
 10
126.7707832710065
 20
56.80442808790741
 30
0.0
 11
128.2707832710065
 21
56.80442808790741
 31
0.0
  0
LINE
  5
FD1
330
1F
100
AcDbEntity
  8
0
  6
Continuous
 62
     7
100
AcDbLine
 10
126.7707832710065
 20
50.30242808790745
 30
0.0
 11
128.2707832710065
 21
50.70432808790775
 31
0.0
  0
LINE
  5
FD2
330
1F
100
AcDbEntity
  8
0
  6
Continuous
 62
     7
100
AcDbLine
 10
126.7707832710065
 20
50.70432808790775
 30
0.0
 11
128.2707832710065
 21
51.10622808790759
 31
0.0
  0
LINE
  5
FD3
330
1F
100
AcDbEntity
  8
0
  6
Continuous
 62
     7
100
AcDbLine
 10
126.7707832710065
 20
44.60442808790756
 30
0.0
 11
126.7707832710065
 21
50.30242808790745
 31
0.0
  0
LINE
  5
FD4
330
1F
100
AcDbEntity
  8
0
  6
Continuous
 62
     7
100
AcDbLine
 10
126.7707832710065
 20
50.70432808790775
 30
0.0
 11
126.7707832710065
 21
56.80442808790741
 31
0.0
  0
LINE
  5
FD5
330
1F
100
AcDbEntity
  8
0
  6
Continuous
 62
     7
100
AcDbLine
 10
128.2707832710065
 20
44.60442808790756
 30
0.0
 11
128.2707832710065
 21
50.70432808790775
 31
0.0
  0
LINE
  5
FD6
330
1F
100
AcDbEntity
  8
0
  6
Continuous
 62
     7
100
AcDbLine
 10
128.2707832710065
 20
51.10622808790759
 30
0.0
 11
128.2707832710065
 21
56.32856970514769
 31
0.0
  0
LINE
  5
FD7
330
1F
100
AcDbEntity
  8
0
  6
Continuous
 62
     7
100
AcDbLine
 10
128.2707832710065
 20
56.32856970514769
 30
0.0
 11
128.2707832710065
 21
54.00432808790748
 31
0.0
  0
LINE
  5
FD8
330
1F
100
AcDbEntity
  8
0
  6
Continuous
 62
     7
100
AcDbLine
 10
128.2707832710065
 20
56.32856970514769
 30
0.0
 11
128.2707832710065
 21
56.80442808790741
 31
0.0
  0
LINE
  5
FD9
330
1F
100
AcDbEntity
  8
0
  6
Continuous
 62
     7
100
AcDbLine
 10
92.27078327100647
 20
-7.295671912092245
 30
0.0
 11
92.27078327100647
 21
108.7043280879077
 31
0.0
  0
LINE
  5
FDB
330
1F
100
AcDbEntity
  8
0
  6
Continuous
 62
     7
100
AcDbLine
 10
92.27078327100647
 20
108.7043280879077
 30
0.0
 11
92.27078327100647
 21
110.2043280879077
 31
0.0
  0
LINE
  5
FDD
330
1F
100
AcDbEntity
  8
0
  6
Continuous
 62
     7
100
AcDbLine
 10
128.2707832710065
 20
115.0400601570966
 30
0.0
 11
128.2707832710065
 21
125.2624017743367
 31
0.0
  0
LINE
  5
FDE
330
1F
100
AcDbEntity
  8
0
  6
Continuous
 62
     7
100
AcDbLine
 10
128.2707832710065
 20
116.3381601570966
 30
0.0
 11
128.2707832710065
 21
113.6381601570954
 31
0.0
  0
LINE
  5
FDF
330
1F
100
AcDbEntity
  8
0
  6
Continuous
 62
     7
100
AcDbLine
 10
126.7707832710065
 20
124.8881601570954
 30
0.0
 11
124.6052832710064
 21
124.6987601570966
 31
0.0
  0
LINE
  5
FE0
330
1F
100
AcDbEntity
  8
0
  6
Continuous
 62
     7
100
AcDbLine
 10
126.7707832710065
 20
114.3881601570954
 30
0.0
 11
124.6052832710064
 21
114.5776601570963
 31
0.0
  0
LINE
  5
FE1
330
1F
100
AcDbEntity
  8
0
  6
Continuous
 62
     7
100
AcDbLine
 10
122.8708832710065
 20
116.4704601570955
 30
0.0
 11
122.8708832710065
 21
122.8059601570966
 31
0.0
  0
LINE
  5
FE2
330
1F
100
AcDbEntity
  8
0
  6
Continuous
 62
     7
100
AcDbLine
 10
126.7707832710065
 20
114.3881601570954
 30
0.0
 11
126.7707832710065
 21
124.8881601570954
 31
0.0
  0
LINE
  5
FE3
330
1F
100
AcDbEntity
  8
0
  6
Continuous
 62
     7
100
AcDbLine
 10
126.7707832710065
 20
113.5382601570966
 30
0.0
 11
128.2707832710065
 21
113.5382601570966
 31
0.0
  0
LINE
  5
FE4
330
1F
100
AcDbEntity
  8
0
  6
Continuous
 62
     7
100
AcDbLine
 10
126.7707832710065
 20
125.7382601570964
 30
0.0
 11
128.2707832710065
 21
125.7382601570964
 31
0.0
  0
LINE
  5
FE5
330
1F
100
AcDbEntity
  8
0
  6
Continuous
 62
     7
100
AcDbLine
 10
126.7707832710065
 20
119.2362601570965
 30
0.0
 11
128.2707832710065
 21
119.6381601570955
 31
0.0
  0
LINE
  5
FE6
330
1F
100
AcDbEntity
  8
0
  6
Continuous
 62
     7
100
AcDbLine
 10
126.7707832710065
 20
119.6381601570955
 30
0.0
 11
128.2707832710065
 21
120.0400601570966
 31
0.0
  0
LINE
  5
FE7
330
1F
100
AcDbEntity
  8
0
  6
Continuous
 62
     7
100
AcDbLine
 10
126.7707832710065
 20
113.5382601570966
 30
0.0
 11
126.7707832710065
 21
119.2362601570965
 31
0.0
  0
LINE
  5
FE8
330
1F
100
AcDbEntity
  8
0
  6
Continuous
 62
     7
100
AcDbLine
 10
126.7707832710065
 20
119.6381601570955
 30
0.0
 11
126.7707832710065
 21
125.7382601570964
 31
0.0
  0
LINE
  5
FE9
330
1F
100
AcDbEntity
  8
0
  6
Continuous
 62
     7
100
AcDbLine
 10
128.2707832710065
 20
113.5382601570966
 30
0.0
 11
128.2707832710065
 21
119.6381601570955
 31
0.0
  0
LINE
  5
FEA
330
1F
100
AcDbEntity
  8
0
  6
Continuous
 62
     7
100
AcDbLine
 10
128.2707832710065
 20
120.0400601570966
 30
0.0
 11
128.2707832710065
 21
125.2624017743367
 31
0.0
  0
LINE
  5
FEB
330
1F
100
AcDbEntity
  8
0
  6
Continuous
 62
     7
100
AcDbLine
 10
128.2707832710065
 20
125.2624017743367
 30
0.0
 11
128.2707832710065
 21
122.9381601570965
 31
0.0
  0
LINE
  5
FEC
330
1F
100
AcDbEntity
  8
0
  6
Continuous
 62
     7
100
AcDbLine
 10
128.2707832710065
 20
125.2624017743367
 30
0.0
 11
128.2707832710065
 21
125.7382601570964
 31
0.0
  0
LINE
  5
FED
330
1F
100
AcDbEntity
  8
0
  6
Continuous
 62
     7
100
AcDbLine
 10
128.2707832710065
 20
88.86843645108166
 30
0.0
 11
128.2707832710065
 21
99.49469598977959
 31
0.0
  0
LINE
  5
FEE
330
1F
100
AcDbEntity
  8
0
  6
Continuous
 62
     7
100
AcDbLine
 10
128.2707832710066
 20
125.7043280879078
 30
0.0
 11
133.2707832710065
 21
125.7043280879078
 31
0.0
  0
LINE
  5
FEF
330
1F
100
AcDbEntity
  8
0
  6
Continuous
 62
     7
100
AcDbLine
 10
128.2707832710065
 20
123.7043280879077
 30
0.0
 11
128.2707832710065
 21
113.7043280879077
 31
0.0
  0
LINE
  5
FF0
330
1F
100
AcDbEntity
  8
0
  6
Continuous
 62
     7
100
AcDbLine
 10
93.77078327100649
 20
111.7043280879077
 30
0.0
 11
126.2707832710065
 21
111.7043280879077
 31
0.0
  0
LINE
  5
FF1
330
1F
100
AcDbEntity
  8
0
  6
Continuous
 62
     7
100
AcDbLine
 10
128.2707832710065
 20
113.7043280879077
 30
0.0
 11
128.2707832710065
 21
50.70432808790775
 31
0.0
  0
LINE
  5
FF2
330
1F
100
AcDbEntity
  8
0
  6
Continuous
 62
     7
100
AcDbLine
 10
126.2707832710065
 20
-10.29567191209227
 30
0.0
 11
93.77078327100649
 21
-10.29567191209227
 31
0.0
  0
LINE
  5
FF3
330
1F
100
AcDbEntity
  8
0
  6
Continuous
 62
     7
100
AcDbLine
 10
128.2707832710065
 20
50.70432808790775
 30
0.0
 11
128.2707832710065
 21
-12.29567191209224
 31
0.0
  0
LINE
  5
FF4
330
1F
100
AcDbEntity
  8
0
  6
Continuous
 62
     7
100
AcDbLine
 10
92.27078327100647
 20
-8.795671912092245
 30
0.0
 11
92.27078327100647
 21
-7.295671912092245
 31
0.0
  0
LINE
  5
FF5
330
1F
100
AcDbEntity
  8
0
  6
Continuous
 62
     7
100
AcDbLine
 10
128.2707832710065
 20
-12.29567191209224
 30
0.0
 11
128.2707832710065
 21
-22.29567191209179
 31
0.0
  0
LINE
  5
FF6
330
1F
100
AcDbEntity
  8
0
  6
Continuous
 62
     7
100
AcDbLine
 10
133.2707832710065
 20
-24.29567191209179
 30
0.0
 11
128.2707832710066
 21
-24.29567191209219
 31
0.0
  0
LINE
  5
FF7
330
1F
100
AcDbEntity
  8
0
  6
Continuous
 62
     7
100
AcDbLine
 10
128.2707832710065
 20
-24.32960398128054
 30
0.0
 11
128.2707832710065
 21
-23.85374559852079
 31
0.0
  0
LINE
  5
FF8
330
1F
100
AcDbEntity
  8
0
  6
Continuous
 62
     7
100
AcDbLine
 10
128.2707832710065
 20
-21.52950398128061
 30
0.0
 11
128.2707832710065
 21
-23.85374559852079
 31
0.0
  0
LINE
  5
FF9
330
1F
100
AcDbEntity
  8
0
  6
Continuous
 62
     7
100
AcDbLine
 10
128.2707832710065
 20
-23.85374559852079
 30
0.0
 11
128.2707832710065
 21
-18.63140398128073
 31
0.0
  0
LINE
  5
FFA
330
1F
100
AcDbEntity
  8
0
  6
Continuous
 62
     7
100
AcDbLine
 10
128.2707832710065
 20
-18.22950398127949
 30
0.0
 11
128.2707832710065
 21
-12.12960398128069
 31
0.0
  0
LINE
  5
FFB
330
1F
100
AcDbEntity
  8
0
  6
Continuous
 62
     7
100
AcDbLine
 10
126.7707832710065
 20
-24.32960398128054
 30
0.0
 11
126.7707832710065
 21
-18.22950398127949
 31
0.0
  0
LINE
  5
FFC
330
1F
100
AcDbEntity
  8
0
  6
Continuous
 62
     7
100
AcDbLine
 10
126.7707832710065
 20
-17.82760398128056
 30
0.0
 11
126.7707832710065
 21
-12.12960398128069
 31
0.0
  0
LINE
  5
FFD
330
1F
100
AcDbEntity
  8
0
  6
Continuous
 62
     7
100
AcDbLine
 10
128.2707832710065
 20
-18.63140398128073
 30
0.0
 11
126.7707832710065
 21
-18.22950398127949
 31
0.0
  0
LINE
  5
FFE
330
1F
100
AcDbEntity
  8
0
  6
Continuous
 62
     7
100
AcDbLine
 10
128.2707832710065
 20
-18.22950398127949
 30
0.0
 11
126.7707832710065
 21
-17.82760398128056
 31
0.0
  0
LINE
  5
FFF
330
1F
100
AcDbEntity
  8
0
  6
Continuous
 62
     7
100
AcDbLine
 10
128.2707832710065
 20
-24.32960398128054
 30
0.0
 11
126.7707832710065
 21
-24.32960398128054
 31
0.0
  0
LINE
  5
1000
330
1F
100
AcDbEntity
  8
0
  6
Continuous
 62
     7
100
AcDbLine
 10
128.2707832710065
 20
-12.12960398128069
 30
0.0
 11
126.7707832710065
 21
-12.12960398128069
 31
0.0
  0
LINE
  5
1001
330
1F
100
AcDbEntity
  8
0
  6
Continuous
 62
     7
100
AcDbLine
 10
126.7707832710065
 20
-23.47950398127952
 30
0.0
 11
126.7707832710065
 21
-12.97950398127949
 31
0.0
  0
LINE
  5
1002
330
1F
100
AcDbEntity
  8
0
  6
Continuous
 62
     7
100
AcDbLine
 10
122.8708832710065
 20
-21.39730398128057
 30
0.0
 11
122.8708832710065
 21
-15.06180398127955
 31
0.0
  0
LINE
  5
1003
330
1F
100
AcDbEntity
  8
0
  6
Continuous
 62
     7
100
AcDbLine
 10
124.6052832710064
 20
-13.16900398128035
 30
0.0
 11
126.7707832710065
 21
-12.97950398127949
 31
0.0
  0
LINE
  5
1004
330
1F
100
AcDbEntity
  8
0
  6
Continuous
 62
     7
100
AcDbLine
 10
124.6052832710064
 20
-23.29010398128068
 30
0.0
 11
126.7707832710065
 21
-23.47950398127952
 31
0.0
  0
LINE
  5
1005
330
1F
100
AcDbEntity
  8
0
  6
Continuous
 62
     7
100
AcDbLine
 10
128.2707832710065
 20
-12.22950398127952
 30
0.0
 11
128.2707832710065
 21
-14.92950398128073
 31
0.0
  0
LINE
  5
1006
330
1F
100
AcDbEntity
  8
0
  6
Continuous
 62
     7
100
AcDbLine
 10
128.2707832710065
 20
-23.85374559852079
 30
0.0
 11
128.2707832710065
 21
-13.63140398128072
 31
0.0
  0
ELLIPSE
  5
1009
330
1F
100
AcDbEntity
  8
0
  6
Continuous
 62
     7
100
AcDbEllipse
 10
353.494046921621
 20
-35.80661875030292
 30
0.0
 11
7.453574989426314
 21
7.453574989426313
 31
0.0
210
0.0
220
0.0
230
1.0
 40
0.9999999999999886
 41
4.722482618706212
 42
5.497787143782131
  0
ELLIPSE
  5
100A
330
1F
100
AcDbEntity
  8
0
  6
Continuous
 62
     7
100
AcDbEllipse
 10
353.494046921621
 20
-35.80661875030292
 30
0.0
 11
7.45357498942599
 21
7.453574989425989
 31
0.0
210
0.0
220
0.0
230
1.0
 40
0.999999999999985
 41
4.274772417448406
 42
4.722482618706211
  0
ELLIPSE
  5
100B
330
1F
100
AcDbEntity
  8
0
  6
Continuous
 62
     7
100
AcDbEllipse
 10
353.494046921621
 20
-35.80661875030292
 30
0.0
 11
-7.453574989425113
 21
7.453574989425113
 31
0.0
210
0.0
220
0.0
230
0.9999999999999998
 40
0.9999999999999948
 41
3.926990816987244
 42
5.407429303444704
  0
ELLIPSE
  5
100C
330
1F
100
AcDbEntity
  8
0
  6
Continuous
 62
     7
100
AcDbEllipse
 10
255.2707832710066
 20
-63.29567191209233
 30
0.0
 11
-26.87005768508825
 21
26.87005768508825
 31
0.0
210
0.0
220
0.0
230
0.9999999999999998
 40
0.9999999999999969
 41
-0.7459142208624878
 42
-0.1849004703142367
  0
ELLIPSE
  5
100D
330
1F
100
AcDbEntity
  8
0
  6
Continuous
 62
     7
100
AcDbEllipse
 10
255.2707832710066
 20
-63.29567191209233
 30
0.0
 11
29.34493141924145
 21
29.34493141924145
 31
0.0
210
0.0
220
0.0
230
1.0
 40
0.9999999999999966
 41
0.8741221174669831
 42
1.362680863760616
  0
ELLIPSE
  5
100E
330
1F
100
AcDbEntity
  8
60
  6
Continuous
 62
     7
100
AcDbEllipse
 10
260.2709832710061
 20
-73.29567191209324
 30
0.0
 11
19.79897071314702
 21
19.79897071314702
 31
0.0
210
0.0
220
0.0
230
1.0
 40
0.9999999999999474
 41
4.936881276719173
 42
5.194939800246941
  0
ELLIPSE
  5
100F
330
1F
100
AcDbEntity
  8
0
  6
Continuous
 62
     7
100
AcDbEllipse
 10
255.2707832710066
 20
-63.29567191209233
 30
0.0
 11
-26.87005768508905
 21
26.87005768508905
 31
0.0
210
0.0
220
0.0
230
0.9999999999999998
 40
0.9999999999999943
 41
3.212645091956678
 42
3.412379430961868
  0
ELLIPSE
  5
1010
330
1F
100
AcDbEntity
  8
0
  6
Continuous
 62
     7
100
AcDbEllipse
 10
255.2707832710066
 20
-63.29567191209233
 30
0.0
 11
29.34493141924191
 21
29.34493141924191
 31
0.0
210
0.0
220
0.0
230
1.0
 40
0.9999999999999975
 41
4.015714771056796
 42
5.008702763783923
  0
ELLIPSE
  5
1011
330
1F
100
AcDbEntity
  8
0
  6
Continuous
 62
     7
100
AcDbEllipse
 10
255.2707832710066
 20
-63.29567191209233
 30
0.0
 11
45.9619407771257
 21
45.9619407771257
 31
0.0
210
0.0
220
0.0
230
0.9999999999999998
 40
0.9999999999999952
 41
4.525540164610113
 42
5.060479081577748
  0
ELLIPSE
  5
1012
330
1F
100
AcDbEntity
  8
0
  6
Continuous
 62
     7
100
AcDbEllipse
 10
255.2707832710066
 20
-63.29567191209233
 30
0.0
 11
45.96194077712754
 21
45.96194077712754
 31
0.0
210
0.0
220
0.0
230
0.9999999999999998
 40
0.99999999999996
 41
1.279051448450266
 42
1.411596186330427
  0
ELLIPSE
  5
1013
330
1F
100
AcDbEntity
  8
0
  6
Continuous
 62
     7
100
AcDbEllipse
 10
255.2707832710066
 20
-63.29567191209233
 30
0.0
 11
-26.87005768508925
 21
26.87005768508925
 31
0.0
210
0.0
220
0.0
230
1.0
 40
0.9999999999999554
 41
0.0048402418302884
 42
0.1596520002878601
  0
ELLIPSE
  5
1014
330
1F
100
AcDbEntity
  8
0
  6
Continuous
 62
     7
100
AcDbEllipse
 10
255.2707832710066
 20
-63.29567191209233
 30
0.0
 11
26.87005768508886
 21
26.87005768508886
 31
0.0
210
0.0
220
0.0
230
1.0
 40
1.0
 41
5.537271086317075
 42
7.02909952804207
  0
ELLIPSE
  5
1015
330
1F
100
AcDbEntity
  8
0
  6
Continuous
 62
     7
100
AcDbEllipse
 10
255.2707832710066
 20
-63.29567191209233
 30
0.0
 11
26.87005768508888
 21
26.87005768508887
 31
0.0
210
0.0
220
0.0
230
1.0
 40
0.9999999999999991
 41
4.983175757756763
 42
5.458303201247151
  0
ELLIPSE
  5
1016
330
1F
100
AcDbEntity
  8
0
  6
Continuous
 62
     7
100
AcDbEllipse
 10
255.2707832710066
 20
-63.29567191209233
 30
0.0
 11
26.87005768508877
 21
26.87005768508877
 31
0.0
210
0.0
220
0.0
230
1.0
 40
0.9999999999999985
 41
1.730448327082749
 42
2.316710547657404
  0
ELLIPSE
  5
1017
330
1F
100
AcDbEntity
  8
60
  6
Continuous
 62
     7
100
AcDbEllipse
 10
260.2709832710061
 20
-73.29567191209324
 30
0.0
 11
-19.79897071314571
 21
19.79897071314571
 31
0.0
210
0.0
220
0.0
230
1.0
 40
0.9999999999999984
 41
3.624143473452067
 42
4.23542986912119
  0
ELLIPSE
  5
1018
330
1F
100
AcDbEntity
  8
0
  6
Continuous
 62
     7
100
AcDbEllipse
 10
255.2707832710066
 20
-63.29567191209233
 30
0.0
 11
26.87005768509071
 21
26.87005768509071
 31
0.0
210
0.0
220
0.0
230
1.0
 40
0.9999999999999321
 41
1.385895856480672
 42
1.575636568625184
  0
ELLIPSE
  5
1019
330
1F
100
AcDbEntity
  8
60
  6
Continuous
 62
     7
100
AcDbEllipse
 10
260.2709832710061
 20
-73.29567191209324
 30
0.0
 11
19.79897071314581
 21
19.79897071314581
 31
0.0
210
0.0
220
0.0
230
0.9999999999999998
 40
0.9999999999999984
 41
5.921024914449845
 42
6.575111847974357
  0
ELLIPSE
  5
101A
330
1F
100
AcDbEntity
  8
60
  6
Continuous
 62
     7
100
AcDbEllipse
 10
278.2709523168919
 20
-39.82922011664617
 30
0.0
 11
7.071045924096589
 21
7.071045924096589
 31
0.0
210
0.0
220
0.0
230
1.0
 40
0.9999999999999955
 41
2.356199669752996
 42
3.433528053146501
  0
ELLIPSE
  5
101D
330
1F
100
AcDbEntity
  8
60
  6
Continuous
 62
     7
100
AcDbEllipse
 10
255.2707832710066
 20
-63.29567191209233
 30
0.0
 11
-26.87005768508857
 21
26.87005768508857
 31
0.0
210
0.0
220
0.0
230
1.0
 40
0.999999999999798
 41
-0.1018101042250188
 42
0.0048402418302889
  0
ELLIPSE
  5
101E
330
1F
100
AcDbEntity
  8
60
  6
Continuous
 62
     7
100
AcDbEllipse
 10
255.2707832710066
 20
-63.29567191209233
 30
0.0
 11
26.87005768509116
 21
26.87005768509116
 31
0.0
210
0.0
220
0.0
230
1.0
 40
0.9999999999999126
 41
1.435494579091207
 42
1.468986222569907
  0
ELLIPSE
  5
101F
330
1F
100
AcDbEntity
  8
0
  6
Continuous
 62
     7
100
AcDbEllipse
 10
255.2707832710066
 20
-63.29567191209233
 30
0.0
 11
26.87005768509116
 21
26.87005768509116
 31
0.0
210
0.0
220
0.0
230
1.0
 40
0.9999999999999126
 41
1.435494579091207
 42
1.468986222569907
  0
ELLIPSE
  5
1020
330
1F
100
AcDbEntity
  8
0
  6
Continuous
 62
     7
100
AcDbEllipse
 10
255.2707832710066
 20
-63.29567191209233
 30
0.0
 11
-45.96194077712548
 21
45.96194077712548
 31
0.0
210
0.0
220
0.0
230
0.9999999999999998
 40
0.9999999999999992
 41
2.954743837815215
 42
3.926990816987241
  0
ELLIPSE
  5
1021
330
1F
100
AcDbEntity
  8
0
  6
Continuous
 62
     7
100
AcDbEllipse
 10
255.2707832710066
 20
-63.29567191209233
 30
0.0
 11
29.3449314192414
 21
29.3449314192414
 31
0.0
210
0.0
220
0.0
230
0.9999999999999998
 40
0.999999999999996
 41
1.362680863760616
 42
2.267470536122806
  0
ELLIPSE
  5
1022
330
1F
100
AcDbEntity
  8
0
  6
Continuous
 62
     7
100
AcDbEllipse
 10
255.2707832710066
 20
-63.29567191209233
 30
0.0
 11
29.34493141924131
 21
29.34493141924131
 31
0.0
210
0.0
220
0.0
230
1.0
 40
0.9999999999999987
 41
2.444918444261896
 42
3.838266862917711
  0
ELLIPSE
  5
1023
330
1F
100
AcDbEntity
  8
0
  6
Continuous
 62
     7
100
AcDbEllipse
 10
255.2707832710066
 20
-63.29567191209233
 30
0.0
 11
-29.34493141924184
 21
29.34493141924185
 31
0.0
210
0.0
220
0.0
230
1.0
 40
0.9999999999999953
 41
3.437906436989028
 42
3.838266862917691
  0
ELLIPSE
  5
1024
330
1F
100
AcDbEntity
  8
0
  6
Continuous
 62
     7
100
AcDbEllipse
 10
255.2707832710066
 20
-63.29567191209233
 30
0.0
 11
29.34493141924189
 21
29.34493141924189
 31
0.0
210
0.0
220
0.0
230
1.0
 40
0.9999999999999996
 41
5.586511097851672
 42
6.979859516507479
  0
ELLIPSE
  5
1025
330
1F
100
AcDbEntity
  8
0
  6
Continuous
 62
     7
100
AcDbEllipse
 10
255.2707832710066
 20
-63.29567191209233
 30
0.0
 11
-45.96194077712471
 21
45.96194077712471
 31
0.0
210
0.0
220
0.0
230
1.0
 40
0.9999999999996267
 41
2.888698588494112
 42
2.954743837815147
  0
ELLIPSE
  5
1026
330
1F
100
AcDbEntity
  8
0
  6
DASH_CENTER
 62
     2
100
AcDbEllipse
 10
255.2707832710066
 20
-63.29567191209233
 30
0.0
 11
38.89087296525979
 21
38.89087296525978
 31
0.0
210
0.0
220
0.0
230
1.0
 40
0.9999999999999994
 41
0.5498684264431622
 42
1.032101293081754
  0
ELLIPSE
  5
1027
330
1F
100
AcDbEntity
  8
0
  6
Continuous
 62
     7
100
AcDbEllipse
 10
255.2707832710066
 20
-63.29567191209233
 30
0.0
 11
-45.96194077712471
 21
45.96194077712471
 31
0.0
210
0.0
220
0.0
230
1.0
 40
0.9999999999996267
 41
2.888698588494112
 42
2.954743837815147
  0
ELLIPSE
  5
1028
330
1F
100
AcDbEntity
  8
0
  6
Continuous
 62
     7
100
AcDbEllipse
 10
213.970752977843
 20
53.87209502795838
 30
0.0
 11
1.343481463956438
 21
1.343481463956438
 31
0.0
210
0.0
220
0.0
230
1.0
 40
0.9999999999999722
 41
0.8727050097578811
 42
2.356177089941446
  0
ELLIPSE
  5
1029
330
1F
100
AcDbEntity
  8
0
  6
Continuous
 62
     7
100
AcDbEllipse
 10
213.970752977843
 20
188.6987019647208
 30
0.0
 11
-1.343481463956416
 21
1.343481463956416
 31
0.0
210
0.0
220
0.0
230
0.9999999999999998
 40
0.9999999999999785
 41
0.7854155636483684
 42
2.268887643831932
  0
ELLIPSE
  5
102A
330
1F
100
AcDbEntity
  8
0
  6
Continuous
 62
     7
100
AcDbEllipse
 10
213.9708027876725
 20
195.0341902050915
 30
0.0
 11
1.343516684705633
 21
1.343516684705633
 31
0.0
210
0.0
220
0.0
230
0.9999999999999998
 40
0.9999999999999982
 41
0.8727290308332358
 42
2.356205700772017
  0
ELLIPSE
  5
102B
330
1F
100
AcDbEntity
  8
60
  6
Continuous
 62
     7
100
AcDbEllipse
 10
278.2709523168919
 20
-39.82922011664617
 30
0.0
 11
7.071045924096589
 21
7.071045924096589
 31
0.0
210
0.0
220
0.0
230
1.0
 40
0.9999999999999955
 41
2.356199669752996
 42
3.433528053146501
  0
ELLIPSE
  5
102C
330
1F
100
AcDbEntity
  8
0
  6
Continuous
 62
     7
100
AcDbEllipse
 10
255.2707832710066
 20
-63.29567191209233
 30
0.0
 11
26.87005768508904
 21
26.87005768508904
 31
0.0
210
0.0
220
0.0
230
0.9999999999999998
 40
1.0
 41
3.966474759522202
 42
4.783441418751574
  0
ELLIPSE
  5
102D
330
1F
100
AcDbEntity
  8
0
  6
DASH_CENTER
 62
    30
100
AcDbEllipse
 10
255.2707832710066
 20
-63.29567191209233
 30
0.0
 11
-26.87005768494686
 21
26.87005768494686
 31
0.0
210
0.0
220
0.0
230
0.9999999999999998
 40
0.9999999989894384
 41
3.212645092028175
 42
3.21461307075473
  0
ELLIPSE
  5
102E
330
1F
100
AcDbEntity
  8
0
  6
Continuous
 62
     7
100
AcDbEllipse
 10
255.2707832710066
 20
-63.29567191209233
 30
0.0
 11
26.87005768509116
 21
26.87005768509116
 31
0.0
210
0.0
220
0.0
230
1.0
 40
0.9999999999999126
 41
1.435494579091207
 42
1.468986222569907
  0
ELLIPSE
  5
102F
330
1F
100
AcDbEntity
  8
0
  6
Continuous
 62
     7
100
AcDbEllipse
 10
255.2707832710066
 20
-63.29567191209233
 30
0.0
 11
26.87005768509817
 21
26.87005768509816
 31
0.0
210
0.0
220
0.0
230
1.0
 40
0.9999999999996582
 41
1.404783827024693
 42
1.435494579091241
  0
ELLIPSE
  5
1030
330
1F
100
AcDbEntity
  8
0
  6
Continuous
 62
     7
100
AcDbEllipse
 10
255.2707832710066
 20
-63.29567191209233
 30
0.0
 11
-45.96194077712573
 21
45.96194077712573
 31
0.0
210
0.0
220
0.0
230
1.0
 40
0.999999999999995
 41
-0.1592001404644758
 42
2.954743837815215
  0
ELLIPSE
  5
1031
330
1F
100
AcDbEntity
  8
0
  6
DASH_CENTER
 62
     2
100
AcDbEllipse
 10
255.2707832710066
 20
-63.29567191209233
 30
0.0
 11
-38.89087296526011
 21
38.89087296526011
 31
0.0
210
0.0
220
0.0
230
1.0
 40
0.9999999999999991
 41
3.612940152361354
 42
3.926990816987244
  0
ELLIPSE
  5
1032
330
1F
100
AcDbEntity
  8
0
  6
Continuous
 62
     7
100
AcDbEllipse
 10
255.2707832710066
 20
-63.29567191209233
 30
0.0
 11
-26.87005768508919
 21
26.87005768508919
 31
0.0
210
0.0
220
0.0
230
1.0
 40
0.9999999999999992
 41
0.8248821059324065
 42
2.316710547657383
  0
ELLIPSE
  5
1033
330
1F
100
AcDbEntity
  8
0
  6
Continuous
 62
     7
100
AcDbEllipse
 10
288.77081356417
 20
104.7474892356903
 30
0.0
 11
-1.343481463956425
 21
1.343481463956425
 31
0.0
210
0.0
220
0.0
230
0.9999999999999998
 40
0.9999999999999721
 41
2.443501336552749
 42
3.926973416736373
  0
ELLIPSE
  5
1034
330
1F
100
AcDbEntity
  8
0
  6
Continuous
 62
     7
100
AcDbEllipse
 10
288.7707637543406
 20
111.0829774760611
 30
0.0
 11
-1.343516684705648
 21
1.343516684705648
 31
0.0
210
0.0
220
0.0
230
1.0
 40
0.9999999999999777
 41
3.926979606407545
 42
5.41045627634634
  0
ELLIPSE
  5
1038
330
1F
100
AcDbEntity
  8
0
  6
Continuous
 62
     7
100
AcDbEllipse
 10
375.1605964930883
 20
-88.53846536951591
 30
0.0
 11
-3.535533905932743
 21
3.535533905932744
 31
0.0
210
0.0
220
0.0
230
0.9999999999999998
 40
0.9999999999999976
 41
3.205802170837754
 42
4.252999722034302
  0
ELLIPSE
  5
1039
330
1F
100
AcDbEntity
  8
0
  6
Continuous
 62
     7
100
AcDbEllipse
 10
382.6708107247735
 20
-95.14124373882294
 30
0.0
 11
-3.535533905932511
 21
3.535533905932512
 31
0.0
210
0.0
220
0.0
230
1.0
 40
0.9999999999999811
 41
0.0642095172476471
 42
1.111407068444504
  0
ELLIPSE
  5
103A
330
1F
100
AcDbEntity
  8
0
  6
Continuous
 62
     7
100
AcDbEllipse
 10
376.4933942535096
 20
-88.80529426801311
 30
0.0
 11
3.535533905932952
 21
3.535533905932952
 31
0.0
210
0.0
220
0.0
230
1.0
 40
0.9999999999999953
 41
4.776598497632438
 42
5.82379604882915
  0
ELLIPSE
  5
103B
330
1F
100
AcDbEntity
  8
0
  6
Continuous
 62
     7
100
AcDbEllipse
 10
384.0036084851955
 20
-95.40807263731982
 30
0.0
 11
-3.535533905932631
 21
3.535533905932631
 31
0.0
210
0.0
220
0.0
230
1.0
 40
0.9999999999999943
 41
0.0642095172480193
 42
1.1114070684445
  0
ELLIPSE
  5
103C
330
1F
100
AcDbEntity
  8
0
  6
Continuous
 62
     7
100
AcDbEllipse
 10
374.1790631493207
 20
-93.44117811809402
 30
0.0
 11
3.535533905932913
 21
3.535533905932913
 31
0.0
210
0.0
220
0.0
230
1.0
 40
0.9999999999999955
 41
4.776598497632451
 42
5.823796048829152
  0
ELLIPSE
  5
103D
330
1F
100
AcDbEntity
  8
0
  6
Continuous
 62
     7
100
AcDbEllipse
 10
384.9851418289624
 20
-90.50535988874205
 30
0.0
 11
3.535533905932548
 21
3.535533905932548
 31
0.0
210
0.0
220
0.0
230
1.0
 40
0.9999999999999817
 41
1.635005844042531
 42
2.682203395239402
  0
ELLIPSE
  5
103E
330
1F
100
AcDbEntity
  8
0
  6
Continuous
 62
     7
100
AcDbEllipse
 10
255.2707832710066
 20
-63.29567191209233
 30
0.0
 11
-45.96194077712534
 21
45.96194077712534
 31
0.0
210
0.0
220
0.0
230
1.0
 40
0.9999999999999996
 41
-1.265126801073203
 42
-0.2917448783446415
  0
ELLIPSE
  5
103F
330
1F
100
AcDbEntity
  8
0
  6
Continuous
 62
     7
100
AcDbEllipse
 10
255.2707832710066
 20
-63.29567191209233
 30
0.0
 11
45.96194077712558
 21
45.96194077712558
 31
0.0
210
0.0
220
0.0
230
1.0
 40
0.9999999999999964
 41
5.497787143782136
 42
6.194037956129245
  0
ELLIPSE
  5
1040
330
1F
100
AcDbEntity
  8
0
  6
Continuous
 62
     7
100
AcDbEllipse
 10
255.2707832710066
 20
-63.29567191209233
 30
0.0
 11
45.96194077712598
 21
45.96194077712598
 31
0.0
210
0.0
220
0.0
230
1.0
 40
0.9999999999999912
 41
6.194037956129245
 42
6.492654851399471
  0
ELLIPSE
  5
1041
330
1F
100
AcDbEntity
  8
0
  6
Continuous
 62
     7
100
AcDbEllipse
 10
288.7708135641702
 20
-3.338833059875696
 30
0.0
 11
1.343481463956802
 21
1.343481463956802
 31
0.0
210
0.0
220
0.0
230
0.9999999999999998
 40
0.9999999999999934
 41
5.497804544033062
 42
6.981276624216399
  0
ELLIPSE
  5
1042
330
1F
100
AcDbEntity
  8
0
  6
Continuous
 62
     7
100
AcDbEllipse
 10
255.2707832710066
 20
-63.29567191209233
 30
0.0
 11
-45.96194077712592
 21
45.96194077712595
 31
0.0
210
0.0
220
0.0
230
0.9999999999999998
 40
0.9999999999999923
 41
-1.361326782575014
 42
-1.265126801073206
  0
ELLIPSE
  5
1043
330
1F
100
AcDbEntity
  8
0
  6
Continuous
 62
     7
100
AcDbEllipse
 10
213.970752977843
 20
47.53656114785725
 30
0.0
 11
-1.343481463956439
 21
1.343481463956439
 31
0.0
210
0.0
220
0.0
230
0.9999999999999998
 40
0.9999999999999724
 41
0.7854155636483467
 42
2.268887643831912
  0
ELLIPSE
  5
1044
330
1F
100
AcDbEntity
  8
0
  6
DASH_CENTER
 62
     2
100
AcDbEllipse
 10
255.2707832710066
 20
-63.29567191209233
 30
0.0
 11
38.89087296526012
 21
38.89087296526012
 31
0.0
210
0.0
220
0.0
230
1.0
 40
0.9999999999999992
 41
2.04214382556643
 42
2.670245154818231
  0
ELLIPSE
  5
1045
330
1F
100
AcDbEntity
  8
0
  6
PHANTOM
 62
   250
100
AcDbEllipse
 10
255.2707832710066
 20
-63.29567191209233
 30
0.0
 11
-38.89087296527971
 21
38.89087296527971
 31
0.0
210
0.0
220
0.0
230
1.0
 40
0.999999999999617
 41
4.232281016908694
 42
4.258553156826342
  0
ELLIPSE
  5
1047
330
1F
100
AcDbEntity
  8
0
  6
DASH_CENTER
 62
     2
100
AcDbEllipse
 10
255.2707832710066
 20
-63.29567191209233
 30
0.0
 11
-38.89087296526023
 21
38.89087296526023
 31
0.0
210
0.0
220
0.0
230
1.0
 40
0.9999999999999989
 41
3.926990816987244
 42
4.315251725714961
  0
ELLIPSE
  5
1048
330
1F
100
AcDbEntity
  8
0
  6
PHANTOM
 62
   250
100
AcDbEllipse
 10
255.2707832710066
 20
-63.29567191209233
 30
0.0
 11
-38.89087296527722
 21
38.89087296527723
 31
0.0
210
0.0
220
0.0
230
1.0
 40
0.999999999999644
 41
4.258553156826331
 42
4.315251725715088
  0
ELLIPSE
  5
1049
330
1F
100
AcDbEntity
  8
0
  6
DASH_CENTER
 62
     2
100
AcDbEllipse
 10
255.2707832710066
 20
-63.29567191209233
 30
0.0
 11
38.89087296526023
 21
38.89087296526022
 31
0.0
210
0.0
220
0.0
230
1.0
 40
0.9999999999999991
 41
3.71868968145487
 42
4.106188623307762
  0
ELLIPSE
  5
104A
330
1F
100
AcDbEntity
  8
0
  6
Continuous
 62
     7
100
AcDbEllipse
 10
124.7707529778431
 20
53.87209502795797
 30
0.0
 11
1.343481463956364
 21
1.343481463956364
 31
0.0
210
0.0
220
0.0
230
1.0
 40
0.9999999999999912
 41
0.8727050097579315
 42
2.3561770899415
  0
ELLIPSE
  5
104B
330
1F
100
AcDbEntity
  8
0
  6
Continuous
 62
     7
100
AcDbEllipse
 10
124.7708027876725
 20
47.53660678758714
 30
0.0
 11
-1.343516684705519
 21
1.343516684705519
 31
0.0
210
0.0
220
0.0
230
1.0
 40
0.9999999999999946
 41
0.7853869528177726
 42
2.268863622756528
  0
ELLIPSE
  5
104C
330
1F
100
AcDbEntity
  8
0
  6
Continuous
 62
     7
100
AcDbEllipse
 10
124.7707529778431
 20
122.805927097147
 30
0.0
 11
1.343481463956365
 21
1.343481463956364
 31
0.0
210
0.0
220
0.0
230
1.0
 40
0.9999999999999864
 41
0.8727050097579343
 42
2.356177089941498
  0
ELLIPSE
  5
104D
330
1F
100
AcDbEntity
  8
0
  6
Continuous
 62
     7
100
AcDbEllipse
 10
124.7708027876722
 20
116.4704388567755
 30
0.0
 11
1.343516684705353
 21
1.343516684705353
 31
0.0
210
0.0
220
0.0
230
0.9999999999999998
 40
0.9999999999999991
 41
2.356183279612796
 42
3.839659949551549
  0
ELLIPSE
  5
104E
330
1F
100
AcDbEntity
  8
0
  6
Continuous
 62
     7
100
AcDbEllipse
 10
124.7708027876722
 20
-15.06178268095958
 30
0.0
 11
1.343516684705351
 21
1.343516684705351
 31
0.0
210
0.0
220
0.0
230
1.0
 40
0.9999999999999987
 41
0.872729030833142
 42
2.356205700771896
  0
ELLIPSE
  5
104F
330
1F
100
AcDbEntity
  8
0
  6
Continuous
 62
     7
100
AcDbEllipse
 10
124.7707529778431
 20
-21.3972709213311
 30
0.0
 11
1.343481463956347
 21
1.343481463956347
 31
0.0
210
0.0
220
0.0
230
0.9999999999999998
 40
0.9999999999999864
 41
2.356211890443177
 42
3.839683970626767
  0
ELLIPSE
  5
1051
330
1F
100
AcDbEntity
  8
0
  6
Continuous
 62
     7
100
AcDbEllipse
 10
255.2707832710066
 20
-8.295671912092267
 30
0.0
 11
-3.181980515339593
 21
3.181980515339593
 31
0.0
210
0.0
220
0.0
230
1.0
 40
0.9999999999999925
 41
3.926990816987244
 42
10.21017612416683
  0
ELLIPSE
  5
1052
330
1F
100
AcDbEntity
  8
0
  6
Continuous
 62
     7
100
AcDbEllipse
 10
200.2707832710066
 20
-63.29567191209225
 30
0.0
 11
-3.18198051533985
 21
3.181980515339851
 31
0.0
210
0.0
220
0.0
230
1.0
 40
0.9999999999999946
 41
3.926990816987244
 42
10.21017612416683
  0
ELLIPSE
  5
1053
330
1F
100
AcDbEntity
  8
0
  6
Continuous
 62
     7
100
AcDbEllipse
 10
255.2707832710066
 20
-118.2956719120922
 30
0.0
 11
-3.181980515339545
 21
3.181980515339545
 31
0.0
210
0.0
220
0.0
230
1.0
 40
0.9999999999999774
 41
3.926990816987252
 42
10.21017612416684
  0
ELLIPSE
  5
1054
330
1F
100
AcDbEntity
  8
0
  6
Continuous
 62
     7
100
AcDbEllipse
 10
310.2707832710066
 20
-63.29567191209225
 30
0.0
 11
-3.181980515339088
 21
3.181980515339088
 31
0.0
210
0.0
220
0.0
230
1.0
 40
0.9999999999999923
 41
3.926990816987244
 42
10.21017612416683
  0
ELLIPSE
  5
1055
330
1F
100
AcDbEntity
  8
0
  6
Continuous
 62
     7
100
AcDbEllipse
 10
363.1187481167132
 20
-26.16567191209204
 30
0.0
 11
-0.6363961030679022
 21
0.6363961030679022
 31
0.0
210
0.0
220
0.0
230
1.0
 40
0.9999999999998884
 41
3.926990816987297
 42
5.497787143782081
  0
ELLIPSE
  5
1062
330
1F
100
AcDbEntity
  8
0
  6
Continuous
 62
     7
100
AcDbEllipse
 10
251.7707832710065
 20
-59.79567191209321
 30
0.0
 11
-1.41421356237311
 21
1.41421356237311
 31
0.0
210
0.0
220
0.0
230
0.9999999999999998
 40
0.9999999999999891
 41
2.356194490192339
 42
3.926990816987246
  0
ELLIPSE
  5
1063
330
1F
100
AcDbEntity
  8
0
  6
Continuous
 62
     7
100
AcDbEllipse
 10
215.9261521251945
 20
-59.79567191209224
 30
0.0
 11
-1.4142135623726
 21
1.4142135623726
 31
0.0
210
0.0
220
0.0
230
0.9999999999999998
 40
0.9999999999999866
 41
0.6966742093280436
 42
2.356194490192338
  0
ELLIPSE
  5
1064
330
1F
100
AcDbEntity
  8
0
  6
Continuous
 62
     7
100
AcDbEllipse
 10
251.7707832710065
 20
-23.95104076628033
 30
0.0
 11
-1.414213562373118
 21
1.414213562373118
 31
0.0
210
0.0
220
0.0
230
1.0
 40
0.9999999999999831
 41
3.92699081698725
 42
5.586511097851536
  0
ELLIPSE
  5
1065
330
1F
100
AcDbEntity
  8
0
  6
Continuous
 62
     7
100
AcDbEllipse
 10
257.5335249708041
 20
-8.295671912092267
 30
0.0
 11
-0.7071067811862307
 21
0.7071067811862307
 31
0.0
210
0.0
220
0.0
230
0.9999999999999998
 40
0.9999999999999815
 41
0.0000000000006468
 42
1.570796326794884
  0
ELLIPSE
  5
1066
330
1F
100
AcDbEntity
  8
0
  6
Continuous
 62
     7
100
AcDbEllipse
 10
255.2707832710066
 20
-10.55841361188977
 30
0.0
 11
0.7071067811866662
 21
0.7071067811866662
 31
0.0
210
0.0
220
0.0
230
1.0
 40
0.9999999999999811
 41
0.0000000000000189
 42
1.570796326794896
  0
ELLIPSE
  5
1067
330
1F
100
AcDbEntity
  8
0
  6
Continuous
 62
     7
100
AcDbEllipse
 10
253.00804157121
 20
-8.295671912092267
 30
0.0
 11
0.7071067811866662
 21
0.7071067811866661
 31
0.0
210
0.0
220
0.0
230
1.0
 40
0.9999999999999873
 41
4.712388980384683
 42
6.283185307178952
  0
ELLIPSE
  5
1068
330
1F
100
AcDbEntity
  8
0
  6
Continuous
 62
     7
100
AcDbEllipse
 10
255.2707832710066
 20
-6.032930212295639
 30
0.0
 11
-0.7071067811867195
 21
0.7071067811867195
 31
0.0
210
0.0
220
0.0
230
0.9999999999999998
 40
0.9999999999999749
 41
1.570796326794865
 42
3.141592653589799
  0
ELLIPSE
  5
1069
330
1F
100
AcDbEntity
  8
0
  6
Continuous
 62
     7
100
AcDbEllipse
 10
200.2707832710066
 20
-61.03293021229561
 30
0.0
 11
0.7071067811862531
 21
0.7071067811862531
 31
0.0
210
0.0
220
0.0
230
0.9999999999999998
 40
0.9999999999999747
 41
3.141592653590433
 42
4.712388980384677
  0
ELLIPSE
  5
106A
330
1F
100
AcDbEntity
  8
0
  6
Continuous
 62
     7
100
AcDbEllipse
 10
202.5335249708041
 20
-63.29567191209225
 30
0.0
 11
-0.7071067811862086
 21
0.7071067811862086
 31
0.0
210
0.0
220
0.0
230
0.9999999999999998
 40
0.9999999999999747
 41
0.0000000000007281
 42
1.570796326794896
  0
ELLIPSE
  5
106B
330
1F
100
AcDbEntity
  8
0
  6
Continuous
 62
     7
100
AcDbEllipse
 10
200.2707832710066
 20
-65.55841361188981
 30
0.0
 11
-0.707106781186706
 21
0.707106781186706
 31
0.0
210
0.0
220
0.0
230
0.9999999999999998
 40
0.9999999999999747
 41
-1.570796326794896
 42
-0.0000000000006279
  0
ELLIPSE
  5
106C
330
1F
100
AcDbEntity
  8
0
  6
Continuous
 62
     7
100
AcDbEllipse
 10
198.00804157121
 20
-63.29567191209225
 30
0.0
 11
-0.7071067811867148
 21
0.7071067811867148
 31
0.0
210
0.0
220
0.0
230
1.0
 40
0.9999999999999873
 41
3.141592653589805
 42
4.712388980383961
  0
ELLIPSE
  5
106D
330
1F
100
AcDbEntity
  8
0
  6
Continuous
 62
     7
100
AcDbEllipse
 10
253.00804157121
 20
-118.2956719120922
 30
0.0
 11
0.7071067811866704
 21
0.7071067811866704
 31
0.0
210
0.0
220
0.0
230
0.9999999999999998
 40
1.0
 41
4.712388980384664
 42
6.283185307178907
  0
ELLIPSE
  5
106E
330
1F
100
AcDbEntity
  8
0
  6
Continuous
 62
     7
100
AcDbEllipse
 10
255.2707832710066
 20
-116.0329302122956
 30
0.0
 11
0.7071067811863152
 21
0.7071067811863152
 31
0.0
210
0.0
220
0.0
230
1.0
 40
1.0
 41
3.141592653590521
 42
4.712388980384564
  0
ELLIPSE
  5
106F
330
1F
100
AcDbEntity
  8
0
  6
Continuous
 62
     7
100
AcDbEllipse
 10
257.5335249708041
 20
-118.2956719120922
 30
0.0
 11
-0.707106781186191
 21
0.707106781186191
 31
0.0
210
0.0
220
0.0
230
0.9999999999999998
 40
0.9999999999999747
 41
0.0000000000007032
 42
1.570796326794921
  0
ELLIPSE
  5
1070
330
1F
100
AcDbEntity
  8
0
  6
Continuous
 62
     7
100
AcDbEllipse
 10
255.2707832710066
 20
-120.5584136118898
 30
0.0
 11
0.7071067811867239
 21
0.7071067811867239
 31
0.0
210
0.0
220
0.0
230
1.0
 40
1.0
 41
0.0000000000001005
 42
1.570796326794193
  0
ELLIPSE
  5
1071
330
1F
100
AcDbEntity
  8
0
  6
Continuous
 62
     7
100
AcDbEllipse
 10
310.2707832710066
 20
-65.55841361188981
 30
0.0
 11
0.7071067811866704
 21
0.7071067811866704
 31
0.0
210
0.0
220
0.0
230
0.9999999999999998
 40
0.9999999999999875
 41
0.0000000000000251
 42
1.570796326794884
  0
ELLIPSE
  5
1072
330
1F
100
AcDbEntity
  8
0
  6
Continuous
 62
     7
100
AcDbEllipse
 10
308.00804157121
 20
-63.29567191209225
 30
0.0
 11
-0.7071067811866795
 21
0.7071067811866795
 31
0.0
210
0.0
220
0.0
230
0.9999999999999998
 40
0.9999999999999998
 41
3.141592653589755
 42
4.712388980384024
  0
ELLIPSE
  5
1073
330
1F
100
AcDbEntity
  8
0
  6
Continuous
 62
     7
100
AcDbEllipse
 10
310.2707832710066
 20
-61.03293021229561
 30
0.0
 11
0.707106781186715
 21
0.707106781186715
 31
0.0
210
0.0
220
0.0
230
0.9999999999999998
 40
0.9999999999999619
 41
3.14159265358978
 42
4.712388980384639
  0
ELLIPSE
  5
1074
330
1F
100
AcDbEntity
  8
0
  6
Continuous
 62
     7
100
AcDbEllipse
 10
312.5335249708041
 20
-63.29567191209225
 30
0.0
 11
-0.7071067811861733
 21
0.7071067811861733
 31
0.0
210
0.0
220
0.0
230
1.0
 40
0.9999999999999996
 41
0.0000000000006779
 42
1.570796326794921
  0
ELLIPSE
  5
1075
330
1F
100
AcDbEntity
  8
0
  6
Continuous
 62
     7
100
AcDbEllipse
 10
251.7707832710065
 20
-66.79567191209223
 30
0.0
 11
1.41421356237311
 21
1.41421356237311
 31
0.0
210
0.0
220
0.0
230
1.0
 40
0.9999999999999893
 41
5.497787143782132
 42
7.068583470577039
  0
ELLIPSE
  5
1076
330
1F
100
AcDbEntity
  8
0
  6
Continuous
 62
     7
100
AcDbEllipse
 10
251.7707832710065
 20
-102.6403030579041
 30
0.0
 11
1.414213562373324
 21
1.414213562373324
 31
0.0
210
0.0
220
0.0
230
0.9999999999999998
 40
0.9999999999999904
 41
3.838266862917889
 42
5.497787143782133
  0
ELLIPSE
  5
1077
330
1F
100
AcDbEntity
  8
0
  6
Continuous
 62
     7
100
AcDbEllipse
 10
215.9261521251945
 20
-66.79567191209223
 30
0.0
 11
-1.414213562373094
 21
1.414213562373094
 31
0.0
210
0.0
220
0.0
230
0.9999999999999998
 40
0.9999999999999879
 41
-0.7853981633974544
 42
0.874122117467316
  0
ELLIPSE
  5
1078
330
1F
100
AcDbEntity
  8
0
  6
Continuous
 62
     7
100
AcDbEllipse
 10
258.7707832710066
 20
-66.79567191209223
 30
0.0
 11
-1.41421356237311
 21
1.41421356237311
 31
0.0
210
0.0
220
0.0
230
0.9999999999999998
 40
0.9999999999999891
 41
-0.7853981633974537
 42
0.7853981633974536
  0
ELLIPSE
  5
1079
330
1F
100
AcDbEntity
  8
0
  6
Continuous
 62
     7
100
AcDbEllipse
 10
294.6154144168184
 20
-66.79567191209223
 30
0.0
 11
-1.414213562373394
 21
1.414213562373394
 31
0.0
210
0.0
220
0.0
230
1.0
 40
0.999999999999976
 41
3.838266862917436
 42
5.497787143782126
  0
ELLIPSE
  5
107A
330
1F
100
AcDbEntity
  8
0
  6
Continuous
 62
     7
100
AcDbEllipse
 10
258.7707832710066
 20
-102.6403030579041
 30
0.0
 11
-1.41421356237311
 21
1.41421356237311
 31
0.0
210
0.0
220
0.0
230
1.0
 40
0.9999999999999943
 41
0.785398163397451
 42
2.444918444262139
  0
ELLIPSE
  5
107B
330
1F
100
AcDbEntity
  8
0
  6
Continuous
 62
     7
100
AcDbEllipse
 10
258.7707832710066
 20
-59.79567191209224
 30
0.0
 11
1.41421356237311
 21
1.41421356237311
 31
0.0
210
0.0
220
0.0
230
1.0
 40
0.9999999999999893
 41
2.356194490192339
 42
3.926990816987246
  0
ELLIPSE
  5
107C
330
1F
100
AcDbEntity
  8
0
  6
DASHED
 62
     7
100
AcDbEllipse
 10
258.7707832710066
 20
-23.95104076628033
 30
0.0
 11
1.414213562372737
 21
1.414213562372737
 31
0.0
210
0.0
220
0.0
230
0.9999999999999998
 40
0.9999999999999978
 41
0.6966742093275921
 42
2.356194490192343
  0
ELLIPSE
  5
107D
330
1F
100
AcDbEntity
  8
0
  6
Continuous
 62
     7
100
AcDbEllipse
 10
294.6154144168184
 20
-59.79567191209224
 30
0.0
 11
1.414213562373111
 21
1.414213562373111
 31
0.0
210
0.0
220
0.0
230
1.0
 40
0.9999999999999886
 41
3.926990816987246
 42
5.586511097851492
  0
ELLIPSE
  5
107E
330
1F
100
AcDbEntity
  8
0
  6
Continuous
 62
     7
100
AcDbEllipse
 10
261.2707832710066
 20
190.7043280879079
 30
0.0
 11
10.60660171779822
 21
10.60660171779822
 31
0.0
210
0.0
220
0.0
230
1.0
 40
0.9999999999999989
 41
5.497787143782137
 42
7.068583470577035
  0
ELLIPSE
  5
107F
330
1F
100
AcDbEntity
  8
0
  6
Continuous
 62
     7
100
AcDbEllipse
 10
160.2707832710066
 20
195.7043280879079
 30
0.0
 11
-7.071067811865487
 21
7.071067811865487
 31
0.0
210
0.0
220
0.0
230
1.0
 40
0.9999999999999966
 41
-0.7853981633974501
 42
0.7853981633974501
  0
ELLIPSE
  5
1080
330
1F
100
AcDbEntity
  8
0
  6
Continuous
 62
     7
100
AcDbEllipse
 10
147.2707832710066
 20
128.7043280879077
 30
0.0
 11
2.121320343559646
 21
2.121320343559646
 31
0.0
210
0.0
220
0.0
230
1.0
 40
0.9999999999999984
 41
3.926990816987242
 42
5.497787143782137
  0
ELLIPSE
  5
1081
330
1F
100
AcDbEntity
  8
0
  6
Continuous
 62
     7
100
AcDbEllipse
 10
218.9707832710066
 20
207.2043280879079
 30
0.0
 11
-1.060660171779827
 21
1.060660171779828
 31
0.0
210
0.0
220
0.0
230
1.0
 40
0.9999999999999801
 41
-0.7853981633974583
 42
0.7853981633974581
  0
ELLIPSE
  5
1082
330
1F
100
AcDbEntity
  8
0
  6
Continuous
 62
     7
100
AcDbEllipse
 10
232.9707832710066
 20
207.2043280879079
 30
0.0
 11
-1.060660171779824
 21
1.060660171779824
 31
0.0
210
0.0
220
0.0
230
1.0
 40
0.9999999999999863
 41
3.926990816987248
 42
5.49778714378213
  0
ELLIPSE
  5
1083
330
1F
100
AcDbEntity
  8
0
  6
Continuous
 62
     7
100
AcDbEllipse
 10
147.2707832710066
 20
-27.29567191209218
 30
0.0
 11
-2.121320343559644
 21
2.121320343559644
 31
0.0
210
0.0
220
0.0
230
1.0
 40
0.9999999999999969
 41
3.926990816987243
 42
5.497787143782136
  0
ELLIPSE
  5
1084
330
1F
100
AcDbEntity
  8
0
  6
Continuous
 62
     7
100
AcDbEllipse
 10
160.2707832710066
 20
-94.29567191209221
 30
0.0
 11
7.071067811865478
 21
7.071067811865477
 31
0.0
210
0.0
220
0.0
230
1.0
 40
0.9999999999999992
 41
2.356194490192344
 42
3.926990816987241
  0
ELLIPSE
  5
1085
330
1F
100
AcDbEntity
  8
0
  6
Continuous
 62
     7
100
AcDbEllipse
 10
218.9707832710066
 20
207.2043280879079
 30
0.0
 11
-1.060660171779827
 21
1.060660171779828
 31
0.0
210
0.0
220
0.0
230
1.0
 40
0.9999999999999801
 41
-0.7853981633974583
 42
0.7853981633974581
  0
ELLIPSE
  5
1086
330
1F
100
AcDbEntity
  8
0
  6
Continuous
 62
     7
100
AcDbEllipse
 10
216.4707832710066
 20
206.7043280879078
 30
0.0
 11
0.7071067811865566
 21
0.7071067811865566
 31
0.0
210
0.0
220
0.0
230
0.9999999999999998
 40
0.9999999999999854
 41
3.926990816987248
 42
5.49778714378213
  0
ELLIPSE
  5
1087
330
1F
100
AcDbEntity
  8
0
  6
Continuous
 62
     7
100
AcDbEllipse
 10
386.7688961892251
 20
-10.83769755661995
 30
0.0
 11
7.071067811865507
 21
7.071067811865507
 31
0.0
210
0.0
220
0.0
230
0.9999999999999998
 40
0.9999999999999968
 41
3.936424499393239
 42
4.766736099528777
  0
ELLIPSE
  5
1088
330
1F
100
AcDbEntity
  8
0
  6
Continuous
 62
     7
100
AcDbEllipse
 10
396.2707832710066
 20
-0.242516096147682
 30
0.0
 11
7.071067811865478
 21
7.071067811865477
 31
0.0
210
0.0
220
0.0
230
1.0
 40
0.9999999999999975
 41
4.76673609952877
 42
5.497787143782137
  0
ELLIPSE
  5
1089
330
1F
100
AcDbEntity
  8
0
  6
Continuous
 62
     7
100
AcDbEllipse
 10
386.7688961892251
 20
112.2463537324354
 30
0.0
 11
7.071067811865502
 21
7.071067811865501
 31
0.0
210
0.0
220
0.0
230
1.0
 40
0.9999999999999944
 41
6.228838188035499
 42
7.05914978817104
  0
ELLIPSE
  5
108A
330
1F
100
AcDbEntity
  8
0
  6
Continuous
 62
     7
100
AcDbEllipse
 10
396.2707832710066
 20
101.6511722719632
 30
0.0
 11
-7.071067811865501
 21
7.071067811865501
 31
0.0
210
0.0
220
0.0
230
1.0
 40
0.9999999999999952
 41
3.926990816987244
 42
4.658041861240609
  0
ELLIPSE
  5
108B
330
1F
100
AcDbEntity
  8
0
  6
Continuous
 62
     7
100
AcDbEllipse
 10
284.2707832710066
 20
123.978416641138
 30
0.0
 11
0.7071067811865684
 21
0.7071067811865684
 31
0.0
210
0.0
220
0.0
230
0.9999999999999998
 40
0.9999999999999518
 41
5.497787143782113
 42
7.068583470577058
  0
ELLIPSE
  5
1092
330
1F
100
AcDbEntity
  8
0
  6
Continuous
 62
     7
100
AcDbEllipse
 10
93.77078327100649
 20
110.2043280879077
 30
0.0
 11
1.060660171779828
 21
1.060660171779828
 31
0.0
210
0.0
220
0.0
230
0.9999999999999998
 40
0.9999999999999912
 41
0.7853981633974526
 42
2.35619449019234
  0
ELLIPSE
  5
1093
330
1F
100
AcDbEntity
  8
0
  6
Continuous
 62
     7
100
AcDbEllipse
 10
130.2707832710065
 20
123.7043280879077
 30
0.0
 11
1.414213562373094
 21
1.414213562373094
 31
0.0
210
0.0
220
0.0
230
1.0
 40
0.9999999999999985
 41
0.785398163397449
 42
2.356194490192343
  0
ELLIPSE
  5
1094
330
1F
100
AcDbEntity
  8
0
  6
Continuous
 62
     7
100
AcDbEllipse
 10
126.2707832710065
 20
113.7043280879077
 30
0.0
 11
-1.414213562373092
 21
1.414213562373092
 31
0.0
210
0.0
220
0.0
230
1.0
 40
0.9999999999999969
 41
2.356194490192343
 42
3.926990816987243
  0
ELLIPSE
  5
1095
330
1F
100
AcDbEntity
  8
0
  6
Continuous
 62
     7
100
AcDbEllipse
 10
93.77078327100649
 20
-8.795671912092259
 30
0.0
 11
-1.060660171779828
 21
1.060660171779828
 31
0.0
210
0.0
220
0.0
230
0.9999999999999996
 40
0.9999999999999912
 41
0.7853981633974523
 42
2.35619449019234
  0
ELLIPSE
  5
1096
330
1F
100
AcDbEntity
  8
0
  6
Continuous
 62
     7
100
AcDbEllipse
 10
126.2707832710065
 20
-12.29567191209226
 30
0.0
 11
1.414213562373091
 21
1.414213562373091
 31
0.0
210
0.0
220
0.0
230
0.9999999999999998
 40
0.9999999999999969
 41
5.497787143782136
 42
7.068583470577036
  0
ELLIPSE
  5
1097
330
1F
100
AcDbEntity
  8
0
  6
Continuous
 62
     7
100
AcDbEllipse
 10
130.2707832710065
 20
-22.29567191209181
 30
0.0
 11
-1.414213562373093
 21
1.414213562373093
 31
0.0
210
0.0
220
0.0
230
0.9999999999999998
 40
0.9999999999999985
 41
0.7853981633974488
 42
2.356194490192343
  0
LINE
  5
14A3
330
1F
100
AcDbEntity
  8
1
  6
DOTTED
 62
     2
100
AcDbLine
 10
-192.6047543467958
 20
-119.0697604653226
 30
0.0
 11
-192.6047543467958
 21
-116.7697604653223
 31
0.0
  0
LINE
  5
14A4
330
1F
100
AcDbEntity
  8
1
  6
DOTTED
 62
     2
100
AcDbLine
 10
-181.6047543467957
 20
-116.7697604653223
 30
0.0
 11
-181.6047543467957
 21
-119.0697604653226
 31
0.0
  0
LINE
  5
14A5
330
1F
100
AcDbEntity
  8
1
  6
DOTTED
 62
     2
100
AcDbLine
 10
-312.6047543467957
 20
-119.0697604653226
 30
0.0
 11
-312.6047543467957
 21
-116.7697604653223
 31
0.0
  0
LINE
  5
14A6
330
1F
100
AcDbEntity
  8
1
  6
DOTTED
 62
     2
100
AcDbLine
 10
-301.6047543467958
 20
-116.7697604653223
 30
0.0
 11
-301.6047543467958
 21
-119.0697604653226
 31
0.0
  0
LINE
  5
14A7
330
1F
100
AcDbEntity
  8
0
  6
DASH_CENTER
 62
     2
100
AcDbLine
 10
-247.1047543467957
 20
123.9043280879078
 30
0.0
 11
-247.1047543467957
 21
-22.49567191209229
 31
0.0
  0
LINE
  5
14A9
330
1F
100
AcDbEntity
  8
0
  6
DASH_CENTER
 62
     2
100
AcDbLine
 10
-247.1047543467957
 20
119.704328087907
 30
0.0
 11
-247.1047543467957
 21
-18.29567191209327
 31
0.0
  0
LINE
  5
14AB
330
1F
100
AcDbEntity
  8
0
  6
Continuous
 62
     7
100
AcDbLine
 10
-247.1047543467957
 20
-15.86183984290363
 30
0.0
 11
-246.6644978627537
 21
-15.86183984290363
 31
0.0
  0
LINE
  5
14AC
330
1F
100
AcDbEntity
  8
0
  6
Continuous
 62
     7
100
AcDbLine
 10
-247.1047543467957
 20
-15.86183984290363
 30
0.0
 11
-246.6644978627537
 21
-15.86183984290363
 31
0.0
  0
LINE
  5
14AD
330
1F
100
AcDbEntity
  8
0
  6
Continuous
 62
     7
100
AcDbLine
 10
-62.10475434679583
 20
-19.2956719120927
 30
0.0
 11
-62.10475434679583
 21
-12.79567191209224
 31
0.0
  0
LINE
  5
14AE
330
1F
100
AcDbEntity
  8
0
  6
Continuous
 62
     7
100
AcDbLine
 10
-60.10475434679581
 20
1.704328087907299
 30
0.0
 11
-52.10475434679583
 21
1.704328087907299
 31
0.0
  0
LINE
  5
14AF
330
1F
100
AcDbEntity
  8
0
  6
Continuous
 62
     7
100
AcDbLine
 10
-52.10475434679583
 20
-63.29567191209273
 30
0.0
 11
-52.10475434679583
 21
1.704328087907299
 31
0.0
  0
LINE
  5
14B0
330
1F
100
AcDbEntity
  8
0
  6
Continuous
 62
     7
100
AcDbLine
 10
-62.10475434679583
 20
-107.2956719120928
 30
0.0
 11
-62.10475434679583
 21
-19.2956719120927
 31
0.0
  0
LINE
  5
14B1
330
1F
100
AcDbEntity
  8
0
  6
Continuous
 62
     7
100
AcDbLine
 10
-62.10475434679583
 20
-126.2956719120928
 30
0.0
 11
-62.10475434679583
 21
-107.2956719120928
 31
0.0
  0
LINE
  5
14B2
330
1F
100
AcDbEntity
  8
0
  6
Continuous
 62
     7
100
AcDbLine
 10
-52.10475434679583
 20
-128.2956719120928
 30
0.0
 11
-60.10475434679581
 21
-128.2956719120928
 31
0.0
  0
LINE
  5
14B3
330
1F
100
AcDbEntity
  8
0
  6
Continuous
 62
     7
100
AcDbLine
 10
-52.10475434679583
 20
-128.2956719120928
 30
0.0
 11
-52.10475434679583
 21
-63.29567191209273
 31
0.0
  0
LINE
  5
14B4
330
1F
100
AcDbEntity
  8
0
  6
Continuous
 62
     7
100
AcDbLine
 10
-177.6644978627537
 20
48.13816015709637
 30
0.0
 11
-178.2644978627531
 21
48.13816015709637
 31
0.0
  0
LINE
  5
14B5
330
1F
100
AcDbEntity
  8
0
  6
Continuous
 62
     7
100
AcDbLine
 10
-180.7644978627531
 20
50.03816015709594
 30
0.0
 11
-180.7644978627531
 21
50.63816015709637
 31
0.0
  0
LINE
  5
14B6
330
1F
100
AcDbEntity
  8
0
  6
Continuous
 62
     7
100
AcDbLine
 10
-178.8644978627535
 20
53.13816015709637
 30
0.0
 11
-177.6644978627537
 21
53.13816015709637
 31
0.0
  0
LINE
  5
14B7
330
1F
100
AcDbEntity
  8
0
  6
Continuous
 62
     7
100
AcDbLine
 10
-177.6644978627537
 20
49.038160157096
 30
0.0
 11
-177.6644978627537
 21
48.13816015709637
 31
0.0
  0
LINE
  5
14B8
330
1F
100
AcDbEntity
  8
0
  6
Continuous
 62
     7
100
AcDbLine
 10
-179.8644978627535
 20
50.03816015709594
 30
0.0
 11
-180.7644978627531
 21
50.03816015709594
 31
0.0
  0
LINE
  5
14B9
330
1F
100
AcDbEntity
  8
0
  6
Continuous
 62
     7
100
AcDbLine
 10
-178.8644978627535
 20
52.23816015709582
 30
0.0
 11
-178.8644978627535
 21
53.13816015709637
 31
0.0
  0
LINE
  5
14BA
330
1F
100
AcDbEntity
  8
0
  6
Continuous
 62
     7
100
AcDbLine
 10
-175.7644978627531
 20
50.03816015709594
 30
0.0
 11
-176.6644978627537
 21
50.03816015709594
 31
0.0
  0
LINE
  5
14BB
330
1F
100
AcDbEntity
  8
0
  6
Continuous
 62
     7
100
AcDbLine
 10
-178.8644978627535
 20
48.13816015709637
 30
0.0
 11
-178.8644978627535
 21
49.038160157096
 31
0.0
  0
LINE
  5
14BC
330
1F
100
AcDbEntity
  8
0
  6
Continuous
 62
     7
100
AcDbLine
 10
-180.7644978627531
 20
51.23816015709582
 30
0.0
 11
-179.8644978627535
 21
51.23816015709582
 31
0.0
  0
LINE
  5
14BD
330
1F
100
AcDbEntity
  8
0
  6
Continuous
 62
     7
100
AcDbLine
 10
-175.7644978627531
 20
50.63816015709637
 30
0.0
 11
-175.7644978627531
 21
50.03816015709594
 31
0.0
  0
LINE
  5
14BE
330
1F
100
AcDbEntity
  8
0
  6
Continuous
 62
     7
100
AcDbLine
 10
-178.2644978627531
 20
48.13816015709637
 30
0.0
 11
-178.8644978627535
 21
48.13816015709637
 31
0.0
  0
LINE
  5
14BF
330
1F
100
AcDbEntity
  8
0
  6
Continuous
 62
     7
100
AcDbLine
 10
-180.7644978627531
 20
50.63816015709637
 30
0.0
 11
-180.7644978627531
 21
51.23816015709582
 31
0.0
  0
LINE
  5
14C1
330
1F
100
AcDbEntity
  8
0
  6
Continuous
 62
     7
100
AcDbLine
 10
-175.7644978627531
 20
51.23816015709582
 30
0.0
 11
-175.7644978627531
 21
50.63816015709637
 31
0.0
  0
LINE
  5
14C2
330
1F
100
AcDbEntity
  8
0
  6
Continuous
 62
     7
100
AcDbLine
 10
-176.6644978627537
 20
51.23816015709582
 30
0.0
 11
-175.7644978627531
 21
51.23816015709582
 31
0.0
  0
LINE
  5
14C3
330
1F
100
AcDbEntity
  8
0
  6
Continuous
 62
     7
100
AcDbLine
 10
-177.6644978627537
 20
53.13816015709637
 30
0.0
 11
-177.6644978627537
 21
52.23816015709582
 31
0.0
  0
LINE
  5
14C6
330
1F
100
AcDbEntity
  8
0
  6
Continuous
 62
     7
100
AcDbLine
 10
-249.7644978627532
 20
-18.961839842904
 30
0.0
 11
-249.7644978627532
 21
-18.36183984290363
 31
0.0
  0
LINE
  5
14C7
330
1F
100
AcDbEntity
  8
0
  6
Continuous
 62
     7
100
AcDbLine
 10
-247.8644978627544
 20
-15.86183984290363
 30
0.0
 11
-247.2644978627532
 21
-15.86183984290363
 31
0.0
  0
LINE
  5
14C8
330
1F
100
AcDbEntity
  8
0
  6
Continuous
 62
     7
100
AcDbLine
 10
-244.7644978627532
 20
-17.76183984290418
 30
0.0
 11
-244.7644978627532
 21
-18.961839842904
 31
0.0
  0
LINE
  5
14C9
330
1F
100
AcDbEntity
  8
0
  6
Continuous
 62
     7
100
AcDbLine
 10
-248.8644978627544
 20
-18.961839842904
 30
0.0
 11
-249.7644978627532
 21
-18.961839842904
 31
0.0
  0
LINE
  5
14CA
330
1F
100
AcDbEntity
  8
0
  6
Continuous
 62
     7
100
AcDbLine
 10
-247.8644978627544
 20
-16.76183984290421
 30
0.0
 11
-247.8644978627544
 21
-15.86183984290363
 31
0.0
  0
LINE
  5
14CB
330
1F
100
AcDbEntity
  8
0
  6
Continuous
 62
     7
100
AcDbLine
 10
-245.6644978627537
 20
-17.76183984290418
 30
0.0
 11
-244.7644978627532
 21
-17.76183984290418
 31
0.0
  0
LINE
  5
14CC
330
1F
100
AcDbEntity
  8
0
  6
Continuous
 62
     7
100
AcDbLine
 10
-247.8644978627544
 20
-20.86183984290364
 30
0.0
 11
-247.8644978627544
 21
-19.961839842904
 31
0.0
  0
LINE
  5
14CD
330
1F
100
AcDbEntity
  8
0
  6
Continuous
 62
     7
100
AcDbLine
 10
-249.7644978627532
 20
-17.76183984290418
 30
0.0
 11
-248.8644978627544
 21
-17.76183984290418
 31
0.0
  0
LINE
  5
14CE
330
1F
100
AcDbEntity
  8
0
  6
Continuous
 62
     7
100
AcDbLine
 10
-246.6644978627537
 20
-15.86183984290363
 30
0.0
 11
-246.6644978627537
 21
-16.76183984290421
 31
0.0
  0
LINE
  5
14CF
330
1F
100
AcDbEntity
  8
0
  6
Continuous
 62
     7
100
AcDbLine
 10
-247.2644978627532
 20
-20.86183984290364
 30
0.0
 11
-247.8644978627544
 21
-20.86183984290364
 31
0.0
  0
LINE
  5
14D0
330
1F
100
AcDbEntity
  8
0
  6
Continuous
 62
     7
100
AcDbLine
 10
-249.7644978627532
 20
-18.36183984290363
 30
0.0
 11
-249.7644978627532
 21
-17.76183984290418
 31
0.0
  0
LINE
  5
14D1
330
1F
100
AcDbEntity
  8
0
  6
Continuous
 62
     7
100
AcDbLine
 10
-247.2644978627532
 20
-15.86183984290363
 30
0.0
 11
-247.1047543467957
 21
-15.86183984290363
 31
0.0
  0
LINE
  5
14D2
330
1F
100
AcDbEntity
  8
0
  6
DASH_CENTER
 62
     2
100
AcDbLine
 10
-247.2644978627532
 20
-20.86183984290364
 30
0.0
 11
-247.2644978627532
 21
-13.86183984290363
 31
0.0
  0
LINE
  5
14D3
330
1F
100
AcDbEntity
  8
0
  6
Continuous
 62
     7
100
AcDbLine
 10
-246.6644978627537
 20
-20.86183984290364
 30
0.0
 11
-247.2644978627532
 21
-20.86183984290364
 31
0.0
  0
LINE
  5
14D4
330
1F
100
AcDbEntity
  8
0
  6
Continuous
 62
     7
100
AcDbLine
 10
-246.6644978627537
 20
-19.961839842904
 30
0.0
 11
-246.6644978627537
 21
-20.86183984290364
 31
0.0
  0
LINE
  5
14D5
330
1F
100
AcDbEntity
  8
0
  6
Continuous
 62
     7
100
AcDbLine
 10
-244.7644978627532
 20
-18.961839842904
 30
0.0
 11
-245.6644978627537
 21
-18.961839842904
 31
0.0
  0
LINE
  5
14D6
330
1F
100
AcDbEntity
  8
0
  6
DASH_CENTER
 62
     2
100
AcDbLine
 10
-247.2644978627532
 20
-24.66183984290385
 30
0.0
 11
-247.2644978627532
 21
-20.86183984290364
 31
0.0
  0
LINE
  5
14D7
330
1F
100
AcDbEntity
  8
0
  6
DASH_CENTER
 62
     2
100
AcDbLine
 10
-247.2644978627532
 20
-24.66183984290385
 30
0.0
 11
-247.2644978627532
 21
-20.86183984290364
 31
0.0
  0
LINE
  5
14D8
330
1F
100
AcDbEntity
  8
0
  6
Continuous
 62
     7
100
AcDbLine
 10
-316.8644978627536
 20
53.13816015709637
 30
0.0
 11
-316.2644978627532
 21
53.13816015709637
 31
0.0
  0
LINE
  5
14D9
330
1F
100
AcDbEntity
  8
0
  6
Continuous
 62
     7
100
AcDbLine
 10
-313.7644978627532
 20
51.23816015709582
 30
0.0
 11
-313.7644978627532
 21
50.63816015709637
 31
0.0
  0
LINE
  5
14DA
330
1F
100
AcDbEntity
  8
0
  6
Continuous
 62
     7
100
AcDbLine
 10
-315.6644978627538
 20
48.13816015709637
 30
0.0
 11
-316.8644978627536
 21
48.13816015709637
 31
0.0
  0
LINE
  5
14DB
330
1F
100
AcDbEntity
  8
0
  6
Continuous
 62
     7
100
AcDbLine
 10
-316.8644978627536
 20
52.23816015709582
 30
0.0
 11
-316.8644978627536
 21
53.13816015709637
 31
0.0
  0
LINE
  5
14DC
330
1F
100
AcDbEntity
  8
0
  6
Continuous
 62
     7
100
AcDbLine
 10
-314.6644978627537
 20
51.23816015709582
 30
0.0
 11
-313.7644978627532
 21
51.23816015709582
 31
0.0
  0
LINE
  5
14DD
330
1F
100
AcDbEntity
  8
0
  6
Continuous
 62
     7
100
AcDbLine
 10
-315.6644978627538
 20
49.038160157096
 30
0.0
 11
-315.6644978627538
 21
48.13816015709637
 31
0.0
  0
LINE
  5
14DE
330
1F
100
AcDbEntity
  8
0
  6
Continuous
 62
     7
100
AcDbLine
 10
-318.7644978627532
 20
51.23816015709582
 30
0.0
 11
-317.8644978627544
 21
51.23816015709582
 31
0.0
  0
LINE
  5
14DF
330
1F
100
AcDbEntity
  8
0
  6
Continuous
 62
     7
100
AcDbLine
 10
-315.6644978627538
 20
53.13816015709637
 30
0.0
 11
-315.6644978627538
 21
52.23816015709582
 31
0.0
  0
LINE
  5
14E0
330
1F
100
AcDbEntity
  8
0
  6
Continuous
 62
     7
100
AcDbLine
 10
-313.7644978627532
 20
50.03816015709594
 30
0.0
 11
-314.6644978627537
 21
50.03816015709594
 31
0.0
  0
LINE
  5
14E1
330
1F
100
AcDbEntity
  8
0
  6
Continuous
 62
     7
100
AcDbLine
 10
-318.7644978627532
 20
50.63816015709637
 30
0.0
 11
-318.7644978627532
 21
51.23816015709582
 31
0.0
  0
LINE
  5
14E2
330
1F
100
AcDbEntity
  8
0
  6
Continuous
 62
     7
100
AcDbLine
 10
-316.2644978627532
 20
53.13816015709637
 30
0.0
 11
-315.6644978627538
 21
53.13816015709637
 31
0.0
  0
LINE
  5
14E3
330
1F
100
AcDbEntity
  8
0
  6
Continuous
 62
     7
100
AcDbLine
 10
-313.7644978627532
 20
50.63816015709637
 30
0.0
 11
-313.7644978627532
 21
50.03816015709594
 31
0.0
  0
LINE
  5
14E5
330
1F
100
AcDbEntity
  8
0
  6
Continuous
 62
     7
100
AcDbLine
 10
-318.7644978627532
 20
50.03816015709594
 30
0.0
 11
-318.7644978627532
 21
50.63816015709637
 31
0.0
  0
LINE
  5
14E6
330
1F
100
AcDbEntity
  8
0
  6
Continuous
 62
     7
100
AcDbLine
 10
-317.8644978627535
 20
50.03816015709594
 30
0.0
 11
-318.7644978627532
 21
50.03816015709594
 31
0.0
  0
LINE
  5
14E7
330
1F
100
AcDbEntity
  8
0
  6
Continuous
 62
     7
100
AcDbLine
 10
-316.8644978627536
 20
48.13816015709637
 30
0.0
 11
-316.8644978627536
 21
49.038160157096
 31
0.0
  0
LINE
  5
14EA
330
1F
100
AcDbEntity
  8
0
  6
Continuous
 62
     7
100
AcDbLine
 10
-176.6644978627537
 20
51.23816015709582
 30
0.0
 11
-175.7644978627531
 21
51.23816015709582
 31
0.0
  0
LINE
  5
14EB
330
1F
100
AcDbEntity
  8
0
  6
Continuous
 62
     7
100
AcDbLine
 10
-246.6644978627537
 20
-19.961839842904
 30
0.0
 11
-246.6644978627537
 21
-20.86183984290364
 31
0.0
  0
LINE
  5
14EC
330
1F
100
AcDbEntity
  8
0
  6
Continuous
 62
     7
100
AcDbLine
 10
-317.8644978627535
 20
50.03816015709594
 30
0.0
 11
-318.7644978627532
 21
50.03816015709594
 31
0.0
  0
LINE
  5
14ED
330
1F
100
AcDbEntity
  8
0
  6
Continuous
 62
     7
100
AcDbLine
 10
-176.6644978627537
 20
51.23816015709582
 30
0.0
 11
-175.7644978627531
 21
51.23816015709582
 31
0.0
  0
LINE
  5
14EE
330
1F
100
AcDbEntity
  8
0
  6
Continuous
 62
     7
100
AcDbLine
 10
-246.6644978627537
 20
-19.961839842904
 30
0.0
 11
-246.6644978627537
 21
-20.86183984290364
 31
0.0
  0
LINE
  5
14EF
330
1F
100
AcDbEntity
  8
0
  6
Continuous
 62
     7
100
AcDbLine
 10
-317.8644978627535
 20
50.03816015709594
 30
0.0
 11
-318.7644978627532
 21
50.03816015709594
 31
0.0
  0
LINE
  5
14F0
330
1F
100
AcDbEntity
  8
0
  6
Continuous
 62
     7
100
AcDbLine
 10
-180.7644978627531
 20
50.03816015709594
 30
0.0
 11
-180.7644978627531
 21
50.63816015709637
 31
0.0
  0
LINE
  5
14F1
330
1F
100
AcDbEntity
  8
0
  6
Continuous
 62
     7
100
AcDbLine
 10
-178.8644978627535
 20
53.13816015709637
 30
0.0
 11
-177.6644978627537
 21
53.13816015709637
 31
0.0
  0
LINE
  5
14F2
330
1F
100
AcDbEntity
  8
0
  6
Continuous
 62
     7
100
AcDbLine
 10
-179.8644978627535
 20
50.03816015709594
 30
0.0
 11
-180.7644978627531
 21
50.03816015709594
 31
0.0
  0
LINE
  5
14F3
330
1F
100
AcDbEntity
  8
0
  6
Continuous
 62
     7
100
AcDbLine
 10
-178.8644978627535
 20
52.23816015709582
 30
0.0
 11
-178.8644978627535
 21
53.13816015709637
 31
0.0
  0
LINE
  5
14F4
330
1F
100
AcDbEntity
  8
0
  6
Continuous
 62
     7
100
AcDbLine
 10
-178.8644978627535
 20
48.13816015709637
 30
0.0
 11
-178.8644978627535
 21
49.038160157096
 31
0.0
  0
LINE
  5
14F5
330
1F
100
AcDbEntity
  8
0
  6
Continuous
 62
     7
100
AcDbLine
 10
-180.7644978627531
 20
51.23816015709582
 30
0.0
 11
-179.8644978627535
 21
51.23816015709582
 31
0.0
  0
LINE
  5
14F6
330
1F
100
AcDbEntity
  8
0
  6
Continuous
 62
     7
100
AcDbLine
 10
-180.7644978627531
 20
50.63816015709637
 30
0.0
 11
-180.7644978627531
 21
51.23816015709582
 31
0.0
  0
LINE
  5
14F7
330
1F
100
AcDbEntity
  8
0
  6
Continuous
 62
     7
100
AcDbLine
 10
-176.6644978627537
 20
51.23816015709582
 30
0.0
 11
-175.7644978627531
 21
51.23816015709582
 31
0.0
  0
LINE
  5
14F8
330
1F
100
AcDbEntity
  8
0
  6
Continuous
 62
     7
100
AcDbLine
 10
-177.6644978627537
 20
53.13816015709637
 30
0.0
 11
-177.6644978627537
 21
52.23816015709582
 31
0.0
  0
LINE
  5
14F9
330
1F
100
AcDbEntity
  8
0
  6
Continuous
 62
     7
100
AcDbLine
 10
-247.8644978627544
 20
-15.86183984290363
 30
0.0
 11
-247.2644978627532
 21
-15.86183984290363
 31
0.0
  0
LINE
  5
14FA
330
1F
100
AcDbEntity
  8
0
  6
Continuous
 62
     7
100
AcDbLine
 10
-244.7644978627532
 20
-17.76183984290418
 30
0.0
 11
-244.7644978627532
 21
-18.961839842904
 31
0.0
  0
LINE
  5
14FB
330
1F
100
AcDbEntity
  8
0
  6
Continuous
 62
     7
100
AcDbLine
 10
-247.8644978627544
 20
-16.76183984290421
 30
0.0
 11
-247.8644978627544
 21
-15.86183984290363
 31
0.0
  0
LINE
  5
14FC
330
1F
100
AcDbEntity
  8
0
  6
Continuous
 62
     7
100
AcDbLine
 10
-245.6644978627537
 20
-17.76183984290418
 30
0.0
 11
-244.7644978627532
 21
-17.76183984290418
 31
0.0
  0
LINE
  5
14FD
330
1F
100
AcDbEntity
  8
0
  6
Continuous
 62
     7
100
AcDbLine
 10
-249.7644978627532
 20
-17.76183984290418
 30
0.0
 11
-248.8644978627544
 21
-17.76183984290418
 31
0.0
  0
LINE
  5
14FE
330
1F
100
AcDbEntity
  8
0
  6
Continuous
 62
     7
100
AcDbLine
 10
-246.6644978627537
 20
-15.86183984290363
 30
0.0
 11
-246.6644978627537
 21
-16.76183984290421
 31
0.0
  0
LINE
  5
14FF
330
1F
100
AcDbEntity
  8
0
  6
Continuous
 62
     7
100
AcDbLine
 10
-247.2644978627532
 20
-15.86183984290363
 30
0.0
 11
-247.1047543467957
 21
-15.86183984290363
 31
0.0
  0
LINE
  5
1500
330
1F
100
AcDbEntity
  8
0
  6
Continuous
 62
     7
100
AcDbLine
 10
-246.6644978627537
 20
-19.961839842904
 30
0.0
 11
-246.6644978627537
 21
-20.86183984290364
 31
0.0
  0
LINE
  5
1501
330
1F
100
AcDbEntity
  8
0
  6
Continuous
 62
     7
100
AcDbLine
 10
-244.7644978627532
 20
-18.961839842904
 30
0.0
 11
-245.6644978627537
 21
-18.961839842904
 31
0.0
  0
LINE
  5
1502
330
1F
100
AcDbEntity
  8
0
  6
Continuous
 62
     7
100
AcDbLine
 10
-313.7644978627532
 20
51.23816015709582
 30
0.0
 11
-313.7644978627532
 21
50.63816015709637
 31
0.0
  0
LINE
  5
1503
330
1F
100
AcDbEntity
  8
0
  6
Continuous
 62
     7
100
AcDbLine
 10
-315.6644978627538
 20
48.13816015709637
 30
0.0
 11
-316.8644978627536
 21
48.13816015709637
 31
0.0
  0
LINE
  5
1504
330
1F
100
AcDbEntity
  8
0
  6
Continuous
 62
     7
100
AcDbLine
 10
-314.6644978627537
 20
51.23816015709582
 30
0.0
 11
-313.7644978627532
 21
51.23816015709582
 31
0.0
  0
LINE
  5
1505
330
1F
100
AcDbEntity
  8
0
  6
Continuous
 62
     7
100
AcDbLine
 10
-315.6644978627538
 20
49.038160157096
 30
0.0
 11
-315.6644978627538
 21
48.13816015709637
 31
0.0
  0
LINE
  5
1506
330
1F
100
AcDbEntity
  8
0
  6
Continuous
 62
     7
100
AcDbLine
 10
-315.6644978627538
 20
53.13816015709637
 30
0.0
 11
-315.6644978627538
 21
52.23816015709582
 31
0.0
  0
LINE
  5
1507
330
1F
100
AcDbEntity
  8
0
  6
Continuous
 62
     7
100
AcDbLine
 10
-313.7644978627532
 20
50.03816015709594
 30
0.0
 11
-314.6644978627537
 21
50.03816015709594
 31
0.0
  0
LINE
  5
1508
330
1F
100
AcDbEntity
  8
0
  6
Continuous
 62
     7
100
AcDbLine
 10
-313.7644978627532
 20
50.63816015709637
 30
0.0
 11
-313.7644978627532
 21
50.03816015709594
 31
0.0
  0
LINE
  5
1509
330
1F
100
AcDbEntity
  8
0
  6
Continuous
 62
     7
100
AcDbLine
 10
-317.8644978627535
 20
50.03816015709594
 30
0.0
 11
-318.7644978627532
 21
50.03816015709594
 31
0.0
  0
LINE
  5
150A
330
1F
100
AcDbEntity
  8
0
  6
Continuous
 62
     7
100
AcDbLine
 10
-316.8644978627536
 20
48.13816015709637
 30
0.0
 11
-316.8644978627536
 21
49.038160157096
 31
0.0
  0
LINE
  5
150B
330
1F
100
AcDbEntity
  8
0
  6
Continuous
 62
     7
100
AcDbLine
 10
-244.7644978627532
 20
120.2381601570957
 30
0.0
 11
-244.7644978627532
 21
119.6381601570963
 31
0.0
  0
LINE
  5
150C
330
1F
100
AcDbEntity
  8
0
  6
Continuous
 62
     7
100
AcDbLine
 10
-246.6644978627537
 20
117.1381601570963
 30
0.0
 11
-247.2644978627532
 21
117.1381601570963
 31
0.0
  0
LINE
  5
150D
330
1F
100
AcDbEntity
  8
0
  6
Continuous
 62
     7
100
AcDbLine
 10
-249.7644978627532
 20
119.038160157096
 30
0.0
 11
-249.7644978627532
 21
120.2381601570957
 31
0.0
  0
LINE
  5
150E
330
1F
100
AcDbEntity
  8
0
  6
Continuous
 62
     7
100
AcDbLine
 10
-245.6644978627537
 20
120.2381601570957
 30
0.0
 11
-244.7644978627532
 21
120.2381601570957
 31
0.0
  0
LINE
  5
150F
330
1F
100
AcDbEntity
  8
0
  6
Continuous
 62
     7
100
AcDbLine
 10
-246.6644978627537
 20
118.038160157096
 30
0.0
 11
-246.6644978627537
 21
117.1381601570963
 31
0.0
  0
LINE
  5
1510
330
1F
100
AcDbEntity
  8
0
  6
Continuous
 62
     7
100
AcDbLine
 10
-248.8644978627535
 20
119.038160157096
 30
0.0
 11
-249.7644978627532
 21
119.038160157096
 31
0.0
  0
LINE
  5
1511
330
1F
100
AcDbEntity
  8
0
  6
Continuous
 62
     7
100
AcDbLine
 10
-246.6644978627537
 20
122.1381601570963
 30
0.0
 11
-246.6644978627537
 21
121.2381601570958
 31
0.0
  0
LINE
  5
1512
330
1F
100
AcDbEntity
  8
0
  6
Continuous
 62
     7
100
AcDbLine
 10
-244.7644978627532
 20
119.038160157096
 30
0.0
 11
-245.6644978627537
 21
119.038160157096
 31
0.0
  0
LINE
  5
1513
330
1F
100
AcDbEntity
  8
0
  6
Continuous
 62
     7
100
AcDbLine
 10
-247.8644978627535
 20
117.1381601570963
 30
0.0
 11
-247.8644978627535
 21
118.038160157096
 31
0.0
  0
LINE
  5
1514
330
1F
100
AcDbEntity
  8
0
  6
Continuous
 62
     7
100
AcDbLine
 10
-247.2644978627532
 20
122.1381601570963
 30
0.0
 11
-246.6644978627537
 21
122.1381601570963
 31
0.0
  0
LINE
  5
1515
330
1F
100
AcDbEntity
  8
0
  6
Continuous
 62
     7
100
AcDbLine
 10
-244.7644978627532
 20
119.6381601570963
 30
0.0
 11
-244.7644978627532
 21
119.038160157096
 31
0.0
  0
LINE
  5
1516
330
1F
100
AcDbEntity
  8
0
  6
Continuous
 62
     7
100
AcDbLine
 10
-247.2644978627532
 20
117.1381601570963
 30
0.0
 11
-247.8644978627535
 21
117.1381601570963
 31
0.0
  0
LINE
  5
1517
330
1F
100
AcDbEntity
  8
0
  6
DASH_CENTER
 62
     2
100
AcDbLine
 10
-247.2644978627532
 20
122.1381601570963
 30
0.0
 11
-247.2644978627532
 21
115.1381601570963
 31
0.0
  0
LINE
  5
1518
330
1F
100
AcDbEntity
  8
0
  6
Continuous
 62
     7
100
AcDbLine
 10
-247.8644978627535
 20
122.1381601570963
 30
0.0
 11
-247.2644978627532
 21
122.1381601570963
 31
0.0
  0
LINE
  5
1519
330
1F
100
AcDbEntity
  8
0
  6
Continuous
 62
     7
100
AcDbLine
 10
-247.8644978627535
 20
121.2381601570958
 30
0.0
 11
-247.8644978627535
 21
122.1381601570963
 31
0.0
  0
LINE
  5
151A
330
1F
100
AcDbEntity
  8
0
  6
Continuous
 62
     7
100
AcDbLine
 10
-249.7644978627532
 20
120.2381601570957
 30
0.0
 11
-248.8644978627535
 21
120.2381601570957
 31
0.0
  0
LINE
  5
151B
330
1F
100
AcDbEntity
  8
0
  6
DASH_CENTER
 62
     2
100
AcDbLine
 10
-247.2644978627532
 20
125.9381601570956
 30
0.0
 11
-247.2644978627532
 21
122.1381601570963
 31
0.0
  0
LINE
  5
151C
330
1F
100
AcDbEntity
  8
0
  6
DASH_CENTER
 62
     2
100
AcDbLine
 10
-247.2644978627532
 20
125.9381601570956
 30
0.0
 11
-247.2644978627532
 21
122.1381601570963
 31
0.0
  0
LINE
  5
151E
330
1F
100
AcDbEntity
  8
0
  6
Continuous
 62
     7
100
AcDbLine
 10
-52.10475434679583
 20
1.704328087907299
 30
0.0
 11
-51.10475434679583
 21
1.704328087907299
 31
0.0
  0
LINE
  5
151F
330
1F
100
AcDbEntity
  8
0
  6
Continuous
 62
     7
100
AcDbLine
 10
-52.10475434679583
 20
-128.2956719120928
 30
0.0
 11
-51.1047543467958
 21
-128.2956719120928
 31
0.0
  0
LINE
  5
1520
330
1F
100
AcDbEntity
  8
0
  6
Continuous
 62
     7
100
AcDbLine
 10
-51.10475434679583
 20
1.704328087907299
 30
0.0
 11
-51.1047543467958
 21
-128.2956719120928
 31
0.0
  0
LINE
  5
1521
330
1F
100
AcDbEntity
  8
0
  6
Continuous
 62
     7
100
AcDbLine
 10
-51.10475434679583
 20
-13.91991352933266
 30
0.0
 11
-51.10475434679583
 21
-14.39577191209236
 31
0.0
  0
LINE
  5
1522
330
1F
100
AcDbEntity
  8
0
  6
Continuous
 62
     7
100
AcDbLine
 10
-51.10475434679583
 20
-13.91991352933266
 30
0.0
 11
-51.10475434679583
 21
-11.59567191209109
 31
0.0
  0
LINE
  5
1523
330
1F
100
AcDbEntity
  8
0
  6
Continuous
 62
     7
100
AcDbLine
 10
-51.10475434679583
 20
-8.697571912092541
 30
0.0
 11
-51.10475434679583
 21
-13.91991352933266
 31
0.0
  0
LINE
  5
1524
330
1F
100
AcDbEntity
  8
0
  6
Continuous
 62
     7
100
AcDbLine
 10
-51.10475434679583
 20
-2.195771912092538
 30
0.0
 11
-51.10475434679583
 21
-8.295671912091819
 31
0.0
  0
LINE
  5
1525
330
1F
100
AcDbEntity
  8
0
  6
Continuous
 62
     7
100
AcDbLine
 10
-47.20485434679548
 20
-5.127971912091823
 30
0.0
 11
-47.20485434679548
 21
-11.46347191209108
 31
0.0
  0
LINE
  5
1526
330
1F
100
AcDbEntity
  8
0
  6
Continuous
 62
     7
100
AcDbLine
 10
-51.10475434679583
 20
-3.045671912091791
 30
0.0
 11
-48.93925434679485
 21
-3.235171912092226
 31
0.0
  0
LINE
  5
1527
330
1F
100
AcDbEntity
  8
0
  6
Continuous
 62
     7
100
AcDbLine
 10
-51.10475434679583
 20
-13.54567191209179
 30
0.0
 11
-48.93925434679485
 21
-13.35627191209249
 31
0.0
  0
LINE
  5
1528
330
1F
100
AcDbEntity
  8
0
  6
CENTER_DASH_DASH
 62
   171
100
AcDbLine
 10
-50.98930039239267
 20
-15.29567191209179
 30
0.0
 11
-50.98930039239267
 21
-15.31193099126238
 31
0.0
  0
LINE
  5
1529
330
1F
100
AcDbEntity
  8
0
  6
Continuous
 62
     7
100
AcDbLine
 10
-51.10475434679583
 20
-15.31003830348408
 30
0.0
 11
-51.10475434679583
 21
-13.91991352933266
 31
0.0
  0
LINE
  5
152A
330
1F
100
AcDbEntity
  8
0
  6
Continuous
 62
     7
100
AcDbLine
 10
-51.10475434679583
 20
-4.995671912092547
 30
0.0
 11
-51.10475434679583
 21
-2.295671912091791
 31
0.0
  0
LINE
  5
152B
330
1F
100
AcDbEntity
  8
0
  6
Continuous
 62
     7
100
AcDbLine
 10
-51.10475434679583
 20
-3.697571912092541
 30
0.0
 11
-51.10475434679583
 21
-13.91991352933266
 31
0.0
  0
LINE
  5
152C
330
1F
100
AcDbEntity
  8
0
  6
Continuous
 62
     7
100
AcDbLine
 10
-66.80475434679562
 20
-3.795671912091819
 30
0.0
 11
-66.80475434679562
 21
-5.795671912091819
 31
0.0
  0
LINE
  5
152D
330
1F
100
AcDbEntity
  8
0
  6
Continuous
 62
     7
100
AcDbLine
 10
-66.80475434679562
 20
-3.795671912091819
 30
0.0
 11
-62.10475434679583
 21
-3.795671912092245
 31
0.0
  0
LINE
  5
152E
330
1F
100
AcDbEntity
  8
0
  6
Continuous
 62
     7
100
AcDbLine
 10
-62.10475434679583
 20
-3.795671912092245
 30
0.0
 11
-62.10475434679583
 21
-0.2956719120927289
 31
0.0
  0
LINE
  5
152F
330
1F
100
AcDbEntity
  8
0
  6
Continuous
 62
     7
100
AcDbLine
 10
-66.80475434679562
 20
-6.045671912091791
 30
0.0
 11
-62.10475434679583
 21
-6.045671912091791
 31
0.0
  0
LINE
  5
1530
330
1F
100
AcDbEntity
  8
0
  6
Continuous
 62
     7
100
AcDbLine
 10
-66.80475434679562
 20
-6.045671912091791
 30
0.0
 11
-66.80475434679562
 21
-6.195671912092336
 31
0.0
  0
LINE
  5
1531
330
1F
100
AcDbEntity
  8
0
  6
Continuous
 62
     7
100
AcDbLine
 10
-62.10475434679583
 20
-6.045671912091791
 30
0.0
 11
-62.10475434679583
 21
-3.795671912092245
 31
0.0
  0
LINE
  5
1532
330
1F
100
AcDbEntity
  8
0
  6
Continuous
 62
     7
100
AcDbLine
 10
-66.80475434679562
 20
-10.54567191209179
 30
0.0
 11
-62.10475434679583
 21
-10.54567191209179
 31
0.0
  0
LINE
  5
1533
330
1F
100
AcDbEntity
  8
0
  6
Continuous
 62
     7
100
AcDbLine
 10
-66.80475434679562
 20
-10.54567191209179
 30
0.0
 11
-66.80475434679562
 21
-10.79567191209182
 31
0.0
  0
LINE
  5
1534
330
1F
100
AcDbEntity
  8
0
  6
Continuous
 62
     7
100
AcDbLine
 10
-62.10475434679583
 20
-10.54567191209179
 30
0.0
 11
-62.10475434679583
 21
-6.045671912091791
 31
0.0
  0
LINE
  5
1535
330
1F
100
AcDbEntity
  8
0
  6
Continuous
 62
     7
100
AcDbLine
 10
-66.80475434679562
 20
-12.79567191209179
 30
0.0
 11
-62.10475434679583
 21
-12.79567191209224
 31
0.0
  0
LINE
  5
1536
330
1F
100
AcDbEntity
  8
0
  6
Continuous
 62
     7
100
AcDbLine
 10
-62.10475434679583
 20
-12.79567191209224
 30
0.0
 11
-62.10475434679583
 21
-10.54567191209179
 31
0.0
  0
LINE
  5
1537
330
1F
100
AcDbEntity
  8
0
  6
Continuous
 62
     7
100
AcDbLine
 10
-66.80475434679562
 20
-5.795671912091819
 30
0.0
 11
-66.80475434679562
 21
-6.045671912091791
 31
0.0
  0
LINE
  5
1538
330
1F
100
AcDbEntity
  8
0
  6
Continuous
 62
     7
100
AcDbLine
 10
-66.80475434679562
 20
-10.79567191209182
 30
0.0
 11
-66.80475434679562
 21
-12.79567191209179
 31
0.0
  0
LINE
  5
1539
330
1F
100
AcDbEntity
  8
0
  6
Continuous
 62
     7
100
AcDbLine
 10
-67.20475434679532
 20
-5.795671912091819
 30
0.0
 11
-66.80475434679562
 21
-5.795671912091819
 31
0.0
  0
LINE
  5
153A
330
1F
100
AcDbEntity
  8
0
  6
Continuous
 62
     7
100
AcDbLine
 10
-67.20475434679532
 20
-5.795671912091819
 30
0.0
 11
-67.60475434679581
 21
-6.195671912092336
 31
0.0
  0
LINE
  5
153B
330
1F
100
AcDbEntity
  8
0
  6
Continuous
 62
     7
100
AcDbLine
 10
-67.60475434679581
 20
-10.39567191209215
 30
0.0
 11
-67.60475434679581
 21
-6.195671912092336
 31
0.0
  0
LINE
  5
153C
330
1F
100
AcDbEntity
  8
0
  6
Continuous
 62
     7
100
AcDbLine
 10
-67.20475434679532
 20
-10.79567191209182
 30
0.0
 11
-66.80475434679562
 21
-10.79567191209182
 31
0.0
  0
LINE
  5
153D
330
1F
100
AcDbEntity
  8
0
  6
Continuous
 62
     7
100
AcDbLine
 10
-67.60475434679581
 20
-10.39567191209215
 30
0.0
 11
-67.20475434679532
 21
-10.79567191209182
 31
0.0
  0
LINE
  5
153E
330
1F
100
AcDbEntity
  8
0
  6
Continuous
 62
     2
100
AcDbLine
 10
-67.60475434679581
 20
-6.195671912092336
 30
0.0
 11
-66.80475434679562
 21
-6.195671912092336
 31
0.0
  0
LINE
  5
153F
330
1F
100
AcDbEntity
  8
0
  6
Continuous
 62
     7
100
AcDbLine
 10
-66.80475434679562
 20
-6.195671912092336
 30
0.0
 11
-66.80475434679562
 21
-10.39567191209215
 31
0.0
  0
LINE
  5
1540
330
1F
100
AcDbEntity
  8
0
  6
Continuous
 62
     2
100
AcDbLine
 10
-67.60475434679581
 20
-10.39567191209215
 30
0.0
 11
-66.80475434679562
 21
-10.39567191209215
 31
0.0
  0
LINE
  5
1541
330
1F
100
AcDbEntity
  8
0
  6
Continuous
 62
     7
100
AcDbLine
 10
-66.80475434679562
 20
-10.39567191209215
 30
0.0
 11
-66.80475434679562
 21
-10.54567191209179
 31
0.0
  0
LINE
  5
1542
330
1F
100
AcDbEntity
  8
0
  6
Continuous
 62
     2
100
AcDbLine
 10
-67.20475434679532
 20
-5.795671912091819
 30
0.0
 11
-67.20475434679532
 21
-10.79567191209182
 31
0.0
  0
LINE
  5
1543
330
1F
100
AcDbEntity
  8
0
  6
Continuous
 62
     7
100
AcDbLine
 10
-66.80475434679562
 20
-58.79567191209275
 30
0.0
 11
-66.80475434679562
 21
-60.79567191209273
 31
0.0
  0
LINE
  5
1544
330
1F
100
AcDbEntity
  8
0
  6
Continuous
 62
     7
100
AcDbLine
 10
-66.80475434679562
 20
-58.79567191209275
 30
0.0
 11
-62.10475434679583
 21
-58.79567191209275
 31
0.0
  0
LINE
  5
1545
330
1F
100
AcDbEntity
  8
0
  6
Continuous
 62
     7
100
AcDbLine
 10
-66.80475434679562
 20
-61.04567191209273
 30
0.0
 11
-62.10475434679583
 21
-61.04567191209273
 31
0.0
  0
LINE
  5
1546
330
1F
100
AcDbEntity
  8
0
  6
Continuous
 62
     7
100
AcDbLine
 10
-66.80475434679562
 20
-61.04567191209273
 30
0.0
 11
-66.80475434679562
 21
-61.19567191209234
 31
0.0
  0
LINE
  5
1547
330
1F
100
AcDbEntity
  8
0
  6
Continuous
 62
     7
100
AcDbLine
 10
-62.10475434679583
 20
-61.04567191209273
 30
0.0
 11
-62.10475434679583
 21
-58.79567191209275
 31
0.0
  0
LINE
  5
1548
330
1F
100
AcDbEntity
  8
0
  6
Continuous
 62
     7
100
AcDbLine
 10
-66.80475434679562
 20
-65.54567191209272
 30
0.0
 11
-62.10475434679583
 21
-65.54567191209272
 31
0.0
  0
LINE
  5
1549
330
1F
100
AcDbEntity
  8
0
  6
Continuous
 62
     7
100
AcDbLine
 10
-66.80475434679562
 20
-65.54567191209272
 30
0.0
 11
-66.80475434679562
 21
-65.79567191209273
 31
0.0
  0
LINE
  5
154A
330
1F
100
AcDbEntity
  8
0
  6
Continuous
 62
     7
100
AcDbLine
 10
-62.10475434679583
 20
-65.54567191209272
 30
0.0
 11
-62.10475434679583
 21
-61.04567191209273
 31
0.0
  0
LINE
  5
154B
330
1F
100
AcDbEntity
  8
0
  6
Continuous
 62
     7
100
AcDbLine
 10
-66.80475434679562
 20
-67.79567191209273
 30
0.0
 11
-62.10475434679583
 21
-67.79567191209273
 31
0.0
  0
LINE
  5
154C
330
1F
100
AcDbEntity
  8
0
  6
Continuous
 62
     7
100
AcDbLine
 10
-62.10475434679583
 20
-67.79567191209273
 30
0.0
 11
-62.10475434679583
 21
-65.54567191209272
 31
0.0
  0
LINE
  5
154D
330
1F
100
AcDbEntity
  8
0
  6
Continuous
 62
     7
100
AcDbLine
 10
-66.80475434679562
 20
-60.79567191209273
 30
0.0
 11
-66.80475434679562
 21
-61.04567191209273
 31
0.0
  0
LINE
  5
154E
330
1F
100
AcDbEntity
  8
0
  6
Continuous
 62
     7
100
AcDbLine
 10
-66.80475434679562
 20
-65.79567191209273
 30
0.0
 11
-66.80475434679562
 21
-67.79567191209273
 31
0.0
  0
LINE
  5
154F
330
1F
100
AcDbEntity
  8
0
  6
Continuous
 62
     7
100
AcDbLine
 10
-67.20475434679532
 20
-60.79567191209273
 30
0.0
 11
-66.80475434679562
 21
-60.79567191209273
 31
0.0
  0
LINE
  5
1550
330
1F
100
AcDbEntity
  8
0
  6
Continuous
 62
     7
100
AcDbLine
 10
-67.20475434679532
 20
-60.79567191209273
 30
0.0
 11
-67.60475434679581
 21
-61.19567191209234
 31
0.0
  0
LINE
  5
1551
330
1F
100
AcDbEntity
  8
0
  6
Continuous
 62
     7
100
AcDbLine
 10
-67.60475434679581
 20
-65.39567191209312
 30
0.0
 11
-67.60475434679581
 21
-61.19567191209234
 31
0.0
  0
LINE
  5
1552
330
1F
100
AcDbEntity
  8
0
  6
Continuous
 62
     7
100
AcDbLine
 10
-67.20475434679532
 20
-65.79567191209273
 30
0.0
 11
-66.80475434679562
 21
-65.79567191209273
 31
0.0
  0
LINE
  5
1553
330
1F
100
AcDbEntity
  8
0
  6
Continuous
 62
     7
100
AcDbLine
 10
-67.60475434679581
 20
-65.39567191209312
 30
0.0
 11
-67.20475434679532
 21
-65.79567191209273
 31
0.0
  0
LINE
  5
1554
330
1F
100
AcDbEntity
  8
0
  6
Continuous
 62
     2
100
AcDbLine
 10
-67.60475434679581
 20
-61.19567191209234
 30
0.0
 11
-66.80475434679562
 21
-61.19567191209234
 31
0.0
  0
LINE
  5
1555
330
1F
100
AcDbEntity
  8
0
  6
Continuous
 62
     7
100
AcDbLine
 10
-66.80475434679562
 20
-61.19567191209234
 30
0.0
 11
-66.80475434679562
 21
-65.39567191209312
 31
0.0
  0
LINE
  5
1556
330
1F
100
AcDbEntity
  8
0
  6
Continuous
 62
     2
100
AcDbLine
 10
-67.60475434679581
 20
-65.39567191209312
 30
0.0
 11
-66.80475434679562
 21
-65.39567191209312
 31
0.0
  0
LINE
  5
1557
330
1F
100
AcDbEntity
  8
0
  6
Continuous
 62
     7
100
AcDbLine
 10
-66.80475434679562
 20
-65.39567191209312
 30
0.0
 11
-66.80475434679562
 21
-65.54567191209272
 31
0.0
  0
LINE
  5
1558
330
1F
100
AcDbEntity
  8
0
  6
Continuous
 62
     2
100
AcDbLine
 10
-67.20475434679532
 20
-60.79567191209273
 30
0.0
 11
-67.20475434679532
 21
-65.79567191209273
 31
0.0
  0
LINE
  5
1559
330
1F
100
AcDbEntity
  8
0
  6
Continuous
 62
     7
100
AcDbLine
 10
-66.80475434679562
 20
-120.7956719120928
 30
0.0
 11
-66.80475434679562
 21
-122.7956719120928
 31
0.0
  0
LINE
  5
155A
330
1F
100
AcDbEntity
  8
0
  6
Continuous
 62
     7
100
AcDbLine
 10
-62.10475434679583
 20
-122.7956719120932
 30
0.0
 11
-66.80475434679562
 21
-122.7956719120928
 31
0.0
  0
LINE
  5
155B
330
1F
100
AcDbEntity
  8
0
  6
Continuous
 62
     7
100
AcDbLine
 10
-62.10475434679583
 20
-126.2956719120928
 30
0.0
 11
-62.10475434679583
 21
-122.7956719120932
 31
0.0
  0
LINE
  5
155C
330
1F
100
AcDbEntity
  8
0
  6
Continuous
 62
     7
100
AcDbLine
 10
-62.10475434679583
 20
-120.5456719120928
 30
0.0
 11
-66.80475434679562
 21
-120.5456719120928
 31
0.0
  0
LINE
  5
155D
330
1F
100
AcDbEntity
  8
0
  6
Continuous
 62
     7
100
AcDbLine
 10
-66.80475434679562
 20
-120.3956719120931
 30
0.0
 11
-66.80475434679562
 21
-120.5456719120928
 31
0.0
  0
LINE
  5
155E
330
1F
100
AcDbEntity
  8
0
  6
Continuous
 62
     7
100
AcDbLine
 10
-62.10475434679583
 20
-122.7956719120932
 30
0.0
 11
-62.10475434679583
 21
-120.5456719120928
 31
0.0
  0
LINE
  5
155F
330
1F
100
AcDbEntity
  8
0
  6
Continuous
 62
     7
100
AcDbLine
 10
-62.10475434679583
 20
-116.0456719120928
 30
0.0
 11
-66.80475434679562
 21
-116.0456719120928
 31
0.0
  0
LINE
  5
1560
330
1F
100
AcDbEntity
  8
0
  6
Continuous
 62
     7
100
AcDbLine
 10
-66.80475434679562
 20
-115.7956719120928
 30
0.0
 11
-66.80475434679562
 21
-116.0456719120928
 31
0.0
  0
LINE
  5
1561
330
1F
100
AcDbEntity
  8
0
  6
Continuous
 62
     7
100
AcDbLine
 10
-62.10475434679583
 20
-120.5456719120928
 30
0.0
 11
-62.10475434679583
 21
-116.0456719120928
 31
0.0
  0
LINE
  5
1562
330
1F
100
AcDbEntity
  8
0
  6
Continuous
 62
     7
100
AcDbLine
 10
-62.10475434679583
 20
-113.7956719120928
 30
0.0
 11
-66.80475434679562
 21
-113.7956719120928
 31
0.0
  0
LINE
  5
1563
330
1F
100
AcDbEntity
  8
0
  6
Continuous
 62
     7
100
AcDbLine
 10
-62.10475434679583
 20
-116.0456719120928
 30
0.0
 11
-62.10475434679583
 21
-113.7956719120928
 31
0.0
  0
LINE
  5
1564
330
1F
100
AcDbEntity
  8
0
  6
Continuous
 62
     7
100
AcDbLine
 10
-66.80475434679562
 20
-120.5456719120928
 30
0.0
 11
-66.80475434679562
 21
-120.7956719120928
 31
0.0
  0
LINE
  5
1565
330
1F
100
AcDbEntity
  8
0
  6
Continuous
 62
     7
100
AcDbLine
 10
-66.80475434679562
 20
-113.7956719120928
 30
0.0
 11
-66.80475434679562
 21
-115.7956719120928
 31
0.0
  0
LINE
  5
1566
330
1F
100
AcDbEntity
  8
0
  6
Continuous
 62
     7
100
AcDbLine
 10
-66.80475434679562
 20
-120.7956719120928
 30
0.0
 11
-67.20475434679532
 21
-120.7956719120928
 31
0.0
  0
LINE
  5
1567
330
1F
100
AcDbEntity
  8
0
  6
Continuous
 62
     7
100
AcDbLine
 10
-67.60475434679581
 20
-120.3956719120931
 30
0.0
 11
-67.20475434679532
 21
-120.7956719120928
 31
0.0
  0
LINE
  5
1568
330
1F
100
AcDbEntity
  8
0
  6
Continuous
 62
     7
100
AcDbLine
 10
-67.60475434679581
 20
-120.3956719120931
 30
0.0
 11
-67.60475434679581
 21
-116.1956719120932
 31
0.0
  0
LINE
  5
1569
330
1F
100
AcDbEntity
  8
0
  6
Continuous
 62
     7
100
AcDbLine
 10
-66.80475434679562
 20
-115.7956719120928
 30
0.0
 11
-67.20475434679532
 21
-115.7956719120928
 31
0.0
  0
LINE
  5
156A
330
1F
100
AcDbEntity
  8
0
  6
Continuous
 62
     7
100
AcDbLine
 10
-67.20475434679532
 20
-115.7956719120928
 30
0.0
 11
-67.60475434679581
 21
-116.1956719120932
 31
0.0
  0
LINE
  5
156B
330
1F
100
AcDbEntity
  8
0
  6
Continuous
 62
     2
100
AcDbLine
 10
-66.80475434679562
 20
-120.3956719120931
 30
0.0
 11
-67.60475434679581
 21
-120.3956719120931
 31
0.0
  0
LINE
  5
156C
330
1F
100
AcDbEntity
  8
0
  6
Continuous
 62
     7
100
AcDbLine
 10
-66.80475434679562
 20
-116.1956719120932
 30
0.0
 11
-66.80475434679562
 21
-120.3956719120931
 31
0.0
  0
LINE
  5
156D
330
1F
100
AcDbEntity
  8
0
  6
Continuous
 62
     2
100
AcDbLine
 10
-66.80475434679562
 20
-116.1956719120932
 30
0.0
 11
-67.60475434679581
 21
-116.1956719120932
 31
0.0
  0
LINE
  5
156E
330
1F
100
AcDbEntity
  8
0
  6
Continuous
 62
     7
100
AcDbLine
 10
-66.80475434679562
 20
-116.0456719120928
 30
0.0
 11
-66.80475434679562
 21
-116.1956719120932
 31
0.0
  0
LINE
  5
156F
330
1F
100
AcDbEntity
  8
0
  6
Continuous
 62
     2
100
AcDbLine
 10
-67.20475434679532
 20
-115.7956719120928
 30
0.0
 11
-67.20475434679532
 21
-120.7956719120928
 31
0.0
  0
LINE
  5
1570
330
1F
100
AcDbEntity
  8
0
  6
DASHED
 62
     2
100
AcDbLine
 10
-247.1047543467957
 20
-48.86976046532232
 30
0.0
 11
-247.1047543467957
 21
-49.86976046532231
 31
0.0
  0
LINE
  5
1571
330
1F
100
AcDbEntity
  8
0
  6
DASH_CENTER
 62
     2
100
AcDbLine
 10
-247.1047543467957
 20
-25.44543415818814
 30
0.0
 11
-247.1047543467957
 21
-43.09567191209225
 31
0.0
  0
LINE
  5
1572
330
1F
100
AcDbEntity
  8
0
  6
DASH_CENTER
 62
     2
100
AcDbLine
 10
-44.08598013221419
 20
-118.2956719120932
 30
0.0
 11
-78.22613536823181
 21
-118.2956719120932
 31
0.0
  0
LINE
  5
1573
330
1F
100
AcDbEntity
  8
0
  6
DASH_CENTER
 62
     2
100
AcDbLine
 10
-43.38114011090062
 20
-63.29567191209273
 30
0.0
 11
-68.40210537129014
 21
-63.29567191209273
 31
0.0
  0
LINE
  5
1574
330
1F
100
AcDbEntity
  8
0
  6
DASH_CENTER
 62
     2
100
AcDbLine
 10
-43.7335601215574
 20
-8.295671912092245
 30
0.0
 11
-78.22613536823183
 21
-8.295671912092245
 31
0.0
  0
LINE
  5
1575
330
1F
100
AcDbEntity
  8
0
  6
Continuous
 62
     7
100
AcDbLine
 10
-51.10475434679583
 20
-68.91991352933263
 30
0.0
 11
-51.10475434679583
 21
-69.39577191209244
 31
0.0
  0
LINE
  5
1576
330
1F
100
AcDbEntity
  8
0
  6
Continuous
 62
     7
100
AcDbLine
 10
-51.10475434679583
 20
-68.91991352933263
 30
0.0
 11
-51.10475434679583
 21
-66.59567191209294
 31
0.0
  0
LINE
  5
1577
330
1F
100
AcDbEntity
  8
0
  6
Continuous
 62
     7
100
AcDbLine
 10
-51.10475434679583
 20
-63.69757191209251
 30
0.0
 11
-51.10475434679583
 21
-68.91991352933263
 31
0.0
  0
LINE
  5
1578
330
1F
100
AcDbEntity
  8
0
  6
Continuous
 62
     7
100
AcDbLine
 10
-51.10475434679583
 20
-57.19577191209253
 30
0.0
 11
-51.10475434679583
 21
-63.29567191209273
 31
0.0
  0
LINE
  5
1579
330
1F
100
AcDbEntity
  8
0
  6
Continuous
 62
     7
100
AcDbLine
 10
-47.20485434679548
 20
-60.12797191209273
 30
0.0
 11
-47.20485434679548
 21
-66.46347191209293
 31
0.0
  0
LINE
  5
157A
330
1F
100
AcDbEntity
  8
0
  6
Continuous
 62
     7
100
AcDbLine
 10
-51.10475434679583
 20
-58.04567191209272
 30
0.0
 11
-48.93925434679485
 21
-58.23517191209313
 31
0.0
  0
LINE
  5
157B
330
1F
100
AcDbEntity
  8
0
  6
Continuous
 62
     7
100
AcDbLine
 10
-51.10475434679583
 20
-68.54567191209273
 30
0.0
 11
-48.93925434679485
 21
-68.35627191209252
 31
0.0
  0
LINE
  5
157C
330
1F
100
AcDbEntity
  8
0
  6
CENTER_DASH_DASH
 62
   171
100
AcDbLine
 10
-50.98930039239267
 20
-70.29567191209273
 30
0.0
 11
-50.98930039239267
 21
-70.31193099126245
 31
0.0
  0
LINE
  5
157D
330
1F
100
AcDbEntity
  8
0
  6
Continuous
 62
     7
100
AcDbLine
 10
-51.10475434679583
 20
-70.31003830348414
 30
0.0
 11
-51.10475434679583
 21
-68.91991352933263
 31
0.0
  0
LINE
  5
157E
330
1F
100
AcDbEntity
  8
0
  6
Continuous
 62
     7
100
AcDbLine
 10
-51.10475434679583
 20
-59.99567191209251
 30
0.0
 11
-51.10475434679583
 21
-57.29567191209273
 31
0.0
  0
LINE
  5
157F
330
1F
100
AcDbEntity
  8
0
  6
Continuous
 62
     7
100
AcDbLine
 10
-51.10475434679583
 20
-58.69757191209251
 30
0.0
 11
-51.10475434679583
 21
-68.91991352933263
 31
0.0
  0
LINE
  5
1580
330
1F
100
AcDbEntity
  8
0
  6
Continuous
 62
     7
100
AcDbLine
 10
-51.10475434679583
 20
-123.9199135293335
 30
0.0
 11
-51.10475434679583
 21
-124.3957719120932
 31
0.0
  0
LINE
  5
1581
330
1F
100
AcDbEntity
  8
0
  6
Continuous
 62
     7
100
AcDbLine
 10
-51.10475434679583
 20
-123.9199135293335
 30
0.0
 11
-51.10475434679583
 21
-121.5956719120929
 31
0.0
  0
LINE
  5
1582
330
1F
100
AcDbEntity
  8
0
  6
Continuous
 62
     7
100
AcDbLine
 10
-51.10475434679583
 20
-118.6975719120934
 30
0.0
 11
-51.10475434679583
 21
-123.9199135293335
 31
0.0
  0
LINE
  5
1583
330
1F
100
AcDbEntity
  8
0
  6
Continuous
 62
     7
100
AcDbLine
 10
-51.10475434679583
 20
-112.1957719120934
 30
0.0
 11
-51.10475434679583
 21
-118.2956719120928
 31
0.0
  0
LINE
  5
1584
330
1F
100
AcDbEntity
  8
0
  6
Continuous
 62
     7
100
AcDbLine
 10
-47.20485434679548
 20
-115.1279719120928
 30
0.0
 11
-47.20485434679548
 21
-121.4634719120928
 31
0.0
  0
LINE
  5
1585
330
1F
100
AcDbEntity
  8
0
  6
Continuous
 62
     7
100
AcDbLine
 10
-51.10475434679583
 20
-113.0456719120928
 30
0.0
 11
-48.93925434679485
 21
-113.2351719120931
 31
0.0
  0
LINE
  5
1586
330
1F
100
AcDbEntity
  8
0
  6
Continuous
 62
     7
100
AcDbLine
 10
-51.10475434679583
 20
-123.5456719120928
 30
0.0
 11
-48.93925434679485
 21
-123.3562719120935
 31
0.0
  0
LINE
  5
1587
330
1F
100
AcDbEntity
  8
0
  6
CENTER_DASH_DASH
 62
   171
100
AcDbLine
 10
-50.98930039239267
 20
-125.2956719120928
 30
0.0
 11
-50.98930039239267
 21
-125.3119309912633
 31
0.0
  0
LINE
  5
1588
330
1F
100
AcDbEntity
  8
0
  6
Continuous
 62
     7
100
AcDbLine
 10
-51.10475434679583
 20
-125.310038303484
 30
0.0
 11
-51.10475434679583
 21
-123.9199135293335
 31
0.0
  0
LINE
  5
1589
330
1F
100
AcDbEntity
  8
0
  6
Continuous
 62
     7
100
AcDbLine
 10
-51.10475434679583
 20
-114.9956719120935
 30
0.0
 11
-51.10475434679583
 21
-112.2956719120928
 31
0.0
  0
LINE
  5
158A
330
1F
100
AcDbEntity
  8
0
  6
Continuous
 62
     7
100
AcDbLine
 10
-51.10475434679583
 20
-113.6975719120934
 30
0.0
 11
-51.10475434679583
 21
-123.9199135293335
 31
0.0
  0
LINE
  5
158B
330
1F
100
AcDbEntity
  8
0
  6
DASHED
 62
     2
 48
0.5
100
AcDbLine
 10
-271.8607060638515
 20
-1.306904647246653
 30
0.0
 11
-221.8607060638514
 21
-1.306904647246653
 31
0.0
  0
LINE
  5
158C
330
1F
100
AcDbEntity
  8
0
  6
DASHED
 62
     2
 48
0.5
100
AcDbLine
 10
-213.9959338193103
 20
3.693095352753346
 30
0.0
 11
-280.2135748742804
 21
3.693095352753346
 31
0.0
  0
LINE
  5
158D
330
1F
100
AcDbEntity
  8
0
  6
DASHED
 62
     2
 48
0.5
100
AcDbLine
 10
-286.8607060638515
 20
8.693095352753346
 30
0.0
 11
-207.8452800243749
 21
8.693095352753346
 31
0.0
  0
LINE
  5
158E
330
1F
100
AcDbEntity
  8
0
  6
DASHED
 62
     2
 48
0.5
100
AcDbLine
 10
-203.0999972014106
 20
13.69309535275334
 30
0.0
 11
-291.1095114921802
 21
13.69309535275334
 31
0.0
  0
LINE
  5
158F
330
1F
100
AcDbEntity
  8
0
  6
DASHED
 62
     2
 48
0.5
100
AcDbLine
 10
-294.8701286128454
 20
18.69309535275332
 30
0.0
 11
-199.3393800807453
 21
18.69309535275332
 31
0.0
  0
LINE
  5
1590
330
1F
100
AcDbEntity
  8
0
  6
DASHED
 62
     2
 48
0.5
100
AcDbLine
 10
-297.8654015661459
 20
23.69309535275332
 30
0.0
 11
-195.3377368672045
 21
23.69309535275332
 31
0.0
  0
LINE
  5
1591
330
1F
100
AcDbEntity
  8
0
  6
DASHED
 62
     2
 48
0.5
100
AcDbLine
 10
-300.2249542097371
 20
28.69309535275332
 30
0.0
 11
-193.9845544838536
 21
28.69309535275332
 31
0.0
  0
LINE
  5
1592
330
1F
100
AcDbEntity
  8
0
  6
DASHED
 62
     2
 48
0.5
100
AcDbLine
 10
-301.8607060638514
 20
33.69309535275332
 30
0.0
 11
-191.8607060638515
 21
33.69309535275332
 31
0.0
  0
LINE
  5
1593
330
1F
100
AcDbEntity
  8
0
  6
DASHED
 62
     2
 48
0.5
100
AcDbLine
 10
-303.3362427512647
 20
38.69309535275332
 30
0.0
 11
-190.6595457848689
 21
38.69309535275332
 31
0.0
  0
LINE
  5
1594
330
1F
100
AcDbEntity
  8
0
  6
DASHED
 62
     2
 48
0.5
100
AcDbLine
 10
-304.1756980531463
 20
43.69309535275331
 30
0.0
 11
-190.0338106404442
 21
43.69309535275331
 31
0.0
  0
LINE
  5
1595
330
1F
100
AcDbEntity
  8
0
  6
DASHED
 62
     2
 48
0.5
100
AcDbLine
 10
-304.569569171913
 20
48.69309535275334
 30
0.0
 11
-189.6399395216777
 21
48.69309535275334
 31
0.0
  0
LINE
  5
1596
330
1F
100
AcDbEntity
  8
0
  6
DASHED
 62
     2
 48
0.5
100
AcDbLine
 10
-304.5270258991867
 20
53.69309535275334
 30
0.0
 11
-189.6824827944037
 21
53.69309535275334
 31
0.0
  0
LINE
  5
1597
330
1F
100
AcDbEntity
  8
0
  6
DASHED
 62
     2
 48
0.5
100
AcDbLine
 10
-304.0470900697711
 20
58.69309535275334
 30
0.0
 11
-190.1624186238196
 21
58.69309535275334
 31
0.0
  0
LINE
  5
1598
330
1F
100
AcDbEntity
  8
0
  6
DASHED
 62
     2
 48
0.5
100
AcDbLine
 10
-303.1185198418917
 20
63.69309535275334
 30
0.0
 11
-191.0909888516989
 21
63.69309535275334
 31
0.0
  0
LINE
  5
1599
330
1F
100
AcDbEntity
  8
0
  6
DASHED
 62
     2
 48
0.5
100
AcDbLine
 10
-300.7141023615385
 20
68.69309535275334
 30
0.0
 11
-192.4910724319934
 21
68.69309535275334
 31
0.0
  0
LINE
  5
159A
330
1F
100
AcDbEntity
  8
0
  6
DASHED
 62
     2
 48
0.5
100
AcDbLine
 10
-299.8092757813248
 20
73.69309535275334
 30
0.0
 11
-194.4002329122668
 21
73.69309535275334
 31
0.0
  0
LINE
  5
159B
330
1F
100
AcDbEntity
  8
0
  6
DASHED
 62
     2
 48
0.5
100
AcDbLine
 10
-297.3330223539069
 20
78.69309535275334
 30
0.0
 11
-196.8607060638515
 21
78.69309535275334
 31
0.0
  0
LINE
  5
159C
330
1F
100
AcDbEntity
  8
0
  6
DASHED
 62
     2
 48
0.5
100
AcDbLine
 10
-294.2003086417153
 20
83.69309535275334
 30
0.0
 11
-200.0092000518753
 21
83.69309535275334
 31
0.0
  0
LINE
  5
159D
330
1F
100
AcDbEntity
  8
0
  6
DASHED
 62
     2
 48
0.5
100
AcDbLine
 10
-290.2684377125289
 20
88.69309535275334
 30
0.0
 11
-203.9410709810618
 21
88.69309535275334
 31
0.0
  0
LINE
  5
159E
330
1F
100
AcDbEntity
  8
0
  6
DASHED
 62
     2
 48
0.5
100
AcDbLine
 10
-285.2913474004954
 20
93.69309535275334
 30
0.0
 11
-206.8607060638515
 21
93.69309535275334
 31
0.0
  0
LINE
  5
159F
330
1F
100
AcDbEntity
  8
0
  6
DASHED
 62
     2
 48
0.5
100
AcDbLine
 10
-278.7801109572647
 20
98.69309535275334
 30
0.0
 11
-215.4293977363259
 21
98.69309535275334
 31
0.0
  0
LINE
  5
15A0
330
1F
100
AcDbEntity
  8
0
  6
DASHED
 62
     2
 48
0.5
100
AcDbLine
 10
-269.4305363880112
 20
103.6930953527533
 30
0.0
 11
-224.7789723055785
 21
103.6930953527533
 31
0.0
  0
LINE
  5
15A1
330
1F
100
AcDbEntity
  8
0
  6
DASHED
 62
     2
 48
0.5
100
AcDbLine
 10
-191.8607060638515
 20
66.65252953232521
 30
0.0
 11
-191.8607060638515
 21
35.8558689356758
 31
0.0
  0
LINE
  5
15A2
330
1F
100
AcDbEntity
  8
0
  6
DASHED
 62
     2
 48
0.5
100
AcDbLine
 10
-196.8607060638514
 20
77.21133603399341
 30
0.0
 11
-196.8607060638514
 21
22.74389868953841
 31
0.0
  0
LINE
  5
15A3
330
1F
100
AcDbEntity
  8
0
  6
DASHED
 62
     2
 48
0.5
100
AcDbLine
 10
-201.8607060638515
 20
86.18990395995098
 30
0.0
 11
-201.8607060638515
 21
15.21875221586268
 31
0.0
  0
LINE
  5
15A4
330
1F
100
AcDbEntity
  8
0
  6
DASHED
 62
     2
 48
0.5
100
AcDbLine
 10
-206.8607060638515
 20
91.77337455602065
 30
0.0
 11
-206.8607060638515
 21
9.635281619793914
 31
0.0
  0
LINE
  5
15A5
330
1F
100
AcDbEntity
  8
0
  6
DASHED
 62
     2
 48
0.5
100
AcDbLine
 10
-211.8607060638514
 20
96.13677310938403
 30
0.0
 11
-211.8607060638514
 21
5.271883066431456
 31
0.0
  0
LINE
  5
15A6
330
1F
100
AcDbEntity
  8
0
  6
DASHED
 62
     2
 48
0.5
100
AcDbLine
 10
-216.8607060638514
 20
99.60777933072751
 30
0.0
 11
-216.8607060638514
 21
1.80087684508615
 31
0.0
  0
LINE
  5
15A7
330
1F
100
AcDbEntity
  8
0
  6
DASHED
 62
     2
 48
0.5
100
AcDbLine
 10
-221.8607060638514
 20
102.3665776158594
 30
0.0
 11
-221.8607060638514
 21
-0.9579214400448279
 31
0.0
  0
LINE
  5
15A8
330
1F
100
AcDbEntity
  8
0
  6
DASHED
 62
     2
 48
0.5
100
AcDbLine
 10
-226.8607060638514
 20
104.5228054829229
 30
0.0
 11
-226.8607060638514
 21
-3.114149307108334
 31
0.0
  0
LINE
  5
15A9
330
1F
100
AcDbEntity
  8
0
  6
DASHED
 62
     2
 48
0.5
100
AcDbLine
 10
-231.8607060638514
 20
106.1468117258835
 30
0.0
 11
-231.8607060638514
 21
-4.738155550068938
 31
0.0
  0
LINE
  5
15AA
330
1F
100
AcDbEntity
  8
0
  6
DASHED
 62
     2
 48
0.5
100
AcDbLine
 10
-236.8607060638514
 20
107.2844436301782
 30
0.0
 11
-236.8607060638514
 21
-5.87578745436366
 31
0.0
  0
LINE
  5
15AB
330
1F
100
AcDbEntity
  8
0
  6
DASHED
 62
     2
 48
0.5
100
AcDbLine
 10
-241.8607060638514
 20
107.9646979575307
 30
0.0
 11
-241.8607060638514
 21
-6.556041781717055
 31
0.0
  0
LINE
  5
15AC
330
1F
100
AcDbEntity
  8
0
  6
DASHED
 62
     2
100
AcDbLine
 10
-246.8607060638514
 20
108.203810176319
 30
0.0
 11
-246.8607060638514
 21
-6.795154000503515
 31
0.0
  0
LINE
  5
15AD
330
1F
100
AcDbEntity
  8
0
  6
DASHED
 62
     2
 48
0.5
100
AcDbLine
 10
-251.8607060638514
 20
108.0073029082867
 30
0.0
 11
-251.8607060638514
 21
-6.598646732472104
 31
0.0
  0
LINE
  5
15AE
330
1F
100
AcDbEntity
  8
0
  6
DASHED
 62
     2
 48
0.5
100
AcDbLine
 10
-256.8607060638514
 20
107.3706444151083
 30
0.0
 11
-256.8607060638514
 21
-5.961988239294612
 31
0.0
  0
LINE
  5
15AF
330
1F
100
AcDbEntity
  8
0
  6
DASHED
 62
     2
 48
0.5
100
AcDbLine
 10
-261.8607060638514
 20
106.2787096762247
 30
0.0
 11
-261.8607060638514
 21
-4.870053500410193
 31
0.0
  0
LINE
  5
15B0
330
1F
100
AcDbEntity
  8
0
  6
DASHED
 62
     2
 48
0.5
100
AcDbLine
 10
-266.8607060638514
 20
104.7038870838221
 30
0.0
 11
-266.8607060638514
 21
-3.295230908008505
 31
0.0
  0
LINE
  5
15B1
330
1F
100
AcDbEntity
  8
0
  6
DASHED
 62
     2
 48
0.5
100
AcDbLine
 10
-271.8607060638515
 20
102.6022360860414
 30
0.0
 11
-271.8607060638515
 21
-1.306904647246653
 31
0.0
  0
LINE
  5
15B2
330
1F
100
AcDbEntity
  8
0
  6
DASHED
 62
     2
 48
0.5
100
AcDbLine
 10
-276.8607060638515
 20
99.90629285977576
 30
0.0
 11
-276.8607060638515
 21
1.5023633160379
 31
0.0
  0
LINE
  5
15B3
330
1F
100
AcDbEntity
  8
0
  6
DASHED
 62
     2
 48
0.5
100
AcDbLine
 10
-281.8607060638515
 20
96.51124700024666
 30
0.0
 11
-281.8607060638515
 21
4.897409175566991
 31
0.0
  0
LINE
  5
15B4
330
1F
100
AcDbEntity
  8
0
  6
DASHED
 62
     2
 48
0.5
100
AcDbLine
 10
-286.8607060638515
 20
92.2460457109317
 30
0.0
 11
-286.8607060638515
 21
8.693095352753346
 31
0.0
  0
LINE
  5
15B5
330
1F
100
AcDbEntity
  8
0
  6
DASHED
 62
     2
 48
0.5
100
AcDbLine
 10
-291.8607060638515
 20
86.80356334158734
 30
0.0
 11
-291.8607060638515
 21
14.60509283422632
 31
0.0
  0
LINE
  5
15B6
330
1F
100
AcDbEntity
  8
0
  6
DASHED
 62
     2
 48
0.5
100
AcDbLine
 10
-296.8607060638515
 20
79.52437785764215
 30
0.0
 11
-296.8607060638515
 21
21.88427831817245
 31
0.0
  0
LINE
  5
15B7
330
1F
100
AcDbEntity
  8
0
  6
DASHED
 62
     2
 48
0.5
100
AcDbLine
 10
-301.8607060638514
 20
68.25527540021614
 30
0.0
 11
-301.8607060638514
 21
33.69309535275332
 31
0.0
  0
LINE
  5
15B8
330
1F
100
AcDbEntity
  8
0
  6
DASH_CENTER
 62
     2
100
AcDbLine
 10
-420.1047543467959
 20
50.70432808790786
 30
0.0
 11
-74.10475434679586
 21
50.70432808790693
 31
0.0
  0
LINE
  5
15BF
330
1F
100
AcDbEntity
  8
0
  6
DASH_CENTER
 62
     2
100
AcDbLine
 10
-263.6047543467957
 20
50.70432808790769
 30
0.0
 11
-285.1047543467958
 21
50.70432808790769
 31
0.0
  0
LINE
  5
15DD
330
1F
100
AcDbEntity
  8
0
  6
DASH_CENTER
 62
     2
100
AcDbLine
 10
-254.8607060638519
 20
50.70432808790769
 30
0.0
 11
-263.6047543467957
 21
50.70432808790769
 31
0.0
  0
LINE
  5
15E2
330
1F
100
AcDbEntity
  8
0
  6
DASH_CENTER
 62
     2
100
AcDbLine
 10
-247.1047543467957
 20
211.7043280879078
 30
0.0
 11
-247.1047543467957
 21
-111.0697604653226
 31
0.0
  0
LINE
  5
15E5
330
1F
100
AcDbEntity
  8
0
  6
DASH_CENTER
 62
     2
100
AcDbLine
 10
-43.7335601215574
 20
-8.295671912092245
 30
0.0
 11
-78.22613536823183
 21
-8.295671912092245
 31
0.0
  0
LINE
  5
15E6
330
1F
100
AcDbEntity
  8
0
  6
DASH_CENTER
 62
     2
100
AcDbLine
 10
-43.38114011090062
 20
-63.29567191209273
 30
0.0
 11
-68.40210537129014
 21
-63.29567191209273
 31
0.0
  0
LINE
  5
15E7
330
1F
100
AcDbEntity
  8
0
  6
DASH_CENTER
 62
     2
100
AcDbLine
 10
-44.08598013221419
 20
-118.2956719120932
 30
0.0
 11
-78.22613536823181
 21
-118.2956719120932
 31
0.0
  0
LINE
  5
15EE
330
1F
100
AcDbEntity
  8
0
  6
DASHED
 62
     2
 48
0.4
100
AcDbLine
 10
-201.4047543467958
 20
-104.2956719120928
 30
0.0
 11
-201.4047543467956
 21
-114.0697604653226
 31
0.0
  0
LINE
  5
15EF
330
1F
100
AcDbEntity
  8
0
  6
Continuous
 62
     7
100
AcDbLine
 10
-201.4047543467958
 20
-104.2956719120928
 30
0.0
 11
-209.2911808435502
 21
-104.2956719120928
 31
0.0
  0
LINE
  5
15F1
330
1F
100
AcDbEntity
  8
0
  6
Continuous
 62
     7
100
AcDbLine
 10
-199.1047543467957
 20
-104.2956719120928
 30
0.0
 11
-199.1047543467957
 21
-114.7697604653223
 31
0.0
  0
LINE
  5
15F2
330
1F
100
AcDbEntity
  8
0
  6
Continuous
 62
     7
100
AcDbLine
 10
-295.1047543467958
 20
-99.82806045356205
 30
0.0
 11
-295.1047543467958
 21
-114.7697604653223
 31
0.0
  0
LINE
  5
15F3
330
1F
100
AcDbEntity
  8
0
  6
Continuous
 62
     7
100
AcDbLine
 10
-209.2911808435502
 20
-104.2956719120928
 30
0.0
 11
-216.4616474547067
 21
-104.2956719120926
 31
0.0
  0
LINE
  5
15F5
330
1F
100
AcDbEntity
  8
0
  6
Continuous
 62
     7
100
AcDbLine
 10
-199.1047543467957
 20
-104.2956719120928
 30
0.0
 11
-201.4047543467958
 21
-104.2956719120928
 31
0.0
  0
LINE
  5
15FF
330
1F
100
AcDbEntity
  8
0
  6
DASH_CENTER
 62
     2
100
AcDbLine
 10
-247.1047543467957
 20
-25.44543415818814
 30
0.0
 11
-247.1047543467957
 21
-43.09567191209225
 31
0.0
  0
LINE
  5
1601
330
1F
100
AcDbEntity
  8
0
  6
DASHED
 62
     2
100
AcDbLine
 10
-247.1047543467957
 20
-48.86976046532232
 30
0.0
 11
-247.1047543467957
 21
-49.86976046532231
 31
0.0
  0
LINE
  5
1623
330
1F
100
AcDbEntity
  8
0
  6
Continuous
 62
     7
100
AcDbLine
 10
-62.10475434679583
 20
-126.2956719120928
 30
0.0
 11
-62.10475434679583
 21
-122.7956719120932
 31
0.0
  0
LINE
  5
1624
330
1F
100
AcDbEntity
  8
0
  6
Continuous
 62
     7
100
AcDbLine
 10
-62.10475434679583
 20
-3.795671912092245
 30
0.0
 11
-62.10475434679583
 21
-0.2956719120927289
 31
0.0
  0
LINE
  5
1625
330
1F
100
AcDbEntity
  8
0
  6
Continuous
 62
     7
100
AcDbLine
 10
-52.10475434679583
 20
-128.2956719120928
 30
0.0
 11
-51.1047543467958
 21
-128.2956719120928
 31
0.0
  0
LINE
  5
1635
330
1F
100
AcDbEntity
  8
0
  6
CENTER_DASH_DASH
 62
     2
100
AcDbLine
 10
-295.2202083011987
 20
-96.89532431373955
 30
0.0
 11
-295.2202083011987
 21
-96.87906523456934
 31
0.0
  0
LINE
  5
1638
330
1F
100
AcDbEntity
  8
0
  6
DASH_CENTER
 62
     2
100
AcDbLine
 10
-187.1047543467957
 20
-126.0819150665984
 30
0.0
 11
-187.1047543467957
 21
-109.5305649007875
 31
0.0
  0
LINE
  5
1639
330
1F
100
AcDbEntity
  8
0
  6
Continuous
 62
     7
100
AcDbLine
 10
-201.4047543467956
 20
-115.0697604653226
 30
0.0
 11
-201.4047543467956
 21
-114.0697604653226
 31
0.0
  0
LINE
  5
163A
330
1F
100
AcDbEntity
  8
0
  6
Continuous
 62
     7
100
AcDbLine
 10
-197.4047543467956
 20
-119.0697604653226
 30
0.0
 11
-173.6047543467967
 21
-119.0697604653226
 31
0.0
  0
LINE
  5
163B
330
1F
100
AcDbEntity
  8
0
  6
Continuous
 62
     7
100
AcDbLine
 10
-173.6047543467967
 20
-119.0697604653226
 30
0.0
 11
-173.6047543467967
 21
-116.7697604653223
 31
0.0
  0
LINE
  5
163C
330
1F
100
AcDbEntity
  8
0
  6
Continuous
 62
     7
100
AcDbLine
 10
-173.6047543467967
 20
-116.7697604653223
 30
0.0
 11
-197.1047543467957
 21
-116.7697604653223
 31
0.0
  0
LINE
  5
163D
330
1F
100
AcDbEntity
  8
0
  6
DASH_CENTER
 62
     2
100
AcDbLine
 10
-307.1047543467957
 20
-109.5305649007875
 30
0.0
 11
-307.1047543467957
 21
-126.0819150665984
 31
0.0
  0
LINE
  5
163F
330
1F
100
AcDbEntity
  8
0
  6
Continuous
 62
     7
100
AcDbLine
 10
-282.8047543467955
 20
-104.0697604653226
 30
0.0
 11
-278.8692236878191
 21
-104.0697604653226
 31
0.0
  0
LINE
  5
1640
330
1F
100
AcDbEntity
  8
0
  6
Continuous
 62
     7
100
AcDbLine
 10
-292.8047543467955
 20
-114.0697604653226
 30
0.0
 11
-292.8047543467955
 21
-115.0697604653226
 31
0.0
  0
LINE
  5
1641
330
1F
100
AcDbEntity
  8
0
  6
Continuous
 62
     7
100
AcDbLine
 10
-320.6047543467958
 20
-119.0697604653226
 30
0.0
 11
-296.8047543467956
 21
-119.0697604653226
 31
0.0
  0
LINE
  5
1642
330
1F
100
AcDbEntity
  8
0
  6
Continuous
 62
     7
100
AcDbLine
 10
-320.6047543467958
 20
-116.7697604653223
 30
0.0
 11
-320.6047543467958
 21
-119.0697604653226
 31
0.0
  0
LINE
  5
1643
330
1F
100
AcDbEntity
  8
0
  6
Continuous
 62
     7
100
AcDbLine
 10
-297.1047543467957
 20
-116.7697604653223
 30
0.0
 11
-320.6047543467958
 21
-116.7697604653223
 31
0.0
  0
LINE
  5
1657
330
1F
100
AcDbEntity
  8
0
  6
Continuous
 62
     7
100
AcDbLine
 10
-203.1850173018389
 20
154.8199210502578
 30
0.0
 11
-209.9425199835063
 21
146.7666429524157
 31
0.0
  0
LINE
  5
1658
330
1F
100
AcDbEntity
  8
0
  6
Continuous
 62
     7
100
AcDbLine
 10
-261.4853368686031
 20
167.8247739815833
 30
0.0
 11
-279.5393398144761
 21
148.4642261317357
 31
0.0
  0
LINE
  5
1659
330
1F
100
AcDbEntity
  8
0
  6
Continuous
 62
     7
100
AcDbLine
 10
-261.4853368686031
 20
167.8247739815833
 30
0.0
 11
-260.2666434345516
 21
157.89931246517
 31
0.0
  0
LINE
  5
165A
330
1F
100
AcDbEntity
  8
0
  6
Continuous
 62
     7
100
AcDbLine
 10
-235.4021772947417
 20
163.096719691346
 30
0.0
 11
-239.3233578695265
 21
158.4236386541355
 31
0.0
  0
LINE
  5
165B
330
1F
100
AcDbEntity
  8
0
  6
Continuous
 62
     7
100
AcDbLine
 10
-83.50475434679585
 20
53.20432808790781
 30
0.0
 11
-83.50475434679585
 21
52.30432808790777
 31
0.0
  0
LINE
  5
165C
330
1F
100
AcDbEntity
  8
0
  6
Continuous
 62
     7
100
AcDbLine
 10
-82.50475434679584
 20
51.30432808790783
 30
0.0
 11
-81.60475434679582
 21
51.30432808790783
 31
0.0
  0
LINE
  5
165D
330
1F
100
AcDbEntity
  8
0
  6
Continuous
 62
     7
100
AcDbLine
 10
-81.60475434679582
 20
51.30432808790783
 30
0.0
 11
-81.60475434679582
 21
50.70432808790781
 31
0.0
  0
LINE
  5
165F
330
1F
100
AcDbEntity
  8
0
  6
Continuous
 62
     7
100
AcDbLine
 10
-86.60475434679582
 20
50.70432808790781
 30
0.0
 11
-86.60475434679582
 21
51.30432808790778
 31
0.0
  0
LINE
  5
1660
330
1F
100
AcDbEntity
  8
0
  6
Continuous
 62
     7
100
AcDbLine
 10
-84.10475434679582
 20
48.20432808790778
 30
0.0
 11
-84.70475434679583
 21
48.20432808790778
 31
0.0
  0
LINE
  5
1661
330
1F
100
AcDbEntity
  8
0
  6
Continuous
 62
     7
100
AcDbLine
 10
-81.60475434679582
 20
50.70432808790781
 30
0.0
 11
-81.60475434679582
 21
50.10432808790779
 31
0.0
  0
LINE
  5
1662
330
1F
100
AcDbEntity
  8
0
  6
Continuous
 62
     7
100
AcDbLine
 10
-86.60475434679582
 20
51.30432808790778
 30
0.0
 11
-85.70475434679584
 21
51.30432808790778
 31
0.0
  0
LINE
  5
1663
330
1F
100
AcDbEntity
  8
0
  6
Continuous
 62
     7
100
AcDbLine
 10
-84.70475434679583
 20
48.20432808790778
 30
0.0
 11
-84.70475434679583
 21
49.10432808790779
 31
0.0
  0
LINE
  5
1664
330
1F
100
AcDbEntity
  8
0
  6
Continuous
 62
     7
100
AcDbLine
 10
-81.60475434679582
 20
50.10432808790779
 30
0.0
 11
-82.50475434679584
 21
50.10432808790779
 31
0.0
  0
LINE
  5
1665
330
1F
100
AcDbEntity
  8
0
  6
Continuous
 62
     7
100
AcDbLine
 10
-84.70475434679583
 20
52.30432808790777
 30
0.0
 11
-84.70475434679583
 21
53.20432808790781
 31
0.0
  0
LINE
  5
1666
330
1F
100
AcDbEntity
  8
0
  6
Continuous
 62
     7
100
AcDbLine
 10
-85.70475434679584
 20
50.10432808790779
 30
0.0
 11
-86.60475434679582
 21
50.10432808790779
 31
0.0
  0
LINE
  5
1667
330
1F
100
AcDbEntity
  8
0
  6
Continuous
 62
     7
100
AcDbLine
 10
-83.50475434679585
 20
49.10432808790779
 30
0.0
 11
-83.50475434679585
 21
48.20432808790778
 31
0.0
  0
LINE
  5
1668
330
1F
100
AcDbEntity
  8
0
  6
Continuous
 62
     7
100
AcDbLine
 10
-84.70475434679583
 20
53.20432808790781
 30
0.0
 11
-83.50475434679585
 21
53.20432808790781
 31
0.0
  0
LINE
  5
1669
330
1F
100
AcDbEntity
  8
0
  6
Continuous
 62
     7
100
AcDbLine
 10
-86.60475434679582
 20
50.10432808790779
 30
0.0
 11
-86.60475434679582
 21
50.70432808790781
 31
0.0
  0
LINE
  5
166A
330
1F
100
AcDbEntity
  8
0
  6
Continuous
 62
     7
100
AcDbLine
 10
-83.50475434679585
 20
48.20432808790778
 30
0.0
 11
-84.10475434679582
 21
48.20432808790778
 31
0.0
  0
LINE
  5
166B
330
1F
100
AcDbEntity
  8
0
  6
Continuous
 62
     7
100
AcDbLine
 10
-86.77800134615372
 20
59.67452906858568
 30
0.0
 11
-81.14642651461094
 21
57.04848259716431
 31
0.0
  0
LINE
  5
166C
330
1F
100
AcDbEntity
  8
0
  6
Continuous
 62
     7
100
AcDbLine
 10
-81.14642651461094
 20
44.36017357865122
 30
0.0
 11
-86.77800134615372
 21
41.73412710722991
 31
0.0
  0
LINE
  5
166D
330
1F
100
AcDbEntity
  8
0
  6
DASH_CENTER
 62
     2
100
AcDbLine
 10
-167.8547543467957
 20
187.9693545877412
 30
0.0
 11
-168.7547543467958
 21
186.4105088609292
 31
0.0
  0
LINE
  5
166E
330
1F
100
AcDbEntity
  8
0
  6
DASH_CENTER
 62
     2
100
AcDbLine
 10
-162.4547543467957
 20
197.3224289486131
 30
0.0
 11
-164.3547543467957
 21
194.0315324142324
 31
0.0
  0
LINE
  5
166F
330
1F
100
AcDbEntity
  8
0
  6
DASH_CENTER
 62
     2
100
AcDbLine
 10
-162.4547543467957
 20
197.3224289486131
 30
0.0
 11
-164.3547543467957
 21
194.0315324142324
 31
0.0
  0
LINE
  5
1670
330
1F
100
AcDbEntity
  8
0
  6
Continuous
 62
     7
100
AcDbLine
 10
-167.4698178562568
 20
193.6360841470419
 30
0.0
 11
-166.6903949928509
 21
193.1860841470419
 31
0.0
  0
LINE
  5
1671
330
1F
100
AcDbEntity
  8
0
  6
Continuous
 62
     7
100
AcDbLine
 10
-165.3243695890664
 20
193.5521095508264
 30
0.0
 11
-164.8743695890665
 21
194.3315324142324
 31
0.0
  0
LINE
  5
1672
330
1F
100
AcDbEntity
  8
0
  6
Continuous
 62
     7
100
AcDbLine
 10
-164.8743695890665
 20
194.3315324142324
 30
0.0
 11
-164.3547543467957
 21
194.0315324142324
 31
0.0
  0
LINE
  5
1673
330
1F
100
AcDbEntity
  8
0
  6
DASH_CENTER
 62
     2
100
AcDbLine
 10
-164.3547543467957
 20
194.0315324142324
 30
0.0
 11
-168.7547543467958
 21
186.4105088609292
 31
0.0
  0
LINE
  5
1674
330
1F
100
AcDbEntity
  8
0
  6
DASH_CENTER
 62
     2
100
AcDbLine
 10
-164.3547543467957
 20
194.0315324142324
 30
0.0
 11
-167.8547543467957
 21
187.9693545877412
 31
0.0
  0
LINE
  5
1675
330
1F
100
AcDbEntity
  8
0
  6
Continuous
 62
     7
100
AcDbLine
 10
-166.8547543467957
 20
189.7014053953102
 30
0.0
 11
-167.3743695890665
 21
190.0014053953102
 31
0.0
  0
LINE
  5
1676
330
1F
100
AcDbEntity
  8
0
  6
Continuous
 62
     7
100
AcDbLine
 10
-163.4396908373346
 20
190.6164689047713
 30
0.0
 11
-163.7396908373346
 21
190.0968536625005
 31
0.0
  0
LINE
  5
1677
330
1F
100
AcDbEntity
  8
0
  6
Continuous
 62
     7
100
AcDbLine
 10
-164.3547543467957
 20
194.0315324142324
 30
0.0
 11
-163.835139104525
 21
193.7315324142324
 31
0.0
  0
LINE
  5
1678
330
1F
100
AcDbEntity
  8
0
  6
Continuous
 62
     7
100
AcDbLine
 10
-167.3743695890665
 20
190.0014053953102
 30
0.0
 11
-166.9243695890665
 21
190.7808282587162
 31
0.0
  0
LINE
  5
1679
330
1F
100
AcDbEntity
  8
0
  6
Continuous
 62
     7
100
AcDbLine
 10
-163.7396908373346
 20
190.0968536625005
 30
0.0
 11
-164.5191137007406
 21
190.5468536625007
 31
0.0
  0
LINE
  5
167A
330
1F
100
AcDbEntity
  8
0
  6
Continuous
 62
     7
100
AcDbLine
 10
-163.835139104525
 20
193.7315324142324
 30
0.0
 11
-164.285139104525
 21
192.9521095508263
 31
0.0
  0
LINE
  5
167B
330
1F
100
AcDbEntity
  8
0
  6
Continuous
 62
     7
100
AcDbLine
 10
-167.2903949928509
 20
192.1468536625006
 30
0.0
 11
-168.0698178562568
 21
192.5968536625005
 31
0.0
  0
LINE
  5
167C
330
1F
100
AcDbEntity
  8
0
  6
Continuous
 62
     7
100
AcDbLine
 10
-165.8851391045251
 20
190.1808282587161
 30
0.0
 11
-166.335139104525
 21
189.4014053953102
 31
0.0
  0
LINE
  5
167D
330
1F
100
AcDbEntity
  8
0
  6
Continuous
 62
     7
100
AcDbLine
 10
-163.9191137007406
 20
191.586084147042
 30
0.0
 11
-163.1396908373347
 21
191.1360841470419
 31
0.0
  0
LINE
  5
167E
330
1F
100
AcDbEntity
  8
0
  6
Continuous
 62
     7
100
AcDbLine
 10
-168.0698178562568
 20
192.5968536625005
 30
0.0
 11
-167.4698178562568
 21
193.6360841470419
 31
0.0
  0
LINE
  5
167F
330
1F
100
AcDbEntity
  8
0
  6
Continuous
 62
     7
100
AcDbLine
 10
-166.335139104525
 20
189.4014053953102
 30
0.0
 11
-166.8547543467957
 21
189.7014053953102
 31
0.0
  0
LINE
  5
1680
330
1F
100
AcDbEntity
  8
0
  6
Continuous
 62
     7
100
AcDbLine
 10
-163.1396908373347
 20
191.1360841470419
 30
0.0
 11
-163.4396908373346
 21
190.6164689047713
 31
0.0
  0
LINE
  5
1681
330
1F
100
AcDbEntity
  8
0
  6
Continuous
 62
     7
100
AcDbLine
 10
-174.7097997727938
 20
194.0364695830757
 30
0.0
 11
-169.619789401253
 21
197.6005332147942
 31
0.0
  0
LINE
  5
1682
330
1F
100
AcDbEntity
  8
0
  6
Continuous
 62
     7
100
AcDbLine
 10
-158.6313914601535
 20
191.2563787055377
 30
0.0
 11
-159.1729559201555
 21
185.0662686023978
 31
0.0
  0
LINE
  5
1683
330
1F
100
AcDbEntity
  8
0
  6
DASH_CENTER
 62
     2
100
AcDbLine
 10
-326.3547543467958
 20
187.9693545877413
 30
0.0
 11
-325.454754346796
 21
186.4105088609293
 31
0.0
  0
LINE
  5
1684
330
1F
100
AcDbEntity
  8
0
  6
DASH_CENTER
 62
     2
100
AcDbLine
 10
-331.7547543467958
 20
197.3224289486131
 30
0.0
 11
-329.8547543467957
 21
194.0315324142325
 31
0.0
  0
LINE
  5
1685
330
1F
100
AcDbEntity
  8
0
  6
DASH_CENTER
 62
     2
100
AcDbLine
 10
-331.7547543467958
 20
197.3224289486131
 30
0.0
 11
-329.8547543467957
 21
194.0315324142325
 31
0.0
  0
LINE
  5
1686
330
1F
100
AcDbEntity
  8
0
  6
Continuous
 62
     7
100
AcDbLine
 10
-331.0698178562568
 20
191.1360841470419
 30
0.0
 11
-330.290394992851
 21
191.586084147042
 31
0.0
  0
LINE
  5
1687
330
1F
100
AcDbEntity
  8
0
  6
Continuous
 62
     7
100
AcDbLine
 10
-329.9243695890666
 20
192.9521095508264
 30
0.0
 11
-330.3743695890663
 21
193.7315324142324
 31
0.0
  0
LINE
  5
1688
330
1F
100
AcDbEntity
  8
0
  6
Continuous
 62
     7
100
AcDbLine
 10
-330.3743695890663
 20
193.7315324142324
 30
0.0
 11
-329.8547543467957
 21
194.0315324142325
 31
0.0
  0
LINE
  5
1689
330
1F
100
AcDbEntity
  8
0
  6
DASH_CENTER
 62
     2
100
AcDbLine
 10
-329.8547543467957
 20
194.0315324142325
 30
0.0
 11
-325.454754346796
 21
186.4105088609293
 31
0.0
  0
LINE
  5
168A
330
1F
100
AcDbEntity
  8
0
  6
DASH_CENTER
 62
     2
100
AcDbLine
 10
-329.8547543467957
 20
194.0315324142325
 30
0.0
 11
-326.3547543467958
 21
187.9693545877413
 31
0.0
  0
LINE
  5
168B
330
1F
100
AcDbEntity
  8
0
  6
Continuous
 62
     7
100
AcDbLine
 10
-327.3547543467957
 20
189.7014053953102
 30
0.0
 11
-327.8743695890663
 21
189.4014053953103
 31
0.0
  0
LINE
  5
168C
330
1F
100
AcDbEntity
  8
0
  6
Continuous
 62
     7
100
AcDbLine
 10
-326.4396908373346
 20
193.1164689047713
 30
0.0
 11
-326.1396908373347
 21
192.5968536625006
 31
0.0
  0
LINE
  5
168D
330
1F
100
AcDbEntity
  8
0
  6
Continuous
 62
     7
100
AcDbLine
 10
-329.8547543467957
 20
194.0315324142325
 30
0.0
 11
-329.3351391045253
 21
194.3315324142324
 31
0.0
  0
LINE
  5
168E
330
1F
100
AcDbEntity
  8
0
  6
Continuous
 62
     7
100
AcDbLine
 10
-327.8743695890663
 20
189.4014053953103
 30
0.0
 11
-328.3243695890665
 21
190.1808282587161
 31
0.0
  0
LINE
  5
168F
330
1F
100
AcDbEntity
  8
0
  6
Continuous
 62
     7
100
AcDbLine
 10
-326.1396908373347
 20
192.5968536625006
 30
0.0
 11
-326.9191137007406
 21
192.1468536625006
 31
0.0
  0
LINE
  5
1690
330
1F
100
AcDbEntity
  8
0
  6
Continuous
 62
     7
100
AcDbLine
 10
-329.3351391045253
 20
194.3315324142324
 30
0.0
 11
-328.8851391045251
 21
193.5521095508264
 31
0.0
  0
LINE
  5
1691
330
1F
100
AcDbEntity
  8
0
  6
Continuous
 62
     7
100
AcDbLine
 10
-329.6903949928509
 20
190.5468536625007
 30
0.0
 11
-330.4698178562568
 21
190.0968536625007
 31
0.0
  0
LINE
  5
1692
330
1F
100
AcDbEntity
  8
0
  6
Continuous
 62
     7
100
AcDbLine
 10
-327.285139104525
 20
190.7808282587162
 30
0.0
 11
-326.8351391045253
 21
190.0014053953102
 31
0.0
  0
LINE
  5
1693
330
1F
100
AcDbEntity
  8
0
  6
Continuous
 62
     7
100
AcDbLine
 10
-327.5191137007407
 20
193.1860841470419
 30
0.0
 11
-326.7396908373347
 21
193.6360841470419
 31
0.0
  0
LINE
  5
1694
330
1F
100
AcDbEntity
  8
0
  6
Continuous
 62
     7
100
AcDbLine
 10
-330.4698178562568
 20
190.0968536625007
 30
0.0
 11
-331.0698178562568
 21
191.1360841470419
 31
0.0
  0
LINE
  5
1695
330
1F
100
AcDbEntity
  8
0
  6
Continuous
 62
     7
100
AcDbLine
 10
-326.8351391045253
 20
190.0014053953102
 30
0.0
 11
-327.3547543467957
 21
189.7014053953102
 31
0.0
  0
LINE
  5
1696
330
1F
100
AcDbEntity
  8
0
  6
Continuous
 62
     7
100
AcDbLine
 10
-326.7396908373347
 20
193.6360841470419
 30
0.0
 11
-326.4396908373346
 21
193.1164689047713
 31
0.0
  0
LINE
  5
1697
330
1F
100
AcDbEntity
  8
0
  6
Continuous
 62
     7
100
AcDbLine
 10
-335.0365527734358
 20
185.0662686023978
 30
0.0
 11
-335.5781172334381
 21
191.2563787055377
 31
0.0
  0
LINE
  5
1698
330
1F
100
AcDbEntity
  8
0
  6
Continuous
 62
     7
100
AcDbLine
 10
-324.5897192923386
 20
197.6005332147942
 30
0.0
 11
-319.4997089207977
 21
194.0364695830757
 31
0.0
  0
LINE
  5
1699
330
1F
100
AcDbEntity
  8
0
  6
Continuous
 62
     7
100
AcDbLine
 10
-410.7047543467957
 20
48.20432808790787
 30
0.0
 11
-410.7047543467957
 21
49.10432808790784
 31
0.0
  0
LINE
  5
169A
330
1F
100
AcDbEntity
  8
0
  6
Continuous
 62
     7
100
AcDbLine
 10
-411.7047543467958
 20
50.10432808790785
 30
0.0
 11
-412.6047543467958
 21
50.10432808790785
 31
0.0
  0
LINE
  5
169B
330
1F
100
AcDbEntity
  8
0
  6
Continuous
 62
     7
100
AcDbLine
 10
-412.6047543467958
 20
50.10432808790785
 30
0.0
 11
-412.6047543467958
 21
51.30432808790783
 31
0.0
  0
LINE
  5
169C
330
1F
100
AcDbEntity
  8
0
  6
Continuous
 62
     7
100
AcDbLine
 10
-407.6047543467957
 20
50.70432808790787
 30
0.0
 11
-407.6047543467957
 21
50.10432808790785
 31
0.0
  0
LINE
  5
169D
330
1F
100
AcDbEntity
  8
0
  6
Continuous
 62
     7
100
AcDbLine
 10
-410.1047543467958
 20
53.20432808790787
 30
0.0
 11
-409.5047543467957
 21
53.20432808790787
 31
0.0
  0
LINE
  5
169E
330
1F
100
AcDbEntity
  8
0
  6
Continuous
 62
     7
100
AcDbLine
 10
-407.6047543467957
 20
50.10432808790785
 30
0.0
 11
-408.5047543467958
 21
50.10432808790785
 31
0.0
  0
LINE
  5
169F
330
1F
100
AcDbEntity
  8
0
  6
Continuous
 62
     7
100
AcDbLine
 10
-409.5047543467957
 20
53.20432808790787
 30
0.0
 11
-409.5047543467957
 21
52.30432808790789
 31
0.0
  0
LINE
  5
16A0
330
1F
100
AcDbEntity
  8
0
  6
Continuous
 62
     7
100
AcDbLine
 10
-412.6047543467958
 20
51.30432808790783
 30
0.0
 11
-411.7047543467958
 21
51.30432808790783
 31
0.0
  0
LINE
  5
16A1
330
1F
100
AcDbEntity
  8
0
  6
Continuous
 62
     7
100
AcDbLine
 10
-409.5047543467957
 20
49.10432808790784
 30
0.0
 11
-409.5047543467957
 21
48.20432808790787
 31
0.0
  0
LINE
  5
16A2
330
1F
100
AcDbEntity
  8
0
  6
Continuous
 62
     7
100
AcDbLine
 10
-408.5047543467958
 20
51.30432808790789
 30
0.0
 11
-407.6047543467957
 21
51.30432808790789
 31
0.0
  0
LINE
  5
16A3
330
1F
100
AcDbEntity
  8
0
  6
Continuous
 62
     7
100
AcDbLine
 10
-410.7047543467957
 20
52.30432808790784
 30
0.0
 11
-410.7047543467957
 21
53.20432808790787
 31
0.0
  0
LINE
  5
16A4
330
1F
100
AcDbEntity
  8
0
  6
Continuous
 62
     7
100
AcDbLine
 10
-409.5047543467957
 20
48.20432808790787
 30
0.0
 11
-410.7047543467957
 21
48.20432808790787
 31
0.0
  0
LINE
  5
16A5
330
1F
100
AcDbEntity
  8
0
  6
Continuous
 62
     7
100
AcDbLine
 10
-407.6047543467957
 20
51.30432808790789
 30
0.0
 11
-407.6047543467957
 21
50.70432808790787
 31
0.0
  0
LINE
  5
16A6
330
1F
100
AcDbEntity
  8
0
  6
Continuous
 62
     7
100
AcDbLine
 10
-410.7047543467957
 20
53.20432808790787
 30
0.0
 11
-410.1047543467958
 21
53.20432808790787
 31
0.0
  0
LINE
  5
16A7
330
1F
100
AcDbEntity
  8
0
  6
Continuous
 62
     7
100
AcDbLine
 10
-407.4315073474378
 20
41.73412710722996
 30
0.0
 11
-413.0630821789808
 21
44.36017357865131
 31
0.0
  0
LINE
  5
16A8
330
1F
100
AcDbEntity
  8
0
  6
Continuous
 62
     7
100
AcDbLine
 10
-413.0630821789808
 20
57.04848259716442
 30
0.0
 11
-407.4315073474378
 21
59.67452906858579
 31
0.0
  0
LINE
  5
16A9
330
1F
100
AcDbEntity
  8
0
  6
DASH_CENTER
 62
     2
100
AcDbLine
 10
-326.3547543467958
 20
-86.56069841192564
 30
0.0
 11
-325.454754346796
 21
-85.00185268511376
 31
0.0
  0
LINE
  5
16AA
330
1F
100
AcDbEntity
  8
0
  6
DASH_CENTER
 62
     2
100
AcDbLine
 10
-331.754754346796
 20
-95.91377277279764
 30
0.0
 11
-329.8547543467957
 21
-92.6228762384167
 31
0.0
  0
LINE
  5
16AB
330
1F
100
AcDbEntity
  8
0
  6
DASH_CENTER
 62
     2
100
AcDbLine
 10
-331.754754346796
 20
-95.91377277279764
 30
0.0
 11
-329.8547543467957
 21
-92.6228762384167
 31
0.0
  0
LINE
  5
16AC
330
1F
100
AcDbEntity
  8
0
  6
Continuous
 62
     7
100
AcDbLine
 10
-326.7396908373347
 20
-92.22742797122633
 30
0.0
 11
-327.5191137007407
 21
-91.77742797122631
 31
0.0
  0
LINE
  5
16AD
330
1F
100
AcDbEntity
  8
0
  6
Continuous
 62
     7
100
AcDbLine
 10
-328.8851391045254
 20
-92.1434533750107
 30
0.0
 11
-329.3351391045253
 21
-92.92287623841671
 31
0.0
  0
LINE
  5
16AE
330
1F
100
AcDbEntity
  8
0
  6
Continuous
 62
     7
100
AcDbLine
 10
-329.3351391045253
 20
-92.92287623841671
 30
0.0
 11
-329.8547543467957
 21
-92.6228762384167
 31
0.0
  0
LINE
  5
16AF
330
1F
100
AcDbEntity
  8
0
  6
DASH_CENTER
 62
     2
100
AcDbLine
 10
-329.8547543467957
 20
-92.6228762384167
 30
0.0
 11
-325.454754346796
 21
-85.00185268511376
 31
0.0
  0
LINE
  5
16B0
330
1F
100
AcDbEntity
  8
0
  6
DASH_CENTER
 62
     2
100
AcDbLine
 10
-329.8547543467957
 20
-92.6228762384167
 30
0.0
 11
-326.3547543467958
 21
-86.56069841192564
 31
0.0
  0
LINE
  5
16B1
330
1F
100
AcDbEntity
  8
0
  6
Continuous
 62
     7
100
AcDbLine
 10
-327.3547543467957
 20
-88.29274921949453
 30
0.0
 11
-326.8351391045253
 21
-88.59274921949452
 31
0.0
  0
LINE
  5
16B2
330
1F
100
AcDbEntity
  8
0
  6
Continuous
 62
     7
100
AcDbLine
 10
-330.7698178562571
 20
-89.2078127289556
 30
0.0
 11
-330.469817856257
 21
-88.68819748668492
 31
0.0
  0
LINE
  5
16B3
330
1F
100
AcDbEntity
  8
0
  6
Continuous
 62
     7
100
AcDbLine
 10
-329.8547543467957
 20
-92.6228762384167
 30
0.0
 11
-330.3743695890666
 21
-92.32287623841669
 31
0.0
  0
LINE
  5
16B4
330
1F
100
AcDbEntity
  8
0
  6
Continuous
 62
     7
100
AcDbLine
 10
-326.8351391045253
 20
-88.59274921949452
 30
0.0
 11
-327.2851391045252
 21
-89.37217208290054
 31
0.0
  0
LINE
  5
16B5
330
1F
100
AcDbEntity
  8
0
  6
Continuous
 62
     7
100
AcDbLine
 10
-330.469817856257
 20
-88.68819748668492
 30
0.0
 11
-329.690394992851
 21
-89.13819748668494
 31
0.0
  0
LINE
  5
16B6
330
1F
100
AcDbEntity
  8
0
  6
Continuous
 62
     7
100
AcDbLine
 10
-330.3743695890666
 20
-92.32287623841669
 30
0.0
 11
-329.9243695890666
 21
-91.54345337501082
 31
0.0
  0
LINE
  5
16B7
330
1F
100
AcDbEntity
  8
0
  6
Continuous
 62
     7
100
AcDbLine
 10
-326.9191137007408
 20
-90.73819748668503
 30
0.0
 11
-326.1396908373348
 21
-91.18819748668492
 31
0.0
  0
LINE
  5
16B8
330
1F
100
AcDbEntity
  8
0
  6
Continuous
 62
     7
100
AcDbLine
 10
-328.3243695890668
 20
-88.77217208290053
 30
0.0
 11
-327.8743695890666
 21
-87.99274921949459
 31
0.0
  0
LINE
  5
16B9
330
1F
100
AcDbEntity
  8
0
  6
Continuous
 62
     7
100
AcDbLine
 10
-330.290394992851
 20
-90.17742797122634
 30
0.0
 11
-331.069817856257
 21
-89.72742797122633
 31
0.0
  0
LINE
  5
16BA
330
1F
100
AcDbEntity
  8
0
  6
Continuous
 62
     7
100
AcDbLine
 10
-326.1396908373348
 20
-91.18819748668492
 30
0.0
 11
-326.7396908373347
 21
-92.22742797122633
 31
0.0
  0
LINE
  5
16BB
330
1F
100
AcDbEntity
  8
0
  6
Continuous
 62
     7
100
AcDbLine
 10
-327.8743695890666
 20
-87.99274921949459
 30
0.0
 11
-327.3547543467957
 21
-88.29274921949453
 31
0.0
  0
LINE
  5
16BC
330
1F
100
AcDbEntity
  8
0
  6
Continuous
 62
     7
100
AcDbLine
 10
-331.069817856257
 20
-89.72742797122633
 30
0.0
 11
-330.7698178562571
 21
-89.2078127289556
 31
0.0
  0
LINE
  5
16BD
330
1F
100
AcDbEntity
  8
0
  6
Continuous
 62
     7
100
AcDbLine
 10
-319.4997089207978
 20
-92.62781340726013
 30
0.0
 11
-324.5897192923386
 21
-96.19187703897862
 31
0.0
  0
LINE
  5
16BE
330
1F
100
AcDbEntity
  8
0
  6
Continuous
 62
     7
100
AcDbLine
 10
-335.5781172334382
 20
-89.84772252972204
 30
0.0
 11
-335.0365527734361
 21
-83.65761242658221
 31
0.0
  0
LINE
  5
16BF
330
1F
100
AcDbEntity
  8
0
  6
DASH_CENTER
 62
     2
100
AcDbLine
 10
-167.8547543467958
 20
-86.56069841192582
 30
0.0
 11
-168.7547543467958
 21
-85.0018526851138
 31
0.0
  0
LINE
  5
16C0
330
1F
100
AcDbEntity
  8
0
  6
DASH_CENTER
 62
     2
100
AcDbLine
 10
-162.4547543467959
 20
-95.91377277279782
 30
0.0
 11
-164.3547543467958
 21
-92.62287623841684
 31
0.0
  0
LINE
  5
16C1
330
1F
100
AcDbEntity
  8
0
  6
DASH_CENTER
 62
     2
100
AcDbLine
 10
-162.4547543467959
 20
-95.91377277279782
 30
0.0
 11
-164.3547543467958
 21
-92.62287623841684
 31
0.0
  0
LINE
  5
16C2
330
1F
100
AcDbEntity
  8
0
  6
Continuous
 62
     7
100
AcDbLine
 10
-163.1396908373347
 20
-89.72742797122641
 30
0.0
 11
-163.9191137007407
 21
-90.17742797122643
 31
0.0
  0
LINE
  5
16C3
330
1F
100
AcDbEntity
  8
0
  6
Continuous
 62
     7
100
AcDbLine
 10
-164.2851391045251
 20
-91.54345337501082
 30
0.0
 11
-163.8351391045252
 21
-92.32287623841692
 31
0.0
  0
LINE
  5
16C4
330
1F
100
AcDbEntity
  8
0
  6
Continuous
 62
     7
100
AcDbLine
 10
-163.8351391045252
 20
-92.32287623841692
 30
0.0
 11
-164.3547543467958
 21
-92.62287623841684
 31
0.0
  0
LINE
  5
16C5
330
1F
100
AcDbEntity
  8
0
  6
DASH_CENTER
 62
     2
100
AcDbLine
 10
-164.3547543467958
 20
-92.62287623841684
 30
0.0
 11
-168.7547543467958
 21
-85.0018526851138
 31
0.0
  0
LINE
  5
16C6
330
1F
100
AcDbEntity
  8
0
  6
DASH_CENTER
 62
     2
100
AcDbLine
 10
-164.3547543467958
 20
-92.62287623841684
 30
0.0
 11
-167.8547543467958
 21
-86.56069841192582
 31
0.0
  0
LINE
  5
16C7
330
1F
100
AcDbEntity
  8
0
  6
Continuous
 62
     7
100
AcDbLine
 10
-166.8547543467958
 20
-88.2927492194946
 30
0.0
 11
-166.3351391045252
 21
-87.99274921949459
 31
0.0
  0
LINE
  5
16C8
330
1F
100
AcDbEntity
  8
0
  6
Continuous
 62
     7
100
AcDbLine
 10
-167.7698178562569
 20
-91.70781272895572
 30
0.0
 11
-168.069817856257
 21
-91.18819748668512
 31
0.0
  0
LINE
  5
16C9
330
1F
100
AcDbEntity
  8
0
  6
Continuous
 62
     7
100
AcDbLine
 10
-164.3547543467958
 20
-92.62287623841684
 30
0.0
 11
-164.8743695890666
 21
-92.92287623841685
 31
0.0
  0
LINE
  5
16CA
330
1F
100
AcDbEntity
  8
0
  6
Continuous
 62
     7
100
AcDbLine
 10
-166.3351391045252
 20
-87.99274921949459
 30
0.0
 11
-165.8851391045252
 21
-88.77217208290074
 31
0.0
  0
LINE
  5
16CB
330
1F
100
AcDbEntity
  8
0
  6
Continuous
 62
     7
100
AcDbLine
 10
-168.069817856257
 20
-91.18819748668512
 30
0.0
 11
-167.2903949928509
 21
-90.7381974866851
 31
0.0
  0
LINE
  5
16CC
330
1F
100
AcDbEntity
  8
0
  6
Continuous
 62
     7
100
AcDbLine
 10
-164.8743695890666
 20
-92.92287623841685
 30
0.0
 11
-165.3243695890666
 21
-92.14345337501084
 31
0.0
  0
LINE
  5
16CD
330
1F
100
AcDbEntity
  8
0
  6
Continuous
 62
     7
100
AcDbLine
 10
-164.5191137007407
 20
-89.13819748668514
 30
0.0
 11
-163.7396908373347
 21
-88.68819748668512
 31
0.0
  0
LINE
  5
16CE
330
1F
100
AcDbEntity
  8
0
  6
Continuous
 62
     7
100
AcDbLine
 10
-166.9243695890665
 20
-89.37217208290062
 30
0.0
 11
-167.3743695890665
 21
-88.59274921949461
 31
0.0
  0
LINE
  5
16CF
330
1F
100
AcDbEntity
  8
0
  6
Continuous
 62
     7
100
AcDbLine
 10
-166.6903949928509
 20
-91.77742797122645
 30
0.0
 11
-167.469817856257
 21
-92.22742797122641
 31
0.0
  0
LINE
  5
16D0
330
1F
100
AcDbEntity
  8
0
  6
Continuous
 62
     7
100
AcDbLine
 10
-163.7396908373347
 20
-88.68819748668512
 30
0.0
 11
-163.1396908373347
 21
-89.72742797122641
 31
0.0
  0
LINE
  5
16D1
330
1F
100
AcDbEntity
  8
0
  6
Continuous
 62
     7
100
AcDbLine
 10
-167.3743695890665
 20
-88.59274921949461
 30
0.0
 11
-166.8547543467958
 21
-88.2927492194946
 31
0.0
  0
LINE
  5
16D2
330
1F
100
AcDbEntity
  8
0
  6
Continuous
 62
     7
100
AcDbLine
 10
-167.469817856257
 20
-92.22742797122641
 30
0.0
 11
-167.7698178562569
 21
-91.70781272895572
 31
0.0
  0
LINE
  5
16D3
330
1F
100
AcDbEntity
  8
0
  6
Continuous
 62
     7
100
AcDbLine
 10
-159.1729559201557
 20
-83.6576124265823
 30
0.0
 11
-158.6313914601537
 21
-89.84772252972211
 31
0.0
  0
LINE
  5
16D4
330
1F
100
AcDbEntity
  8
0
  6
Continuous
 62
     7
100
AcDbLine
 10
-169.6197894012531
 20
-96.19187703897871
 30
0.0
 11
-174.7097997727939
 21
-92.6278134072602
 31
0.0
  0
LINE
  5
16D5
330
1F
100
AcDbEntity
  8
0
  6
Continuous
 62
     7
100
AcDbLine
 10
-52.10475434679583
 20
-128.2956719120928
 30
0.0
 11
-52.10475434679583
 21
-63.29567191209273
 31
0.0
  0
LINE
  5
16D6
330
1F
100
AcDbEntity
  8
0
  6
Continuous
 62
     7
100
AcDbLine
 10
-52.10475434679583
 20
-128.2956719120928
 30
0.0
 11
-60.10475434679581
 21
-128.2956719120928
 31
0.0
  0
LINE
  5
16D7
330
1F
100
AcDbEntity
  8
0
  6
Continuous
 62
     7
100
AcDbLine
 10
-62.10475434679583
 20
-126.2956719120928
 30
0.0
 11
-62.10475434679583
 21
-107.2956719120928
 31
0.0
  0
LINE
  5
16D8
330
1F
100
AcDbEntity
  8
0
  6
Continuous
 62
     7
100
AcDbLine
 10
-65.10475434679581
 20
-104.2956719120928
 30
0.0
 11
-199.1047543467957
 21
-104.2956719120928
 31
0.0
  0
LINE
  5
16D9
330
1F
100
AcDbEntity
  8
0
  6
Continuous
 62
     7
100
AcDbLine
 10
-62.10475434679583
 20
-107.2956719120928
 30
0.0
 11
-62.10475434679583
 21
-19.2956719120927
 31
0.0
  0
LINE
  5
16DA
330
1F
100
AcDbEntity
  8
0
  6
Continuous
 62
     7
100
AcDbLine
 10
-52.10475434679583
 20
-63.29567191209273
 30
0.0
 11
-52.10475434679583
 21
1.704328087907299
 31
0.0
  0
LINE
  5
16DB
330
1F
100
AcDbEntity
  8
0
  6
Continuous
 62
     7
100
AcDbLine
 10
-60.10475434679581
 20
1.704328087907299
 30
0.0
 11
-52.10475434679583
 21
1.704328087907299
 31
0.0
  0
LINE
  5
16DC
330
1F
100
AcDbEntity
  8
0
  6
Continuous
 62
     7
100
AcDbLine
 10
-62.10475434679583
 20
-19.2956719120927
 30
0.0
 11
-62.10475434679583
 21
-12.79567191209224
 31
0.0
  0
LINE
  5
16DD
330
1F
100
AcDbEntity
  8
0
  6
Continuous
 62
     7
100
AcDbLine
 10
-106.9798101005981
 20
-22.29567191209273
 30
0.0
 11
-65.10475434679581
 21
-22.29567191209273
 31
0.0
  0
LINE
  5
16E0
330
1F
100
AcDbEntity
  8
0
  6
Continuous
 62
     7
100
AcDbLine
 10
-62.10475434679583
 20
-3.795671912092245
 30
0.0
 11
-62.10475434679583
 21
-12.79567191209224
 31
0.0
  0
ELLIPSE
  5
16E5
330
1F
100
AcDbEntity
  8
0
  6
DASH_CENTER
 62
     2
100
AcDbEllipse
 10
-247.2644978627532
 20
50.63816015709636
 30
0.0
 11
48.79036790187091
 21
48.79036790187091
 31
0.0
210
0.0
220
0.0
230
1.0
 40
1.0
 41
5.130481327310977
 42
5.795285249369675
  0
ELLIPSE
  5
16E6
330
1F
100
AcDbEntity
  8
0
  6
DASH_CENTER
 62
     2
100
AcDbEllipse
 10
-247.2644978627532
 20
50.63816015709636
 30
0.0
 11
48.790367901872
 21
48.790367901872
 31
0.0
210
0.0
220
0.0
230
1.0
 40
1.0
 41
3.559685000516063
 42
4.224488922574752
  0
ELLIPSE
  5
16E7
330
1F
100
AcDbEntity
  8
0
  6
DASH_CENTER
 62
     2
100
AcDbEllipse
 10
-247.2644978627532
 20
50.63816015709636
 30
0.0
 11
48.79036790187265
 21
48.79036790187265
 31
0.0
210
0.0
220
0.0
230
0.9999999999999998
 40
1.0
 41
1.988888673721189
 42
2.653692595779865
  0
ELLIPSE
  5
16E8
330
1F
100
AcDbEntity
  8
0
  6
DASH_CENTER
 62
     2
100
AcDbEllipse
 10
-247.2644978627532
 20
50.63816015709636
 30
0.0
 11
48.79036790187158
 21
48.79036790187157
 31
0.0
210
0.0
220
0.0
230
1.0
 40
0.9999999999999996
 41
0.4180923469263087
 42
1.082896268984993
  0
ELLIPSE
  5
16E9
330
1F
100
AcDbEntity
  8
0
  6
Continuous
 62
     7
100
AcDbEllipse
 10
-49.10477386346139
 20
-5.127950611772064
 30
0.0
 11
-1.343516684705812
 21
1.343516684705812
 31
0.0
210
0.0
220
0.0
230
0.9999999999999996
 40
0.999999999999996
 41
3.926979606407789
 42
5.410456276346323
  0
ELLIPSE
  5
16EA
330
1F
100
AcDbEntity
  8
0
  6
Continuous
 62
     7
100
AcDbEllipse
 10
-49.10472405363271
 20
-11.46343885214189
 30
0.0
 11
-1.34348146395714
 21
1.34348146395714
 31
0.0
210
0.0
220
0.0
230
1.0
 40
0.9999999999999992
 41
2.44350133655317
 42
3.926973416736565
  0
ELLIPSE
  5
16EB
330
1F
100
AcDbEntity
  8
0
  6
Continuous
 62
     7
100
AcDbEllipse
 10
-316.2644978627532
 20
50.63816015709636
 30
0.0
 11
-3.18198051533947
 21
3.18198051533947
 31
0.0
210
0.0
220
0.0
230
1.0
 40
0.9999999999999978
 41
3.926990816987242
 42
6.02138591938042
  0
ELLIPSE
  5
16EC
330
1F
100
AcDbEntity
  8
0
  6
Continuous
 62
     7
100
AcDbEllipse
 10
-316.2644978627532
 20
50.63816015709636
 30
0.0
 11
-3.181980515339588
 21
3.181980515339588
 31
0.0
210
0.0
220
0.0
230
1.0
 40
0.999999999999998
 41
-0.2617993877991687
 42
3.926990816987242
  0
ELLIPSE
  5
16ED
330
1F
100
AcDbEntity
  8
0
  6
Continuous
 62
     7
100
AcDbEllipse
 10
-316.2644978627532
 20
50.63816015709636
 30
0.0
 11
-3.18198051533947
 21
3.18198051533947
 31
0.0
210
0.0
220
0.0
230
1.0
 40
0.9999999999999978
 41
3.926990816987242
 42
6.02138591938042
  0
ELLIPSE
  5
16EE
330
1F
100
AcDbEntity
  8
0
  6
Continuous
 62
     7
100
AcDbEllipse
 10
-316.2644978627532
 20
50.63816015709636
 30
0.0
 11
-3.181980515339588
 21
3.181980515339588
 31
0.0
210
0.0
220
0.0
230
1.0
 40
0.999999999999998
 41
-0.2617993877991687
 42
3.926990816987242
  0
ELLIPSE
  5
16EF
330
1F
100
AcDbEntity
  8
0
  6
Continuous
 62
     7
100
AcDbEllipse
 10
-316.2644978627532
 20
50.63816015709636
 30
0.0
 11
-3.18198051533947
 21
3.18198051533947
 31
0.0
210
0.0
220
0.0
230
1.0
 40
0.9999999999999978
 41
3.926990816987242
 42
6.02138591938042
  0
ELLIPSE
  5
16F0
330
1F
100
AcDbEntity
  8
0
  6
Continuous
 62
     7
100
AcDbEllipse
 10
-316.2644978627532
 20
50.63816015709636
 30
0.0
 11
-3.181980515339588
 21
3.181980515339588
 31
0.0
210
0.0
220
0.0
230
1.0
 40
0.999999999999998
 41
-0.2617993877991687
 42
3.926990816987242
  0
ELLIPSE
  5
16F1
330
1F
100
AcDbEntity
  8
0
  6
Continuous
 62
     7
100
AcDbEllipse
 10
-49.10477386346138
 20
-60.12795061177303
 30
0.0
 11
1.343516684705807
 21
1.343516684705807
 31
0.0
210
0.0
220
0.0
230
1.0
 40
0.9999999999999936
 41
5.497775933202684
 42
6.981252603141224
  0
ELLIPSE
  5
16F2
330
1F
100
AcDbEntity
  8
0
  6
Continuous
 62
     7
100
AcDbEllipse
 10
-49.10472405363178
 20
-66.46343885214273
 30
0.0
 11
-1.343481463956489
 21
1.343481463956489
 31
0.0
210
0.0
220
0.0
230
1.0
 40
0.9999999999999971
 41
2.443501336552724
 42
3.926973416736033
  0
ELLIPSE
  5
16F3
330
1F
100
AcDbEntity
  8
0
  6
Continuous
 62
     7
100
AcDbEllipse
 10
-49.10477386346143
 20
-115.127950611773
 30
0.0
 11
1.343516684705853
 21
1.343516684705853
 31
0.0
210
0.0
220
0.0
230
1.0
 40
0.9999999999999836
 41
5.497775933202652
 42
6.981252603141202
  0
ELLIPSE
  5
16F4
330
1F
100
AcDbEntity
  8
0
  6
Continuous
 62
     7
100
AcDbEllipse
 10
-49.10472405363234
 20
-121.4634388521432
 30
0.0
 11
1.343481463956887
 21
1.343481463956887
 31
0.0
210
0.0
220
0.0
230
0.9999999999999998
 40
0.9999999999999912
 41
4.014297663347891
 42
5.497769743531242
  0
ELLIPSE
  5
16F5
330
1F
100
AcDbEntity
  8
0
  6
Continuous
 62
     7
100
AcDbEllipse
 10
-247.1047543467957
 20
50.70432808790776
 30
0.0
 11
-40.65863991825215
 21
40.65863991825215
 31
0.0
210
0.0
220
0.0
230
1.0
 40
0.9999999999993955
 41
1.707117525963341
 42
1.742605375958332
  0
ELLIPSE
  5
16F6
330
1F
100
AcDbEntity
  8
0
  6
Continuous
 62
     7
100
AcDbEllipse
 10
-247.1047543467957
 20
50.70432808790776
 30
0.0
 11
-40.65863991822692
 21
40.65863991822692
 31
0.0
210
0.0
220
0.0
230
0.9999999999999998
 40
0.9999999999999156
 41
2.910065515378457
 42
2.969783604426254
  0
ELLIPSE
  5
16F7
330
1F
100
AcDbEntity
  8
0
  6
Continuous
 62
     7
100
AcDbEllipse
 10
-247.1047543467957
 20
50.70432808790776
 30
0.0
 11
-40.65863991822629
 21
40.65863991822629
 31
0.0
210
0.0
220
0.0
230
1.0
 40
0.9999999999998806
 41
3.015970606382118
 42
3.107746417265921
  0
ELLIPSE
  5
16F8
330
1F
100
AcDbEntity
  8
0
  6
Continuous
 62
     7
100
AcDbEllipse
 10
-247.1047543467957
 20
50.70432808790776
 30
0.0
 11
40.65863991822676
 21
40.65863991822676
 31
0.0
210
0.0
220
0.0
230
1.0
 40
0.9999999999996783
 41
3.034934494694438
 42
3.055483347934028
  0
ELLIPSE
  5
16F9
330
1F
100
AcDbEntity
  8
0
  6
Continuous
 62
     7
100
AcDbEllipse
 10
-247.1047543467957
 20
50.70432808790776
 30
0.0
 11
-40.65863991822671
 21
40.65863991822671
 31
0.0
210
0.0
220
0.0
230
0.9999999999999998
 40
0.9999999999999026
 41
3.131447056734192
 42
3.227701959245545
  0
ELLIPSE
  5
16FA
330
1F
100
AcDbEntity
  8
0
  6
Continuous
 62
     7
100
AcDbEllipse
 10
-247.1047543467957
 20
50.70432808790776
 30
0.0
 11
40.65863991823063
 21
40.65863991823063
 31
0.0
210
0.0
220
0.0
230
0.9999999999999998
 40
0.9999999999999072
 41
4.8326838031023
 42
4.907358570180985
  0
ELLIPSE
  5
16FB
330
1F
100
AcDbEntity
  8
0
  6
Continuous
 62
     7
100
AcDbEllipse
 10
-247.1047543467957
 20
50.70432808790776
 30
0.0
 11
-40.6586399182289
 21
40.6586399182289
 31
0.0
210
0.0
220
0.0
230
1.0
 40
0.9999999999999452
 41
1.310404233032364
 42
1.375826736998599
  0
ELLIPSE
  5
16FC
330
1F
100
AcDbEntity
  8
0
  6
Continuous
 62
     7
100
AcDbEllipse
 10
-247.1047543467957
 20
50.70432808790776
 30
0.0
 11
40.65863991822618
 21
40.65863991822617
 31
0.0
210
0.0
220
0.0
230
0.9999999999999998
 40
0.9999999999999998
 41
2.749024128376337
 42
2.845214029375128
  0
ELLIPSE
  5
16FD
330
1F
100
AcDbEntity
  8
0
  6
Continuous
 62
     7
100
AcDbEllipse
 10
-247.1047543467957
 20
50.70432808790776
 30
0.0
 11
-40.65863991822627
 21
40.65863991822627
 31
0.0
210
0.0
220
0.0
230
1.0
 40
0.9999999999999209
 41
3.419176731322423
 42
3.53416117880328
  0
ELLIPSE
  5
16FE
330
1F
100
AcDbEntity
  8
0
  6
Continuous
 62
     7
100
AcDbEllipse
 10
-247.1047543467957
 20
50.70432808790776
 30
0.0
 11
-40.65863991822793
 21
40.65863991822794
 31
0.0
210
0.0
220
0.0
230
0.9999999999999998
 40
0.9999999999999726
 41
0.9958389720714752
 42
1.178227801581451
  0
ELLIPSE
  5
16FF
330
1F
100
AcDbEntity
  8
0
  6
Continuous
 62
     7
100
AcDbEllipse
 10
-247.1047543467957
 20
50.70432808790776
 30
0.0
 11
-40.65863991822888
 21
40.65863991822888
 31
0.0
210
0.0
220
0.0
230
0.9999999999999998
 40
0.9999999999999642
 41
0.9076368394290135
 42
0.9958389720714787
  0
ELLIPSE
  5
1700
330
1F
100
AcDbEntity
  8
0
  6
Continuous
 62
     7
100
AcDbEllipse
 10
-247.1047543467957
 20
50.70432808790776
 30
0.0
 11
40.65863991822724
 21
40.65863991822724
 31
0.0
210
0.0
220
0.0
230
0.9999999999999998
 40
0.9999999999999925
 41
5.104957505598147
 42
5.375548467750588
  0
ELLIPSE
  5
1701
330
1F
100
AcDbEntity
  8
0
  6
Continuous
 62
     7
100
AcDbEllipse
 10
-247.1047543467957
 20
50.70432808790776
 30
0.0
 11
40.65863991822559
 21
40.65863991822558
 31
0.0
210
0.0
220
0.0
230
1.0
 40
0.9999999999999875
 41
2.391179587076042
 42
2.478433166223886
  0
ELLIPSE
  5
1702
330
1F
100
AcDbEntity
  8
0
  6
Continuous
 62
     7
100
AcDbEllipse
 10
-247.1047543467957
 20
50.70432808790776
 30
0.0
 11
40.65863991823047
 21
40.65863991823047
 31
0.0
210
0.0
220
0.0
230
1.0
 40
0.9999999999999696
 41
5.375548467750577
 42
5.462802046898419
  0
ELLIPSE
  5
1703
330
1F
100
AcDbEntity
  8
0
  6
Continuous
 62
     7
100
AcDbEllipse
 10
-247.1047543467957
 20
50.70432808790776
 30
0.0
 11
-40.65863991822181
 21
40.65863991822181
 31
0.0
210
0.0
220
0.0
230
0.9999999999999998
 40
0.9999999999999889
 41
0.7333961680740271
 42
0.8203832602811571
  0
ELLIPSE
  5
1704
330
1F
100
AcDbEntity
  8
0
  6
Continuous
 62
     7
100
AcDbEllipse
 10
-247.1047543467957
 20
50.70432808790776
 30
0.0
 11
-40.65863991822859
 21
40.6586399182286
 31
0.0
210
0.0
220
0.0
230
1.0
 40
0.999999999999992
 41
3.892005720103541
 42
3.978992812310671
  0
ELLIPSE
  5
1705
330
1F
100
AcDbEntity
  8
0
  6
Continuous
 62
     7
100
AcDbEllipse
 10
-247.1047543467957
 20
50.70432808790776
 30
0.0
 11
40.65863991822623
 21
40.65863991822623
 31
0.0
210
0.0
220
0.0
230
0.9999999999999998
 40
0.9999999999999975
 41
2.216808503208869
 42
2.304192494868916
  0
ELLIPSE
  5
1706
330
1F
100
AcDbEntity
  8
0
  6
Continuous
 62
     7
100
AcDbEllipse
 10
-247.1047543467957
 20
50.70432808790776
 30
0.0
 11
40.65863991822349
 21
40.65863991822349
 31
0.0
210
0.0
220
0.0
230
1.0
 40
0.9999999999999637
 41
5.549789139105545
 42
5.637173130765592
  0
ELLIPSE
  5
1707
330
1F
100
AcDbEntity
  8
0
  6
Continuous
 62
     7
100
AcDbEllipse
 10
-247.1047543467957
 20
50.70432808790776
 30
0.0
 11
40.65863991822752
 21
40.65863991822752
 31
0.0
210
0.0
220
0.0
230
0.9999999999999998
 40
0.999999999999979
 41
2.128336289101618
 42
2.21680850320886
  0
ELLIPSE
  5
1708
330
1F
100
AcDbEntity
  8
0
  6
Continuous
 62
     7
100
AcDbEllipse
 10
-247.1047543467957
 20
50.70432808790776
 30
0.0
 11
-40.65863991822737
 21
40.65863991822737
 31
0.0
210
0.0
220
0.0
230
1.0
 40
0.999999999999982
 41
4.066376803970721
 42
4.154849018077963
  0
ELLIPSE
  5
1709
330
1F
100
AcDbEntity
  8
0
  6
Continuous
 62
     7
100
AcDbEllipse
 10
-247.1047543467957
 20
50.70432808790776
 30
0.0
 11
40.65863991823404
 21
40.65863991823404
 31
0.0
210
0.0
220
0.0
230
0.9999999999999998
 40
0.9999999999998696
 41
2.046010484263625
 42
2.128336289101568
  0
ELLIPSE
  5
170A
330
1F
100
AcDbEntity
  8
0
  6
Continuous
 62
     7
100
AcDbEllipse
 10
-247.1047543467957
 20
50.70432808790776
 30
0.0
 11
40.65863991822026
 21
40.65863991822024
 31
0.0
210
0.0
220
0.0
230
1.0
 40
0.9999999999996209
 41
5.778832377657391
 42
5.815977350322927
  0
ELLIPSE
  5
170B
330
1F
100
AcDbEntity
  8
0
  6
Continuous
 62
     7
100
AcDbEllipse
 10
-247.1047543467957
 20
50.70432808790776
 30
0.0
 11
-40.65863991823294
 21
40.65863991823294
 31
0.0
210
0.0
220
0.0
230
0.9999999999999998
 40
0.9999999999998735
 41
4.245181023528234
 42
4.338294526551662
  0
ELLIPSE
  5
170C
330
1F
100
AcDbEntity
  8
0
  6
Continuous
 62
     7
100
AcDbEllipse
 10
-247.1047543467957
 20
50.70432808790776
 30
0.0
 11
-40.65863991822481
 21
40.65863991822481
 31
0.0
210
0.0
220
0.0
230
1.0
 40
0.9999999999998248
 41
0.2770199847213315
 42
0.3740944538331306
  0
ELLIPSE
  5
170D
330
1F
100
AcDbEntity
  8
0
  6
Continuous
 62
     7
100
AcDbEllipse
 10
-247.1047543467957
 20
50.70432808790776
 30
0.0
 11
40.65863991843199
 21
40.65863991843198
 31
0.0
210
0.0
220
0.0
230
1.0
 40
0.9999999999953189
 41
1.831188420556293
 42
1.84781631151495
  0
ELLIPSE
  5
170E
330
1F
100
AcDbEntity
  8
0
  6
Continuous
 62
     7
100
AcDbEllipse
 10
-247.1047543467957
 20
50.70432808790776
 30
0.0
 11
40.65863991822609
 21
40.65863991822609
 31
0.0
210
0.0
220
0.0
230
1.0
 40
0.9999999999999806
 41
5.909090853346509
 42
6.108824833165601
  0
ELLIPSE
  5
170F
330
1F
100
AcDbEntity
  8
0
  6
Continuous
 62
     7
100
AcDbEllipse
 10
-247.1047543467957
 20
50.70432808790776
 30
0.0
 11
40.65863991823714
 21
40.65863991823714
 31
0.0
210
0.0
220
0.0
230
1.0
 40
0.999999999999733
 41
1.677454485690213
 42
1.745156800808822
  0
ELLIPSE
  5
1710
330
1F
100
AcDbEntity
  8
0
  6
Continuous
 62
     7
100
AcDbEllipse
 10
-247.1047543467957
 20
50.70432808790776
 30
0.0
 11
40.65863991822592
 21
40.65863991822592
 31
0.0
210
0.0
220
0.0
230
0.9999999999999998
 40
0.9999999999997539
 41
6.162890484461908
 42
6.219503695503645
  0
ELLIPSE
  5
1711
330
1F
100
AcDbEntity
  8
0
  6
Continuous
 62
     7
100
AcDbEllipse
 10
-247.1047543467957
 20
50.70432808790776
 30
0.0
 11
-40.658639918226
 21
40.658639918226
 31
0.0
210
0.0
220
0.0
230
1.0
 40
0.9999999999998156
 41
-0.0219622382270162
 42
0.0636816116759285
  0
ELLIPSE
  5
1712
330
1F
100
AcDbEntity
  8
0
  6
Continuous
 62
     7
100
AcDbEllipse
 10
-247.1047543467957
 20
50.70432808790776
 30
0.0
 11
-40.65863991822573
 21
40.65863991822575
 31
0.0
210
0.0
220
0.0
230
1.0
 40
0.9999999999996488
 41
-0.1363211991685536
 42
-0.0590891609744897
  0
ELLIPSE
  5
1713
330
1F
100
AcDbEntity
  8
0
  6
Continuous
 62
     7
100
AcDbEllipse
 10
-247.1047543467957
 20
50.70432808790776
 30
0.0
 11
40.65863991822626
 21
40.65863991822626
 31
0.0
210
0.0
220
0.0
230
1.0
 40
0.999999999999968
 41
0.1256220472076631
 42
0.2019849468721475
  0
ELLIPSE
  5
1714
330
1F
100
AcDbEntity
  8
0
  6
Continuous
 62
     7
100
AcDbEllipse
 10
-247.1047543467957
 20
50.70432808790776
 30
0.0
 11
-40.6586399182259
 21
40.6586399182259
 31
0.0
210
0.0
220
0.0
230
0.9999999999999998
 40
0.9999999999999992
 41
-0.2414775070800659
 42
-0.2019849468721526
  0
ELLIPSE
  5
1715
330
1F
100
AcDbEntity
  8
0
  6
Continuous
 62
     7
100
AcDbEllipse
 10
-247.1047543467957
 20
50.70432808790776
 30
0.0
 11
-40.65863991822651
 21
40.65863991822651
 31
0.0
210
0.0
220
0.0
230
0.9999999999999998
 40
0.9999999999999943
 41
-1.23991352080557
 42
-1.184156582026641
  0
ELLIPSE
  5
1716
330
1F
100
AcDbEntity
  8
0
  6
Continuous
 62
     7
100
AcDbEllipse
 10
-247.1047543467957
 20
50.70432808790776
 30
0.0
 11
40.65863991823253
 21
40.65863991823253
 31
0.0
210
0.0
220
0.0
230
0.9999999999999998
 40
0.9999999999998637
 41
1.13612636478485
 42
1.184156582026658
  0
ELLIPSE
  5
1717
330
1F
100
AcDbEntity
  8
0
  6
Continuous
 62
     7
100
AcDbEllipse
 10
-247.1047543467957
 20
50.70432808790776
 30
0.0
 11
-40.65863991822711
 21
40.65863991822712
 31
0.0
210
0.0
220
0.0
230
1.0
 40
0.9999999999999902
 41
4.15484901807796
 42
4.208036050862659
  0
ELLIPSE
  5
1718
330
1F
100
AcDbEntity
  8
0
  6
Continuous
 62
     7
100
AcDbEllipse
 10
-247.1047543467957
 20
50.70432808790776
 30
0.0
 11
-40.65863991822703
 21
40.65863991822703
 31
0.0
210
0.0
220
0.0
230
0.9999999999999998
 40
0.9999999999999854
 41
3.336562243386109
 42
3.419176731322406
  0
ELLIPSE
  5
1719
330
1F
100
AcDbEntity
  8
0
  6
Continuous
 62
     7
100
AcDbEllipse
 10
-247.1047543467957
 20
50.70432808790776
 30
0.0
 11
-40.6586399182263
 21
40.6586399182263
 31
0.0
210
0.0
220
0.0
230
1.0
 40
0.9999999999983408
 41
3.227701959245679
 42
3.261887476307612
  0
ELLIPSE
  5
171A
330
1F
100
AcDbEntity
  8
0
  6
Continuous
 62
     7
100
AcDbEllipse
 10
-247.1047543467957
 20
50.70432808790776
 30
0.0
 11
40.65863991822603
 21
40.65863991822603
 31
0.0
210
0.0
220
0.0
230
1.0
 40
0.9999999999997736
 41
6.108824833165566
 42
6.162890484461911
  0
ELLIPSE
  5
171B
330
1F
100
AcDbEntity
  8
0
  6
Continuous
 62
     7
100
AcDbEllipse
 10
-247.1047543467957
 20
50.70432808790776
 30
0.0
 11
40.6586399183559
 21
40.6586399183559
 31
0.0
210
0.0
220
0.0
230
0.9999999999999998
 40
0.9999999999968375
 41
4.678542744060929
 42
4.702243383529122
  0
ELLIPSE
  5
171C
330
1F
100
AcDbEntity
  8
0
  6
Continuous
 62
     7
100
AcDbEllipse
 10
-247.1047543467957
 20
50.70432808790776
 30
0.0
 11
-40.65863991822949
 21
40.6586399182295
 31
0.0
210
0.0
220
0.0
230
1.0
 40
0.9999999999999161
 41
4.64870736870877
 42
4.722534577240276
  0
ELLIPSE
  5
171D
330
1F
100
AcDbEntity
  8
0
  6
Continuous
 62
     7
100
AcDbEllipse
 10
-247.1047543467957
 20
50.70432808790776
 30
0.0
 11
40.65863991822756
 21
40.65863991822756
 31
0.0
210
0.0
220
0.0
230
1.0
 40
0.9999999999999889
 41
4.540579931221166
 42
4.586766933177031
  0
ELLIPSE
  5
171E
330
1F
100
AcDbEntity
  8
0
  6
Continuous
 62
     7
100
AcDbEllipse
 10
-247.1047543467957
 20
50.70432808790776
 30
0.0
 11
-40.65863991822893
 21
40.65863991822893
 31
0.0
210
0.0
220
0.0
230
1.0
 40
0.9999999999999339
 41
-1.560650729939309
 42
-1.445174279587245
  0
ELLIPSE
  5
171F
330
1F
100
AcDbEntity
  8
0
  6
Continuous
 62
     7
100
AcDbEllipse
 10
-247.1047543467957
 20
50.70432808790776
 30
0.0
 11
-40.65863991822633
 21
40.65863991822633
 31
0.0
210
0.0
220
0.0
230
0.9999999999999998
 40
0.9999999999998742
 41
2.810709847600418
 42
2.910065515378447
  0
ELLIPSE
  5
1720
330
1F
100
AcDbEntity
  8
0
  6
Continuous
 62
     7
100
AcDbEllipse
 10
-247.1047543467957
 20
50.70432808790776
 30
0.0
 11
40.65863991822516
 21
40.65863991822516
 31
0.0
210
0.0
220
0.0
230
0.9999999999999998
 40
0.9999999999995349
 41
0.2019849468722324
 42
0.2315271382114034
  0
ELLIPSE
  5
1721
330
1F
100
AcDbEntity
  8
0
  6
Continuous
 62
     7
100
AcDbEllipse
 10
-247.1047543467957
 20
50.70432808790776
 30
0.0
 11
40.65863991822975
 21
40.65863991822975
 31
0.0
210
0.0
220
0.0
230
0.9999999999999998
 40
0.999999999999938
 41
4.286773036568642
 42
4.381506174395372
  0
ELLIPSE
  5
1722
330
1F
100
AcDbEntity
  8
0
  6
Continuous
 62
     7
100
AcDbEllipse
 10
-247.1047543467957
 20
50.70432808790776
 30
0.0
 11
40.65863991822584
 21
40.65863991822584
 31
0.0
210
0.0
220
0.0
230
1.0
 40
0.9999999999999847
 41
0.231527138211303
 42
0.3308828059893328
  0
ELLIPSE
  5
1723
330
1F
100
AcDbEntity
  8
0
  6
Continuous
 62
     7
100
AcDbEllipse
 10
-247.1047543467957
 20
50.70432808790776
 30
0.0
 11
-40.65863991822628
 21
40.6586399182263
 31
0.0
210
0.0
220
0.0
230
1.0
 40
0.9999999999999687
 41
2.624516520075243
 42
2.715976709773709
  0
ELLIPSE
  5
1724
330
1F
100
AcDbEntity
  8
0
  6
Continuous
 62
     7
100
AcDbEllipse
 10
-247.1047543467957
 20
50.70432808790776
 30
0.0
 11
40.65863991822575
 21
40.65863991822575
 31
0.0
210
0.0
220
0.0
230
0.9999999999999998
 40
0.9999999999999925
 41
0.3866397447682594
 42
0.4256159438160667
  0
ELLIPSE
  5
1725
330
1F
100
AcDbEntity
  8
0
  6
Continuous
 62
     7
100
AcDbEllipse
 10
-247.1047543467957
 20
50.70432808790776
 30
0.0
 11
-40.65863991822623
 21
40.65863991822623
 31
0.0
210
0.0
220
0.0
230
1.0
 40
0.999999999999974
 41
2.535308026456666
 42
2.624516520075244
  0
ELLIPSE
  5
1726
330
1F
100
AcDbEntity
  8
0
  6
Continuous
 62
     7
100
AcDbEllipse
 10
-247.1047543467957
 20
50.70432808790776
 30
0.0
 11
40.65863991822496
 21
40.65863991822496
 31
0.0
210
0.0
220
0.0
230
0.9999999999999998
 40
0.9999999999999172
 41
0.4256159438160952
 42
0.517076133514567
  0
ELLIPSE
  5
1727
330
1F
100
AcDbEntity
  8
0
  6
Continuous
 62
     7
100
AcDbEllipse
 10
-247.1047543467957
 20
50.70432808790776
 30
0.0
 11
40.65863991822761
 21
40.65863991822761
 31
0.0
210
0.0
220
0.0
230
1.0
 40
0.9999999999999934
 41
4.018318560838606
 42
4.106104353251579
  0
ELLIPSE
  5
1728
330
1F
100
AcDbEntity
  8
0
  6
Continuous
 62
     7
100
AcDbEllipse
 10
-247.1047543467957
 20
50.70432808790776
 30
0.0
 11
-40.65863991822744
 21
40.65863991822744
 31
0.0
210
0.0
220
0.0
230
1.0
 40
0.9999999999999788
 41
-1.053720193280374
 42
-0.9645116996617964
  0
ELLIPSE
  5
1729
330
1F
100
AcDbEntity
  8
0
  6
Continuous
 62
     7
100
AcDbEllipse
 10
-247.1047543467957
 20
50.70432808790776
 30
0.0
 11
-40.65863991822495
 21
40.65863991822495
 31
0.0
210
0.0
220
0.0
230
1.0
 40
0.9999999999999959
 41
2.360438820899717
 42
2.447522234043706
  0
ELLIPSE
  5
172A
330
1F
100
AcDbEntity
  8
0
  6
Continuous
 62
     7
100
AcDbEllipse
 10
-247.1047543467957
 20
50.70432808790776
 30
0.0
 11
-40.65863991822665
 21
40.65863991822665
 31
0.0
210
0.0
220
0.0
230
0.9999999999999998
 40
0.9999999999999959
 41
-0.9645116996617884
 42
-0.8767259072488165
  0
ELLIPSE
  5
172B
330
1F
100
AcDbEntity
  8
0
  6
Continuous
 62
     7
100
AcDbEllipse
 10
-247.1047543467957
 20
50.70432808790776
 30
0.0
 11
40.6586399182268
 21
40.6586399182268
 31
0.0
210
0.0
220
0.0
230
0.9999999999999998
 40
0.9999999999999996
 41
3.844184011730353
 42
3.931235147694617
  0
ELLIPSE
  5
172C
330
1F
100
AcDbEntity
  8
0
  6
Continuous
 62
     7
100
AcDbEllipse
 10
-247.1047543467957
 20
50.70432808790776
 30
0.0
 11
40.65863991822544
 21
40.65863991822544
 31
0.0
210
0.0
220
0.0
230
1.0
 40
0.9999999999999989
 41
0.6940704195460831
 42
0.7811538326900735
  0
ELLIPSE
  5
172D
330
1F
100
AcDbEntity
  8
0
  6
Continuous
 62
     7
100
AcDbEllipse
 10
-247.1047543467957
 20
50.70432808790776
 30
0.0
 11
40.6586399182269
 21
40.6586399182269
 31
0.0
210
0.0
220
0.0
230
0.9999999999999998
 40
0.9999999999999992
 41
3.756497305839805
 42
3.844184011730354
  0
ELLIPSE
  5
172E
330
1F
100
AcDbEntity
  8
0
  6
Continuous
 62
     7
100
AcDbEllipse
 10
-247.1047543467957
 20
50.70432808790776
 30
0.0
 11
40.65863991822607
 21
40.65863991822607
 31
0.0
210
0.0
220
0.0
230
0.9999999999999998
 40
0.9999999999999991
 41
0.7811538326900732
 42
0.8682049686543368
  0
ELLIPSE
  5
172F
330
1F
100
AcDbEntity
  8
0
  6
Continuous
 62
     7
100
AcDbEllipse
 10
-247.1047543467957
 20
50.70432808790776
 30
0.0
 11
-40.65863991822699
 21
40.65863991822699
 31
0.0
210
0.0
220
0.0
230
1.0
 40
0.9999999999999959
 41
2.096665600341779
 42
2.185700979044906
  0
ELLIPSE
  5
1730
330
1F
100
AcDbEntity
  8
0
  6
Continuous
 62
     7
100
AcDbEllipse
 10
-247.1047543467957
 20
50.70432808790776
 30
0.0
 11
40.65863991822894
 21
40.65863991822894
 31
0.0
210
0.0
220
0.0
230
0.9999999999999998
 40
0.9999999999999726
 41
0.8682049686543503
 42
0.9558916745449035
  0
ELLIPSE
  5
1731
330
1F
100
AcDbEntity
  8
0
  6
Continuous
 62
     7
100
AcDbEllipse
 10
-247.1047543467957
 20
50.70432808790776
 30
0.0
 11
40.65863991822668
 21
40.65863991822668
 31
0.0
210
0.0
220
0.0
230
0.9999999999999998
 40
0.9999999999999843
 41
3.576262615599906
 42
3.667461927136684
  0
ELLIPSE
  5
1732
330
1F
100
AcDbEntity
  8
0
  6
Continuous
 62
     7
100
AcDbEllipse
 10
-247.1047543467957
 20
50.70432808790776
 30
0.0
 11
-40.6586399182252
 21
40.6586399182252
 31
0.0
210
0.0
220
0.0
230
1.0
 40
0.9999999999999822
 41
-0.6149046522500142
 42
-0.5258692735468893
  0
ELLIPSE
  5
1733
330
1F
100
AcDbEntity
  8
0
  6
Continuous
 62
     7
100
AcDbEllipse
 10
-247.1047543467957
 20
50.70432808790776
 30
0.0
 11
-40.65863991822718
 21
40.65863991822718
 31
0.0
210
0.0
220
0.0
230
0.9999999999999998
 40
0.9999999999999944
 41
1.812273833874975
 42
2.005466288805001
  0
ELLIPSE
  5
1734
330
1F
100
AcDbEntity
  8
0
  6
Continuous
 62
     7
100
AcDbEllipse
 10
-247.1047543467957
 20
50.70432808790776
 30
0.0
 11
40.6586399182271
 21
40.6586399182271
 31
0.0
210
0.0
220
0.0
230
0.9999999999999998
 40
0.9999999999999838
 41
1.044927053248022
 42
1.136126364784805
  0
ELLIPSE
  5
1735
330
1F
100
AcDbEntity
  8
0
  6
Continuous
 62
     7
100
AcDbEllipse
 10
-247.1047543467957
 20
50.70432808790776
 30
0.0
 11
-40.65863991822335
 21
40.65863991822335
 31
0.0
210
0.0
220
0.0
230
1.0
 40
0.9999999999996964
 41
-0.386639744768392
 42
-0.3403090749988515
  0
ELLIPSE
  5
1736
330
1F
100
AcDbEntity
  8
0
  6
Continuous
 62
     7
100
AcDbEllipse
 10
-247.1047543467957
 20
50.70432808790776
 30
0.0
 11
-40.65863991823635
 21
40.65863991823635
 31
0.0
210
0.0
220
0.0
230
1.0
 40
0.999999999999774
 41
1.742605375958396
 42
1.812273833874924
  0
ELLIPSE
  5
1737
330
1F
100
AcDbEntity
  8
0
  6
Continuous
 62
     7
100
AcDbEllipse
 10
-247.1047543467957
 20
50.70432808790776
 30
0.0
 11
40.65863991822768
 21
40.65863991822768
 31
0.0
210
0.0
220
0.0
230
1.0
 40
0.9999999999999646
 41
1.230487251796151
 42
1.329318819714839
  0
ELLIPSE
  5
1738
330
1F
100
AcDbEntity
  8
0
  6
Continuous
 62
     7
100
AcDbEllipse
 10
-247.1047543467957
 20
50.70432808790776
 30
0.0
 11
-40.658639918228
 21
40.65863991822801
 31
0.0
210
0.0
220
0.0
230
1.0
 40
0.999999999999966
 41
1.484687021139162
 42
1.707117525963418
  0
ELLIPSE
  5
1739
330
1F
100
AcDbEntity
  8
0
  6
Continuous
 62
     7
100
AcDbEllipse
 10
-247.1047543467957
 20
50.70432808790776
 30
0.0
 11
40.65863991823092
 21
40.65863991823092
 31
0.0
210
0.0
220
0.0
230
1.0
 40
0.999999999999879
 41
1.368811379922767
 42
1.434475127626406
  0
ELLIPSE
  5
173A
330
1F
100
AcDbEntity
  8
0
  6
Continuous
 62
     7
100
AcDbEllipse
 10
-247.1047543467957
 20
50.70432808790776
 30
0.0
 11
40.65863991826202
 21
40.65863991826201
 31
0.0
210
0.0
220
0.0
230
1.0
 40
0.9999999999991155
 41
1.511707165820479
 42
1.548834088567903
  0
ELLIPSE
  5
173B
330
1F
100
AcDbEntity
  8
0
  6
Continuous
 62
     7
100
AcDbEllipse
 10
-247.1047543467957
 20
50.70432808790776
 30
0.0
 11
40.65863991822651
 21
40.65863991822651
 31
0.0
210
0.0
220
0.0
230
0.9999999999999998
 40
0.9999999999998985
 41
2.946623063793466
 42
3.034934494694462
  0
ELLIPSE
  5
173C
330
1F
100
AcDbEntity
  8
0
  6
Continuous
 62
     7
100
AcDbEllipse
 10
-247.1047543467957
 20
50.70432808790776
 30
0.0
 11
40.65863991824651
 21
40.65863991824651
 31
0.0
210
0.0
220
0.0
230
1.0
 40
0.9999999999994908
 41
1.634477938470781
 42
1.677454485690187
  0
ELLIPSE
  5
173D
330
1F
100
AcDbEntity
  8
0
  6
Continuous
 62
     7
100
AcDbEllipse
 10
-247.1047543467957
 20
50.70432808790776
 30
0.0
 11
-40.65863991823854
 21
40.65863991823854
 31
0.0
210
0.0
220
0.0
230
0.9999999999999998
 40
0.9999999999997285
 41
1.274417702580307
 42
1.310404233032418
  0
ELLIPSE
  5
173E
330
1F
100
AcDbEntity
  8
0
  6
Continuous
 62
     7
100
AcDbEllipse
 10
-247.1047543467957
 20
50.70432808790776
 30
0.0
 11
40.65863991822716
 21
40.65863991822716
 31
0.0
210
0.0
220
0.0
230
1.0
 40
0.9999999999999797
 41
1.94489078062796
 42
2.046010484263669
  0
ELLIPSE
  5
173F
330
1F
100
AcDbEntity
  8
0
  6
Continuous
 62
     7
100
AcDbEllipse
 10
-247.1047543467957
 20
50.70432808790776
 30
0.0
 11
40.65863991824099
 21
40.65863991824098
 31
0.0
210
0.0
220
0.0
230
1.0
 40
0.9999999999996404
 41
1.745156800808807
 42
1.831188420557368
  0
ELLIPSE
  5
1748
330
1F
100
AcDbEntity
  8
0
  6
Continuous
 62
     7
100
AcDbEllipse
 10
-247.1047543467957
 20
50.70432808790776
 30
0.0
 11
-111.7228714274748
 21
111.7228714274748
 31
0.0
210
0.0
220
0.0
230
1.0
 40
0.9999999999999976
 41
-1.226069162176163
 42
-0.7853981633974497
  0
ELLIPSE
  5
1749
330
1F
100
AcDbEntity
  8
0
  6
Continuous
 62
     7
100
AcDbEllipse
 10
-328.6047543467958
 20
-90.45781272895561
 30
0.0
 11
4.949747468305984
 21
4.949747468305984
 31
0.0
210
0.0
220
0.0
230
1.0
 40
0.9999999999999888
 41
2.268928027592624
 42
3.922849143480659
  0
ELLIPSE
  5
174A
330
1F
100
AcDbEntity
  8
0
  6
Continuous
 62
     7
100
AcDbEllipse
 10
-247.1047543467957
 20
50.70432808790776
 30
0.0
 11
-109.601551083932
 21
109.601551083932
 31
0.0
210
0.0
220
0.0
230
1.0
 40
0.9999999999998587
 41
1.825359743966238
 42
1.897173464526375
  0
ELLIPSE
  5
174B
330
1F
100
AcDbEntity
  8
0
  6
Continuous
 62
     7
100
AcDbEllipse
 10
-247.1047543467957
 20
50.70432808790776
 30
0.0
 11
-109.601551083932
 21
109.601551083932
 31
0.0
210
0.0
220
0.0
230
1.0
 40
0.9999999999998587
 41
1.825359743966238
 42
1.897173464526375
  0
ELLIPSE
  5
174C
330
1F
100
AcDbEntity
  8
0
  6
Continuous
 62
     7
100
AcDbEllipse
 10
-247.1047543467957
 20
50.70432808790776
 30
0.0
 11
-109.6015510839149
 21
109.6015510839149
 31
0.0
210
0.0
220
0.0
230
1.0
 40
0.9999999999999998
 41
2.375550537524425
 42
7.068583470577033
  0
ELLIPSE
  5
174D
330
1F
100
AcDbEntity
  8
0
  6
Continuous
 62
     7
100
AcDbEllipse
 10
-247.1047543467957
 20
50.70432808790776
 30
0.0
 11
109.6015510839149
 21
109.6015510839149
 31
0.0
210
0.0
220
0.0
230
1.0
 40
0.9999999999999994
 41
2.356194490192344
 42
3.396156070761169
  0
ELLIPSE
  5
174E
330
1F
100
AcDbEntity
  8
0
  6
Continuous
 62
     7
100
AcDbEllipse
 10
-247.1047543467957
 20
50.70432808790776
 30
0.0
 11
-109.6015510839149
 21
109.6015510839149
 31
0.0
210
0.0
220
0.0
230
1.0
 40
0.9999999999999998
 41
2.375550537524425
 42
7.068583470577033
  0
ELLIPSE
  5
174F
330
1F
100
AcDbEntity
  8
0
  6
Continuous
 62
     7
100
AcDbEllipse
 10
-247.1047543467957
 20
50.70432808790776
 30
0.0
 11
109.6015510839149
 21
109.6015510839149
 31
0.0
210
0.0
220
0.0
230
1.0
 40
0.9999999999999994
 41
2.356194490192344
 42
3.396156070761169
  0
ELLIPSE
  5
1750
330
1F
100
AcDbEntity
  8
0
  6
Continuous
 62
     7
100
AcDbEllipse
 10
-211.4047543467957
 20
-114.0697604653226
 30
0.0
 11
-7.071067811865246
 21
7.071067811865247
 31
0.0
210
0.0
220
0.0
230
1.0
 40
0.9999999999999998
 41
4.052706609839647
 42
5.284823668862225
  0
ELLIPSE
  5
1767
330
1F
100
AcDbEntity
  8
0
  6
Continuous
 62
     7
100
AcDbEllipse
 10
-247.1047543467957
 20
50.70432808790776
 30
0.0
 11
72.83199846221402
 21
72.83199846221402
 31
0.0
210
0.0
220
0.0
230
1.0
 40
0.9999999999999998
 41
0.4162743592820678
 42
1.105748283821251
  0
ELLIPSE
  5
1768
330
1F
100
AcDbEntity
  8
0
  6
Continuous
 62
     7
100
AcDbEllipse
 10
-247.1047543467957
 20
50.70432808790776
 30
0.0
 11
-76.3675323681466
 21
76.3675323681466
 31
0.0
210
0.0
220
0.0
230
1.0
 40
0.9999999999999994
 41
-0.8575106144595777
 42
-0.6632251157578448
  0
ELLIPSE
  5
1769
330
1F
100
AcDbEntity
  8
0
  6
Continuous
 62
     7
100
AcDbEllipse
 10
-247.1047543467957
 20
50.70432808790776
 30
0.0
 11
79.90306627407952
 21
79.90306627407952
 31
0.0
210
0.0
220
0.0
230
0.9999999999999998
 40
0.9999999999999984
 41
0.3862102427867707
 42
0.6816495134461893
  0
ELLIPSE
  5
176A
330
1F
100
AcDbEntity
  8
0
  6
Continuous
 62
     7
100
AcDbEllipse
 10
-84.10475434679582
 20
50.70432808790777
 30
0.0
 11
-4.949747468305836
 21
4.949747468305836
 31
0.0
210
0.0
220
0.0
230
0.9999999999999998
 40
0.9999999999999992
 41
3.926990816987239
 42
5.061454830783555
  0
ELLIPSE
  5
176B
330
1F
100
AcDbEntity
  8
0
  6
Continuous
 62
     7
100
AcDbEllipse
 10
-165.6047543467957
 20
191.8664689047713
 30
0.0
 11
-4.949747468305825
 21
4.949747468305825
 31
0.0
210
0.0
220
0.0
230
1.0
 40
0.9999999999999966
 41
3.839724354387525
 42
6.108652381980144
  0
ELLIPSE
  5
176C
330
1F
100
AcDbEntity
  8
0
  6
Continuous
 62
     7
100
AcDbEllipse
 10
-328.6047543467958
 20
191.8664689047713
 30
0.0
 11
-4.949747468305829
 21
4.949747468305829
 31
0.0
210
0.0
220
0.0
230
1.0
 40
0.9999999999999928
 41
-1.396263401595443
 42
0.872664625997169
  0
ELLIPSE
  5
176D
330
1F
100
AcDbEntity
  8
0
  6
Continuous
 62
     7
100
AcDbEllipse
 10
-410.1047543467958
 20
50.70432808790777
 30
0.0
 11
4.949747468305944
 21
4.949747468305942
 31
0.0
210
0.0
220
0.0
230
0.9999999999999998
 40
0.9999999999999991
 41
1.221730476396049
 42
3.490658503988629
  0
ELLIPSE
  5
176E
330
1F
100
AcDbEntity
  8
0
  6
Continuous
 62
     7
100
AcDbEllipse
 10
-328.6047543467958
 20
-90.45781272895561
 30
0.0
 11
-4.94974746830586
 21
4.94974746830586
 31
0.0
210
0.0
220
0.0
230
1.0
 40
0.9999999999999966
 41
2.352052816685755
 42
2.967059728390351
  0
ELLIPSE
  5
176F
330
1F
100
AcDbEntity
  8
0
  6
Continuous
 62
     7
100
AcDbEllipse
 10
-165.6047543467958
 20
-90.45781272895572
 30
0.0
 11
-4.949747468305869
 21
4.949747468305869
 31
0.0
210
0.0
220
0.0
230
1.0
 40
0.9999999999999978
 41
1.745329251994334
 42
4.014257279586958
  0
ELLIPSE
  5
1770
330
1F
100
AcDbEntity
  8
0
  6
Continuous
 62
     7
100
AcDbEllipse
 10
-247.1047543467957
 20
50.70432808790776
 30
0.0
 11
111.7228714274744
 21
111.7228714274744
 31
0.0
210
0.0
220
0.0
230
0.9999999999999998
 40
0.9999999999999994
 41
5.580714920601722
 42
6.459817733853257
  0
ELLIPSE
  5
1771
330
1F
100
AcDbEntity
  8
0
  6
Continuous
 62
     7
100
AcDbEllipse
 10
-247.1047543467957
 20
50.70432808790776
 30
0.0
 11
111.7228714274745
 21
111.7228714274745
 31
0.0
210
0.0
220
0.0
230
1.0
 40
0.9999999999999998
 41
4.533517369405124
 42
5.414859366962553
  0
ELLIPSE
  5
1772
330
1F
100
AcDbEntity
  8
0
  6
Continuous
 62
     7
100
AcDbEllipse
 10
-247.1047543467957
 20
50.70432808790776
 30
0.0
 11
111.7228714274745
 21
111.7228714274745
 31
0.0
210
0.0
220
0.0
230
1.0
 40
1.0
 41
3.489949307417822
 42
4.367661815765954
  0
ELLIPSE
  5
1773
330
1F
100
AcDbEntity
  8
0
  6
Continuous
 62
     7
100
AcDbEllipse
 10
-247.1047543467957
 20
50.70432808790776
 30
0.0
 11
-111.7228714274746
 21
111.7228714274747
 31
0.0
210
0.0
220
0.0
230
1.0
 40
0.9999999999999987
 41
0.8683259402170332
 42
1.749667937774459
  0
ELLIPSE
  5
1774
330
1F
100
AcDbEntity
  8
0
  6
Continuous
 62
     7
100
AcDbEllipse
 10
-247.1047543467957
 20
50.70432808790776
 30
0.0
 11
111.7228714274745
 21
111.7228714274745
 31
0.0
210
0.0
220
0.0
230
0.9999999999999998
 40
1.0
 41
1.391924715815333
 42
2.27326671337276
  0
ELLIPSE
  5
1775
330
1F
100
AcDbEntity
  8
0
  6
Continuous
 62
     7
100
AcDbEllipse
 10
-247.1047543467957
 20
50.70432808790776
 30
0.0
 11
111.722871427475
 21
111.722871427475
 31
0.0
210
0.0
220
0.0
230
1.0
 40
0.9999999999999971
 41
0.9805787690001217
 42
1.226069162176165
  0
ELLIPSE
  5
1776
330
1F
100
AcDbEntity
  8
0
  6
DASH_CENTER
 62
     2
100
AcDbEllipse
 10
-247.2644978627544
 20
50.63816015709655
 30
0.0
 11
48.79036790187175
 21
48.79036790187175
 31
0.0
210
0.0
220
0.0
230
1.0
 40
1.0
 41
0.4180923469262903
 42
1.082896268984976
  0
ELLIPSE
  5
1777
330
1F
100
AcDbEntity
  8
0
  6
DASH_CENTER
 62
     2
100
AcDbEllipse
 10
-247.2644978627544
 20
50.63816015709655
 30
0.0
 11
48.7903679018718
 21
48.79036790187179
 31
0.0
210
0.0
220
0.0
230
1.0
 40
0.9999999999999992
 41
1.988888673721185
 42
2.653692595779874
  0
ELLIPSE
  5
1778
330
1F
100
AcDbEntity
  8
0
  6
DASH_CENTER
 62
     2
100
AcDbEllipse
 10
-247.2644978627544
 20
50.63816015709655
 30
0.0
 11
-48.79036790187178
 21
48.79036790187178
 31
0.0
210
0.0
220
0.0
230
1.0
 40
0.9999999999999996
 41
1.988888673721183
 42
2.653692595779872
  0
ELLIPSE
  5
1779
330
1F
100
AcDbEntity
  8
0
  6
DASH_CENTER
 62
     2
100
AcDbEllipse
 10
-247.2644978627544
 20
50.63816015709655
 30
0.0
 11
-48.79036790187186
 21
48.79036790187186
 31
0.0
210
0.0
220
0.0
230
1.0
 40
0.9999999999999998
 41
3.559685000516084
 42
4.224488922574771
  0
ELLIPSE
  5
177A
330
1F
100
AcDbEntity
  8
0
  6
Continuous
 62
     7
100
AcDbEllipse
 10
-247.1047543467957
 20
50.70432808790776
 30
0.0
 11
-111.722871427474
 21
111.722871427474
 31
0.0
210
0.0
220
0.0
230
1.0
 40
0.9999999999999962
 41
-0.7853981633974506
 42
-0.590217557794778
  0
ELLIPSE
  5
177B
330
1F
100
AcDbEntity
  8
0
  6
Continuous
 62
     7
100
AcDbEllipse
 10
-84.10475434679582
 20
50.70432808790777
 30
0.0
 11
-4.949747468305835
 21
4.949747468305835
 31
0.0
210
0.0
220
0.0
230
1.0
 40
0.9999999999999987
 41
2.792526803190926
 42
3.926990816987239
  0
ELLIPSE
  5
177C
330
1F
100
AcDbEntity
  8
0
  6
Continuous
 62
     7
100
AcDbEllipse
 10
-247.1047543467957
 20
50.70432808790776
 30
0.0
 11
-109.601551083915
 21
109.601551083915
 31
0.0
210
0.0
220
0.0
230
1.0
 40
0.9999999999999996
 41
1.897173464526418
 42
2.336838442860262
  0
ELLIPSE
  5
177D
330
1F
100
AcDbEntity
  8
0
  6
Continuous
 62
     7
100
AcDbEllipse
 10
-247.1047543467957
 20
50.70432808790776
 30
0.0
 11
-109.601551083915
 21
109.601551083915
 31
0.0
210
0.0
220
0.0
230
1.0
 40
0.9999999999999996
 41
1.897173464526418
 42
2.336838442860262
  0
ELLIPSE
  5
177E
330
1F
100
AcDbEntity
  8
0
  6
Continuous
 62
     7
100
AcDbEllipse
 10
-247.1047543467957
 20
50.70432808790776
 30
0.0
 11
-109.6015510839339
 21
109.6015510839339
 31
0.0
210
0.0
220
0.0
230
1.0
 40
0.999999999999998
 41
2.336838442860261
 42
2.375550537524424
  0
ELLIPSE
  5
177F
330
1F
100
AcDbEntity
  8
0
  6
Continuous
 62
     7
100
AcDbEllipse
 10
-247.1047543467957
 20
50.70432808790776
 30
0.0
 11
-109.6015510839339
 21
109.6015510839339
 31
0.0
210
0.0
220
0.0
230
1.0
 40
0.999999999999998
 41
2.336838442860261
 42
2.375550537524424
  0
ELLIPSE
  5
1781
330
1F
100
AcDbEntity
  8
0
  6
Continuous
 62
     7
100
AcDbEllipse
 10
-178.2644978627531
 20
50.63816015709636
 30
0.0
 11
-3.181980515339466
 21
3.181980515339466
 31
0.0
210
0.0
220
0.0
230
1.0
 40
0.9999999999999971
 41
3.926990816987243
 42
10.21017612416683
  0
ELLIPSE
  5
1782
330
1F
100
AcDbEntity
  8
0
  6
Continuous
 62
     7
100
AcDbEllipse
 10
-247.2644978627532
 20
-18.36183984290363
 30
0.0
 11
3.181980515339477
 21
3.181980515339477
 31
0.0
210
0.0
220
0.0
230
0.9999999999999998
 40
0.9999999999999962
 41
5.497787143782136
 42
11.78097245096172
  0
ELLIPSE
  5
1783
330
1F
100
AcDbEntity
  8
0
  6
Continuous
 62
     7
100
AcDbEllipse
 10
-178.2644978627531
 20
50.63816015709636
 30
0.0
 11
-3.181980515339466
 21
3.181980515339466
 31
0.0
210
0.0
220
0.0
230
1.0
 40
0.9999999999999971
 41
3.926990816987243
 42
10.21017612416683
  0
ELLIPSE
  5
1784
330
1F
100
AcDbEntity
  8
0
  6
Continuous
 62
     7
100
AcDbEllipse
 10
-247.2644978627532
 20
-18.36183984290363
 30
0.0
 11
3.181980515339477
 21
3.181980515339477
 31
0.0
210
0.0
220
0.0
230
0.9999999999999998
 40
0.9999999999999962
 41
5.497787143782136
 42
11.78097245096172
  0
ELLIPSE
  5
1785
330
1F
100
AcDbEntity
  8
0
  6
Continuous
 62
     7
100
AcDbEllipse
 10
-178.2644978627531
 20
50.63816015709636
 30
0.0
 11
-3.181980515339466
 21
3.181980515339466
 31
0.0
210
0.0
220
0.0
230
1.0
 40
0.9999999999999971
 41
3.926990816987243
 42
10.21017612416683
  0
ELLIPSE
  5
1786
330
1F
100
AcDbEntity
  8
0
  6
Continuous
 62
     7
100
AcDbEllipse
 10
-247.2644978627532
 20
-18.36183984290363
 30
0.0
 11
3.181980515339477
 21
3.181980515339477
 31
0.0
210
0.0
220
0.0
230
0.9999999999999998
 40
0.9999999999999962
 41
5.497787143782136
 42
11.78097245096172
  0
ELLIPSE
  5
1787
330
1F
100
AcDbEntity
  8
0
  6
Continuous
 62
     7
100
AcDbEllipse
 10
-247.2644978627532
 20
119.6381601570963
 30
0.0
 11
3.181980515339477
 21
3.181980515339477
 31
0.0
210
0.0
220
0.0
230
0.9999999999999998
 40
0.9999999999999962
 41
5.497787143782136
 42
11.78097245096172
  0
ELLIPSE
  5
1788
330
1F
100
AcDbEntity
  8
0
  6
Continuous
 62
     7
100
AcDbEllipse
 10
-247.1047543467957
 20
50.70432808790776
 30
0.0
 11
-40.65863991822649
 21
40.65863991822649
 31
0.0
210
0.0
220
0.0
230
1.0
 40
0.9999999999999989
 41
3.926990816987242
 42
10.21017612416683
  0
ELLIPSE
  5
1789
330
1F
100
AcDbEntity
  8
0
  6
Continuous
 62
     7
100
AcDbEllipse
 10
-247.1047543467957
 20
50.70432808790776
 30
0.0
 11
-43.13351365237941
 21
43.13351365237941
 31
0.0
210
0.0
220
0.0
230
1.0
 40
0.9999999999999996
 41
3.926990816987241
 42
10.21017612416683
  0
ELLIPSE
  5
1798
330
1F
100
AcDbEntity
  8
0
  6
Continuous
 62
     7
100
AcDbEllipse
 10
-84.10475434679582
 20
50.70432808790777
 30
0.0
 11
3.181980515339464
 21
3.181980515339464
 31
0.0
210
0.0
220
0.0
230
0.9999999999999998
 40
0.9999999999999998
 41
5.497787143782137
 42
11.78097245096172
  0
ELLIPSE
  5
1799
330
1F
100
AcDbEntity
  8
0
  6
Continuous
 62
     7
100
AcDbEllipse
 10
-165.6047543467957
 20
191.8664689047713
 30
0.0
 11
3.18198051533955
 21
3.18198051533955
 31
0.0
210
0.0
220
0.0
230
1.0
 40
0.9999999999999896
 41
5.497787143782132
 42
11.78097245096172
  0
ELLIPSE
  5
179A
330
1F
100
AcDbEntity
  8
0
  6
Continuous
 62
     7
100
AcDbEllipse
 10
-328.6047543467958
 20
191.8664689047713
 30
0.0
 11
3.181980515339437
 21
3.181980515339436
 31
0.0
210
0.0
220
0.0
230
1.0
 40
0.9999999999999863
 41
5.49778714378213
 42
11.78097245096171
  0
ELLIPSE
  5
179B
330
1F
100
AcDbEntity
  8
0
  6
Continuous
 62
     7
100
AcDbEllipse
 10
-410.1047543467958
 20
50.70432808790777
 30
0.0
 11
-3.181980515339482
 21
3.181980515339482
 31
0.0
210
0.0
220
0.0
230
1.0
 40
0.9999999999999948
 41
3.926990816987244
 42
10.21017612416683
  0
ELLIPSE
  5
179C
330
1F
100
AcDbEntity
  8
0
  6
Continuous
 62
     7
100
AcDbEllipse
 10
-328.6047543467958
 20
-90.45781272895561
 30
0.0
 11
-3.181980515339494
 21
3.181980515339494
 31
0.0
210
0.0
220
0.0
230
1.0
 40
0.9999999999999857
 41
3.926990816987248
 42
10.21017612416683
  0
ELLIPSE
  5
179D
330
1F
100
AcDbEntity
  8
0
  6
Continuous
 62
     7
100
AcDbEllipse
 10
-165.6047543467958
 20
-90.45781272895572
 30
0.0
 11
3.181980515339422
 21
3.181980515339422
 31
0.0
210
0.0
220
0.0
230
0.9999999999999998
 40
0.9999999999999912
 41
5.497787143782133
 42
11.78097245096172
  0
ELLIPSE
  5
179E
330
1F
100
AcDbEntity
  8
0
  6
Continuous
 62
     7
100
AcDbEllipse
 10
-247.1047543467957
 20
50.70432808790776
 30
0.0
 11
53.03300858899106
 21
53.03300858899105
 31
0.0
210
0.0
220
0.0
230
1.0
 40
0.9999999999999998
 41
5.497787143782137
 42
11.78097245096172
  0
ELLIPSE
  5
179F
330
1F
100
AcDbEntity
  8
0
  6
Continuous
 62
     7
100
AcDbEllipse
 10
-247.1047543467957
 20
50.70432808790776
 30
0.0
 11
-40.65863991822649
 21
40.65863991822649
 31
0.0
210
0.0
220
0.0
230
1.0
 40
0.9999999999999989
 41
3.926990816987242
 42
10.21017612416683
  0
ELLIPSE
  5
17A4
330
1F
100
AcDbEntity
  8
0
  6
Continuous
 62
     7
100
AcDbEllipse
 10
-60.10475434679582
 20
-0.2956719120927218
 30
0.0
 11
1.414213562373101
 21
1.4142135623731
 31
0.0
210
0.0
220
0.0
230
1.0
 40
0.9999999999999943
 41
0.7853981633974511
 42
2.356194490192341
  0
ELLIPSE
  5
17A5
330
1F
100
AcDbEntity
  8
0
  6
Continuous
 62
     7
100
AcDbEllipse
 10
-65.10475434679583
 20
-19.29567191209271
 30
0.0
 11
2.121320343559646
 21
2.121320343559645
 31
0.0
210
0.0
220
0.0
230
1.0
 40
0.9999999999999985
 41
3.926990816987242
 42
5.497787143782137
  0
ELLIPSE
  5
17A6
330
1F
100
AcDbEntity
  8
0
  6
Continuous
 62
     7
100
AcDbEllipse
 10
-60.10475434679582
 20
-126.2956719120928
 30
0.0
 11
-1.414213562373093
 21
1.414213562373093
 31
0.0
210
0.0
220
0.0
230
0.9999999999999998
 40
0.9999999999999985
 41
0.7853981633974488
 42
2.356194490192343
  0
ELLIPSE
  5
17A7
330
1F
100
AcDbEntity
  8
0
  6
Continuous
 62
     7
100
AcDbEllipse
 10
-65.10475434679583
 20
-107.2956719120928
 30
0.0
 11
-2.121320343559647
 21
2.121320343559647
 31
0.0
210
0.0
220
0.0
230
1.0
 40
0.999999999999998
 41
3.926990816987242
 42
5.497787143782137
  0
ELLIPSE
  5
17A8
330
1F
100
AcDbEntity
  8
0
  6
Continuous
 62
     7
100
AcDbEllipse
 10
-176.6644978627537
 20
49.03816015709598
 30
0.0
 11
0.7071067811865577
 21
0.7071067811865577
 31
0.0
210
0.0
220
0.0
230
0.9999999999999998
 40
0.9999999999999852
 41
0.7853981633974556
 42
2.356194490192337
  0
ELLIPSE
  5
17A9
330
1F
100
AcDbEntity
  8
0
  6
Continuous
 62
     7
100
AcDbEllipse
 10
-179.8644978627535
 20
49.03816015709598
 30
0.0
 11
-0.7071067811865585
 21
0.7071067811865585
 31
0.0
210
0.0
220
0.0
230
0.9999999999999998
 40
0.9999999999999833
 41
3.926990816987249
 42
5.497787143782129
  0
ELLIPSE
  5
17AA
330
1F
100
AcDbEntity
  8
0
  6
Continuous
 62
     7
100
AcDbEllipse
 10
-179.8644978627544
 20
52.2381601570958
 30
0.0
 11
0.707106781186559
 21
0.7071067811865588
 31
0.0
210
0.0
220
0.0
230
1.0
 40
0.999999999999982
 41
3.926990816988173
 42
5.497787143782129
  0
ELLIPSE
  5
17AB
330
1F
100
AcDbEntity
  8
0
  6
Continuous
 62
     7
100
AcDbEllipse
 10
-176.6644978627537
 20
52.2381601570958
 30
0.0
 11
-0.7071067811865582
 21
0.7071067811865582
 31
0.0
210
0.0
220
0.0
230
1.0
 40
0.9999999999999843
 41
0.7853981633974559
 42
2.356194490192336
  0
ELLIPSE
  5
17AC
330
1F
100
AcDbEntity
  8
0
  6
Continuous
 62
     7
100
AcDbEllipse
 10
-248.8644978627544
 20
-19.961839842904
 30
0.0
 11
0.7071067811865506
 21
0.7071067811865506
 31
0.0
210
0.0
220
0.0
230
0.9999999999999998
 40
0.9999999999999664
 41
5.497787143782121
 42
7.068583470577051
  0
ELLIPSE
  5
17AD
330
1F
100
AcDbEntity
  8
0
  6
Continuous
 62
     7
100
AcDbEllipse
 10
-248.8644978627544
 20
-16.76183984290421
 30
0.0
 11
-0.7071067811865463
 21
0.7071067811865463
 31
0.0
210
0.0
220
0.0
230
1.0
 40
0.9999999999999792
 41
2.356194490192334
 42
3.926990816987252
  0
ELLIPSE
  5
17AE
330
1F
100
AcDbEntity
  8
0
  6
Continuous
 62
     7
100
AcDbEllipse
 10
-245.6644978627537
 20
-16.76183984290421
 30
0.0
 11
0.707106781186546
 21
0.707106781186546
 31
0.0
210
0.0
220
0.0
230
0.9999999999999998
 40
0.9999999999999793
 41
2.356194490192334
 42
3.926990816987251
  0
ELLIPSE
  5
17AF
330
1F
100
AcDbEntity
  8
0
  6
Continuous
 62
     7
100
AcDbEllipse
 10
-245.6644978627537
 20
-19.961839842904
 30
0.0
 11
-0.707106781186551
 21
0.707106781186551
 31
0.0
210
0.0
220
0.0
230
1.0
 40
0.9999999999999664
 41
-0.7853981633974651
 42
0.7853981633974652
  0
ELLIPSE
  5
17B0
330
1F
100
AcDbEntity
  8
0
  6
Continuous
 62
     7
100
AcDbEllipse
 10
-317.8644978627536
 20
52.2381601570958
 30
0.0
 11
-0.7071067811865552
 21
0.7071067811865552
 31
0.0
210
0.0
220
0.0
230
1.0
 40
0.999999999999992
 41
2.356194490191488
 42
3.926990816987245
  0
ELLIPSE
  5
17B1
330
1F
100
AcDbEntity
  8
0
  6
Continuous
 62
     7
100
AcDbEllipse
 10
-314.6644978627537
 20
52.2381601570958
 30
0.0
 11
-0.7071067811865582
 21
0.7071067811865582
 31
0.0
210
0.0
220
0.0
230
1.0
 40
0.9999999999999843
 41
0.7853981633974559
 42
2.356194490192336
  0
ELLIPSE
  5
17B2
330
1F
100
AcDbEntity
  8
0
  6
Continuous
 62
     7
100
AcDbEllipse
 10
-314.6644978627537
 20
49.03816015709598
 30
0.0
 11
0.7071067811865577
 21
0.7071067811865577
 31
0.0
210
0.0
220
0.0
230
0.9999999999999998
 40
0.9999999999999852
 41
0.7853981633974556
 42
2.356194490192337
  0
ELLIPSE
  5
17B3
330
1F
100
AcDbEntity
  8
0
  6
Continuous
 62
     7
100
AcDbEllipse
 10
-317.8644978627545
 20
49.03816015709598
 30
0.0
 11
0.7071067811871597
 21
0.7071067811871595
 31
0.0
210
0.0
220
0.0
230
1.0
 40
0.9999999999999893
 41
5.497787143782132
 42
7.068583470576187
  0
ELLIPSE
  5
17B4
330
1F
100
AcDbEntity
  8
0
  6
Continuous
 62
     7
100
AcDbEllipse
 10
-176.6644978627537
 20
52.2381601570958
 30
0.0
 11
-0.7071067811865582
 21
0.7071067811865582
 31
0.0
210
0.0
220
0.0
230
1.0
 40
0.9999999999999843
 41
0.7853981633974559
 42
2.356194490192336
  0
ELLIPSE
  5
17B5
330
1F
100
AcDbEntity
  8
0
  6
Continuous
 62
     7
100
AcDbEllipse
 10
-245.6644978627537
 20
-19.961839842904
 30
0.0
 11
-0.707106781186551
 21
0.707106781186551
 31
0.0
210
0.0
220
0.0
230
1.0
 40
0.9999999999999664
 41
-0.7853981633974651
 42
0.7853981633974652
  0
ELLIPSE
  5
17B6
330
1F
100
AcDbEntity
  8
0
  6
Continuous
 62
     7
100
AcDbEllipse
 10
-317.8644978627545
 20
49.03816015709598
 30
0.0
 11
0.7071067811871597
 21
0.7071067811871595
 31
0.0
210
0.0
220
0.0
230
1.0
 40
0.9999999999999893
 41
5.497787143782132
 42
7.068583470576187
  0
ELLIPSE
  5
17B7
330
1F
100
AcDbEntity
  8
0
  6
Continuous
 62
     7
100
AcDbEllipse
 10
-176.6644978627537
 20
52.2381601570958
 30
0.0
 11
-0.7071067811865582
 21
0.7071067811865582
 31
0.0
210
0.0
220
0.0
230
1.0
 40
0.9999999999999843
 41
0.7853981633974559
 42
2.356194490192336
  0
ELLIPSE
  5
17B8
330
1F
100
AcDbEntity
  8
0
  6
Continuous
 62
     7
100
AcDbEllipse
 10
-245.6644978627537
 20
-19.961839842904
 30
0.0
 11
-0.707106781186551
 21
0.707106781186551
 31
0.0
210
0.0
220
0.0
230
1.0
 40
0.9999999999999664
 41
-0.7853981633974651
 42
0.7853981633974652
  0
ELLIPSE
  5
17B9
330
1F
100
AcDbEntity
  8
0
  6
Continuous
 62
     7
100
AcDbEllipse
 10
-317.8644978627545
 20
49.03816015709598
 30
0.0
 11
0.7071067811871597
 21
0.7071067811871595
 31
0.0
210
0.0
220
0.0
230
1.0
 40
0.9999999999999893
 41
5.497787143782132
 42
7.068583470576187
  0
ELLIPSE
  5
17BA
330
1F
100
AcDbEntity
  8
0
  6
Continuous
 62
     7
100
AcDbEllipse
 10
-176.6644978627537
 20
49.03816015709598
 30
0.0
 11
0.7071067811865577
 21
0.7071067811865577
 31
0.0
210
0.0
220
0.0
230
0.9999999999999998
 40
0.9999999999999852
 41
0.7853981633974556
 42
2.356194490192337
  0
ELLIPSE
  5
17BB
330
1F
100
AcDbEntity
  8
0
  6
Continuous
 62
     7
100
AcDbEllipse
 10
-179.8644978627535
 20
49.03816015709598
 30
0.0
 11
-0.7071067811865585
 21
0.7071067811865585
 31
0.0
210
0.0
220
0.0
230
0.9999999999999998
 40
0.9999999999999833
 41
3.926990816987249
 42
5.497787143782129
  0
ELLIPSE
  5
17BC
330
1F
100
AcDbEntity
  8
0
  6
Continuous
 62
     7
100
AcDbEllipse
 10
-179.8644978627544
 20
52.2381601570958
 30
0.0
 11
0.707106781186559
 21
0.7071067811865588
 31
0.0
210
0.0
220
0.0
230
1.0
 40
0.999999999999982
 41
3.926990816988173
 42
5.497787143782129
  0
ELLIPSE
  5
17BD
330
1F
100
AcDbEntity
  8
0
  6
Continuous
 62
     7
100
AcDbEllipse
 10
-176.6644978627537
 20
52.2381601570958
 30
0.0
 11
-0.7071067811865582
 21
0.7071067811865582
 31
0.0
210
0.0
220
0.0
230
1.0
 40
0.9999999999999843
 41
0.7853981633974559
 42
2.356194490192336
  0
ELLIPSE
  5
17BE
330
1F
100
AcDbEntity
  8
0
  6
Continuous
 62
     7
100
AcDbEllipse
 10
-248.8644978627544
 20
-19.961839842904
 30
0.0
 11
0.7071067811865506
 21
0.7071067811865506
 31
0.0
210
0.0
220
0.0
230
0.9999999999999998
 40
0.9999999999999664
 41
5.497787143782121
 42
7.068583470577051
  0
ELLIPSE
  5
17BF
330
1F
100
AcDbEntity
  8
0
  6
Continuous
 62
     7
100
AcDbEllipse
 10
-248.8644978627544
 20
-16.76183984290421
 30
0.0
 11
-0.7071067811865463
 21
0.7071067811865463
 31
0.0
210
0.0
220
0.0
230
1.0
 40
0.9999999999999792
 41
2.356194490192334
 42
3.926990816987252
  0
ELLIPSE
  5
17C0
330
1F
100
AcDbEntity
  8
0
  6
Continuous
 62
     7
100
AcDbEllipse
 10
-245.6644978627537
 20
-16.76183984290421
 30
0.0
 11
0.707106781186546
 21
0.707106781186546
 31
0.0
210
0.0
220
0.0
230
0.9999999999999998
 40
0.9999999999999793
 41
2.356194490192334
 42
3.926990816987251
  0
ELLIPSE
  5
17C1
330
1F
100
AcDbEntity
  8
0
  6
Continuous
 62
     7
100
AcDbEllipse
 10
-245.6644978627537
 20
-19.961839842904
 30
0.0
 11
-0.707106781186551
 21
0.707106781186551
 31
0.0
210
0.0
220
0.0
230
1.0
 40
0.9999999999999664
 41
-0.7853981633974651
 42
0.7853981633974652
  0
ELLIPSE
  5
17C2
330
1F
100
AcDbEntity
  8
0
  6
Continuous
 62
     7
100
AcDbEllipse
 10
-317.8644978627536
 20
52.2381601570958
 30
0.0
 11
-0.7071067811865552
 21
0.7071067811865552
 31
0.0
210
0.0
220
0.0
230
1.0
 40
0.999999999999992
 41
2.356194490191488
 42
3.926990816987245
  0
ELLIPSE
  5
17C3
330
1F
100
AcDbEntity
  8
0
  6
Continuous
 62
     7
100
AcDbEllipse
 10
-314.6644978627537
 20
52.2381601570958
 30
0.0
 11
-0.7071067811865582
 21
0.7071067811865582
 31
0.0
210
0.0
220
0.0
230
1.0
 40
0.9999999999999843
 41
0.7853981633974559
 42
2.356194490192336
  0
ELLIPSE
  5
17C4
330
1F
100
AcDbEntity
  8
0
  6
Continuous
 62
     7
100
AcDbEllipse
 10
-314.6644978627537
 20
49.03816015709598
 30
0.0
 11
0.7071067811865577
 21
0.7071067811865577
 31
0.0
210
0.0
220
0.0
230
0.9999999999999998
 40
0.9999999999999852
 41
0.7853981633974556
 42
2.356194490192337
  0
ELLIPSE
  5
17C5
330
1F
100
AcDbEntity
  8
0
  6
Continuous
 62
     7
100
AcDbEllipse
 10
-317.8644978627545
 20
49.03816015709598
 30
0.0
 11
0.7071067811871597
 21
0.7071067811871595
 31
0.0
210
0.0
220
0.0
230
1.0
 40
0.9999999999999893
 41
5.497787143782132
 42
7.068583470576187
  0
ELLIPSE
  5
17C6
330
1F
100
AcDbEntity
  8
0
  6
Continuous
 62
     7
100
AcDbEllipse
 10
-245.6644978627537
 20
121.2381601570958
 30
0.0
 11
0.707106781186546
 21
0.707106781186546
 31
0.0
210
0.0
220
0.0
230
0.9999999999999998
 40
0.9999999999999793
 41
2.356194490192334
 42
3.926990816987251
  0
ELLIPSE
  5
17C7
330
1F
100
AcDbEntity
  8
0
  6
Continuous
 62
     7
100
AcDbEllipse
 10
-245.6644978627537
 20
118.038160157096
 30
0.0
 11
-0.7071067811865463
 21
0.7071067811865463
 31
0.0
210
0.0
220
0.0
230
1.0
 40
0.9999999999999792
 41
-0.7853981633974589
 42
0.7853981633974585
  0
ELLIPSE
  5
17C8
330
1F
100
AcDbEntity
  8
0
  6
Continuous
 62
     7
100
AcDbEllipse
 10
-248.8644978627535
 20
118.038160157096
 30
0.0
 11
-0.7071067811865565
 21
0.707106781186557
 31
0.0
210
0.0
220
0.0
230
1.0
 40
0.9999999999999854
 41
3.926990816987248
 42
5.49778714378213
  0
ELLIPSE
  5
17C9
330
1F
100
AcDbEntity
  8
0
  6
Continuous
 62
     7
100
AcDbEllipse
 10
-248.8644978627535
 20
121.2381601570958
 30
0.0
 11
0.7071067811865566
 21
0.7071067811865566
 31
0.0
210
0.0
220
0.0
230
0.9999999999999998
 40
0.9999999999999854
 41
3.926990816987248
 42
5.49778714378213
  0
ELLIPSE
  5
17DA
330
1F
100
AcDbEntity
  8
0
  6
Continuous
 62
     7
100
AcDbEllipse
 10
-211.4047543467957
 20
-114.0697604653226
 30
0.0
 11
7.071067811864343
 21
7.071067811864343
 31
0.0
210
0.0
220
0.0
230
1.0
 40
0.9999999999999552
 41
5.497787143782115
 42
5.623502936634523
  0
ELLIPSE
  5
17DB
330
1F
100
AcDbEntity
  8
0
  6
Continuous
 62
     7
100
AcDbEllipse
 10
-197.4047543467956
 20
-115.0697604653226
 30
0.0
 11
2.828427124746183
 21
2.828427124746183
 31
0.0
210
0.0
220
0.0
230
0.9999999999999998
 40
0.9999999999999969
 41
2.356194490192343
 42
3.926990816987242
  0
ELLIPSE
  5
17DC
330
1F
100
AcDbEntity
  8
0
  6
Continuous
 62
     7
100
AcDbEllipse
 10
-197.1047543467957
 20
-114.7697604653223
 30
0.0
 11
1.414213562373091
 21
1.414213562373091
 31
0.0
210
0.0
220
0.0
230
0.9999999999999998
 40
0.9999999999999969
 41
2.356194490192343
 42
3.926990816987242
  0
ELLIPSE
  5
17DD
330
1F
100
AcDbEntity
  8
0
  6
Continuous
 62
     7
100
AcDbEllipse
 10
-282.8047543467955
 20
-114.0697604653226
 30
0.0
 11
-7.071067811865479
 21
7.07106781186548
 31
0.0
210
0.0
220
0.0
230
1.0
 40
0.9999999999999971
 41
-0.7853981633974497
 42
0.7853981633974497
  0
ELLIPSE
  5
17DE
330
1F
100
AcDbEntity
  8
0
  6
Continuous
 62
     7
100
AcDbEllipse
 10
-296.8047543467956
 20
-115.0697604653226
 30
0.0
 11
-2.828427124746202
 21
2.828427124746202
 31
0.0
210
0.0
220
0.0
230
1.0
 40
0.999999999999993
 41
2.356194490192341
 42
3.926990816987244
  0
ELLIPSE
  5
17DF
330
1F
100
AcDbEntity
  8
0
  6
Continuous
 62
     7
100
AcDbEllipse
 10
-297.1047543467957
 20
-114.7697604653223
 30
0.0
 11
-1.414213562373092
 21
1.414213562373092
 31
0.0
210
0.0
220
0.0
230
1.0
 40
0.9999999999999969
 41
2.356194490192343
 42
3.926990816987243
  0
ELLIPSE
  5
17EA
330
1F
100
AcDbEntity
  8
0
  6
Continuous
 62
     7
100
AcDbEllipse
 10
-82.50475434679584
 20
52.30432808790779
 30
0.0
 11
0.7071067811865517
 21
0.7071067811865514
 31
0.0
210
0.0
220
0.0
230
1.0
 40
0.9999999999999857
 41
2.356194490192337
 42
3.926990816987248
  0
ELLIPSE
  5
17EB
330
1F
100
AcDbEntity
  8
0
  6
Continuous
 62
     7
100
AcDbEllipse
 10
-85.70475434679584
 20
52.30432808790776
 30
0.0
 11
-0.7071067811865558
 21
0.7071067811865558
 31
0.0
210
0.0
220
0.0
230
1.0
 40
0.9999999999999907
 41
2.356194490192339
 42
3.926990816987245
  0
ELLIPSE
  5
17EC
330
1F
100
AcDbEntity
  8
0
  6
Continuous
 62
     7
100
AcDbEllipse
 10
-85.70475434679584
 20
49.10432808790776
 30
0.0
 11
0.7071067811865563
 21
0.7071067811865563
 31
0.0
210
0.0
220
0.0
230
1.0
 40
0.9999999999999907
 41
5.497787143782133
 42
7.068583470577038
  0
ELLIPSE
  5
17ED
330
1F
100
AcDbEntity
  8
0
  6
Continuous
 62
     7
100
AcDbEllipse
 10
-82.50475434679584
 20
49.10432808790777
 30
0.0
 11
-0.7071067811865515
 21
0.7071067811865515
 31
0.0
210
0.0
220
0.0
230
1.0
 40
0.9999999999999859
 41
-0.7853981633974554
 42
0.7853981633974554
  0
ELLIPSE
  5
17EE
330
1F
100
AcDbEntity
  8
0
  6
Continuous
 62
     7
100
AcDbEllipse
 10
-84.66491003745023
 20
64.20606800376892
 30
0.0
 11
3.535533905932718
 21
3.535533905932718
 31
0.0
210
0.0
220
0.0
230
1.0
 40
0.9999999999999994
 41
2.439122267011926
 42
3.490658503988659
  0
ELLIPSE
  5
17EF
330
1F
100
AcDbEntity
  8
0
  6
Continuous
 62
     7
100
AcDbEllipse
 10
-84.66491003745023
 20
37.20258817204664
 30
0.0
 11
-3.535533905932746
 21
3.535533905932746
 31
0.0
210
0.0
220
0.0
230
0.9999999999999998
 40
0.9999999999999928
 41
-0.3490658503988673
 42
0.7024703865778675
  0
ELLIPSE
  5
17F0
330
1F
100
AcDbEntity
  8
0
  6
Continuous
 62
     7
100
AcDbEllipse
 10
-84.66491003745023
 20
37.20258817204664
 30
0.0
 11
-3.535533905932746
 21
3.535533905932746
 31
0.0
210
0.0
220
0.0
230
0.9999999999999998
 40
0.9999999999999928
 41
-0.3490658503988673
 42
0.7024703865778675
  0
ELLIPSE
  5
17F1
330
1F
100
AcDbEntity
  8
0
  6
Continuous
 62
     7
100
AcDbEllipse
 10
-166.1903949928509
 20
194.0521095508264
 30
0.0
 11
0.7071067811865612
 21
0.7071067811865612
 31
0.0
210
0.0
220
0.0
230
1.0
 40
0.9999999999999452
 41
3.403392041388908
 42
4.974188368183846
  0
ELLIPSE
  5
17F2
330
1F
100
AcDbEntity
  8
0
  6
Continuous
 62
     7
100
AcDbEllipse
 10
-167.7903949928509
 20
191.2808282587161
 30
0.0
 11
0.7071067811865437
 21
0.7071067811865437
 31
0.0
210
0.0
220
0.0
230
1.0
 40
0.9999999999999836
 41
4.974188368183841
 42
6.544984694978762
  0
ELLIPSE
  5
17F3
330
1F
100
AcDbEntity
  8
0
  6
Continuous
 62
     7
100
AcDbEllipse
 10
-165.0191137007406
 20
189.6808282587162
 30
0.0
 11
0.7071067811865897
 21
0.7071067811865897
 31
0.0
210
0.0
220
0.0
230
0.9999999999999998
 40
0.9999999999999943
 41
0.2617993877991778
 42
1.832595714594086
  0
ELLIPSE
  5
17F4
330
1F
100
AcDbEntity
  8
0
  6
Continuous
 62
     7
100
AcDbEllipse
 10
-163.4191137007406
 20
192.4521095508264
 30
0.0
 11
0.7071067811865261
 21
0.7071067811865261
 31
0.0
210
0.0
220
0.0
230
1.0
 40
0.9999999999999895
 41
1.832595714594032
 42
3.403392041388919
  0
ELLIPSE
  5
17F5
330
1F
100
AcDbEntity
  8
0
  6
Continuous
 62
     7
100
AcDbEllipse
 10
-177.5776819545492
 20
198.1322298045208
 30
0.0
 11
3.535533905932855
 21
3.535533905932855
 31
0.0
210
0.0
220
0.0
230
0.9999999999999998
 40
0.9999999999999927
 41
3.486319818208553
 42
4.537856055185275
  0
ELLIPSE
  5
17F6
330
1F
100
AcDbEntity
  8
0
  6
Continuous
 62
     7
100
AcDbEllipse
 10
-154.1919824296968
 20
184.6304898886596
 30
0.0
 11
-3.535533905932713
 21
3.535533905932713
 31
0.0
210
0.0
220
0.0
230
1.0
 40
0.9999999999999985
 41
0.6981317007977315
 42
1.749667937774456
  0
ELLIPSE
  5
17F7
330
1F
100
AcDbEntity
  8
0
  6
Continuous
 62
     7
100
AcDbEllipse
 10
-154.1919824296968
 20
184.6304898886596
 30
0.0
 11
-3.535533905932713
 21
3.535533905932713
 31
0.0
210
0.0
220
0.0
230
1.0
 40
0.9999999999999985
 41
0.6981317007977315
 42
1.749667937774456
  0
ELLIPSE
  5
17F8
330
1F
100
AcDbEntity
  8
0
  6
Continuous
 62
     7
100
AcDbEllipse
 10
-330.7903949928509
 20
192.4521095508265
 30
0.0
 11
-0.7071067811865742
 21
0.7071067811865742
 31
0.0
210
0.0
220
0.0
230
1.0
 40
0.999999999999976
 41
2.87979326579058
 42
4.450589592585569
  0
ELLIPSE
  5
17F9
330
1F
100
AcDbEntity
  8
0
  6
Continuous
 62
     7
100
AcDbEllipse
 10
-329.1903949928509
 20
189.6808282587162
 30
0.0
 11
-0.7071067811865776
 21
0.7071067811865781
 31
0.0
210
0.0
220
0.0
230
0.9999999999999998
 40
0.9999999999999536
 41
4.450589592585544
 42
6.021385919380446
  0
ELLIPSE
  5
17FA
330
1F
100
AcDbEntity
  8
0
  6
Continuous
 62
     7
100
AcDbEllipse
 10
-326.4191137007406
 20
191.2808282587163
 30
0.0
 11
0.7071067811865404
 21
0.7071067811865404
 31
0.0
210
0.0
220
0.0
230
1.0
 40
0.9999999999999912
 41
1.308996938995815
 42
2.87979326579065
  0
ELLIPSE
  5
17FB
330
1F
100
AcDbEntity
  8
0
  6
Continuous
 62
     7
100
AcDbEllipse
 10
-328.0191137007406
 20
194.0521095508265
 30
0.0
 11
0.7071067811865858
 21
0.7071067811865858
 31
0.0
210
0.0
220
0.0
230
1.0
 40
0.9999999999999566
 41
2.87979326579059
 42
4.450589592585511
  0
ELLIPSE
  5
17FC
330
1F
100
AcDbEntity
  8
0
  6
Continuous
 62
     7
100
AcDbEllipse
 10
-340.0175262638948
 20
184.6304898886597
 30
0.0
 11
3.535533905932857
 21
3.535533905932856
 31
0.0
210
0.0
220
0.0
230
1.0
 40
0.9999999999999872
 41
4.533517369405121
 42
5.585053606381821
  0
ELLIPSE
  5
17FD
330
1F
100
AcDbEntity
  8
0
  6
Continuous
 62
     7
100
AcDbEllipse
 10
-316.6318267390426
 20
198.1322298045208
 30
0.0
 11
-3.535533905932743
 21
3.535533905932743
 31
0.0
210
0.0
220
0.0
230
0.9999999999999996
 40
0.9999999999999964
 41
1.74532925199435
 42
2.796865488971024
  0
ELLIPSE
  5
17FE
330
1F
100
AcDbEntity
  8
0
  6
Continuous
 62
     7
100
AcDbEllipse
 10
-316.6318267390426
 20
198.1322298045208
 30
0.0
 11
-3.535533905932743
 21
3.535533905932743
 31
0.0
210
0.0
220
0.0
230
0.9999999999999996
 40
0.9999999999999964
 41
1.74532925199435
 42
2.796865488971024
  0
ELLIPSE
  5
17FF
330
1F
100
AcDbEntity
  8
0
  6
Continuous
 62
     7
100
AcDbEllipse
 10
-411.7047543467958
 20
49.10432808790784
 30
0.0
 11
0.7071067811865652
 21
0.7071067811865652
 31
0.0
210
0.0
220
0.0
230
1.0
 40
0.9999999999999655
 41
5.497787143782121
 42
7.068583470577051
  0
ELLIPSE
  5
1800
330
1F
100
AcDbEntity
  8
0
  6
Continuous
 62
     7
100
AcDbEllipse
 10
-408.5047543467958
 20
49.10432808790786
 30
0.0
 11
-0.7071067811865294
 21
0.7071067811865294
 31
0.0
210
0.0
220
0.0
230
0.9999999999999998
 40
0.9999999999999952
 41
-0.7853981633974508
 42
0.7853981633974505
  0
ELLIPSE
  5
1801
330
1F
100
AcDbEntity
  8
0
  6
Continuous
 62
     7
100
AcDbEllipse
 10
-408.5047543467958
 20
52.30432808790787
 30
0.0
 11
0.7071067811865293
 21
0.7071067811865293
 31
0.0
210
0.0
220
0.0
230
1.0
 40
0.9999999999999946
 41
2.356194490192342
 42
3.926990816987244
  0
ELLIPSE
  5
1802
330
1F
100
AcDbEntity
  8
0
  6
Continuous
 62
     7
100
AcDbEllipse
 10
-411.7047543467958
 20
52.30432808790785
 30
0.0
 11
-0.7071067811865649
 21
0.7071067811865649
 31
0.0
210
0.0
220
0.0
230
1.0
 40
0.9999999999999651
 41
2.356194490192327
 42
3.926990816987259
  0
ELLIPSE
  5
1803
330
1F
100
AcDbEntity
  8
0
  6
Continuous
 62
     7
100
AcDbEllipse
 10
-409.5445986561413
 20
37.2025881720467
 30
0.0
 11
-3.535533905932807
 21
3.535533905932807
 31
0.0
210
0.0
220
0.0
230
1.0
 40
0.9999999999999799
 41
4.009918593806833
 42
5.061454830783539
  0
ELLIPSE
  5
1804
330
1F
100
AcDbEntity
  8
0
  6
Continuous
 62
     7
100
AcDbEllipse
 10
-409.5445986561413
 20
64.20606800376901
 30
0.0
 11
3.535533905932798
 21
3.535533905932797
 31
0.0
210
0.0
220
0.0
230
1.0
 40
0.9999999999999845
 41
4.363323129985838
 42
5.414859366962541
  0
ELLIPSE
  5
1805
330
1F
100
AcDbEntity
  8
0
  6
Continuous
 62
     7
100
AcDbEllipse
 10
-409.5445986561413
 20
64.20606800376901
 30
0.0
 11
3.535533905932798
 21
3.535533905932797
 31
0.0
210
0.0
220
0.0
230
1.0
 40
0.9999999999999845
 41
4.363323129985838
 42
5.414859366962541
  0
ELLIPSE
  5
1806
330
1F
100
AcDbEntity
  8
0
  6
Continuous
 62
     7
100
AcDbEllipse
 10
-328.0191137007408
 20
-92.64345337501072
 30
0.0
 11
0.7071067811865347
 21
0.7071067811865347
 31
0.0
210
0.0
220
0.0
230
1.0
 40
0.9999999999999166
 41
0.2617993877991133
 42
1.832595714594058
  0
ELLIPSE
  5
1807
330
1F
100
AcDbEntity
  8
0
  6
Continuous
 62
     7
100
AcDbEllipse
 10
-326.4191137007408
 20
-89.87217208290052
 30
0.0
 11
-0.7071067811864586
 21
0.7071067811864586
 31
0.0
210
0.0
220
0.0
230
0.9999999999999998
 40
0.9999999999999774
 41
0.2617993877990752
 42
1.83259571459415
  0
ELLIPSE
  5
1808
330
1F
100
AcDbEntity
  8
0
  6
Continuous
 62
     7
100
AcDbEllipse
 10
-329.190394992851
 20
-88.27217208290054
 30
0.0
 11
-0.7071067811865245
 21
0.7071067811865245
 31
0.0
210
0.0
220
0.0
230
0.9999999999999998
 40
0.9999999999999895
 41
1.832595714594047
 42
3.403392041388839
  0
ELLIPSE
  5
1809
330
1F
100
AcDbEntity
  8
0
  6
Continuous
 62
     7
100
AcDbEllipse
 10
-330.7903949928509
 20
-91.04345337501085
 30
0.0
 11
-0.7071067811865483
 21
0.7071067811865483
 31
0.0
210
0.0
220
0.0
230
0.9999999999999998
 40
0.9999999999999497
 41
3.403392041388961
 42
4.974188368183919
  0
ELLIPSE
  5
180A
330
1F
100
AcDbEntity
  8
0
  6
Continuous
 62
     7
100
AcDbEllipse
 10
-316.6318267390426
 20
-96.72357362870513
 30
0.0
 11
3.535533905932757
 21
3.535533905932757
 31
0.0
210
0.0
220
0.0
230
1.0
 40
0.9999999999999914
 41
0.3447271646187569
 42
1.396263401595468
  0
ELLIPSE
  5
180B
330
1F
100
AcDbEntity
  8
0
  6
Continuous
 62
     7
100
AcDbEllipse
 10
-340.0175262638948
 20
-83.22183371284394
 30
0.0
 11
-3.535533905932756
 21
3.535533905932756
 31
0.0
210
0.0
220
0.0
230
1.0
 40
0.99999999999999
 41
3.839724354387525
 42
4.89126059136424
  0
ELLIPSE
  5
180C
330
1F
100
AcDbEntity
  8
0
  6
Continuous
 62
     7
100
AcDbEllipse
 10
-340.0175262638948
 20
-83.22183371284394
 30
0.0
 11
-3.535533905932756
 21
3.535533905932756
 31
0.0
210
0.0
220
0.0
230
1.0
 40
0.99999999999999
 41
3.839724354387525
 42
4.89126059136424
  0
ELLIPSE
  5
180D
330
1F
100
AcDbEntity
  8
0
  6
Continuous
 62
     7
100
AcDbEllipse
 10
-163.4191137007407
 20
-91.04345337501085
 30
0.0
 11
-0.7071067811865177
 21
0.7071067811865177
 31
0.0
210
0.0
220
0.0
230
1.0
 40
0.9999999999999891
 41
-0.2617993877991411
 42
1.308996938995769
  0
ELLIPSE
  5
180E
330
1F
100
AcDbEntity
  8
0
  6
Continuous
 62
     7
100
AcDbEllipse
 10
-165.0191137007407
 20
-88.27217208290074
 30
0.0
 11
0.7071067811865957
 21
0.7071067811865957
 31
0.0
210
0.0
220
0.0
230
1.0
 40
0.9999999999999886
 41
2.879793265790613
 42
4.450589592585555
  0
ELLIPSE
  5
180F
330
1F
100
AcDbEntity
  8
0
  6
Continuous
 62
     7
100
AcDbEllipse
 10
-167.7903949928509
 20
-89.8721720829006
 30
0.0
 11
-0.7071067811865922
 21
0.7071067811865923
 31
0.0
210
0.0
220
0.0
230
1.0
 40
0.9999999999999761
 41
2.87979326579065
 42
4.450589592585552
  0
ELLIPSE
  5
1810
330
1F
100
AcDbEntity
  8
0
  6
Continuous
 62
     7
100
AcDbEllipse
 10
-166.1903949928509
 20
-92.64345337501083
 30
0.0
 11
-0.7071067811864661
 21
0.7071067811864661
 31
0.0
210
0.0
220
0.0
230
0.9999999999999998
 40
0.9999999999999872
 41
4.450589592585608
 42
6.021385919380464
  0
ELLIPSE
  5
1811
330
1F
100
AcDbEntity
  8
0
  6
Continuous
 62
     7
100
AcDbEllipse
 10
-154.1919824296969
 20
-83.22183371284404
 30
0.0
 11
-3.535533905932763
 21
3.535533905932763
 31
0.0
210
0.0
220
0.0
230
1.0
 40
0.9999999999999941
 41
-0.178871610979564
 42
0.8726646259971705
  0
ELLIPSE
  5
1812
330
1F
100
AcDbEntity
  8
0
  6
Continuous
 62
     7
100
AcDbEllipse
 10
-177.5776819545492
 20
-96.72357362870535
 30
0.0
 11
-3.535533905932857
 21
3.535533905932857
 31
0.0
210
0.0
220
0.0
230
1.0
 40
0.9999999999999978
 41
-1.39626340159546
 42
-0.3447271646187524
  0
ELLIPSE
  5
1813
330
1F
100
AcDbEntity
  8
0
  6
Continuous
 62
     7
100
AcDbEllipse
 10
-177.5776819545492
 20
-96.72357362870535
 30
0.0
 11
-3.535533905932857
 21
3.535533905932857
 31
0.0
210
0.0
220
0.0
230
1.0
 40
0.9999999999999978
 41
-1.39626340159546
 42
-0.3447271646187524
  0
ELLIPSE
  5
1817
330
1F
100
AcDbEntity
  8
0
  6
Continuous
 62
     7
100
AcDbEllipse
 10
-65.10475434679583
 20
-107.2956719120928
 30
0.0
 11
-2.121320343559647
 21
2.121320343559647
 31
0.0
210
0.0
220
0.0
230
1.0
 40
0.999999999999998
 41
3.926990816987242
 42
5.497787143782137
  0
ELLIPSE
  5
1818
330
1F
100
AcDbEntity
  8
0
  6
Continuous
 62
     7
100
AcDbEllipse
 10
-60.10475434679582
 20
-126.2956719120928
 30
0.0
 11
-1.414213562373093
 21
1.414213562373093
 31
0.0
210
0.0
220
0.0
230
0.9999999999999998
 40
0.9999999999999985
 41
0.7853981633974488
 42
2.356194490192343
  0
ELLIPSE
  5
1819
330
1F
100
AcDbEntity
  8
0
  6
Continuous
 62
     7
100
AcDbEllipse
 10
-65.10475434679583
 20
-19.29567191209271
 30
0.0
 11
2.121320343559646
 21
2.121320343559645
 31
0.0
210
0.0
220
0.0
230
1.0
 40
0.9999999999999985
 41
3.926990816987242
 42
5.497787143782137
  0
ELLIPSE
  5
181A
330
1F
100
AcDbEntity
  8
0
  6
Continuous
 62
     7
100
AcDbEllipse
 10
-60.10475434679582
 20
-0.2956719120927218
 30
0.0
 11
1.414213562373101
 21
1.4142135623731
 31
0.0
210
0.0
220
0.0
230
1.0
 40
0.9999999999999943
 41
0.7853981633974511
 42
2.356194490192341
  0
ENDSEC
  0
SECTION
  2
OBJECTS
  0
DICTIONARY
  5
C
330
0
100
AcDbDictionary
281
     1
  3
ACAD_COLOR
350
B41
  3
ACAD_GROUP
350
D
  3
ACAD_LAYOUT
350
1A
  3
ACAD_MATERIAL
350
B40
  3
ACAD_MLINESTYLE
350
17
  3
ACAD_PLOTSETTINGS
350
19
  3
ACAD_PLOTSTYLENAME
350
E
  3
ACDBHEADERROUNDTRIPXREC
350
1C98
  3
AcDbVariableDictionary
350
1ACE
  0
DICTIONARY
  5
B41
102
{ACAD_REACTORS
330
C
102
}
330
C
100
AcDbDictionary
281
     1
  0
DICTIONARY
  5
D
102
{ACAD_REACTORS
330
C
102
}
330
C
100
AcDbDictionary
281
     1
  0
DICTIONARY
  5
1A
102
{ACAD_REACTORS
330
C
102
}
330
C
100
AcDbDictionary
281
     1
  3
Layout1
350
1E
  3
Layout2
350
26
  3
Model
350
22
  0
DICTIONARY
  5
B40
102
{ACAD_REACTORS
330
C
102
}
330
C
100
AcDbDictionary
281
     1
  0
DICTIONARY
  5
17
102
{ACAD_REACTORS
330
C
102
}
330
C
100
AcDbDictionary
281
     1
  3
Standard
350
18
  0
DICTIONARY
  5
19
102
{ACAD_REACTORS
330
C
102
}
330
C
100
AcDbDictionary
281
     1
  0
ACDBDICTIONARYWDFLT
  5
E
102
{ACAD_REACTORS
330
C
102
}
330
C
100
AcDbDictionary
281
     1
  3
Normal
350
F
100
AcDbDictionaryWithDefault
340
F
  0
DICTIONARY
  5
1C98
102
{ACAD_REACTORS
330
C
102
}
330
C
100
AcDbDictionary
281
     1
  3
COLORDICT
350
1C9A
  3
MATERIALDICT
350
1C99
  0
DICTIONARY
  5
1ACE
102
{ACAD_REACTORS
330
C
102
}
330
C
100
AcDbDictionary
281
     1
  3
DIMASSOC
350
1ACF
  3
PROJECTNAME
350
1AD0
  0
LAYOUT
  5
1E
102
{ACAD_XDICTIONARY
360
1C9B
102
}
102
{ACAD_REACTORS
330
1A
102
}
330
1A
100
AcDbPlotSettings
  1

  2

  4

  6

 40
0.0
 41
0.0
 42
0.0
 43
0.0
 44
0.0
 45
0.0
 46
0.0
 47
0.0
 48
0.0
 49
0.0
140
0.0
141
0.0
142
1.0
143
1.0
 70
   688
 72
     0
 73
     0
 74
     5
  7
P社図面.ctb
 75
    16
147
1.0
148
0.0
149
0.0
100
AcDbLayout
  1
Layout1
 70
     1
 71
     1
 10
0.0
 20
0.0
 11
12.0
 21
9.0
 12
0.0
 22
0.0
 32
0.0
 14
1.000000000000000E+20
 24
1.000000000000000E+20
 34
1.000000000000000E+20
 15
-1.000000000000000E+20
 25
-1.000000000000000E+20
 35
-1.000000000000000E+20
146
0.0
 13
0.0
 23
0.0
 33
0.0
 16
1.0
 26
0.0
 36
0.0
 17
0.0
 27
1.0
 37
0.0
 76
     0
330
1B
  0
LAYOUT
  5
26
102
{ACAD_XDICTIONARY
360
1C9F
102
}
102
{ACAD_REACTORS
330
1A
102
}
330
1A
100
AcDbPlotSettings
  1

  2

  4

  6

 40
0.0
 41
0.0
 42
0.0
 43
0.0
 44
0.0
 45
0.0
 46
0.0
 47
0.0
 48
0.0
 49
0.0
140
0.0
141
0.0
142
1.0
143
1.0
 70
   688
 72
     0
 73
     0
 74
     5
  7
P社図面.ctb
 75
    16
147
1.0
148
0.0
149
0.0
100
AcDbLayout
  1
Layout2
 70
     1
 71
     2
 10
0.0
 20
0.0
 11
0.0
 21
0.0
 12
0.0
 22
0.0
 32
0.0
 14
0.0
 24
0.0
 34
0.0
 15
0.0
 25
0.0
 35
0.0
146
0.0
 13
0.0
 23
0.0
 33
0.0
 16
1.0
 26
0.0
 36
0.0
 17
0.0
 27
1.0
 37
0.0
 76
     0
330
23
  0
LAYOUT
  5
22
102
{ACAD_XDICTIONARY
360
1C9D
102
}
102
{ACAD_REACTORS
330
1A
102
}
330
1A
100
AcDbPlotSettings
  1

  2
Acrobat Distiller
  4
A3
  6

 40
3.174999952316284
 41
3.174999952316284
 42
3.17498779296875
 43
3.17498779296875
 44
297.0318298339844
 45
420.1583251953125
 46
0.0
 47
0.0
 48
0.0
 49
0.0
140
0.0
141
0.0
142
1.0
143
1.97923655388145
 70
 11952
 72
     1
 73
     1
 74
     1
  7
P社図面.ctb
 75
     0
147
0.5052453169576498
148
428.0122881700072
149
286.0089219007727
100
AcDbLayout
  1
Model
 70
     1
 71
     0
 10
0.0
 20
0.0
 11
0.0
 21
0.0
 12
0.0
 22
0.0
 32
0.0
 14
-427.9997999999999
 24
-286.0002
 34
0.0
 15
390.9998
 25
285.9998
 35
0.0
146
0.0
 13
0.0
 23
0.0
 33
0.0
 16
1.0
 26
0.0
 36
0.0
 17
0.0
 27
1.0
 37
0.0
 76
     0
330
1F
  0
MLINESTYLE
  5
18
102
{ACAD_REACTORS
330
17
102
}
330
17
100
AcDbMlineStyle
  2
STANDARD
 70
     0
  3

 62
   256
 51
90.0
 52
90.0
 71
     2
 49
0.5
 62
   256
  6
BYLAYER
 49
-0.5
 62
   256
  6
BYLAYER
  0
ACDBPLACEHOLDER
  5
F
102
{ACAD_REACTORS
330
E
102
}
330
E
  0
XRECORD
  5
1C9A
102
{ACAD_REACTORS
330
1C98
102
}
330
1C98
100
AcDbXrecord
280
     1
340
B41
  0
XRECORD
  5
1C99
102
{ACAD_REACTORS
330
1C98
102
}
330
1C98
100
AcDbXrecord
280
     1
340
B40
  0
DICTIONARYVAR
  5
1ACF
102
{ACAD_REACTORS
330
1ACE
102
}
330
1ACE
100
DictionaryVariables
280
     0
  1
1
  0
DICTIONARYVAR
  5
1AD0
102
{ACAD_REACTORS
330
1ACE
102
}
330
1ACE
100
DictionaryVariables
280
     0
  1

  0
DICTIONARY
  5
1C9B
330
1E
100
AcDbDictionary
280
     1
281
     1
  3
ACAD_XREC_ROUNDTRIP
360
1C9C
  0
DICTIONARY
  5
1C9F
330
26
100
AcDbDictionary
280
     1
281
     1
  3
ACAD_XREC_ROUNDTRIP
360
1CA0
  0
DICTIONARY
  5
1C9D
330
22
100
AcDbDictionary
280
     1
281
     1
  3
ACAD_XREC_ROUNDTRIP
360
1C9E
  0
XRECORD
  5
1C9C
102
{ACAD_REACTORS
330
1C9B
102
}
330
1C9B
100
AcDbXrecord
280
     1
102
SHADEPLOT
 70
     0
102
SHADEPLOTRESLEVEL
 70
     2
102
SHADEPLOTCUSTOMDPI
 70
   300
  0
XRECORD
  5
1CA0
102
{ACAD_REACTORS
330
1C9F
102
}
330
1C9F
100
AcDbXrecord
280
     1
102
SHADEPLOT
 70
     0
102
SHADEPLOTRESLEVEL
 70
     2
102
SHADEPLOTCUSTOMDPI
 70
   300
  0
XRECORD
  5
1C9E
102
{ACAD_REACTORS
330
1C9D
102
}
330
1C9D
100
AcDbXrecord
280
     1
102
SHADEPLOT
 70
     0
102
SHADEPLOTRESLEVEL
 70
     2
102
SHADEPLOTCUSTOMDPI
 70
   300
  0
ENDSEC
  0
EOF
