  0
SECTION
  2
HEADER
  9
$ACADVER
  1
AC1015
  9
$ACADMAINTVER
 70
    20
  9
$DWGCODEPAGE
  3
ANSI_932
  9
$INSBASE
 10
0.0
 20
0.0
 30
0.0
  9
$EXTMIN
 10
-855.9995999999999
 20
-572.0004
 30
0.0
  9
$EXTMAX
 10
781.9995999999999
 20
571.9996
 30
0.0
  9
$LIMMIN
 10
0.0
 20
0.0
  9
$LIMMAX
 10
12.0
 20
9.0
  9
$ORTHOMODE
 70
     0
  9
$REGENMODE
 70
     1
  9
$FILLMODE
 70
     1
  9
$QTEXTMODE
 70
     0
  9
$MIRRTEXT
 70
     1
  9
$LTSCALE
 40
1.0
  9
$ATTMODE
 70
     1
  9
$TEXTSIZE
 40
0.2
  9
$TRACEWID
 40
0.05
  9
$TEXTSTYLE
  7
CONVERTER_18
  9
$CLAYER
  8
0
  9
$CELTYPE
  6
ByLayer
  9
$CECOLOR
 62
     4
  9
$CELTSCALE
 40
1.0
  9
$DISPSILH
 70
     0
  9
$DIMSCALE
 40
1.0
  9
$DIMASZ
 40
0.18
  9
$DIMEXO
 40
0.0625
  9
$DIMDLI
 40
0.38
  9
$DIMRND
 40
0.0
  9
$DIMDLE
 40
0.0
  9
$DIMEXE
 40
0.18
  9
$DIMTP
 40
0.0
  9
$DIMTM
 40
0.0
  9
$DIMTXT
 40
0.18
  9
$DIMCEN
 40
0.09
  9
$DIMTSZ
 40
0.0
  9
$DIMTOL
 70
     0
  9
$DIMLIM
 70
     0
  9
$DIMTIH
 70
     1
  9
$DIMTOH
 70
     1
  9
$DIMSE1
 70
     0
  9
$DIMSE2
 70
     0
  9
$DIMTAD
 70
     0
  9
$DIMZIN
 70
     0
  9
$DIMBLK
  1

  9
$DIMASO
 70
     1
  9
$DIMSHO
 70
     1
  9
$DIMPOST
  1

  9
$DIMAPOST
  1

  9
$DIMALT
 70
     0
  9
$DIMALTD
 70
     2
  9
$DIMALTF
 40
25.4
  9
$DIMLFAC
 40
1.0
  9
$DIMTOFL
 70
     0
  9
$DIMTVP
 40
0.0
  9
$DIMTIX
 70
     0
  9
$DIMSOXD
 70
     0
  9
$DIMSAH
 70
     0
  9
$DIMBLK1
  1

  9
$DIMBLK2
  1

  9
$DIMSTYLE
  2
Standard
  9
$DIMCLRD
 70
     0
  9
$DIMCLRE
 70
     0
  9
$DIMCLRT
 70
     0
  9
$DIMTFAC
 40
1.0
  9
$DIMGAP
 40
0.09
  9
$DIMJUST
 70
     0
  9
$DIMSD1
 70
     0
  9
$DIMSD2
 70
     0
  9
$DIMTOLJ
 70
     1
  9
$DIMTZIN
 70
     0
  9
$DIMALTZ
 70
     0
  9
$DIMALTTZ
 70
     0
  9
$DIMUPT
 70
     0
  9
$DIMDEC
 70
     4
  9
$DIMTDEC
 70
     4
  9
$DIMALTU
 70
     2
  9
$DIMALTTD
 70
     2
  9
$DIMTXSTY
  7
Standard
  9
$DIMAUNIT
 70
     0
  9
$DIMADEC
 70
     0
  9
$DIMALTRND
 40
0.0
  9
$DIMAZIN
 70
     0
  9
$DIMDSEP
 70
    46
  9
$DIMATFIT
 70
     3
  9
$DIMFRAC
 70
     0
  9
$DIMLDRBLK
  1

  9
$DIMLUNIT
 70
     2
  9
$DIMLWD
 70
    -2
  9
$DIMLWE
 70
    -2
  9
$DIMTMOVE
 70
     0
  9
$LUNITS
 70
     2
  9
$LUPREC
 70
     4
  9
$SKETCHINC
 40
0.1
  9
$FILLETRAD
 40
0.5
  9
$AUNITS
 70
     0
  9
$AUPREC
 70
     0
  9
$MENU
  1
.
  9
$ELEVATION
 40
0.0
  9
$PELEVATION
 40
0.0
  9
$THICKNESS
 40
0.0
  9
$LIMCHECK
 70
     0
  9
$CHAMFERA
 40
0.5
  9
$CHAMFERB
 40
0.5
  9
$CHAMFERC
 40
1.0
  9
$CHAMFERD
 40
0.0
  9
$SKPOLY
 70
     0
  9
$TDCREATE
 40
2455106.659210428
  9
$TDUCREATE
 40
2455106.284210428
  9
$TDUPDATE
 40
2456737.656889143
  9
$TDUUPDATE
 40
2456737.281889143
  9
$TDINDWG
 40
0.0304756944
  9
$TDUSRTIMER
 40
0.0304737153
  9
$USRTIMER
 70
     1
  9
$ANGBASE
 50
0.0
  9
$ANGDIR
 70
     0
  9
$PDMODE
 70
     0
  9
$PDSIZE
 40
0.0
  9
$PLINEWID
 40
0.0
  9
$SPLFRAME
 70
     0
  9
$SPLINETYPE
 70
     6
  9
$SPLINESEGS
 70
     8
  9
$HANDSEED
  5
FF6
  9
$SURFTAB1
 70
     6
  9
$SURFTAB2
 70
     6
  9
$SURFTYPE
 70
     6
  9
$SURFU
 70
     6
  9
$SURFV
 70
     6
  9
$UCSBASE
  2

  9
$UCSNAME
  2

  9
$UCSORG
 10
0.0
 20
0.0
 30
0.0
  9
$UCSXDIR
 10
1.0
 20
0.0
 30
0.0
  9
$UCSYDIR
 10
0.0
 20
1.0
 30
0.0
  9
$UCSORTHOREF
  2

  9
$UCSORTHOVIEW
 70
     0
  9
$UCSORGTOP
 10
0.0
 20
0.0
 30
0.0
  9
$UCSORGBOTTOM
 10
0.0
 20
0.0
 30
0.0
  9
$UCSORGLEFT
 10
0.0
 20
0.0
 30
0.0
  9
$UCSORGRIGHT
 10
0.0
 20
0.0
 30
0.0
  9
$UCSORGFRONT
 10
0.0
 20
0.0
 30
0.0
  9
$UCSORGBACK
 10
0.0
 20
0.0
 30
0.0
  9
$PUCSBASE
  2

  9
$PUCSNAME
  2

  9
$PUCSORG
 10
0.0
 20
0.0
 30
0.0
  9
$PUCSXDIR
 10
1.0
 20
0.0
 30
0.0
  9
$PUCSYDIR
 10
0.0
 20
1.0
 30
0.0
  9
$PUCSORTHOREF
  2

  9
$PUCSORTHOVIEW
 70
     0
  9
$PUCSORGTOP
 10
0.0
 20
0.0
 30
0.0
  9
$PUCSORGBOTTOM
 10
0.0
 20
0.0
 30
0.0
  9
$PUCSORGLEFT
 10
0.0
 20
0.0
 30
0.0
  9
$PUCSORGRIGHT
 10
0.0
 20
0.0
 30
0.0
  9
$PUCSORGFRONT
 10
0.0
 20
0.0
 30
0.0
  9
$PUCSORGBACK
 10
0.0
 20
0.0
 30
0.0
  9
$USERI1
 70
     0
  9
$USERI2
 70
     0
  9
$USERI3
 70
     0
  9
$USERI4
 70
     0
  9
$USERI5
 70
     0
  9
$USERR1
 40
14.0
  9
$USERR2
 40
0.0
  9
$USERR3
 40
0.0
  9
$USERR4
 40
0.0
  9
$USERR5
 40
0.0
  9
$WORLDVIEW
 70
     1
  9
$SHADEDGE
 70
     3
  9
$SHADEDIF
 70
    70
  9
$TILEMODE
 70
     1
  9
$MAXACTVP
 70
    64
  9
$PINSBASE
 10
0.0
 20
0.0
 30
0.0
  9
$PLIMCHECK
 70
     0
  9
$PEXTMIN
 10
1.000000000000000E+20
 20
1.000000000000000E+20
 30
1.000000000000000E+20
  9
$PEXTMAX
 10
-1.000000000000000E+20
 20
-1.000000000000000E+20
 30
-1.000000000000000E+20
  9
$PLIMMIN
 10
0.0
 20
0.0
  9
$PLIMMAX
 10
12.0
 20
9.0
  9
$UNITMODE
 70
     0
  9
$VISRETAIN
 70
     1
  9
$PLINEGEN
 70
     0
  9
$PSLTSCALE
 70
     1
  9
$TREEDEPTH
 70
  3020
  9
$CMLSTYLE
  2
Standard
  9
$CMLJUST
 70
     0
  9
$CMLSCALE
 40
1.0
  9
$PROXYGRAPHICS
 70
     1
  9
$MEASUREMENT
 70
     1
  9
$CELWEIGHT
370
    -1
  9
$ENDCAPS
280
     0
  9
$JOINSTYLE
280
     0
  9
$LWDISPLAY
290
     0
  9
$INSUNITS
 70
     1
  9
$HYPERLINKBASE
  1

  9
$STYLESHEET
  1
P社図面.ctb
  9
$XEDIT
290
     1
  9
$CEPSNTYPE
380
     0
  9
$PSTYLEMODE
290
     1
  9
$FINGERPRINTGUID
  2
{63BA5F1E-792C-44A9-89C1-EA65FAEBB038}
  9
$VERSIONGUID
  2
{B7281E7D-37AB-424E-B260-1A80887ACCBE}
  9
$EXTNAMES
290
     1
  9
$PSVPSCALE
 40
0.0
  9
$OLESTARTUP
290
     0
  0
ENDSEC
  0
SECTION
  2
CLASSES
  0
CLASS
  1
ACDBDICTIONARYWDFLT
  2
AcDbDictionaryWithDefault
  3
ObjectDBX Classes
 90
        0
280
     0
281
     0
  0
CLASS
  1

  2
exOdDbSpline
  3

 90
    32768
280
     0
281
     1
  0
CLASS
  1

  2
exOdDbPolyline
  3

 90
    32768
280
     0
281
     1
  0
CLASS
  1

  2
exOdDbCircle
  3

 90
    32768
280
     0
281
     1
  0
CLASS
  1
ACDBPLACEHOLDER
  2
AcDbPlaceHolder
  3
ObjectDBX Classes
 90
        0
280
     0
281
     0
  0
CLASS
  1
LAYOUT
  2
AcDbLayout
  3
ObjectDBX Classes
 90
        0
280
     0
281
     0
  0
CLASS
  1
DICTIONARYVAR
  2
AcDbDictionaryVar
  3
ObjectDBX Classes
 90
        0
280
     0
281
     0
  0
ENDSEC
  0
SECTION
  2
TABLES
  0
TABLE
  2
VPORT
  5
8
330
0
100
AcDbSymbolTable
 70
     6
  0
VPORT
  5
FCA
330
8
100
AcDbSymbolTableRecord
100
AcDbViewportTableRecord
  2
*Active
 70
     0
 10
0.0
 20
0.0
 11
1.0
 21
1.0
 12
-27.76812575952283
 22
54.00357568913887
 13
0.0
 23
0.0
 14
0.5
 24
0.5
 15
0.5
 25
0.5
 16
0.0
 26
0.0
 36
1.0
 17
0.0
 27
0.0
 37
0.0
 40
675.8799434129168
 41
1.805810397553517
 42
50.0
 43
0.0
 44
0.0
 50
0.0
 51
0.0
 71
     0
 72
   100
 73
     1
 74
     3
 75
     0
 76
     0
 77
     0
 78
     0
281
     0
 65
     1
110
0.0
120
0.0
130
0.0
111
1.0
121
0.0
131
0.0
112
0.0
122
1.0
132
0.0
 79
     0
146
0.0
  0
ENDTAB
  0
TABLE
  2
LTYPE
  5
5
330
0
100
AcDbSymbolTable
 70
     8
  0
LTYPE
  5
14
330
5
100
AcDbSymbolTableRecord
100
AcDbLinetypeTableRecord
  2
ByBlock
 70
     0
  3

 72
    65
 73
     0
 40
0.0
  0
LTYPE
  5
15
330
5
100
AcDbSymbolTableRecord
100
AcDbLinetypeTableRecord
  2
ByLayer
 70
     0
  3

 72
    65
 73
     0
 40
0.0
  0
LTYPE
  5
16
330
5
100
AcDbSymbolTableRecord
100
AcDbLinetypeTableRecord
  2
Continuous
 70
     0
  3
Solid line
 72
    65
 73
     0
 40
0.0
  0
LTYPE
  5
2A
330
5
100
AcDbSymbolTableRecord
100
AcDbLinetypeTableRecord
  2
DASHED
 70
     0
  3
Dashed
 72
    65
 73
     2
 40
15.0
 49
7.0
 74
     0
 49
-8.0
 74
     0
  0
LTYPE
  5
2E
330
5
100
AcDbSymbolTableRecord
100
AcDbLinetypeTableRecord
  2
DASH_CENTER
 70
     0
  3
Dash_Center
 72
    65
 73
     4
 40
14.0
 49
11.0
 74
     0
 49
-1.0
 74
     0
 49
1.0
 74
     0
 49
-1.0
 74
     0
  0
ENDTAB
  0
TABLE
  2
LAYER
  5
2
330
0
100
AcDbSymbolTable
 70
     8
  0
LAYER
  5
10
330
2
100
AcDbSymbolTableRecord
100
AcDbLayerTableRecord
  2
0
 70
     0
 62
     7
  6
Continuous
370
    -3
390
F
  0
LAYER
  5
31
330
2
100
AcDbSymbolTableRecord
100
AcDbLayerTableRecord
  2
1
 70
     0
 62
     7
  6
Continuous
370
    -3
390
F
  0
LAYER
  5
33
330
2
100
AcDbSymbolTableRecord
100
AcDbLayerTableRecord
  2
100
 70
     0
 62
     7
  6
Continuous
370
    -3
390
F
  0
LAYER
  5
34
330
2
100
AcDbSymbolTableRecord
100
AcDbLayerTableRecord
  2
105
 70
     0
 62
     7
  6
Continuous
370
    -3
390
F
  0
LAYER
  5
BA8
330
2
100
AcDbSymbolTableRecord
100
AcDbLayerTableRecord
  2
Defpoints
 70
     0
 62
     7
  6
Continuous
290
     0
370
    -3
390
F
  0
ENDTAB
  0
TABLE
  2
STYLE
  5
3
330
0
100
AcDbSymbolTable
 70
    23
  0
STYLE
  5
11
330
3
100
AcDbSymbolTableRecord
100
AcDbTextStyleTableRecord
  2
Standard
 70
     0
 40
0.0
 41
1.0
 50
0.0
 71
     0
 42
0.2
  3
txt
  4

  0
STYLE
  5
322
330
3
100
AcDbSymbolTableRecord
100
AcDbTextStyleTableRecord
  2
CONVERTER_4
 70
     0
 40
0.0
 41
0.89
 50
0.0
 71
     0
 42
0.2
  3
simplex.shx
  4
bigfont.shx
  0
STYLE
  5
325
330
3
100
AcDbSymbolTableRecord
100
AcDbTextStyleTableRecord
  2
CONVERTER_5
 70
     0
 40
0.0
 41
0.6230000000000001
 50
0.0
 71
     0
 42
0.2
  3
txt.shx
  4

  0
STYLE
  5
359
330
3
100
AcDbSymbolTableRecord
100
AcDbTextStyleTableRecord
  2
CONVERTER_17
 70
     0
 40
0.0
 41
0.8009999999999999
 50
0.0
 71
     0
 42
0.2
  3
simplex.shx
  4
bigfont.shx
  0
STYLE
  5
35D
330
3
100
AcDbSymbolTableRecord
100
AcDbTextStyleTableRecord
  2
CONVERTER_18
 70
     0
 40
0.0
 41
1.0235
 50
0.0
 71
     0
 42
0.2
  3
simplex.shx
  4
bigfont.shx
  0
ENDTAB
  0
TABLE
  2
VIEW
  5
6
330
0
100
AcDbSymbolTable
 70
     0
  0
ENDTAB
  0
TABLE
  2
UCS
  5
7
330
0
100
AcDbSymbolTable
 70
     0
  0
ENDTAB
  0
TABLE
  2
APPID
  5
9
330
0
100
AcDbSymbolTable
 70
     1
  0
APPID
  5
12
330
9
100
AcDbSymbolTableRecord
100
AcDbRegAppTableRecord
  2
ACAD
 70
     0
  0
ENDTAB
  0
TABLE
  2
DIMSTYLE
  5
A
330
0
100
AcDbSymbolTable
 70
    27
100
AcDbDimStyleTable
 71
     1
340
27
  0
DIMSTYLE
105
27
330
A
100
AcDbSymbolTableRecord
100
AcDbDimStyleTableRecord
  2
Standard
 70
     0
340
11
  0
ENDTAB
  0
TABLE
  2
BLOCK_RECORD
  5
1
330
0
100
AcDbSymbolTable
 70
    68
  0
BLOCK_RECORD
  5
1F
330
1
100
AcDbSymbolTableRecord
100
AcDbBlockTableRecord
  2
*Model_Space
340
22
  0
BLOCK_RECORD
  5
1B
330
1
100
AcDbSymbolTableRecord
100
AcDbBlockTableRecord
  2
*Paper_Space
340
1E
  0
BLOCK_RECORD
  5
23
330
1
100
AcDbSymbolTableRecord
100
AcDbBlockTableRecord
  2
*Paper_Space0
340
26
  0
ENDTAB
  0
ENDSEC
  0
SECTION
  2
BLOCKS
  0
BLOCK
  5
20
330
1F
100
AcDbEntity
  8
0
100
AcDbBlockBegin
  2
*Model_Space
 70
     0
 10
0.0
 20
0.0
 30
0.0
  3
*Model_Space
  1

  0
ENDBLK
  5
21
330
1F
100
AcDbEntity
  8
0
100
AcDbBlockEnd
  0
BLOCK
  5
1C
330
1B
100
AcDbEntity
 67
     1
  8
0
100
AcDbBlockBegin
  2
*Paper_Space
 70
     0
 10
0.0
 20
0.0
 30
0.0
  3
*Paper_Space
  1

  0
ENDBLK
  5
1D
330
1B
100
AcDbEntity
 67
     1
  8
0
100
AcDbBlockEnd
  0
BLOCK
  5
24
330
23
100
AcDbEntity
  8
0
100
AcDbBlockBegin
  2
*Paper_Space0
 70
     0
 10
0.0
 20
0.0
 30
0.0
  3
*Paper_Space0
  1

  0
ENDBLK
  5
25
330
23
100
AcDbEntity
  8
0
100
AcDbBlockEnd
  0
ENDSEC
  0
SECTION
  2
ENTITIES
  0
MTEXT
  5
724
330
1F
100
AcDbEntity
  8
0
 62
     2
100
AcDbMText
 10
411.0000000000011
 20
-481.9995154418491
 30
0.0
 40
12.0
 41
0.0
 71
     5
 72
     1
  1
 
  7
CONVERTER_4
 73
     1
 44
1.32052821128451
1001
ACAD
1000
MTEXTBEGIN
1070
    73
1070
     1
1070
    44
1040
1.32052821128451
1070
    74
1070
     0
1000
MTEXTEND
  0
MTEXT
  5
725
330
1F
100
AcDbEntity
  8
0
 62
     2
100
AcDbMText
 10
419.0000000000011
 20
-535.9993999999995
 30
0.0
 40
12.0
 41
0.0
 71
     5
 72
     1
  1
 
  7
CONVERTER_4
 73
     1
 44
1.32052821128451
1001
ACAD
1000
MTEXTBEGIN
1070
    73
1070
     1
1070
    44
1040
1.32052821128451
1070
    74
1070
     0
1000
MTEXTEND
  0
MTEXT
  5
726
330
1F
100
AcDbEntity
  8
0
 62
     2
100
AcDbMText
 10
177.0004
 20
-559.9993999999996
 30
0.0
 40
8.0
 41
0.0
 71
     5
 72
     1
  1
 
  7
CONVERTER_5
 73
     1
 44
1.32052821128451
1001
ACAD
1000
MTEXTBEGIN
1070
    73
1070
     1
1070
    44
1040
1.32052821128451
1070
    74
1070
     0
1000
MTEXTEND
  0
MTEXT
  5
727
330
1F
100
AcDbEntity
  8
0
 62
     2
100
AcDbMText
 10
99.00040000000004
 20
-559.9993999999996
 30
0.0
 40
8.0
 41
0.0
 71
     5
 72
     1
  1
 
  7
CONVERTER_5
 73
     1
 44
1.32052821128451
1001
ACAD
1000
MTEXTBEGIN
1070
    73
1070
     1
1070
    44
1040
1.32052821128451
1070
    74
1070
     0
1000
MTEXTEND
  0
MTEXT
  5
728
330
1F
100
AcDbEntity
  8
0
 62
     2
100
AcDbMText
 10
255.0004
 20
-559.9993999999996
 30
0.0
 40
8.0
 41
0.0
 71
     5
 72
     1
  1
 
  7
CONVERTER_5
 73
     1
 44
1.32052821128451
1001
ACAD
1000
MTEXTBEGIN
1070
    73
1070
     1
1070
    44
1040
1.32052821128451
1070
    74
1070
     0
1000
MTEXTEND
  0
MTEXT
  5
729
330
1F
100
AcDbEntity
  8
0
 62
     2
100
AcDbMText
 10
333.0004
 20
-559.9993999999996
 30
0.0
 40
8.0
 41
0.0
 71
     5
 72
     1
  1
 
  7
CONVERTER_5
 73
     1
 44
1.32052821128451
1001
ACAD
1000
MTEXTBEGIN
1070
    73
1070
     1
1070
    44
1040
1.32052821128451
1070
    74
1070
     0
1000
MTEXTEND
  0
MTEXT
  5
72A
330
1F
100
AcDbEntity
  8
0
 62
     2
100
AcDbMText
 10
411.0000000000011
 20
-559.9993999999996
 30
0.0
 40
8.0
 41
0.0
 71
     5
 72
     1
  1
 
  7
CONVERTER_5
 73
     1
 44
1.32052821128451
1001
ACAD
1000
MTEXTBEGIN
1070
    73
1070
     1
1070
    44
1040
1.32052821128451
1070
    74
1070
     0
1000
MTEXTEND
  0
MTEXT
  5
72B
330
1F
100
AcDbEntity
  8
0
 62
     2
100
AcDbMText
 10
185.0004
 20
-535.9993999999995
 30
0.0
 40
12.0
 41
0.0
 71
     5
 72
     1
  1
 
  7
CONVERTER_4
 73
     1
 44
1.32052821128451
1001
ACAD
1000
MTEXTBEGIN
1070
    73
1070
     1
1070
    44
1040
1.32052821128451
1070
    74
1070
     0
1000
MTEXTEND
  0
MTEXT
  5
72C
330
1F
100
AcDbEntity
  8
0
 62
     2
100
AcDbMText
 10
341.0004
 20
-535.9993999999995
 30
0.0
 40
12.0
 41
0.0
 71
     5
 72
     1
  1
 
  7
CONVERTER_4
 73
     1
 44
1.32052821128451
1001
ACAD
1000
MTEXTBEGIN
1070
    73
1070
     1
1070
    44
1040
1.32052821128451
1070
    74
1070
     0
1000
MTEXTEND
  0
MTEXT
  5
72D
330
1F
100
AcDbEntity
  8
0
 62
     2
100
AcDbMText
 10
263.0004
 20
-535.9993999999995
 30
0.0
 40
12.0
 41
0.0
 71
     5
 72
     1
  1
 
  7
CONVERTER_4
 73
     1
 44
1.32052821128451
1001
ACAD
1000
MTEXTBEGIN
1070
    73
1070
     1
1070
    44
1040
1.32052821128451
1070
    74
1070
     0
1000
MTEXTEND
  0
MTEXT
  5
735
330
1F
100
AcDbEntity
  8
0
 62
     2
100
AcDbMText
 10
411.0000000000011
 20
-510.9995720940504
 30
0.0
 40
8.0
 41
0.0
 71
     5
 72
     1
  1
 
  7
CONVERTER_5
 73
     1
 44
1.32052821128451
1001
ACAD
1000
MTEXTBEGIN
1070
    73
1070
     1
1070
    44
1040
1.32052821128451
1070
    74
1070
     0
1000
MTEXTEND
  0
TEXT
  5
74E
330
1F
100
AcDbEntity
  8
0
 62
     2
100
AcDbText
 10
-66.74569414381584
 20
-201.1075138130808
 30
0.0
 40
16.0
  1
ASEMDBS2P1.5K
 41
0.8009999999999999
  7
CONVERTER_17
100
AcDbText
  0
POINT
  5
9C9
330
1F
100
AcDbEntity
  8
105
 62
     2
100
AcDbPoint
 10
494.5720421567123
 20
62.39248618691917
 30
0.0
  0
POINT
  5
9CA
330
1F
100
AcDbEntity
  8
105
 62
     2
100
AcDbPoint
 10
287.8990898687314
 20
178.2648861869191
 30
0.0
  0
POINT
  5
9CB
330
1F
100
AcDbEntity
  8
105
 62
   250
100
AcDbPoint
 10
490.1022898687314
 20
83.24278618691897
 30
0.0
  0
POINT
  5
9CC
330
1F
100
AcDbEntity
  8
105
 62
   250
100
AcDbPoint
 10
286.7268898687314
 20
10.69248618691912
 30
0.0
  0
POINT
  5
9CD
330
1F
100
AcDbEntity
  8
105
 62
     2
100
AcDbPoint
 10
286.9270898687314
 20
177.092386186919
 30
0.0
  0
LINE
  5
9D1
330
1F
100
AcDbEntity
  8
0
  6
DASH_CENTER
 62
     2
100
AcDbLine
 10
-254.8470252593259
 20
93.89248618691937
 30
0.0
 11
-145.8540530284031
 21
93.89248618691915
 31
0.0
  0
LINE
  5
9D2
330
1F
100
AcDbEntity
  8
0
  6
DASH_CENTER
 62
     2
100
AcDbLine
 10
-247.8470252593262
 20
-156.1075138130808
 30
0.0
 11
-247.8470252593262
 21
-164.232750951417
 31
0.0
  0
LINE
  5
9D3
330
1F
100
AcDbEntity
  8
0
  6
Continuous
 62
     7
100
AcDbLine
 10
-247.8470252593262
 20
-156.1075138130808
 30
0.0
 11
-241.8470252593261
 21
-156.1075138130808
 31
0.0
  0
LINE
  5
9D5
330
1F
100
AcDbEntity
  8
0
  6
DASH_CENTER
 62
     2
100
AcDbLine
 10
-247.8470252593262
 20
-139.116936711489
 30
0.0
 11
-247.8470252593262
 21
-156.1075138130808
 31
0.0
  0
LINE
  5
9D6
330
1F
100
AcDbEntity
  8
0
  6
DASH_CENTER
 62
     2
100
AcDbLine
 10
-417.8470252593257
 20
-138.367210913282
 30
0.0
 11
-417.8470252593257
 21
-166.107065446934
 31
0.0
  0
LINE
  5
9D7
330
1F
100
AcDbEntity
  8
0
  6
DASH_CENTER
 62
     2
100
AcDbLine
 10
280.399237580751
 20
-68.10751381308083
 30
0.0
 11
130.751828196135
 21
-68.10751381308081
 31
0.0
  0
LINE
  5
9D8
330
1F
100
AcDbEntity
  8
0
  6
DASH_CENTER
 62
     2
100
AcDbLine
 10
162.6088696788791
 20
-116.8978817149528
 30
0.0
 11
151.3385571391833
 21
-128.1681942546484
 31
0.0
  0
LINE
  5
9D9
330
1F
100
AcDbEntity
  8
0
  6
DASH_CENTER
 62
     2
100
AcDbLine
 10
297.474269088836
 20
-68.10751381308081
 30
0.0
 11
280.399237580751
 21
-68.10751381308083
 31
0.0
  0
LINE
  5
9DA
330
1F
100
AcDbEntity
  8
0
  6
Continuous
 62
     7
100
AcDbLine
 10
493.3995421567121
 20
79.89248618691917
 30
0.0
 11
493.3995421567121
 21
63.32488618691929
 31
0.0
  0
LINE
  5
9DB
330
1F
100
AcDbEntity
  8
0
  6
Continuous
 62
     7
100
AcDbLine
 10
493.3995421567121
 20
79.89248618691917
 30
0.0
 11
494.6544670794702
 21
79.89248618691917
 31
0.0
  0
LINE
  5
9DC
330
1F
100
AcDbEntity
  8
0
  6
Continuous
 62
     7
100
AcDbLine
 10
493.3995421567121
 20
107.8924861869192
 30
0.0
 11
493.3995421567121
 21
79.89248618691917
 31
0.0
  0
LINE
  5
9DD
330
1F
100
AcDbEntity
  8
0
  6
Continuous
 62
     7
100
AcDbLine
 10
493.3995421567121
 20
107.8924861869192
 30
0.0
 11
494.6544670794702
 21
107.8924861869192
 31
0.0
  0
LINE
  5
9DE
330
1F
100
AcDbEntity
  8
0
  6
Continuous
 62
     7
100
AcDbLine
 10
265.899237580751
 20
-15.13818306405212
 30
0.0
 11
265.899237580751
 21
93.89248618691915
 31
0.0
  0
LINE
  5
9DF
330
1F
100
AcDbEntity
  8
0
  6
Continuous
 62
     7
100
AcDbLine
 10
261.899237580751
 20
-11.31182735715356
 30
0.0
 11
261.899237580751
 21
93.89248618691915
 31
0.0
  0
LINE
  5
9E0
330
1F
100
AcDbEntity
  8
0
  6
DASH_CENTER
 62
     2
100
AcDbLine
 10
271.4599180223186
 20
-8.04683337151315
 30
0.0
 11
245.4910994303484
 21
-34.01565196348339
 31
0.0
  0
LINE
  5
9E1
330
1F
100
AcDbEntity
  8
0
  6
Continuous
 62
     7
100
AcDbLine
 10
270.899237580751
 20
-20.82379568516712
 30
0.0
 11
270.899237580751
 21
18.7170765240465
 31
0.0
  0
LINE
  5
9E2
330
1F
100
AcDbEntity
  8
0
  6
Continuous
 62
     7
100
AcDbLine
 10
268.899237580751
 20
-117.8040931722278
 30
0.0
 11
268.8992375807509
 21
-141.3678698993025
 31
0.0
  0
LINE
  5
9E3
330
1F
100
AcDbEntity
  8
0
  6
Continuous
 62
     7
100
AcDbLine
 10
160.899237580751
 20
-11.31182735715358
 30
0.0
 11
160.899237580751
 21
93.89248618691915
 31
0.0
  0
LINE
  5
A06
330
1F
100
AcDbEntity
  8
0
  6
Continuous
 62
     2
100
AcDbLine
 10
488.7708899987461
 20
40.00418550605366
 30
0.0
 11
491.3273623385541
 21
39.55500056022025
 31
0.0
  0
LINE
  5
A07
330
1F
100
AcDbEntity
  8
0
  6
Continuous
 62
     2
100
AcDbLine
 10
488.5105654809921
 20
40.50592420733479
 30
0.0
 11
488.7708899987461
 21
40.00418550605366
 31
0.0
  0
LINE
  5
A08
330
1F
100
AcDbEntity
  8
0
  6
Continuous
 62
     2
100
AcDbLine
 10
491.3273623385541
 20
41.45684785444942
 30
0.0
 11
488.7708899987461
 21
41.00766290861599
 31
0.0
  0
LINE
  5
A09
330
1F
100
AcDbEntity
  8
0
  6
DASH_CENTER
 62
     2
100
AcDbLine
 10
493.8815212036971
 20
40.50592420733479
 30
0.0
 11
488.5105654809921
 21
40.50592420733479
 31
0.0
  0
LINE
  5
A0A
330
1F
100
AcDbEntity
  8
0
  6
Continuous
 62
     2
100
AcDbLine
 10
488.7708899987461
 20
41.00766290861599
 30
0.0
 11
488.5105654809921
 21
40.50592420733479
 31
0.0
  0
LINE
  5
A0B
330
1F
100
AcDbEntity
  8
0
  6
DASH_CENTER
 62
     2
100
AcDbLine
 10
488.5105654809921
 20
40.50592420733479
 30
0.0
 11
484.511106616192
 21
40.50592420733479
 31
0.0
  0
LINE
  5
A0C
330
1F
100
AcDbEntity
  8
0
  6
Continuous
 62
     2
100
AcDbLine
 10
491.3273623385541
 20
148.229971813618
 30
0.0
 11
488.7708899987461
 21
147.7807868677847
 31
0.0
  0
LINE
  5
A0D
330
1F
100
AcDbEntity
  8
0
  6
Continuous
 62
     2
100
AcDbLine
 10
488.7708899987461
 20
147.7807868677847
 30
0.0
 11
488.5105654809921
 21
147.2790481665036
 31
0.0
  0
LINE
  5
A0E
330
1F
100
AcDbEntity
  8
0
  6
Continuous
 62
     2
100
AcDbLine
 10
488.7708899987461
 20
146.7773094652224
 30
0.0
 11
491.3273623385541
 21
146.3281245193889
 31
0.0
  0
LINE
  5
A0F
330
1F
100
AcDbEntity
  8
0
  6
DASH_CENTER
 62
     2
100
AcDbLine
 10
488.5105654809921
 20
147.2790481665036
 30
0.0
 11
493.8815212036971
 21
147.2790481665036
 31
0.0
  0
LINE
  5
A10
330
1F
100
AcDbEntity
  8
0
  6
Continuous
 62
     2
100
AcDbLine
 10
488.5105654809921
 20
147.2790481665036
 30
0.0
 11
488.7708899987461
 21
146.7773094652224
 31
0.0
  0
LINE
  5
A11
330
1F
100
AcDbEntity
  8
0
  6
DASH_CENTER
 62
     2
100
AcDbLine
 10
484.511106616192
 20
147.2790481665036
 30
0.0
 11
488.5105654809921
 21
147.2790481665036
 31
0.0
  0
LINE
  5
A12
330
1F
100
AcDbEntity
  8
0
  6
DASH_CENTER
 62
     2
100
AcDbLine
 10
-408.3470252593257
 20
93.89248618691915
 30
0.0
 11
-254.8470252593259
 21
93.89248618691937
 31
0.0
  0
LINE
  5
A13
330
1F
100
AcDbEntity
  8
0
  6
DASH_CENTER
 62
     2
100
AcDbLine
 10
-555.388289608735
 20
93.89248618691928
 30
0.0
 11
-412.847025259326
 21
93.89248618691915
 31
0.0
  0
LINE
  5
A14
330
1F
100
AcDbEntity
  8
0
  6
Continuous
 62
     7
100
AcDbLine
 10
487.3995421567121
 20
125.8110688900005
 30
0.0
 11
487.3995421567121
 21
175.4175861869193
 31
0.0
  0
LINE
  5
A15
330
1F
100
AcDbEntity
  8
0
  6
Continuous
 62
     7
100
AcDbLine
 10
487.3995421567121
 20
125.8110688900005
 30
0.0
 11
492.469142156712
 21
125.4573861869193
 31
0.0
  0
LINE
  5
A16
330
1F
100
AcDbEntity
  8
0
  6
Continuous
 62
     7
100
AcDbLine
 10
487.3995421567121
 20
93.89248618691928
 30
0.0
 11
487.3995421567121
 21
125.8110688900005
 31
0.0
  0
LINE
  5
A17
330
1F
100
AcDbEntity
  8
0
  6
Continuous
 62
     7
100
AcDbLine
 10
487.3995421567121
 20
93.89248618691928
 30
0.0
 11
487.3995421567121
 21
12.36718618691916
 31
0.0
  0
LINE
  5
A18
330
1F
100
AcDbEntity
  8
0
  6
Continuous
 62
     7
100
AcDbLine
 10
487.3995421567121
 20
61.97390348383809
 30
0.0
 11
492.469142156712
 21
62.32758618691928
 31
0.0
  0
LINE
  5
A19
330
1F
100
AcDbEntity
  8
100
  6
DASH_CENTER
 62
     2
100
AcDbLine
 10
276.4054898687314
 20
93.89248618691915
 30
0.0
 11
510.0846285059599
 21
93.89248618691906
 31
0.0
  0
LINE
  5
A1A
330
1F
100
AcDbEntity
  8
0
  6
Continuous
 62
     7
100
AcDbLine
 10
276.4054898687314
 20
93.89248618691915
 30
0.0
 11
287.899237580751
 21
93.89248618691915
 31
0.0
  0
LINE
  5
A1B
330
1F
100
AcDbEntity
  8
0
  6
Continuous
 62
     7
100
AcDbLine
 10
486.4251421567121
 20
176.4174861869193
 30
0.0
 11
468.192042156712
 21
176.8849861869193
 31
0.0
  0
LINE
  5
A1C
330
1F
100
AcDbEntity
  8
0
  6
Continuous
 62
     7
100
AcDbLine
 10
467.8995421567121
 20
11.18508618691917
 30
0.0
 11
468.1994421567121
 21
10.90018618691929
 31
0.0
  0
LINE
  5
A1D
330
1F
100
AcDbEntity
  8
0
  6
Continuous
 62
     7
100
AcDbLine
 10
486.4251421567121
 20
11.36758618691928
 30
0.0
 11
468.1994421567121
 21
10.90018618691929
 31
0.0
  0
LINE
  5
A1E
330
1F
100
AcDbEntity
  8
0
  6
Continuous
 62
     7
100
AcDbLine
 10
467.8995421567121
 20
13.19248618691935
 30
0.0
 11
467.8995421567121
 21
11.18508618691917
 31
0.0
  0
LINE
  5
A1F
330
1F
100
AcDbEntity
  8
100
  6
DASHED
 62
    30
100
AcDbLine
 10
467.8995421567121
 20
174.3924861869192
 30
0.0
 11
467.8995421567121
 21
13.39248618691917
 31
0.0
  0
LINE
  5
A20
330
1F
100
AcDbEntity
  8
0
  6
Continuous
 62
     7
100
AcDbLine
 10
493.3995421567121
 20
124.4599861869193
 30
0.0
 11
493.3995421567121
 21
107.8924861869192
 31
0.0
  0
LINE
  5
A21
330
1F
100
AcDbEntity
  8
0
  6
Continuous
 62
     7
100
AcDbLine
 10
378.899237580751
 20
-156.1075138130808
 30
0.0
 11
387.8992375807511
 21
-156.1075138130808
 31
0.0
  0
LINE
  5
A22
330
1F
100
AcDbEntity
  8
0
  6
DASHED
 62
     2
100
AcDbLine
 10
378.899237580751
 20
-156.1075138130808
 30
0.0
 11
378.899237580751
 21
-145.9496190762387
 31
0.0
  0
LINE
  5
A23
330
1F
100
AcDbEntity
  8
0
  6
DASH_CENTER
 62
     2
100
AcDbLine
 10
372.8992375807511
 20
-141.288242222702
 30
0.0
 11
372.8992375807511
 21
-161.658447114358
 31
0.0
  0
LINE
  5
A24
330
1F
100
AcDbEntity
  8
0
  6
DASH_CENTER
 62
     2
100
AcDbLine
 10
292.899237580751
 20
-139.356584862286
 30
0.0
 11
292.899237580751
 21
-166.224182693522
 31
0.0
  0
LINE
  5
A25
330
1F
100
AcDbEntity
  8
0
  6
Continuous
 62
     7
100
AcDbLine
 10
366.8992375807511
 20
-156.1075138130808
 30
0.0
 11
378.899237580751
 21
-156.1075138130808
 31
0.0
  0
LINE
  5
A26
330
1F
100
AcDbEntity
  8
0
  6
Continuous
 62
     7
100
AcDbLine
 10
366.8992375807511
 20
-145.7390927604492
 30
0.0
 11
378.899237580751
 21
-145.9496190762387
 31
0.0
  0
LINE
  5
A27
330
1F
100
AcDbEntity
  8
0
  6
DASHED
 62
     2
100
AcDbLine
 10
366.8992375807511
 20
-145.7390927604492
 30
0.0
 11
366.8992375807511
 21
-156.1075138130808
 31
0.0
  0
LINE
  5
A28
330
1F
100
AcDbEntity
  8
0
  6
Continuous
 62
     7
100
AcDbLine
 10
298.899237580751
 20
-156.1075138130808
 30
0.0
 11
366.8992375807511
 21
-156.1075138130808
 31
0.0
  0
LINE
  5
A29
330
1F
100
AcDbEntity
  8
0
  6
Continuous
 62
     7
100
AcDbLine
 10
298.899237580751
 20
-144.5461103043089
 30
0.0
 11
366.8992375807511
 21
-145.7390927604492
 31
0.0
  0
LINE
  5
A2A
330
1F
100
AcDbEntity
  8
0
  6
DASHED
 62
     2
100
AcDbLine
 10
298.899237580751
 20
-144.5461103043089
 30
0.0
 11
298.899237580751
 21
-156.1075138130808
 31
0.0
  0
LINE
  5
A2B
330
1F
100
AcDbEntity
  8
0
  6
Continuous
 62
     7
100
AcDbLine
 10
286.899237580751
 20
-156.1075138130808
 30
0.0
 11
298.899237580751
 21
-156.1075138130808
 31
0.0
  0
LINE
  5
A2C
330
1F
100
AcDbEntity
  8
0
  6
Continuous
 62
     7
100
AcDbLine
 10
286.899237580751
 20
-144.3355839885194
 30
0.0
 11
298.899237580751
 21
-144.5461103043089
 31
0.0
  0
LINE
  5
A2D
330
1F
100
AcDbEntity
  8
0
  6
DASHED
 62
     2
100
AcDbLine
 10
286.899237580751
 20
-144.3355839885194
 30
0.0
 11
286.899237580751
 21
-156.1075138130808
 31
0.0
  0
LINE
  5
A2E
330
1F
100
AcDbEntity
  8
0
  6
Continuous
 62
     2
100
AcDbLine
 10
274.827057762593
 20
94.84340983403379
 30
0.0
 11
272.270585422785
 21
94.39422488820028
 31
0.0
  0
LINE
  5
A2F
330
1F
100
AcDbEntity
  8
0
  6
Continuous
 62
     2
100
AcDbLine
 10
272.270585422785
 20
94.39422488820028
 30
0.0
 11
272.010260905031
 21
93.89248618691915
 31
0.0
  0
LINE
  5
A30
330
1F
100
AcDbEntity
  8
0
  6
Continuous
 62
     2
100
AcDbLine
 10
272.270585422785
 20
93.39074748563794
 30
0.0
 11
274.827057762593
 21
92.94156253980458
 31
0.0
  0
LINE
  5
A31
330
1F
100
AcDbEntity
  8
0
  6
Continuous
 62
     2
100
AcDbLine
 10
272.010260905031
 20
93.89248618691915
 30
0.0
 11
272.270585422785
 21
93.39074748563794
 31
0.0
  0
LINE
  5
A32
330
1F
100
AcDbEntity
  8
0
  6
Continuous
 62
     2
100
AcDbLine
 10
274.827057762593
 20
239.8434098340337
 30
0.0
 11
272.270585422785
 21
239.3942248882003
 31
0.0
  0
LINE
  5
A33
330
1F
100
AcDbEntity
  8
0
  6
Continuous
 62
     2
100
AcDbLine
 10
272.270585422785
 20
239.3942248882003
 30
0.0
 11
272.010260905031
 21
238.8924861869192
 31
0.0
  0
LINE
  5
A34
330
1F
100
AcDbEntity
  8
0
  6
Continuous
 62
     2
100
AcDbLine
 10
272.270585422785
 20
238.390747485638
 30
0.0
 11
274.827057762593
 21
237.9415625398046
 31
0.0
  0
LINE
  5
A35
330
1F
100
AcDbEntity
  8
0
  6
DASH_CENTER
 62
     2
100
AcDbLine
 10
272.010260905031
 20
238.8924861869192
 30
0.0
 11
277.381216627736
 21
238.8924861869192
 31
0.0
  0
LINE
  5
A36
330
1F
100
AcDbEntity
  8
0
  6
Continuous
 62
     2
100
AcDbLine
 10
272.010260905031
 20
238.8924861869192
 30
0.0
 11
272.270585422785
 21
238.390747485638
 31
0.0
  0
LINE
  5
A37
330
1F
100
AcDbEntity
  8
0
  6
Continuous
 62
     7
100
AcDbLine
 10
270.899237580751
 20
233.6443514300206
 30
0.0
 11
270.899237580751
 21
93.89248618691915
 31
0.0
  0
LINE
  5
A38
330
1F
100
AcDbEntity
  8
0
  6
DASH_CENTER
 62
     2
100
AcDbLine
 10
268.010802040231
 20
238.8924861869192
 30
0.0
 11
272.010260905031
 21
238.8924861869192
 31
0.0
  0
LINE
  5
A39
330
1F
100
AcDbEntity
  8
0
  6
Continuous
 62
     7
100
AcDbLine
 10
261.899237580751
 20
248.8924861869192
 30
0.0
 11
261.899237580751
 21
93.89248618691915
 31
0.0
  0
LINE
  5
A3A
330
1F
100
AcDbEntity
  8
0
  6
Continuous
 62
     7
100
AcDbLine
 10
270.899237580751
 20
86.92002676710657
 30
0.0
 11
270.899237580751
 21
60.08302524766317
 31
0.0
  0
LINE
  5
A3B
330
1F
100
AcDbEntity
  8
0
  6
Continuous
 62
     7
100
AcDbLine
 10
270.899237580751
 20
60.08302524766317
 30
0.0
 11
270.899237580751
 21
48.29971006997507
 31
0.0
  0
LINE
  5
A3C
330
1F
100
AcDbEntity
  8
0
  6
Continuous
 62
     7
100
AcDbLine
 10
270.899237580751
 20
60.08302524766317
 30
0.0
 11
270.899237580751
 21
48.29971006997507
 31
0.0
  0
LINE
  5
A3D
330
1F
100
AcDbEntity
  8
0
  6
Continuous
 62
     7
100
AcDbLine
 10
287.8992994650603
 20
60.08302524766317
 30
0.0
 11
287.8992503430319
 21
86.92002676710657
 31
0.0
  0
LINE
  5
A3E
330
1F
100
AcDbEntity
  8
0
  6
Continuous
 62
     7
100
AcDbLine
 10
287.8992994650603
 20
60.08302524766317
 30
0.0
 11
272.899237580751
 21
60.08302524766317
 31
0.0
  0
LINE
  5
A3F
330
1F
100
AcDbEntity
  8
0
  6
Continuous
 62
     7
100
AcDbLine
 10
287.8992503430319
 20
86.92002676710657
 30
0.0
 11
287.8990898687314
 21
174.592486186919
 31
0.0
  0
LINE
  5
A40
330
1F
100
AcDbEntity
  8
0
  6
Continuous
 62
     7
100
AcDbLine
 10
270.899237580751
 20
84.92002676710658
 30
0.0
 11
270.899237580751
 21
62.08302524766318
 31
0.0
  0
LINE
  5
A41
330
1F
100
AcDbEntity
  8
0
  6
Continuous
 62
     7
100
AcDbLine
 10
272.899237580751
 20
86.92002676710657
 30
0.0
 11
287.8992503430319
 21
86.92002676710657
 31
0.0
  0
LINE
  5
A42
330
1F
100
AcDbEntity
  8
0
  6
Continuous
 62
     7
100
AcDbLine
 10
-243.4021615306552
 20
-127.1075138130808
 30
0.0
 11
-332.8470252593257
 21
-127.1075138130808
 31
0.0
  0
LINE
  5
A43
330
1F
100
AcDbEntity
  8
0
  6
Continuous
 62
     7
100
AcDbLine
 10
-243.4021615306552
 20
-127.1075138130808
 30
0.0
 11
-134.847025259326
 21
-127.1075138130808
 31
0.0
  0
LINE
  5
A44
330
1F
100
AcDbEntity
  8
0
  6
Continuous
 62
     7
100
AcDbLine
 10
-243.4021615306552
 20
-127.1075138130808
 30
0.0
 11
-239.8400194508766
 21
-140.4016090385934
 31
0.0
  0
LINE
  5
A45
330
1F
100
AcDbEntity
  8
0
  6
Continuous
 62
     7
100
AcDbLine
 10
-332.8470252593259
 20
-136.1075138130808
 30
0.0
 11
-287.8470252593261
 21
-136.1075138130808
 31
0.0
  0
LINE
  5
A46
330
1F
100
AcDbEntity
  8
0
  6
Continuous
 62
     7
100
AcDbLine
 10
-253.8470252593262
 20
-156.1075138130808
 30
0.0
 11
-247.8470252593262
 21
-156.1075138130808
 31
0.0
  0
LINE
  5
A47
330
1F
100
AcDbEntity
  8
0
  6
Continuous
 62
     7
100
AcDbLine
 10
-253.8470252593262
 20
-145.1075138130808
 30
0.0
 11
-241.8470252593261
 21
-145.1075138130808
 31
0.0
  0
LINE
  5
A48
330
1F
100
AcDbEntity
  8
0
  6
DASHED
 62
     2
100
AcDbLine
 10
-241.8470252593261
 20
-156.1075138130808
 30
0.0
 11
-241.8470252593261
 21
-145.1075138130808
 31
0.0
  0
LINE
  5
A49
330
1F
100
AcDbEntity
  8
0
  6
Continuous
 62
     7
100
AcDbLine
 10
-277.847025259326
 20
-156.1075138130808
 30
0.0
 11
-253.8470252593262
 21
-156.1075138130808
 31
0.0
  0
LINE
  5
A4A
330
1F
100
AcDbEntity
  8
0
  6
Continuous
 62
     7
100
AcDbLine
 10
-274.8470252593261
 20
-145.1075138130808
 30
0.0
 11
-253.8470252593262
 21
-145.1075138130808
 31
0.0
  0
LINE
  5
A4B
330
1F
100
AcDbEntity
  8
0
  6
DASHED
 62
     2
100
AcDbLine
 10
-253.8470252593262
 20
-156.1075138130808
 30
0.0
 11
-253.8470252593262
 21
-145.1075138130808
 31
0.0
  0
LINE
  5
A4C
330
1F
100
AcDbEntity
  8
0
  6
Continuous
 62
     7
100
AcDbLine
 10
-275.8470252593261
 20
-144.1075138130808
 30
0.0
 11
-238.8470252593261
 21
-144.1075138130808
 31
0.0
  0
LINE
  5
A4D
330
1F
100
AcDbEntity
  8
0
  6
Continuous
 62
     7
100
AcDbLine
 10
-238.8470252593261
 20
-144.1075138130808
 30
0.0
 11
-237.8470252593261
 21
-144.1075138130808
 31
0.0
  0
LINE
  5
A4E
330
1F
100
AcDbEntity
  8
0
  6
Continuous
 62
     7
100
AcDbLine
 10
-232.847025259326
 20
-156.1075138130808
 30
0.0
 11
-232.8470252593261
 21
-146.1075138130808
 31
0.0
  0
LINE
  5
A4F
330
1F
100
AcDbEntity
  8
0
  6
Continuous
 62
     7
100
AcDbLine
 10
-233.847025259326
 20
-156.1075138130808
 30
0.0
 11
-233.8470252593261
 21
-147.1075138130808
 31
0.0
  0
LINE
  5
A50
330
1F
100
AcDbEntity
  8
0
  6
Continuous
 62
     7
100
AcDbLine
 10
-241.8470252593261
 20
-145.1075138130808
 30
0.0
 11
-235.8470252593261
 21
-145.1075138130808
 31
0.0
  0
LINE
  5
A51
330
1F
100
AcDbEntity
  8
0
  6
Continuous
 62
     7
100
AcDbLine
 10
-276.847025259326
 20
-156.1075138130808
 30
0.0
 11
-276.8470252593261
 21
-147.1075138130808
 31
0.0
  0
LINE
  5
A52
330
1F
100
AcDbEntity
  8
0
  6
Continuous
 62
     7
100
AcDbLine
 10
-277.847025259326
 20
-156.1075138130808
 30
0.0
 11
-277.8470252593261
 21
-146.1075138130808
 31
0.0
  0
LINE
  5
A53
330
1F
100
AcDbEntity
  8
0
  6
Continuous
 62
     7
100
AcDbLine
 10
-237.8470252593261
 20
-144.1075138130808
 30
0.0
 11
-234.8470252593261
 21
-144.1075138130808
 31
0.0
  0
LINE
  5
A54
330
1F
100
AcDbEntity
  8
0
  6
Continuous
 62
     7
100
AcDbLine
 10
-241.8470252593261
 20
-156.1075138130808
 30
0.0
 11
-232.847025259326
 21
-156.1075138130808
 31
0.0
  0
LINE
  5
A55
330
1F
100
AcDbEntity
  8
0
  6
Continuous
 62
     7
100
AcDbLine
 10
-423.8470252593257
 20
-156.1075138130808
 30
0.0
 11
-411.8470252593257
 21
-156.1075138130808
 31
0.0
  0
LINE
  5
A56
330
1F
100
AcDbEntity
  8
0
  6
Continuous
 62
     7
100
AcDbLine
 10
-423.8470252593257
 20
-145.1075138130808
 30
0.0
 11
-411.8470252593257
 21
-145.1075138130808
 31
0.0
  0
LINE
  5
A57
330
1F
100
AcDbEntity
  8
0
  6
DASHED
 62
     2
100
AcDbLine
 10
-423.8470252593257
 20
-145.1075138130808
 30
0.0
 11
-423.8470252593257
 21
-156.1075138130808
 31
0.0
  0
LINE
  5
A58
330
1F
100
AcDbEntity
  8
0
  6
Continuous
 62
     7
100
AcDbLine
 10
-411.8470252593257
 20
-156.1075138130808
 30
0.0
 11
-387.8470252593258
 21
-156.1075138130808
 31
0.0
  0
LINE
  5
A59
330
1F
100
AcDbEntity
  8
0
  6
Continuous
 62
     7
100
AcDbLine
 10
-411.8470252593257
 20
-145.1075138130808
 30
0.0
 11
-390.8470252593258
 21
-145.1075138130808
 31
0.0
  0
LINE
  5
A5A
330
1F
100
AcDbEntity
  8
0
  6
DASHED
 62
     2
100
AcDbLine
 10
-411.8470252593257
 20
-145.1075138130808
 30
0.0
 11
-411.8470252593257
 21
-156.1075138130808
 31
0.0
  0
LINE
  5
A5B
330
1F
100
AcDbEntity
  8
0
  6
Continuous
 62
     7
100
AcDbLine
 10
-426.8470252593258
 20
-144.1075138130808
 30
0.0
 11
-389.8470252593258
 21
-144.1075138130808
 31
0.0
  0
LINE
  5
A5C
330
1F
100
AcDbEntity
  8
0
  6
Continuous
 62
     7
100
AcDbLine
 10
-425.8540310677753
 20
-140.4016090385934
 30
0.0
 11
-416.4815176234665
 21
-105.4229126698107
 31
0.0
  0
LINE
  5
A5D
330
1F
100
AcDbEntity
  8
0
  6
Continuous
 62
     7
100
AcDbLine
 10
269.7080611101626
 20
-144.033984401316
 30
0.0
 11
286.899237580751
 21
-144.3355839885194
 31
0.0
  0
LINE
  5
A5E
330
1F
100
AcDbEntity
  8
0
  6
Continuous
 62
     7
100
AcDbLine
 10
269.7080611101626
 20
-144.033984401316
 30
0.0
 11
259.718166088666
 21
-144.9421566759976
 31
0.0
  0
LINE
  5
A5F
330
1F
100
AcDbEntity
  8
0
  6
Continuous
 62
     7
100
AcDbLine
 10
286.8992375807509
 20
18.7170765240465
 30
0.0
 11
270.899237580751
 21
18.7170765240465
 31
0.0
  0
LINE
  5
A60
330
1F
100
AcDbEntity
  8
0
  6
Continuous
 62
     7
100
AcDbLine
 10
270.899237580751
 20
18.7170765240465
 30
0.0
 11
270.899237580751
 21
-18.41093445393383
 31
0.0
  0
LINE
  5
A61
330
1F
100
AcDbEntity
  8
0
  6
Continuous
 62
     7
100
AcDbLine
 10
287.8993784572316
 20
16.92696898855898
 30
0.0
 11
286.8992375807509
 21
18.7170765240465
 31
0.0
  0
LINE
  5
A62
330
1F
100
AcDbEntity
  8
0
  6
Continuous
 62
     7
100
AcDbLine
 10
287.8993784572316
 20
16.92696898855898
 30
0.0
 11
287.8992994650603
 21
60.08302524766317
 31
0.0
  0
LINE
  5
A63
330
1F
100
AcDbEntity
  8
0
  6
Continuous
 62
     7
100
AcDbLine
 10
291.3826111513715
 20
10.69248618691913
 30
0.0
 11
287.8993784572316
 21
16.92696898855898
 31
0.0
  0
LINE
  5
A64
330
1F
100
AcDbEntity
  8
0
  6
Continuous
 62
     7
100
AcDbLine
 10
291.3826111513715
 20
10.69248618691913
 30
0.0
 11
304.3934898687314
 21
10.69248618691913
 31
0.0
  0
LINE
  5
A65
330
1F
100
AcDbEntity
  8
0
  6
Continuous
 62
     7
100
AcDbLine
 10
378.899237580751
 20
-145.9496190762387
 30
0.0
 11
385.9343199015233
 21
-146.0730415730944
 31
0.0
  0
LINE
  5
A66
330
1F
100
AcDbEntity
  8
0
  6
Continuous
 62
     7
100
AcDbLine
 10
378.899237580751
 20
-145.9496190762387
 30
0.0
 11
291.3826111513715
 21
10.69248618691913
 31
0.0
  0
LINE
  5
A67
330
1F
100
AcDbEntity
  8
0
  6
Continuous
 62
     7
100
AcDbLine
 10
270.899237580751
 20
48.29971006997507
 30
0.0
 11
270.899237580751
 21
21.27356682947128
 31
0.0
  0
LINE
  5
A68
330
1F
100
AcDbEntity
  8
0
  6
Continuous
 62
     7
100
AcDbLine
 10
270.899237580751
 20
48.29971006997507
 30
0.0
 11
270.899237580751
 21
21.27356682947128
 31
0.0
  0
LINE
  5
A69
330
1F
100
AcDbEntity
  8
0
  6
DASH_CENTER
 62
     2
100
AcDbLine
 10
-412.847025259326
 20
93.89248618691915
 30
0.0
 11
-410.847025259326
 21
93.89248618691915
 31
0.0
  0
LINE
  5
A6A
330
1F
100
AcDbEntity
  8
0
  6
Continuous
 62
     7
100
AcDbLine
 10
270.899237580751
 20
21.27356682947128
 30
0.0
 11
270.899237580751
 21
18.7170765240465
 31
0.0
  0
LINE
  5
A6B
330
1F
100
AcDbEntity
  8
0
  6
Continuous
 62
     7
100
AcDbLine
 10
270.899237580751
 20
21.27356682947128
 30
0.0
 11
270.899237580751
 21
18.7170765240465
 31
0.0
  0
LINE
  5
A6C
330
1F
100
AcDbEntity
  8
0
  6
Continuous
 62
     7
100
AcDbLine
 10
-427.8470252593257
 20
-144.1075138130808
 30
0.0
 11
-426.8470252593258
 21
-144.1075138130808
 31
0.0
  0
LINE
  5
A6D
330
1F
100
AcDbEntity
  8
0
  6
DASH_CENTER
 62
     2
100
AcDbLine
 10
245.4910994303484
 20
-102.1993756626782
 30
0.0
 11
271.4599180223186
 21
-128.1681942546484
 31
0.0
  0
LINE
  5
A6E
330
1F
100
AcDbEntity
  8
0
  6
DASH_CENTER
 62
     2
100
AcDbLine
 10
177.3073757311536
 20
-102.1993756626782
 30
0.0
 11
162.6088696788791
 21
-116.8978817149528
 31
0.0
  0
LINE
  5
A6F
330
1F
100
AcDbEntity
  8
0
  6
DASH_CENTER
 62
     2
100
AcDbLine
 10
177.3073757311536
 20
-34.01565196348336
 30
0.0
 11
151.3385571391834
 21
-8.046833371513129
 31
0.0
  0
LINE
  5
A70
330
1F
100
AcDbEntity
  8
0
  6
DASH_CENTER
 62
     2
100
AcDbLine
 10
160.899237580751
 20
93.89248618691915
 30
0.0
 11
261.899237580751
 21
93.89248618691915
 31
0.0
  0
LINE
  5
A71
330
1F
100
AcDbEntity
  8
0
  6
Continuous
 62
     7
100
AcDbLine
 10
160.899237580751
 20
180.8924861869192
 30
0.0
 11
160.899237580751
 21
93.89248618691915
 31
0.0
  0
LINE
  5
A72
330
1F
100
AcDbEntity
  8
0
  6
Continuous
 62
     7
100
AcDbLine
 10
264.899237580751
 20
245.8924861869192
 30
0.0
 11
265.899237580751
 21
245.8924861869192
 31
0.0
  0
LINE
  5
A73
330
1F
100
AcDbEntity
  8
0
  6
Continuous
 62
     7
100
AcDbLine
 10
265.899237580751
 20
93.89248618691915
 30
0.0
 11
270.899237580751
 21
93.89248618691915
 31
0.0
  0
LINE
  5
A74
330
1F
100
AcDbEntity
  8
0
  6
Continuous
 62
     7
100
AcDbLine
 10
265.899237580751
 20
245.8924861869192
 30
0.0
 11
265.899237580751
 21
93.89248618691915
 31
0.0
  0
LINE
  5
A75
330
1F
100
AcDbEntity
  8
0
  6
Continuous
 62
     7
100
AcDbLine
 10
149.021706148007
 20
93.89248618691915
 30
0.0
 11
156.899237580751
 21
93.89248618691915
 31
0.0
  0
LINE
  5
A76
330
1F
100
AcDbEntity
  8
0
  6
Continuous
 62
     7
100
AcDbLine
 10
261.899237580751
 20
255.7611780771718
 30
0.0
 11
261.899237580751
 21
248.8924861869192
 31
0.0
  0
LINE
  5
A77
330
1F
100
AcDbEntity
  8
0
  6
Continuous
 62
     7
100
AcDbLine
 10
160.8992375807511
 20
215.4936218177194
 30
0.0
 11
160.899237580751
 21
180.8924861869192
 31
0.0
  0
LINE
  5
A78
330
1F
100
AcDbEntity
  8
0
  6
Continuous
 62
     7
100
AcDbLine
 10
158.8992375807511
 20
215.4936218177194
 30
0.0
 11
160.8992375807511
 21
215.4936218177194
 31
0.0
  0
LINE
  5
A79
330
1F
100
AcDbEntity
  8
0
  6
Continuous
 62
     7
100
AcDbLine
 10
160.899237580751
 20
217.7919427187664
 30
0.0
 11
160.8992375807511
 21
215.4936218177194
 31
0.0
  0
LINE
  5
A7A
330
1F
100
AcDbEntity
  8
0
  6
Continuous
 62
     7
100
AcDbLine
 10
158.8992375807511
 20
217.7919427187664
 30
0.0
 11
158.8992375807511
 21
215.4936218177194
 31
0.0
  0
LINE
  5
A7B
330
1F
100
AcDbEntity
  8
0
  6
Continuous
 62
     7
100
AcDbLine
 10
158.8992375807511
 20
217.7919427187664
 30
0.0
 11
160.899237580751
 21
217.7919427187664
 31
0.0
  0
LINE
  5
A7C
330
1F
100
AcDbEntity
  8
0
  6
Continuous
 62
     7
100
AcDbLine
 10
160.899237580751
 20
229.9492181059351
 30
0.0
 11
160.899237580751
 21
217.7919427187664
 31
0.0
  0
LINE
  5
A7D
330
1F
100
AcDbEntity
  8
0
  6
Continuous
 62
     7
100
AcDbLine
 10
158.899237580751
 20
229.9492181059351
 30
0.0
 11
158.8992375807511
 21
217.7919427187664
 31
0.0
  0
LINE
  5
A7E
330
1F
100
AcDbEntity
  8
0
  6
Continuous
 62
     7
100
AcDbLine
 10
158.899237580751
 20
229.9492181059351
 30
0.0
 11
160.899237580751
 21
229.9492181059351
 31
0.0
  0
LINE
  5
A7F
330
1F
100
AcDbEntity
  8
0
  6
Continuous
 62
     7
100
AcDbLine
 10
160.899237580751
 20
235.877316686625
 30
0.0
 11
160.899237580751
 21
229.9492181059351
 31
0.0
  0
LINE
  5
A80
330
1F
100
AcDbEntity
  8
0
  6
Continuous
 62
     7
100
AcDbLine
 10
158.899237580751
 20
235.877316686625
 30
0.0
 11
160.899237580751
 21
235.877316686625
 31
0.0
  0
LINE
  5
A81
330
1F
100
AcDbEntity
  8
0
  6
Continuous
 62
     7
100
AcDbLine
 10
158.899237580751
 20
235.877316686625
 30
0.0
 11
158.899237580751
 21
229.9492181059351
 31
0.0
  0
LINE
  5
A82
330
1F
100
AcDbEntity
  8
0
  6
Continuous
 62
     7
100
AcDbLine
 10
156.899237580751
 20
178.8924861869191
 30
0.0
 11
156.899237580751
 21
93.89248618691915
 31
0.0
  0
LINE
  5
A83
330
1F
100
AcDbEntity
  8
0
  6
Continuous
 62
     7
100
AcDbLine
 10
156.899237580751
 20
178.8924861869191
 30
0.0
 11
158.899237580751
 21
178.8924861869191
 31
0.0
  0
LINE
  5
A84
330
1F
100
AcDbEntity
  8
0
  6
Continuous
 62
     7
100
AcDbLine
 10
160.899237580751
 20
255.7611780771718
 30
0.0
 11
160.899237580751
 21
235.877316686625
 31
0.0
  0
LINE
  5
A85
330
1F
100
AcDbEntity
  8
0
  6
Continuous
 62
     7
100
AcDbLine
 10
180.899237580751
 20
275.7611780771719
 30
0.0
 11
241.899237580751
 21
275.7611780771719
 31
0.0
  0
LINE
  5
A86
330
1F
100
AcDbEntity
  8
0
  6
DASH_CENTER
 62
     2
100
AcDbLine
 10
-410.847025259326
 20
93.89248618691915
 30
0.0
 11
-408.3470252593257
 21
93.89248618691915
 31
0.0
  0
LINE
  5
A87
330
1F
100
AcDbEntity
  8
0
  6
DASH_CENTER
 62
     2
100
AcDbLine
 10
-332.8470252593259
 20
285.3997198045046
 30
0.0
 11
-332.8470252593257
 21
-127.1075138130808
 31
0.0
  0
LINE
  5
A88
330
1F
100
AcDbEntity
  8
0
  6
Continuous
 62
     3
100
AcDbLine
 10
-292.1952639258109
 20
229.9492181059351
 30
0.0
 11
-300.7078797959978
 21
217.7919427187664
 31
0.0
  0
LINE
  5
A89
330
1F
100
AcDbEntity
  8
0
  6
Continuous
 62
     3
100
AcDbLine
 10
-330.7714752190125
 20
235.877316686625
 30
0.0
 11
-335.6831687355986
 21
228.8626913811842
 31
0.0
  0
LINE
  5
A8A
330
1F
100
AcDbEntity
  8
0
  6
Continuous
 62
     3
100
AcDbLine
 10
-357.5050664880298
 20
233.7351871146528
 30
0.0
 11
-356.2895292443613
 21
226.8415328435674
 31
0.0
  0
LINE
  5
A8B
330
1F
100
AcDbEntity
  8
0
  6
Continuous
 62
     3
100
AcDbLine
 10
-357.5050664880298
 20
233.7351871146528
 30
0.0
 11
-372.811557200783
 21
215.4936218177194
 31
0.0
  0
LINE
  5
A8C
330
1F
100
AcDbEntity
  8
0
  6
DASH_CENTER
 62
     2
100
AcDbLine
 10
-332.8470252593257
 20
-127.1075138130808
 30
0.0
 11
-332.8470252593259
 21
-136.1075138130808
 31
0.0
  0
LINE
  5
A8D
330
1F
100
AcDbEntity
  8
0
  6
Continuous
 62
     7
100
AcDbLine
 10
-134.847025259326
 20
-127.1075138130808
 30
0.0
 11
-216.391150541838
 21
-127.1075138130808
 31
0.0
  0
LINE
  5
A8E
330
1F
100
AcDbEntity
  8
0
  6
Continuous
 62
     7
100
AcDbLine
 10
-132.847025259326
 20
-68.10751381308081
 30
0.0
 11
-132.847025259326
 21
-129.1075138130808
 31
0.0
  0
LINE
  5
A8F
330
1F
100
AcDbEntity
  8
0
  6
Continuous
 62
     7
100
AcDbLine
 10
-122.847025259326
 20
-68.10751381308081
 30
0.0
 11
-122.847025259326
 21
-144.1075138130807
 31
0.0
  0
LINE
  5
A90
330
1F
100
AcDbEntity
  8
0
  6
Continuous
 62
     7
100
AcDbLine
 10
-122.847025259326
 20
-144.1075138130807
 30
0.0
 11
-130.847025259326
 21
-144.1075138130807
 31
0.0
  0
LINE
  5
A91
330
1F
100
AcDbEntity
  8
0
  6
Continuous
 62
     7
100
AcDbLine
 10
-132.847025259326
 20
-129.1075138130808
 30
0.0
 11
-132.847025259326
 21
-142.1075138130807
 31
0.0
  0
LINE
  5
A92
330
1F
100
AcDbEntity
  8
0
  6
DASH_CENTER
 62
     2
100
AcDbLine
 10
-243.2807165545586
 20
-68.10751381308081
 30
0.0
 11
-114.3741236363261
 21
-68.10751381308081
 31
0.0
  0
LINE
  5
A93
330
1F
100
AcDbEntity
  8
0
  6
Continuous
 62
     7
100
AcDbLine
 10
-132.847025259326
 20
-7.107513813080808
 30
0.0
 11
-132.847025259326
 21
-68.10751381308081
 31
0.0
  0
LINE
  5
A94
330
1F
100
AcDbEntity
  8
0
  6
Continuous
 62
     7
100
AcDbLine
 10
-122.847025259326
 20
7.892486186919169
 30
0.0
 11
-122.847025259326
 21
-68.10751381308081
 31
0.0
  0
LINE
  5
A95
330
1F
100
AcDbEntity
  8
0
  6
Continuous
 62
     7
100
AcDbLine
 10
-130.847025259326
 20
7.892486186919169
 30
0.0
 11
-122.847025259326
 21
7.892486186919169
 31
0.0
  0
LINE
  5
A96
330
1F
100
AcDbEntity
  8
0
  6
Continuous
 62
     7
100
AcDbLine
 10
-132.847025259326
 20
5.892486186919169
 30
0.0
 11
-132.847025259326
 21
-7.107513813080808
 31
0.0
  0
LINE
  5
A97
330
1F
100
AcDbEntity
  8
0
  6
Continuous
 62
     7
100
AcDbLine
 10
-216.391150541838
 20
-9.10751381308081
 30
0.0
 11
-134.847025259326
 21
-9.10751381308081
 31
0.0
  0
LINE
  5
A98
330
1F
100
AcDbEntity
  8
0
  6
Continuous
 62
     7
100
AcDbLine
 10
156.899237580751
 20
93.89248618691915
 30
0.0
 11
156.899237580751
 21
8.892486186919169
 31
0.0
  0
LINE
  5
A99
330
1F
100
AcDbEntity
  8
0
  6
Continuous
 62
     7
100
AcDbLine
 10
156.899237580751
 20
93.89248618691915
 30
0.0
 11
160.899237580751
 21
93.89248618691915
 31
0.0
  0
LINE
  5
A9A
330
1F
100
AcDbEntity
  8
0
  6
Continuous
 62
     2
100
AcDbLine
 10
261.899237580751
 20
93.89248618691915
 30
0.0
 11
265.899237580751
 21
93.89248618691915
 31
0.0
  0
LINE
  5
A9B
330
1F
100
AcDbEntity
  8
0
  6
Continuous
 62
     7
100
AcDbLine
 10
158.899237580751
 20
8.892486186919159
 30
0.0
 11
156.899237580751
 21
8.892486186919169
 31
0.0
  0
LINE
  5
A9C
330
1F
100
AcDbEntity
  8
0
  6
DASH_CENTER
 62
     2
100
AcDbLine
 10
211.399237580751
 20
290.156790010765
 30
0.0
 11
211.399237580751
 21
-156.320255091723
 31
0.0
  0
LINE
  5
A9D
330
1F
100
AcDbEntity
  8
0
  6
Continuous
 62
     7
100
AcDbLine
 10
287.899237580751
 20
176.8924861869192
 30
0.0
 11
270.899237580751
 21
178.2524861869192
 31
0.0
  0
LINE
  5
A9E
330
1F
100
AcDbEntity
  8
0
  6
Continuous
 62
     7
100
AcDbLine
 10
265.899237580751
 20
245.8924861869192
 30
0.0
 11
270.899237580751
 21
245.8924861869192
 31
0.0
  0
LINE
  5
A9F
330
1F
100
AcDbEntity
  8
0
  6
Continuous
 62
     7
100
AcDbLine
 10
270.899237580751
 20
245.8924861869192
 30
0.0
 11
270.899237580751
 21
233.6443514300206
 31
0.0
  0
LINE
  5
AA0
330
1F
100
AcDbEntity
  8
0
  6
Continuous
 62
     7
100
AcDbLine
 10
270.899237580751
 20
93.89248618691915
 30
0.0
 11
276.4054898687314
 21
93.89248618691915
 31
0.0
  0
LINE
  5
AA1
330
1F
100
AcDbEntity
  8
0
  6
Continuous
 62
     7
100
AcDbLine
 10
287.899237580751
 20
176.8924861869192
 30
0.0
 11
287.899237580751
 21
93.89248618691915
 31
0.0
  0
LINE
  5
AA2
330
1F
100
AcDbEntity
  8
0
  6
Continuous
 62
     7
100
AcDbLine
 10
287.899237580751
 20
93.89248618691915
 30
0.0
 11
296.364915527046
 21
93.89248618691915
 31
0.0
  0
LINE
  5
AA3
330
1F
100
AcDbEntity
  8
0
  6
Continuous
 62
     7
100
AcDbLine
 10
300.8996898687315
 20
21.29268618691921
 30
0.0
 11
326.8995898687315
 21
21.29258618691901
 31
0.0
  0
LINE
  5
AA4
330
1F
100
AcDbEntity
  8
0
  6
Continuous
 62
     7
100
AcDbLine
 10
301.3996898687315
 20
22.29268618691921
 30
0.0
 11
326.3995898687315
 21
22.29258618691901
 31
0.0
  0
LINE
  5
AA5
330
1F
100
AcDbEntity
  8
0
  6
Continuous
 62
     7
100
AcDbLine
 10
301.6995898687315
 20
26.09268618691917
 30
0.0
 11
326.0996898687315
 21
26.09258618691919
 31
0.0
  0
LINE
  5
AA6
330
1F
100
AcDbEntity
  8
0
  6
Continuous
 62
     7
100
AcDbLine
 10
300.4996898687314
 20
28.49268618691903
 30
0.0
 11
327.2996898687316
 21
28.49258618691906
 31
0.0
  0
LINE
  5
AA7
330
1F
100
AcDbEntity
  8
0
  6
Continuous
 62
     7
100
AcDbLine
 10
301.6996898687314
 20
31.69268618691908
 30
0.0
 11
326.0996898687315
 21
31.6925861869191
 31
0.0
  0
LINE
  5
AA8
330
1F
100
AcDbEntity
  8
0
  6
Continuous
 62
     7
100
AcDbLine
 10
325.5496898687316
 20
36.89258618691916
 30
0.0
 11
302.2496898687314
 21
36.89258618691916
 31
0.0
  0
LINE
  5
AA9
330
1F
100
AcDbEntity
  8
0
  6
Continuous
 62
     7
100
AcDbLine
 10
301.1496898687315
 20
39.09258618691919
 30
0.0
 11
326.6496898687315
 21
39.09258618691919
 31
0.0
  0
LINE
  5
AAA
330
1F
100
AcDbEntity
  8
0
  6
Continuous
 62
     7
100
AcDbLine
 10
302.2496898687314
 20
43.59258618691918
 30
0.0
 11
325.5496898687316
 21
43.59258618691918
 31
0.0
  0
LINE
  5
AAB
330
1F
100
AcDbEntity
  8
0
  6
Continuous
 62
     7
100
AcDbLine
 10
302.5496898687316
 20
50.39258618691918
 30
0.0
 11
325.2496898687314
 21
50.39258618691918
 31
0.0
  0
LINE
  5
AAC
330
1F
100
AcDbEntity
  8
0
  6
Continuous
 62
     7
100
AcDbLine
 10
301.7996898687316
 20
51.89258618691918
 30
0.0
 11
325.9996898687314
 21
51.89258618691918
 31
0.0
  0
LINE
  5
AAD
330
1F
100
AcDbEntity
  8
0
  6
Continuous
 62
     7
100
AcDbLine
 10
325.2496898687314
 20
57.6925861869191
 30
0.0
 11
302.5496898687316
 21
57.6925861869191
 31
0.0
  0
LINE
  5
AAE
330
1F
100
AcDbEntity
  8
0
  6
Continuous
 62
     7
100
AcDbLine
 10
302.7996898687316
 20
64.89258618691919
 30
0.0
 11
324.9996898687314
 21
64.89258618691919
 31
0.0
  0
LINE
  5
AAF
330
1F
100
AcDbEntity
  8
0
  6
Continuous
 62
     7
100
AcDbLine
 10
302.2996898687316
 20
65.89258618691919
 30
0.0
 11
325.4996898687314
 21
65.89258618691919
 31
0.0
  0
LINE
  5
AB0
330
1F
100
AcDbEntity
  8
0
  6
Continuous
 62
     7
100
AcDbLine
 10
302.7996898687316
 20
72.69258618691906
 30
0.0
 11
324.9996898687314
 21
72.69258618691906
 31
0.0
  0
LINE
  5
AB1
330
1F
100
AcDbEntity
  8
0
  6
Continuous
 62
     7
100
AcDbLine
 10
454.8993898687315
 20
21.29258618691901
 30
0.0
 11
428.8993898687316
 21
21.29258618691901
 31
0.0
  0
LINE
  5
AB2
330
1F
100
AcDbEntity
  8
0
  6
Continuous
 62
     7
100
AcDbLine
 10
454.3993898687316
 20
22.29258618691901
 30
0.0
 11
429.3993898687316
 21
22.29258618691901
 31
0.0
  0
LINE
  5
AB3
330
1F
100
AcDbEntity
  8
0
  6
Continuous
 62
     7
100
AcDbLine
 10
454.0993898687314
 20
26.09258618691919
 30
0.0
 11
429.6992898687315
 21
26.09258618691919
 31
0.0
  0
LINE
  5
AB4
330
1F
100
AcDbEntity
  8
0
  6
Continuous
 62
     7
100
AcDbLine
 10
455.2993898687313
 20
28.49248618691908
 30
0.0
 11
428.4992898687315
 21
28.49248618691908
 31
0.0
  0
LINE
  5
AB5
330
1F
100
AcDbEntity
  8
0
  6
Continuous
 62
     7
100
AcDbLine
 10
454.0993898687314
 20
31.69248618691913
 30
0.0
 11
429.6992898687315
 21
31.69248618691913
 31
0.0
  0
LINE
  5
AB6
330
1F
100
AcDbEntity
  8
0
  6
Continuous
 62
     7
100
AcDbLine
 10
430.2492898687315
 20
36.89248618691917
 30
0.0
 11
453.5493898687313
 21
36.89248618691917
 31
0.0
  0
LINE
  5
AB7
330
1F
100
AcDbEntity
  8
0
  6
Continuous
 62
     7
100
AcDbLine
 10
454.6493898687315
 20
39.09248618691899
 30
0.0
 11
429.1492898687316
 21
39.09248618691899
 31
0.0
  0
LINE
  5
AB8
330
1F
100
AcDbEntity
  8
0
  6
Continuous
 62
     7
100
AcDbLine
 10
453.5493898687313
 20
43.59248618691897
 30
0.0
 11
430.2492898687315
 21
43.59248618691897
 31
0.0
  0
LINE
  5
AB9
330
1F
100
AcDbEntity
  8
0
  6
Continuous
 62
     7
100
AcDbLine
 10
453.2493898687315
 20
50.39248618691918
 30
0.0
 11
430.5492898687313
 21
50.39248618691918
 31
0.0
  0
LINE
  5
ABA
330
1F
100
AcDbEntity
  8
0
  6
Continuous
 62
     7
100
AcDbLine
 10
453.9993898687315
 20
51.89248618691919
 30
0.0
 11
429.7992898687313
 21
51.89248618691919
 31
0.0
  0
LINE
  5
ABB
330
1F
100
AcDbEntity
  8
0
  6
Continuous
 62
     7
100
AcDbLine
 10
430.5492898687313
 20
57.69248618691907
 30
0.0
 11
453.2493898687315
 21
57.69248618691907
 31
0.0
  0
LINE
  5
ABC
330
1F
100
AcDbEntity
  8
0
  6
Continuous
 62
     7
100
AcDbLine
 10
452.9993898687315
 20
64.89248618691918
 30
0.0
 11
430.7992898687313
 21
64.89248618691918
 31
0.0
  0
LINE
  5
ABD
330
1F
100
AcDbEntity
  8
0
  6
Continuous
 62
     7
100
AcDbLine
 10
453.4993898687315
 20
65.89248618691918
 30
0.0
 11
430.2992898687313
 21
65.89248618691918
 31
0.0
  0
LINE
  5
ABE
330
1F
100
AcDbEntity
  8
0
  6
Continuous
 62
     7
100
AcDbLine
 10
452.9992898687315
 20
72.69248618691905
 30
0.0
 11
430.7992898687313
 21
72.69248618691905
 31
0.0
  0
LINE
  5
ABF
330
1F
100
AcDbEntity
  8
0
  6
Continuous
 62
     7
100
AcDbLine
 10
467.8991898687313
 20
10.6925861869191
 30
0.0
 11
467.8988898687314
 21
174.592486186919
 31
0.0
  0
LINE
  5
AC0
330
1F
100
AcDbEntity
  8
0
  6
Continuous
 62
     7
100
AcDbLine
 10
287.8990898687314
 20
174.592486186919
 30
0.0
 11
288.0992898687314
 21
174.3924861869192
 31
0.0
  0
LINE
  5
AC1
330
1F
100
AcDbEntity
  8
0
  6
Continuous
 62
     7
100
AcDbLine
 10
288.0992898687314
 20
177.092386186919
 30
0.0
 11
287.8990898687314
 21
176.8923861869192
 31
0.0
  0
LINE
  5
AC2
330
1F
100
AcDbEntity
  8
0
  6
Continuous
 62
     7
100
AcDbLine
 10
287.8990898687314
 20
174.592486186919
 30
0.0
 11
287.8990898687314
 21
176.8923861869192
 31
0.0
  0
LINE
  5
AC3
330
1F
100
AcDbEntity
  8
0
  6
Continuous
 62
     7
100
AcDbLine
 10
429.3892888687844
 20
17.29258618691901
 30
0.0
 11
454.3993898687316
 21
17.29258618691901
 31
0.0
  0
LINE
  5
AC4
330
1F
100
AcDbEntity
  8
0
  6
Continuous
 62
     7
100
AcDbLine
 10
326.4220503248944
 20
17.29268618691921
 30
0.0
 11
301.3996898687315
 21
17.29268618691921
 31
0.0
  0
LINE
  5
AC5
330
1F
100
AcDbEntity
  8
0
  6
Continuous
 62
     7
100
AcDbLine
 10
304.3934898687314
 20
10.69238618691915
 30
0.0
 11
467.8991898687313
 21
10.69238618691915
 31
0.0
  0
LINE
  5
AC6
330
1F
100
AcDbEntity
  8
0
  6
Continuous
 62
     7
100
AcDbLine
 10
467.898885292759
 20
177.0924862982196
 30
0.0
 11
288.0995898687315
 21
177.092386186919
 31
0.0
  0
LINE
  5
AC7
330
1F
100
AcDbEntity
  8
0
  6
Continuous
 62
     7
100
AcDbLine
 10
467.8996944446926
 20
177.0924862986703
 30
0.0
 11
467.8993898687315
 21
10.69248618691913
 31
0.0
  0
LINE
  5
AC8
330
1F
100
AcDbEntity
  8
0
  6
Continuous
 62
     7
100
AcDbLine
 10
270.899237580751
 20
93.89248618691915
 30
0.0
 11
270.899237580751
 21
86.92002676710657
 31
0.0
  0
LINE
  5
AC9
330
1F
100
AcDbEntity
  8
0
  6
Continuous
 62
     7
100
AcDbLine
 10
270.899237580751
 20
93.89248618691915
 30
0.0
 11
270.899237580751
 21
86.92002676710657
 31
0.0
  0
LINE
  5
ACA
330
1F
100
AcDbEntity
  8
0
  6
Continuous
 62
     7
100
AcDbLine
 10
257.899237580751
 20
-156.1075138130808
 30
0.0
 11
286.899237580751
 21
-156.1075138130808
 31
0.0
  0
LINE
  5
ACB
330
1F
100
AcDbEntity
  8
0
  6
Continuous
 62
     7
100
AcDbLine
 10
257.899237580751
 20
-146.9339430889329
 30
0.0
 11
257.899237580751
 21
-156.1075138130808
 31
0.0
  0
LINE
  5
ACC
330
1F
100
AcDbEntity
  8
0
  6
Continuous
 62
     7
100
AcDbLine
 10
387.8992375807511
 20
-148.0727338571144
 30
0.0
 11
387.8992375807511
 21
-156.1075138130808
 31
0.0
  0
LINE
  5
ACD
330
1F
100
AcDbEntity
  8
0
  6
Continuous
 62
     7
100
AcDbLine
 10
-432.8470252593257
 20
-146.1075138130808
 30
0.0
 11
-432.8470252593258
 21
-156.1075138130808
 31
0.0
  0
LINE
  5
ACE
330
1F
100
AcDbEntity
  8
0
  6
Continuous
 62
     7
100
AcDbLine
 10
-431.8470252593257
 20
-147.1075138130808
 30
0.0
 11
-431.8470252593258
 21
-156.1075138130808
 31
0.0
  0
LINE
  5
ACF
330
1F
100
AcDbEntity
  8
0
  6
Continuous
 62
     7
100
AcDbLine
 10
-429.8470252593258
 20
-145.1075138130808
 30
0.0
 11
-423.8470252593257
 21
-145.1075138130808
 31
0.0
  0
LINE
  5
AD0
330
1F
100
AcDbEntity
  8
0
  6
Continuous
 62
     7
100
AcDbLine
 10
-388.8470252593258
 20
-147.1075138130808
 30
0.0
 11
-388.8470252593259
 21
-156.1075138130808
 31
0.0
  0
LINE
  5
AD1
330
1F
100
AcDbEntity
  8
0
  6
Continuous
 62
     7
100
AcDbLine
 10
-387.8470252593258
 20
-146.1075138130808
 30
0.0
 11
-387.8470252593258
 21
-156.1075138130808
 31
0.0
  0
LINE
  5
AD2
330
1F
100
AcDbEntity
  8
0
  6
Continuous
 62
     7
100
AcDbLine
 10
-430.8470252593258
 20
-144.1075138130808
 30
0.0
 11
-427.8470252593257
 21
-144.1075138130808
 31
0.0
  0
LINE
  5
AD3
330
1F
100
AcDbEntity
  8
0
  6
Continuous
 62
     7
100
AcDbLine
 10
-432.8470252593258
 20
-156.1075138130808
 30
0.0
 11
-423.8470252593257
 21
-156.1075138130808
 31
0.0
  0
LINE
  5
AD4
330
1F
100
AcDbEntity
  8
0
  6
Continuous
 62
     7
100
AcDbLine
 10
-377.8470252593258
 20
-136.1075138130808
 30
0.0
 11
-332.8470252593259
 21
-136.1075138130808
 31
0.0
  0
LINE
  5
AD5
330
1F
100
AcDbEntity
  8
0
  6
DASH_CENTER
 62
     2
100
AcDbLine
 10
-332.8470252593259
 20
-136.1075138130808
 30
0.0
 11
-332.8470252593259
 21
-149.5578128512864
 31
0.0
  0
ARC
  5
AD6
330
1F
100
AcDbEntity
  8
0
  6
DASH_CENTER
 62
     2
100
AcDbCircle
 10
-332.8470252593259
 20
93.89248618691915
 30
0.0
 40
78.00000000000001
100
AcDbArc
 50
342.3936841857428
 51
0.00000000000015
  0
ARC
  5
AD9
330
1F
100
AcDbEntity
  8
0
  6
DASH_CENTER
 62
     2
100
AcDbCircle
 10
211.399237580751
 20
-68.10751381308079
 30
0.0
 40
69.00000000000024
100
AcDbArc
 50
225.0000000000001
 51
243.2792028667215
  0
ARC
  5
ADA
330
1F
100
AcDbEntity
  8
0
  6
DASH_CENTER
 62
     2
100
AcDbCircle
 10
211.399237580751
 20
-68.10751381308079
 30
0.0
 40
69.00000000000004
100
AcDbArc
 50
209.7414794897784
 51
225.0000000000001
  0
ARC
  5
ADB
330
1F
100
AcDbEntity
  8
0
  6
Continuous
 62
   171
100
AcDbCircle
 10
94.89954215671206
 20
93.89248618691956
 30
0.0
 40
400.0000000000001
100
AcDbArc
 50
357.9942380650901
 51
360.0
  0
ARC
  5
ADC
330
1F
100
AcDbEntity
  8
0
  6
Continuous
 62
   171
100
AcDbCircle
 10
94.89954215671206
 20
93.89248618691956
 30
0.0
 40
400.0
100
AcDbArc
 50
360.0
 51
2.005761934909769
  0
ARC
  5
ADD
330
1F
100
AcDbEntity
  8
0
  6
Continuous
 62
     7
100
AcDbCircle
 10
211.399237580751
 20
-68.10751381308079
 30
0.0
 40
75.99999999999996
100
AcDbArc
 50
40.83647338615985
 51
44.18400014473232
  0
ARC
  5
ADE
330
1F
100
AcDbEntity
  8
0
  6
Continuous
 62
     7
100
AcDbCircle
 10
211.399237580751
 20
-68.10751381308079
 30
0.0
 40
75.99999999999997
100
AcDbArc
 50
46.30736491744154
 51
48.35803945737222
  0
ARC
  5
ADF
330
1F
100
AcDbEntity
  8
0
  6
Continuous
 62
     7
100
AcDbCircle
 10
211.399237580751
 20
-68.10751381308079
 30
0.0
 40
75.99999999999996
100
AcDbArc
 50
319.1635266138401
 51
38.47361575494645
  0
ARC
  5
AE0
330
1F
100
AcDbEntity
  8
0
  6
Continuous
 62
     7
100
AcDbCircle
 10
211.399237580751
 20
-68.10751381308079
 30
0.0
 40
75.99999999999997
100
AcDbArc
 50
316.9084600456283
 51
319.1635266138401
  0
ARC
  5
AE1
330
1F
100
AcDbEntity
  8
0
  6
Continuous
 62
     7
100
AcDbCircle
 10
211.399237580751
 20
-68.10751381308079
 30
0.0
 40
75.99999999999997
100
AcDbArc
 50
50.34540490369611
 51
131.6419605426278
  0
ARC
  5
AE3
330
1F
100
AcDbEntity
  8
0
  6
DASHED
 62
   171
100
AcDbCircle
 10
-332.4121213988078
 20
93.89248618691915
 30
0.0
 40
80.0
100
AcDbArc
 50
180.0
 51
196.353910025006
  0
ARC
  5
AF2
330
1F
100
AcDbEntity
  8
0
  6
Continuous
 62
     7
100
AcDbCircle
 10
485.099542156712
 20
40.50592420733479
 30
0.0
 40
6.300000000000019
100
AcDbArc
 50
321.3178125465114
 51
351.3185799945089
  0
ARC
  5
AF3
330
1F
100
AcDbEntity
  8
0
  6
Continuous
 62
     7
100
AcDbCircle
 10
485.099542156712
 20
40.50592420733479
 30
0.0
 40
6.300000000000005
100
AcDbArc
 50
351.3185799945089
 51
0.0
  0
ARC
  5
AF4
330
1F
100
AcDbEntity
  8
0
  6
Continuous
 62
     7
100
AcDbCircle
 10
487.2852914561516
 20
38.75592420733486
 30
0.0
 40
3.499999999999993
100
AcDbArc
 50
271.8706417305859
 51
321.317812546511
  0
ARC
  5
AF5
330
1F
100
AcDbEntity
  8
0
  6
Continuous
 62
     7
100
AcDbCircle
 10
485.099542156712
 20
40.50592420733479
 30
0.0
 40
6.300000000000014
100
AcDbArc
 50
8.68142000549165
 51
38.682187453489
  0
ARC
  5
AF6
330
1F
100
AcDbEntity
  8
0
  6
Continuous
 62
     7
100
AcDbCircle
 10
485.099542156712
 20
40.50592420733479
 30
0.0
 40
6.299999999999954
100
AcDbArc
 50
0.0
 51
8.68142000549165
  0
ARC
  5
AF7
330
1F
100
AcDbEntity
  8
0
  6
Continuous
 62
     7
100
AcDbCircle
 10
487.2852914561516
 20
42.25592420733479
 30
0.0
 40
3.500000000000031
100
AcDbArc
 50
38.68218745348889
 51
88.12935826941409
  0
ARC
  5
AF8
330
1F
100
AcDbEntity
  8
0
  6
Continuous
 62
     7
100
AcDbCircle
 10
485.099542156712
 20
147.2790481665036
 30
0.0
 40
6.299999999999998
100
AcDbArc
 50
8.681420005490629
 51
38.68218745348823
  0
ARC
  5
AF9
330
1F
100
AcDbEntity
  8
0
  6
Continuous
 62
     7
100
AcDbCircle
 10
485.099542156712
 20
147.2790481665036
 30
0.0
 40
6.299999999999954
100
AcDbArc
 50
0.0
 51
8.681420005490629
  0
ARC
  5
AFA
330
1F
100
AcDbEntity
  8
0
  6
Continuous
 62
     7
100
AcDbCircle
 10
487.2852914561516
 20
149.0290481665035
 30
0.0
 40
3.500000000000036
100
AcDbArc
 50
38.68218745348897
 51
88.1293582694141
  0
ARC
  5
AFB
330
1F
100
AcDbEntity
  8
0
  6
Continuous
 62
     7
100
AcDbCircle
 10
485.099542156712
 20
147.2790481665036
 30
0.0
 40
6.300000000000057
100
AcDbArc
 50
321.3178125465109
 51
351.3185799945075
  0
ARC
  5
AFC
330
1F
100
AcDbEntity
  8
0
  6
Continuous
 62
     7
100
AcDbCircle
 10
485.099542156712
 20
147.2790481665036
 30
0.0
 40
6.300000000000027
100
AcDbArc
 50
351.3185799945075
 51
0.0
  0
ARC
  5
AFD
330
1F
100
AcDbEntity
  8
0
  6
Continuous
 62
     7
100
AcDbCircle
 10
487.2852914561516
 20
145.5290481665036
 30
0.0
 40
3.499999999999993
100
AcDbArc
 50
271.8706417305859
 51
321.317812546511
  0
ARC
  5
AFE
330
1F
100
AcDbEntity
  8
0
  6
Continuous
 62
     7
100
AcDbCircle
 10
492.3995296843723
 20
63.32507281642096
 30
0.0
 40
1.000012489754787
100
AcDbArc
 50
273.9916792857858
 51
359.9893070507115
  0
ARC
  5
AFF
330
1F
100
AcDbEntity
  8
0
  6
Continuous
 62
     7
100
AcDbCircle
 10
486.3995782793901
 20
12.36722324380449
 30
0.0
 40
0.9999638780085255
100
AcDbArc
 50
271.4649147860222
 51
359.9978767201713
  0
ARC
  5
B00
330
1F
100
AcDbEntity
  8
0
  6
Continuous
 62
     7
100
AcDbCircle
 10
486.3995282985283
 20
175.4177004063488
 30
0.0
 40
1.000013864706768
100
AcDbArc
 50
359.9934557994693
 51
88.53229386445182
  0
ARC
  5
B01
330
1F
100
AcDbEntity
  8
0
  6
Continuous
 62
     7
100
AcDbCircle
 10
492.399529678209
 20
124.459899565366
 30
0.0
 40
1.000012482254694
100
AcDbArc
 50
0.00496298747309
 51
86.0083203302392
  0
ARC
  5
B02
330
1F
100
AcDbEntity
  8
0
  6
Continuous
 62
     7
100
AcDbCircle
 10
268.599237580751
 20
93.89248618691915
 30
0.0
 40
6.300000000000014
100
AcDbArc
 50
8.68142000549165
 51
38.68218745348843
  0
ARC
  5
B03
330
1F
100
AcDbEntity
  8
0
  6
Continuous
 62
     7
100
AcDbCircle
 10
268.599237580751
 20
93.89248618691915
 30
0.0
 40
6.300000000000012
100
AcDbArc
 50
0.0
 51
8.68142000549165
  0
ARC
  5
B04
330
1F
100
AcDbEntity
  8
0
  6
Continuous
 62
     7
100
AcDbCircle
 10
270.7849868801904
 20
95.64248618691907
 30
0.0
 40
3.500000000000079
100
AcDbArc
 50
38.6821874534884
 51
88.1293582694122
  0
ARC
  5
B05
330
1F
100
AcDbEntity
  8
0
  6
Continuous
 62
     7
100
AcDbCircle
 10
268.599237580751
 20
93.89248618691915
 30
0.0
 40
6.300000000000057
100
AcDbArc
 50
321.3178125465109
 51
351.3185799945086
  0
ARC
  5
B06
330
1F
100
AcDbEntity
  8
0
  6
Continuous
 62
     7
100
AcDbCircle
 10
268.599237580751
 20
93.89248618691915
 30
0.0
 40
6.300000000000012
100
AcDbArc
 50
351.3185799945086
 51
0.0
  0
ARC
  5
B07
330
1F
100
AcDbEntity
  8
0
  6
Continuous
 62
     7
100
AcDbCircle
 10
270.7849868801904
 20
92.14248618691916
 30
0.0
 40
3.499999999999968
100
AcDbArc
 50
271.8706417305877
 51
321.3178125465116
  0
ARC
  5
B08
330
1F
100
AcDbEntity
  8
0
  6
Continuous
 62
     7
100
AcDbCircle
 10
268.599237580751
 20
238.8924861869192
 30
0.0
 40
6.299999999999998
100
AcDbArc
 50
8.681420005490629
 51
38.68218745348904
  0
ARC
  5
B09
330
1F
100
AcDbEntity
  8
0
  6
Continuous
 62
     7
100
AcDbCircle
 10
268.599237580751
 20
238.8924861869192
 30
0.0
 40
6.300000000000012
100
AcDbArc
 50
0.0
 51
8.681420005490629
  0
ARC
  5
B0A
330
1F
100
AcDbEntity
  8
0
  6
Continuous
 62
     7
100
AcDbCircle
 10
270.7849868801904
 20
240.6424861869192
 30
0.0
 40
3.500000000000079
100
AcDbArc
 50
38.6821874534884
 51
88.12935826941219
  0
ARC
  5
B0B
330
1F
100
AcDbEntity
  8
0
  6
Continuous
 62
     7
100
AcDbCircle
 10
268.599237580751
 20
238.8924861869192
 30
0.0
 40
6.300000000000057
100
AcDbArc
 50
321.3178125465109
 51
351.3185799945086
  0
ARC
  5
B0C
330
1F
100
AcDbEntity
  8
0
  6
Continuous
 62
     7
100
AcDbCircle
 10
268.599237580751
 20
238.8924861869192
 30
0.0
 40
6.300000000000012
100
AcDbArc
 50
351.3185799945086
 51
0.0
  0
ARC
  5
B0D
330
1F
100
AcDbEntity
  8
0
  6
Continuous
 62
     7
100
AcDbCircle
 10
270.7849868801904
 20
237.1424861869192
 30
0.0
 40
3.499999999999996
100
AcDbArc
 50
271.8706417305877
 51
321.3178125465116
  0
ARC
  5
B0E
330
1F
100
AcDbEntity
  8
0
  6
Continuous
 62
     7
100
AcDbCircle
 10
211.399237580751
 20
-68.10751381308079
 30
0.0
 40
75.99999999999996
100
AcDbArc
 50
38.47361575494645
 51
40.83647338615985
  0
ARC
  5
B0F
330
1F
100
AcDbEntity
  8
0
  6
Continuous
 62
     7
100
AcDbCircle
 10
211.399237580751
 20
-68.10751381308079
 30
0.0
 40
75.99999999999996
100
AcDbArc
 50
44.18400014473232
 51
46.30736491744154
  0
ARC
  5
B10
330
1F
100
AcDbEntity
  8
0
  6
Continuous
 62
     7
100
AcDbCircle
 10
211.399237580751
 20
-68.10751381308079
 30
0.0
 40
75.99999999999997
100
AcDbArc
 50
133.6926350825585
 51
316.9084600456283
  0
ARC
  5
B11
330
1F
100
AcDbEntity
  8
0
  6
DASH_CENTER
 62
     2
100
AcDbCircle
 10
-332.8470252593259
 20
93.89248618691915
 30
0.0
 40
78.0000000000001
100
AcDbArc
 50
0.00000000000015
 51
24.52309520262632
  0
ARC
  5
B12
330
1F
100
AcDbEntity
  8
0
  6
DASH_CENTER
 62
     2
100
AcDbCircle
 10
-332.8470252593259
 20
93.89248618691915
 30
0.0
 40
77.99999999999996
100
AcDbArc
 50
257.6214779588463
 51
285.6489287767143
  0
ARC
  5
B13
330
1F
100
AcDbEntity
  8
0
  6
DASH_CENTER
 62
     2
100
AcDbCircle
 10
-332.8470252593259
 20
93.89248618691915
 30
0.0
 40
78.0000000000001
100
AcDbArc
 50
75.99569873158703
 51
99.4218259610951
  0
ARC
  5
B14
330
1F
100
AcDbEntity
  8
0
  6
Continuous
 62
     3
100
AcDbCircle
 10
-332.8470252593259
 20
93.89248618691915
 30
0.0
 40
142.0
100
AcDbArc
 50
73.36462390444163
 51
89.16250357528813
  0
ARC
  5
B15
330
1F
100
AcDbEntity
  8
0
  6
Continuous
 62
     3
100
AcDbCircle
 10
-332.8470252593259
 20
93.89248618691915
 30
0.0
 40
135.0
100
AcDbArc
 50
91.20378523685673
 51
99.99999999999991
  0
ARC
  5
B16
330
1F
100
AcDbEntity
  8
0
  6
Continuous
 62
     3
100
AcDbCircle
 10
-332.8470252593259
 20
93.89248618691915
 30
0.0
 40
128.0000000000002
100
AcDbArc
 50
75.45815106254804
 51
108.1932442941952
  0
ARC
  5
B17
330
1F
100
AcDbEntity
  8
0
  6
Continuous
 62
     7
100
AcDbCircle
 10
-343.847025259326
 20
106.8924861869192
 30
0.0
 40
169.0000000000001
100
AcDbArc
 50
318.1896851042214
 51
358.4483198983365
  0
ARC
  5
B18
330
1F
100
AcDbEntity
  8
0
  6
Continuous
 62
     7
100
AcDbCircle
 10
-343.847025259326
 20
106.8924861869192
 30
0.0
 40
169.0
100
AcDbArc
 50
358.4483198983365
 51
90.47897353478449
  0
ARC
  5
B19
330
1F
100
AcDbEntity
  8
0
  6
Continuous
 62
     7
100
AcDbCircle
 10
-344.847025259326
 20
84.89248618691917
 30
0.0
 40
190.9999999999999
100
AcDbArc
 50
88.24461961098572
 51
177.2991987949131
  0
ARC
  5
B1A
330
1F
100
AcDbEntity
  8
0
  6
Continuous
 62
     7
100
AcDbCircle
 10
-322.847025259326
 20
85.89248618691916
 30
0.0
 40
212.9999999999999
100
AcDbArc
 50
177.8475395743473
 51
267.3090681463693
  0
ARC
  5
B1B
330
1F
100
AcDbEntity
  8
0
  6
Continuous
 62
     7
100
AcDbCircle
 10
211.399237580751
 20
-68.10751381308079
 30
0.0
 40
75.99999999999997
100
AcDbArc
 50
48.35803945737222
 51
50.34540490369611
  0
ARC
  5
B1C
330
1F
100
AcDbEntity
  8
0
  6
Continuous
 62
     7
100
AcDbCircle
 10
211.399237580751
 20
-68.10751381308079
 30
0.0
 40
75.99999999999996
100
AcDbArc
 50
131.6419605426278
 51
133.6926350825585
  0
ARC
  5
B1D
330
1F
100
AcDbEntity
  8
0
  6
DASH_CENTER
 62
     2
100
AcDbCircle
 10
211.399237580751
 20
-68.10751381308079
 30
0.0
 40
69.0
100
AcDbArc
 50
302.2055915867154
 51
327.1540674413055
  0
ARC
  5
B1E
330
1F
100
AcDbEntity
  8
0
  6
DASH_CENTER
 62
     2
100
AcDbCircle
 10
211.399237580751
 20
-68.10751381308079
 30
0.0
 40
69.0
100
AcDbArc
 50
32.23630447990469
 51
64.62487152166419
  0
ARC
  5
B1F
330
1F
100
AcDbEntity
  8
0
  6
DASH_CENTER
 62
     2
100
AcDbCircle
 10
211.399237580751
 20
-68.10751381308079
 30
0.0
 40
69.00000000000003
100
AcDbArc
 50
118.3492825245635
 51
150.0764064775878
  0
ARC
  5
B20
330
1F
100
AcDbEntity
  8
0
  6
Continuous
 62
     7
100
AcDbCircle
 10
325.4996870674465
 20
69.29258357809122
 30
0.0
 40
3.399997391173203
100
AcDbArc
 50
270.0000472064494
 51
355.9252361483158
  0
ARC
  5
B21
330
1F
100
AcDbEntity
  8
0
  6
Continuous
 62
     7
100
AcDbCircle
 10
324.9996898687314
 20
68.79258618691896
 30
0.0
 40
3.899999999999806
100
AcDbArc
 50
270.0
 51
90.0
  0
ARC
  5
B22
330
1F
100
AcDbEntity
  8
0
  6
Continuous
 62
     7
100
AcDbCircle
 10
326.8995962559749
 20
23.29255628834037
 30
0.0
 40
1.999970103612227
100
AcDbArc
 50
270.0026818480219
 51
305.4227983145493
  0
ARC
  5
B23
330
1F
100
AcDbEntity
  8
0
  6
Continuous
 62
     7
100
AcDbCircle
 10
327.2996770103772
 20
30.09257697582524
 30
0.0
 40
1.599990788957843
100
AcDbArc
 50
270.0004604585503
 51
341.2314457564799
  0
ARC
  5
B24
330
1F
100
AcDbEntity
  8
0
  6
Continuous
 62
     7
100
AcDbCircle
 10
326.6496915389534
 20
41.34258752247267
 30
0.0
 40
2.250001335554097
100
AcDbArc
 50
269.9999574681759
 51
347.2935502322924
  0
ARC
  5
B25
330
1F
100
AcDbEntity
  8
0
  6
Continuous
 62
     7
100
AcDbCircle
 10
325.999697480619
 20
54.79259292136621
 30
0.0
 40
2.900006734457008
100
AcDbArc
 50
269.9998496110282
 51
353.0003022081007
  0
ARC
  5
B26
330
1F
100
AcDbEntity
  8
0
  6
Continuous
 62
     7
100
AcDbCircle
 10
325.2496898687314
 20
54.04258618691898
 30
0.0
 40
3.649999999999799
100
AcDbArc
 50
270.0
 51
90.0
  0
ARC
  5
B27
330
1F
100
AcDbEntity
  8
0
  6
Continuous
 62
     7
100
AcDbCircle
 10
325.5496898687316
 20
40.24258618691906
 30
0.0
 40
3.349999999999916
100
AcDbArc
 50
270.0
 51
90.0
  0
ARC
  5
B28
330
1F
100
AcDbEntity
  8
0
  6
Continuous
 62
     7
100
AcDbCircle
 10
326.0996898687315
 20
28.89258618691915
 30
0.0
 40
2.799999999999962
100
AcDbArc
 50
270.0
 51
90.0
  0
ARC
  5
B29
330
1F
100
AcDbEntity
  8
0
  6
Continuous
 62
     7
100
AcDbCircle
 10
302.2996964840858
 20
69.29258002586573
 30
0.0
 40
3.39999383895301
100
AcDbArc
 50
184.0730186614693
 51
269.9998885198354
  0
ARC
  5
B2A
330
1F
100
AcDbEntity
  8
0
  6
Continuous
 62
     7
100
AcDbCircle
 10
302.7996898687316
 20
68.79258618691896
 30
0.0
 40
3.900000000000091
100
AcDbArc
 50
90.0
 51
270.0
  0
ARC
  5
B2B
330
1F
100
AcDbEntity
  8
0
  6
Continuous
 62
     7
100
AcDbCircle
 10
300.899565139067
 20
23.29272600959763
 30
0.0
 40
2.000039826567705
100
AcDbArc
 50
234.5827824204734
 51
270.0035731705265
  0
ARC
  5
B2C
330
1F
100
AcDbEntity
  8
0
  6
Continuous
 62
     7
100
AcDbCircle
 10
300.4996802663543
 20
30.09269306495688
 30
0.0
 40
1.600006878066675
100
AcDbArc
 50
198.7727490951402
 51
270.0003438583197
  0
ARC
  5
B2D
330
1F
100
AcDbEntity
  8
0
  6
Continuous
 62
     7
100
AcDbCircle
 10
301.1496881985096
 20
41.34268752247272
 30
0.0
 40
2.250001335554151
100
AcDbArc
 50
192.7064497677097
 51
270.0000425318271
  0
ARC
  5
B2E
330
1F
100
AcDbEntity
  8
0
  6
Continuous
 62
     7
100
AcDbCircle
 10
301.7996822568439
 20
54.79259292136629
 30
0.0
 40
2.900006734457059
100
AcDbArc
 50
186.999697791901
 51
270.000150388974
  0
ARC
  5
B2F
330
1F
100
AcDbEntity
  8
0
  6
Continuous
 62
     7
100
AcDbCircle
 10
302.5496898687316
 20
54.04258618691898
 30
0.0
 40
3.650000000000104
100
AcDbArc
 50
90.0
 51
270.0
  0
ARC
  5
B30
330
1F
100
AcDbEntity
  8
0
  6
Continuous
 62
     7
100
AcDbCircle
 10
302.2496898687314
 20
40.24268618691903
 30
0.0
 40
3.350000000000151
100
AcDbArc
 50
90.0
 51
270.0
  0
ARC
  5
B31
330
1F
100
AcDbEntity
  8
0
  6
Continuous
 62
     7
100
AcDbCircle
 10
301.6995898687315
 20
28.89268618691912
 30
0.0
 40
2.799999999999958
100
AcDbArc
 50
90.0
 51
270.0
  0
ARC
  5
B32
330
1F
100
AcDbEntity
  8
0
  6
Continuous
 62
     7
100
AcDbCircle
 10
301.3996898687315
 20
19.79268618691921
 30
0.0
 40
2.5
100
AcDbArc
 50
90.0
 51
270.0
  0
ARC
  5
B33
330
1F
100
AcDbEntity
  8
0
  6
Continuous
 62
     7
100
AcDbCircle
 10
430.2992964840856
 20
69.29248002586565
 30
0.0
 40
3.399993838952891
100
AcDbArc
 50
184.0730186614683
 51
269.9998885198325
  0
ARC
  5
B34
330
1F
100
AcDbEntity
  8
0
  6
Continuous
 62
     7
100
AcDbCircle
 10
430.7992898687313
 20
68.79248618691907
 30
0.0
 40
3.899999999999991
100
AcDbArc
 50
90.0
 51
270.0
  0
ARC
  5
B35
330
1F
100
AcDbEntity
  8
0
  6
Continuous
 62
     7
100
AcDbCircle
 10
428.8992558822548
 20
23.2925970387826
 30
0.0
 40
2.00001085215234
100
AcDbArc
 50
234.5825175587053
 51
270.0009736355594
  0
ARC
  5
B36
330
1F
100
AcDbEntity
  8
0
  6
Continuous
 62
     7
100
AcDbCircle
 10
428.4992802663542
 20
30.09259306495702
 30
0.0
 40
1.600006878066763
100
AcDbArc
 50
198.772749095143
 51
270.0003438583258
  0
ARC
  5
B37
330
1F
100
AcDbEntity
  8
0
  6
Continuous
 62
     7
100
AcDbCircle
 10
429.1492744428103
 20
41.34259852119036
 30
0.0
 40
2.250012334324035
100
AcDbArc
 50
192.7092841357933
 51
270.0003928157062
  0
ARC
  5
B38
330
1F
100
AcDbEntity
  8
0
  6
Continuous
 62
     7
100
AcDbCircle
 10
429.7992822568438
 20
54.79249292136628
 30
0.0
 40
2.900006734457061
100
AcDbArc
 50
186.9996977919013
 51
270.0001503889718
  0
ARC
  5
B39
330
1F
100
AcDbEntity
  8
0
  6
Continuous
 62
     7
100
AcDbCircle
 10
430.5492898687313
 20
54.04248618691908
 30
0.0
 40
3.650000000000006
100
AcDbArc
 50
90.0
 51
270.0
  0
ARC
  5
B3A
330
1F
100
AcDbEntity
  8
0
  6
Continuous
 62
     7
100
AcDbCircle
 10
430.2492898687315
 20
40.24248618691908
 30
0.0
 40
3.349999999999901
100
AcDbArc
 50
90.0
 51
270.0
  0
ARC
  5
B3B
330
1F
100
AcDbEntity
  8
0
  6
Continuous
 62
     7
100
AcDbCircle
 10
429.6992898687315
 20
28.89258618691915
 30
0.0
 40
2.79999999999995
100
AcDbArc
 50
90.0
 51
270.0
  0
ARC
  5
B3C
330
1F
100
AcDbEntity
  8
0
  6
Continuous
 62
     7
100
AcDbCircle
 10
453.4993832533771
 20
69.29248002586563
 30
0.0
 40
3.399993838952878
100
AcDbArc
 50
270.0001114801675
 51
355.9269813385322
  0
ARC
  5
B3D
330
1F
100
AcDbEntity
  8
0
  6
Continuous
 62
     7
100
AcDbCircle
 10
452.9992898687315
 20
68.79248618627811
 30
0.0
 40
3.900000000640962
100
AcDbArc
 50
270.0014691225511
 51
90.0
  0
ARC
  5
B3E
330
1F
100
AcDbEntity
  8
0
  6
Continuous
 62
     7
100
AcDbCircle
 10
454.8994238552081
 20
23.29259703878248
 30
0.0
 40
2.000010852152243
100
AcDbArc
 50
269.9990263644503
 51
305.4174824412966
  0
ARC
  5
B3F
330
1F
100
AcDbEntity
  8
0
  6
Continuous
 62
     7
100
AcDbCircle
 10
455.2993994711086
 20
30.09259306495702
 30
0.0
 40
1.600006878066763
100
AcDbArc
 50
269.9996561416742
 51
341.2272509048569
  0
ARC
  5
B40
330
1F
100
AcDbEntity
  8
0
  6
Continuous
 62
     7
100
AcDbCircle
 10
454.6493915389533
 20
41.34258752247267
 30
0.0
 40
2.250001335554097
100
AcDbArc
 50
269.9999574681759
 51
347.2935502322924
  0
ARC
  5
B41
330
1F
100
AcDbEntity
  8
0
  6
Continuous
 62
     7
100
AcDbCircle
 10
453.999397480619
 20
54.79249292136626
 30
0.0
 40
2.900006734457058
100
AcDbArc
 50
269.9998496110293
 51
353.0003022080994
  0
ARC
  5
B42
330
1F
100
AcDbEntity
  8
0
  6
Continuous
 62
     7
100
AcDbCircle
 10
453.2493898687315
 20
54.04248618691908
 30
0.0
 40
3.649999999999884
100
AcDbArc
 50
270.0
 51
90.0
  0
ARC
  5
B43
330
1F
100
AcDbEntity
  8
0
  6
Continuous
 62
     7
100
AcDbCircle
 10
453.5493898687313
 20
40.24248618691908
 30
0.0
 40
3.349999999999908
100
AcDbArc
 50
270.0
 51
90.0
  0
ARC
  5
B44
330
1F
100
AcDbEntity
  8
0
  6
Continuous
 62
     7
100
AcDbCircle
 10
454.0993898687314
 20
28.89258618691915
 30
0.0
 40
2.799999999999962
100
AcDbArc
 50
270.0
 51
90.0
  0
ARC
  5
B45
330
1F
100
AcDbEntity
  8
0
  6
Continuous
 62
     7
100
AcDbCircle
 10
454.3993898687316
 20
19.79258618691901
 30
0.0
 40
2.5
100
AcDbArc
 50
270.0
 51
90.0
  0
ARC
  5
B46
330
1F
100
AcDbEntity
  8
0
  6
Continuous
 62
     7
100
AcDbCircle
 10
429.3992898687315
 20
19.79258618691901
 30
0.0
 40
2.5
100
AcDbArc
 50
90.0
 51
270.2292048124603
  0
ARC
  5
B47
330
1F
100
AcDbEntity
  8
0
  6
Continuous
 62
     7
100
AcDbCircle
 10
326.3996898687315
 20
19.79258618691901
 30
0.0
 40
2.499999999999764
100
AcDbArc
 50
270.5124707394103
 51
90.0
  0
ARC
  5
B48
330
1F
100
AcDbEntity
  8
1
  6
DASH_CENTER
 62
     2
100
AcDbCircle
 10
-332.8470252593273
 20
93.89248618691894
 30
0.0
 40
77.9999999999988
100
AcDbArc
 50
162.7974114192357
 51
200.9698799381807
  0
CIRCLE
  5
B4B
330
1F
100
AcDbEntity
  8
0
  6
Continuous
 62
     7
100
AcDbCircle
 10
162.6088696788791
 20
-116.8978817149528
 30
0.0
 40
2.099999999999993
  0
CIRCLE
  5
B4C
330
1F
100
AcDbEntity
  8
0
  6
Continuous
 62
     2
100
AcDbCircle
 10
162.6088696788791
 20
-116.8978817149528
 30
0.0
 40
2.5
  0
CIRCLE
  5
B4D
330
1F
100
AcDbEntity
  8
0
  6
Continuous
 62
     7
100
AcDbCircle
 10
162.608869678879
 20
-19.31714591120888
 30
0.0
 40
2.099999999999993
  0
CIRCLE
  5
B4E
330
1F
100
AcDbEntity
  8
0
  6
Continuous
 62
     2
100
AcDbCircle
 10
162.608869678879
 20
-19.31714591120888
 30
0.0
 40
2.5
  0
CIRCLE
  5
B4F
330
1F
100
AcDbEntity
  8
0
  6
Continuous
 62
     7
100
AcDbCircle
 10
260.1896054826229
 20
-19.31714591120878
 30
0.0
 40
2.099999999999997
  0
CIRCLE
  5
B50
330
1F
100
AcDbEntity
  8
0
  6
Continuous
 62
     2
100
AcDbCircle
 10
260.1896054826229
 20
-19.31714591120878
 30
0.0
 40
2.5
  0
CIRCLE
  5
B51
330
1F
100
AcDbEntity
  8
0
  6
Continuous
 62
     7
100
AcDbCircle
 10
211.399237580751
 20
-68.10751381308079
 30
0.0
 40
55.0
  0
CIRCLE
  5
B52
330
1F
100
AcDbEntity
  8
0
  6
Continuous
 62
     7
100
AcDbCircle
 10
-254.8470252593259
 20
93.89248618691937
 30
0.0
 40
2.100000000000108
  0
CIRCLE
  5
B53
330
1F
100
AcDbEntity
  8
0
  6
Continuous
 62
     2
100
AcDbCircle
 10
-254.8470252593259
 20
93.89248618691937
 30
0.0
 40
2.5
  0
CIRCLE
  5
B54
330
1F
100
AcDbEntity
  8
0
  6
Continuous
 62
     7
100
AcDbCircle
 10
-332.8470252593257
 20
15.8924861869193
 30
0.0
 40
2.10000000000008
  0
CIRCLE
  5
B55
330
1F
100
AcDbEntity
  8
0
  6
Continuous
 62
     2
100
AcDbCircle
 10
-332.8470252593257
 20
15.8924861869193
 30
0.0
 40
2.5
  0
CIRCLE
  5
B56
330
1F
100
AcDbEntity
  8
0
  6
Continuous
 62
     7
100
AcDbCircle
 10
-410.847025259326
 20
93.89248618691915
 30
0.0
 40
2.10000000000008
  0
CIRCLE
  5
B57
330
1F
100
AcDbEntity
  8
0
  6
Continuous
 62
     2
100
AcDbCircle
 10
-410.847025259326
 20
93.89248618691915
 30
0.0
 40
2.500000000000226
  0
CIRCLE
  5
B58
330
1F
100
AcDbEntity
  8
0
  6
Continuous
 62
     7
100
AcDbCircle
 10
-332.8470252593261
 20
171.8924861869191
 30
0.0
 40
2.099999999999909
  0
CIRCLE
  5
B59
330
1F
100
AcDbEntity
  8
0
  6
Continuous
 62
     2
100
AcDbCircle
 10
-332.8470252593261
 20
171.8924861869191
 30
0.0
 40
2.5
  0
CIRCLE
  5
B5A
330
1F
100
AcDbEntity
  8
0
  6
Continuous
 62
     7
100
AcDbCircle
 10
-332.8470252593259
 20
93.89248618691915
 30
0.0
 40
65.0
  0
CIRCLE
  5
B5B
330
1F
100
AcDbEntity
  8
0
  6
Continuous
 62
     7
100
AcDbCircle
 10
-332.8470252593259
 20
93.89248618691915
 30
0.0
 40
85.0
  0
CIRCLE
  5
B5C
330
1F
100
AcDbEntity
  8
0
  6
Continuous
 62
     7
100
AcDbCircle
 10
260.189605482623
 20
-116.8978817149527
 30
0.0
 40
2.100000000000023
  0
CIRCLE
  5
B5D
330
1F
100
AcDbEntity
  8
0
  6
Continuous
 62
     7
100
AcDbCircle
 10
260.189605482623
 20
-116.8978817149527
 30
0.0
 40
2.100000000000023
  0
CIRCLE
  5
B5E
330
1F
100
AcDbEntity
  8
0
  6
Continuous
 62
     2
100
AcDbCircle
 10
260.189605482623
 20
-116.8978817149527
 30
0.0
 40
2.5
  0
ARC
  5
B61
330
1F
100
AcDbEntity
  8
0
  6
Continuous
 62
     7
100
AcDbCircle
 10
272.899237580751
 20
62.08302524766318
 30
0.0
 40
2.0
100
AcDbArc
 50
180.0
 51
270.0
  0
ARC
  5
B62
330
1F
100
AcDbEntity
  8
0
  6
Continuous
 62
     7
100
AcDbCircle
 10
272.899237580751
 20
84.92002676710658
 30
0.0
 40
2.0
100
AcDbArc
 50
90.0
 51
180.0
  0
ARC
  5
B63
330
1F
100
AcDbEntity
  8
0
  6
Continuous
 62
     7
100
AcDbCircle
 10
-235.0103903194313
 20
-139.1075138130808
 30
0.0
 40
4.999999999999958
100
AcDbArc
 50
195.0
 51
270.0
  0
ARC
  5
B64
330
1F
100
AcDbEntity
  8
0
  6
Continuous
 62
     7
100
AcDbCircle
 10
-234.8470252593261
 20
-146.1075138130808
 30
0.0
 40
2.0
100
AcDbArc
 50
0.0
 51
90.0
  0
ARC
  5
B65
330
1F
100
AcDbEntity
  8
0
  6
Continuous
 62
     7
100
AcDbCircle
 10
-235.8470252593261
 20
-147.1075138130808
 30
0.0
 40
2.0
100
AcDbArc
 50
0.0
 51
90.0
  0
ARC
  5
B66
330
1F
100
AcDbEntity
  8
0
  6
Continuous
 62
     7
100
AcDbCircle
 10
-275.8470252593261
 20
-146.1075138130808
 30
0.0
 40
2.0
100
AcDbArc
 50
90.0
 51
180.0
  0
ARC
  5
B67
330
1F
100
AcDbEntity
  8
0
  6
Continuous
 62
     7
100
AcDbCircle
 10
-274.8470252593261
 20
-147.1075138130808
 30
0.0
 40
2.0
100
AcDbArc
 50
90.0
 51
180.0
  0
ARC
  5
B68
330
1F
100
AcDbEntity
  8
0
  6
Continuous
 62
     7
100
AcDbCircle
 10
-287.8470252593261
 20
-146.1075138130808
 30
0.0
 40
10.0
100
AcDbArc
 50
0.0
 51
90.0
  0
ARC
  5
B69
330
1F
100
AcDbEntity
  8
0
  6
Continuous
 62
     7
100
AcDbCircle
 10
-430.6836601992206
 20
-139.1075138130808
 30
0.0
 40
5.0
100
AcDbArc
 50
270.0
 51
345.0
  0
ARC
  5
B6A
330
1F
100
AcDbEntity
  8
0
  6
Continuous
 62
     7
100
AcDbCircle
 10
385.8992375807511
 20
-148.0727338571144
 30
0.0
 40
2.0
100
AcDbArc
 50
0.0
 51
88.99491399474555
  0
ARC
  5
B6B
330
1F
100
AcDbEntity
  8
0
  6
Continuous
 62
     7
100
AcDbCircle
 10
259.899237580751
 20
-146.9339430889329
 30
0.0
 40
1.999999999999985
100
AcDbArc
 50
95.19442890773323
 51
180.0
  0
ARC
  5
B6C
330
1F
100
AcDbEntity
  8
0
  6
Continuous
 62
     7
100
AcDbCircle
 10
265.899237580751
 20
-141.3678698993025
 30
0.0
 40
3.000000000000003
100
AcDbArc
 50
275.1944289077359
 51
0.0
  0
ARC
  5
B6D
330
1F
100
AcDbEntity
  8
0
  6
Continuous
 62
     7
100
AcDbCircle
 10
158.899237580751
 20
180.8924861869192
 30
0.0
 40
2.0
100
AcDbArc
 50
270.0
 51
0.0
  0
ARC
  5
B6E
330
1F
100
AcDbEntity
  8
0
  6
Continuous
 62
     7
100
AcDbCircle
 10
264.899237580751
 20
248.8924861869192
 30
0.0
 40
3.0
100
AcDbArc
 50
180.0
 51
270.0
  0
ARC
  5
B6F
330
1F
100
AcDbEntity
  8
0
  6
Continuous
 62
     7
100
AcDbCircle
 10
241.899237580751
 20
255.7611780771718
 30
0.0
 40
20.0
100
AcDbArc
 50
0.0
 51
90.0
  0
ARC
  5
B70
330
1F
100
AcDbEntity
  8
0
  6
Continuous
 62
     7
100
AcDbCircle
 10
180.899237580751
 20
255.7611780771718
 30
0.0
 40
20.0
100
AcDbArc
 50
90.0
 51
180.0
  0
ARC
  5
B71
330
1F
100
AcDbEntity
  8
0
  6
Continuous
 62
     7
100
AcDbCircle
 10
-134.847025259326
 20
-129.1075138130808
 30
0.0
 40
2.0
100
AcDbArc
 50
0.0
 51
90.0
  0
ARC
  5
B72
330
1F
100
AcDbEntity
  8
0
  6
Continuous
 62
     7
100
AcDbCircle
 10
-130.847025259326
 20
-142.1075138130807
 30
0.0
 40
2.0
100
AcDbArc
 50
180.0
 51
270.0
  0
ARC
  5
B73
330
1F
100
AcDbEntity
  8
0
  6
Continuous
 62
     7
100
AcDbCircle
 10
-216.391150541838
 20
-7.107513813080808
 30
0.0
 40
1.999999999999956
100
AcDbArc
 50
138.189685104221
 51
270.0
  0
ARC
  5
B74
330
1F
100
AcDbEntity
  8
0
  6
Continuous
 62
     7
100
AcDbCircle
 10
-134.847025259326
 20
-7.107513813080808
 30
0.0
 40
2.0
100
AcDbArc
 50
270.0
 51
0.0
  0
ARC
  5
B75
330
1F
100
AcDbEntity
  8
0
  6
Continuous
 62
     7
100
AcDbCircle
 10
-130.847025259326
 20
5.892486186919169
 30
0.0
 40
2.0
100
AcDbArc
 50
90.0
 51
180.0
  0
ARC
  5
B76
330
1F
100
AcDbEntity
  8
0
  6
Continuous
 62
     7
100
AcDbCircle
 10
158.899237580751
 20
6.892486186919169
 30
0.0
 40
2.0
100
AcDbArc
 50
359.9999999999996
 51
90.0
  0
ARC
  5
B77
330
1F
100
AcDbEntity
  8
0
  6
Continuous
 62
     7
100
AcDbCircle
 10
-430.8470252593258
 20
-146.1075138130808
 30
0.0
 40
2.0
100
AcDbArc
 50
90.0
 51
180.0
  0
ARC
  5
B78
330
1F
100
AcDbEntity
  8
0
  6
Continuous
 62
     7
100
AcDbCircle
 10
-429.8470252593258
 20
-147.1075138130808
 30
0.0
 40
2.0
100
AcDbArc
 50
90.0
 51
180.0
  0
ARC
  5
B79
330
1F
100
AcDbEntity
  8
0
  6
Continuous
 62
     7
100
AcDbCircle
 10
-389.8470252593258
 20
-146.1075138130808
 30
0.0
 40
2.0
100
AcDbArc
 50
0.0
 51
90.0
  0
ARC
  5
B7A
330
1F
100
AcDbEntity
  8
0
  6
Continuous
 62
     7
100
AcDbCircle
 10
-390.8470252593258
 20
-147.1075138130808
 30
0.0
 40
2.0
100
AcDbArc
 50
0.0
 51
90.0
  0
ARC
  5
B7B
330
1F
100
AcDbEntity
  8
0
  6
Continuous
 62
     7
100
AcDbCircle
 10
-377.8470252593258
 20
-146.1075138130808
 30
0.0
 40
10.0
100
AcDbArc
 50
90.0
 51
180.0
  0
ENDSEC
  0
SECTION
  2
OBJECTS
  0
DICTIONARY
  5
C
330
0
100
AcDbDictionary
281
     1
  3
ACAD_COLOR
350
6BE
  3
ACAD_GROUP
350
D
  3
ACAD_LAYOUT
350
1A
  3
ACAD_MATERIAL
350
6BD
  3
ACAD_MLINESTYLE
350
17
  3
ACAD_PLOTSETTINGS
350
19
  3
ACAD_PLOTSTYLENAME
350
E
  3
ACDBHEADERROUNDTRIPXREC
350
FCB
  3
AcDbVariableDictionary
350
F7C
  0
DICTIONARY
  5
6BE
102
{ACAD_REACTORS
330
C
102
}
330
C
100
AcDbDictionary
281
     1
  0
DICTIONARY
  5
D
102
{ACAD_REACTORS
330
C
102
}
330
C
100
AcDbDictionary
281
     1
  0
DICTIONARY
  5
1A
102
{ACAD_REACTORS
330
C
102
}
330
C
100
AcDbDictionary
281
     1
  3
Layout1
350
1E
  3
Layout2
350
26
  3
Model
350
22
  0
DICTIONARY
  5
6BD
102
{ACAD_REACTORS
330
C
102
}
330
C
100
AcDbDictionary
281
     1
  0
DICTIONARY
  5
17
102
{ACAD_REACTORS
330
C
102
}
330
C
100
AcDbDictionary
281
     1
  3
Standard
350
18
  0
DICTIONARY
  5
19
102
{ACAD_REACTORS
330
C
102
}
330
C
100
AcDbDictionary
281
     1
  0
ACDBDICTIONARYWDFLT
  5
E
102
{ACAD_REACTORS
330
C
102
}
330
C
100
AcDbDictionary
281
     1
  3
Normal
350
F
100
AcDbDictionaryWithDefault
340
F
  0
DICTIONARY
  5
FCB
102
{ACAD_REACTORS
330
C
102
}
330
C
100
AcDbDictionary
281
     1
  3
COLORDICT
350
FCD
  3
MATERIALDICT
350
FCC
  0
DICTIONARY
  5
F7C
102
{ACAD_REACTORS
330
C
102
}
330
C
100
AcDbDictionary
281
     1
  3
DIMASSOC
350
F7D
  3
PROJECTNAME
350
F7E
  0
LAYOUT
  5
1E
102
{ACAD_XDICTIONARY
360
FCE
102
}
102
{ACAD_REACTORS
330
1A
102
}
330
1A
100
AcDbPlotSettings
  1

  2

  4

  6

 40
0.0
 41
0.0
 42
0.0
 43
0.0
 44
0.0
 45
0.0
 46
0.0
 47
0.0
 48
0.0
 49
0.0
140
0.0
141
0.0
142
1.0
143
1.0
 70
   688
 72
     0
 73
     0
 74
     5
  7
P社図面.ctb
 75
    16
147
1.0
148
0.0
149
0.0
100
AcDbLayout
  1
Layout1
 70
     1
 71
     1
 10
0.0
 20
0.0
 11
12.0
 21
9.0
 12
0.0
 22
0.0
 32
0.0
 14
1.000000000000000E+20
 24
1.000000000000000E+20
 34
1.000000000000000E+20
 15
-1.000000000000000E+20
 25
-1.000000000000000E+20
 35
-1.000000000000000E+20
146
0.0
 13
0.0
 23
0.0
 33
0.0
 16
1.0
 26
0.0
 36
0.0
 17
0.0
 27
1.0
 37
0.0
 76
     0
330
1B
  0
LAYOUT
  5
26
102
{ACAD_XDICTIONARY
360
FD2
102
}
102
{ACAD_REACTORS
330
1A
102
}
330
1A
100
AcDbPlotSettings
  1

  2

  4

  6

 40
0.0
 41
0.0
 42
0.0
 43
0.0
 44
0.0
 45
0.0
 46
0.0
 47
0.0
 48
0.0
 49
0.0
140
0.0
141
0.0
142
1.0
143
1.0
 70
   688
 72
     0
 73
     0
 74
     5
  7
P社図面.ctb
 75
    16
147
1.0
148
0.0
149
0.0
100
AcDbLayout
  1
Layout2
 70
     1
 71
     2
 10
0.0
 20
0.0
 11
0.0
 21
0.0
 12
0.0
 22
0.0
 32
0.0
 14
0.0
 24
0.0
 34
0.0
 15
0.0
 25
0.0
 35
0.0
146
0.0
 13
0.0
 23
0.0
 33
0.0
 16
1.0
 26
0.0
 36
0.0
 17
0.0
 27
1.0
 37
0.0
 76
     0
330
23
  0
LAYOUT
  5
22
102
{ACAD_XDICTIONARY
360
FD0
102
}
102
{ACAD_REACTORS
330
1A
102
}
330
1A
100
AcDbPlotSettings
  1

  2
RICOH IPSiO SP 6110 RPCS
  4
A4
  6

 40
5.873749732971191
 41
5.873747825622558
 42
5.873748779296875
 43
5.873748779296875
 44
209.9733276367187
 45
296.9259948730469
 46
0.0
 47
0.0
 48
0.0
 49
0.0
140
0.0
141
0.0
142
1.0
143
5.771547680098529
 70
 11952
 72
     1
 73
     1
 74
     1
  7
P社図面.ctb
 75
     0
147
0.173263750977611
148
856.049583954848
149
572.0353094458328
100
AcDbLayout
  1
Model
 70
     1
 71
     0
 10
0.0
 20
0.0
 11
0.0
 21
0.0
 12
0.0
 22
0.0
 32
0.0
 14
-855.9995999999999
 24
-572.0004
 34
0.0
 15
781.9995999999999
 25
571.9996
 35
0.0
146
0.0
 13
0.0
 23
0.0
 33
0.0
 16
1.0
 26
0.0
 36
0.0
 17
0.0
 27
1.0
 37
0.0
 76
     0
330
1F
  0
MLINESTYLE
  5
18
102
{ACAD_REACTORS
330
17
102
}
330
17
100
AcDbMlineStyle
  2
STANDARD
 70
     0
  3

 62
   256
 51
90.0
 52
90.0
 71
     2
 49
0.5
 62
   256
  6
BYLAYER
 49
-0.5
 62
   256
  6
BYLAYER
  0
ACDBPLACEHOLDER
  5
F
102
{ACAD_REACTORS
330
E
102
}
330
E
  0
XRECORD
  5
FCD
102
{ACAD_REACTORS
330
FCB
102
}
330
FCB
100
AcDbXrecord
280
     1
340
6BE
  0
XRECORD
  5
FCC
102
{ACAD_REACTORS
330
FCB
102
}
330
FCB
100
AcDbXrecord
280
     1
340
6BD
  0
DICTIONARYVAR
  5
F7D
102
{ACAD_REACTORS
330
F7C
102
}
330
F7C
100
DictionaryVariables
280
     0
  1
1
  0
DICTIONARYVAR
  5
F7E
102
{ACAD_REACTORS
330
F7C
102
}
330
F7C
100
DictionaryVariables
280
     0
  1

  0
DICTIONARY
  5
FCE
330
1E
100
AcDbDictionary
280
     1
281
     1
  3
ACAD_XREC_ROUNDTRIP
360
FCF
  0
DICTIONARY
  5
FD2
330
26
100
AcDbDictionary
280
     1
281
     1
  3
ACAD_XREC_ROUNDTRIP
360
FD3
  0
DICTIONARY
  5
FD0
330
22
100
AcDbDictionary
280
     1
281
     1
  3
ACAD_XREC_ROUNDTRIP
360
FD1
  0
XRECORD
  5
FCF
102
{ACAD_REACTORS
330
FCE
102
}
330
FCE
100
AcDbXrecord
280
     1
102
SHADEPLOT
 70
     0
102
SHADEPLOTRESLEVEL
 70
     2
102
SHADEPLOTCUSTOMDPI
 70
   300
  0
XRECORD
  5
FD3
102
{ACAD_REACTORS
330
FD2
102
}
330
FD2
100
AcDbXrecord
280
     1
102
SHADEPLOT
 70
     0
102
SHADEPLOTRESLEVEL
 70
     2
102
SHADEPLOTCUSTOMDPI
 70
   300
  0
XRECORD
  5
FD1
102
{ACAD_REACTORS
330
FD0
102
}
330
FD0
100
AcDbXrecord
280
     1
102
SHADEPLOT
 70
     0
102
SHADEPLOTRESLEVEL
 70
     2
102
SHADEPLOTCUSTOMDPI
 70
   300
  0
ENDSEC
  0
EOF
