  0
SECTION
  2
HEADER
  9
$ACADVER
  1
AC1015
  9
$ACADMAINTVER
 70
    20
  9
$DWGCODEPAGE
  3
ANSI_932
  9
$INSBASE
 10
0.0
 20
0.0
 30
0.0
  9
$EXTMIN
 10
-719.4852270799074
 20
-221.1405711301111
 30
0.0
  9
$EXTMAX
 10
698.9598105001676
 20
259.2400767892711
 30
0.0
  9
$LIMMIN
 10
0.0
 20
0.0
  9
$LIMMAX
 10
12.0
 20
9.0
  9
$ORTHOMODE
 70
     0
  9
$REGENMODE
 70
     1
  9
$FILLMODE
 70
     1
  9
$QTEXTMODE
 70
     0
  9
$MIRRTEXT
 70
     1
  9
$LTSCALE
 40
1.0
  9
$ATTMODE
 70
     1
  9
$TEXTSIZE
 40
0.2
  9
$TRACEWID
 40
0.05
  9
$TEXTSTYLE
  7
CONVERTER_3
  9
$CLAYER
  8
0
  9
$CELTYPE
  6
ByLayer
  9
$CECOLOR
 62
     7
  9
$CELTSCALE
 40
1.0
  9
$DISPSILH
 70
     0
  9
$DIMSCALE
 40
1.0
  9
$DIMASZ
 40
0.18
  9
$DIMEXO
 40
0.0625
  9
$DIMDLI
 40
0.38
  9
$DIMRND
 40
0.0
  9
$DIMDLE
 40
0.0
  9
$DIMEXE
 40
0.18
  9
$DIMTP
 40
0.0
  9
$DIMTM
 40
0.0
  9
$DIMTXT
 40
0.18
  9
$DIMCEN
 40
0.09
  9
$DIMTSZ
 40
0.0
  9
$DIMTOL
 70
     0
  9
$DIMLIM
 70
     0
  9
$DIMTIH
 70
     1
  9
$DIMTOH
 70
     1
  9
$DIMSE1
 70
     0
  9
$DIMSE2
 70
     0
  9
$DIMTAD
 70
     0
  9
$DIMZIN
 70
     0
  9
$DIMBLK
  1

  9
$DIMASO
 70
     1
  9
$DIMSHO
 70
     1
  9
$DIMPOST
  1

  9
$DIMAPOST
  1

  9
$DIMALT
 70
     0
  9
$DIMALTD
 70
     2
  9
$DIMALTF
 40
25.4
  9
$DIMLFAC
 40
1.0
  9
$DIMTOFL
 70
     0
  9
$DIMTVP
 40
0.0
  9
$DIMTIX
 70
     0
  9
$DIMSOXD
 70
     0
  9
$DIMSAH
 70
     0
  9
$DIMBLK1
  1

  9
$DIMBLK2
  1

  9
$DIMSTYLE
  2
Standard
  9
$DIMCLRD
 70
     0
  9
$DIMCLRE
 70
     0
  9
$DIMCLRT
 70
     0
  9
$DIMTFAC
 40
1.0
  9
$DIMGAP
 40
0.09
  9
$DIMJUST
 70
     0
  9
$DIMSD1
 70
     0
  9
$DIMSD2
 70
     0
  9
$DIMTOLJ
 70
     1
  9
$DIMTZIN
 70
     0
  9
$DIMALTZ
 70
     0
  9
$DIMALTTZ
 70
     0
  9
$DIMUPT
 70
     0
  9
$DIMDEC
 70
     4
  9
$DIMTDEC
 70
     4
  9
$DIMALTU
 70
     2
  9
$DIMALTTD
 70
     2
  9
$DIMTXSTY
  7
Standard
  9
$DIMAUNIT
 70
     0
  9
$DIMADEC
 70
     0
  9
$DIMALTRND
 40
0.0
  9
$DIMAZIN
 70
     0
  9
$DIMDSEP
 70
    46
  9
$DIMATFIT
 70
     3
  9
$DIMFRAC
 70
     0
  9
$DIMLDRBLK
  1

  9
$DIMLUNIT
 70
     2
  9
$DIMLWD
 70
    -2
  9
$DIMLWE
 70
    -2
  9
$DIMTMOVE
 70
     0
  9
$LUNITS
 70
     2
  9
$LUPREC
 70
     4
  9
$SKETCHINC
 40
0.1
  9
$FILLETRAD
 40
1.0
  9
$AUNITS
 70
     0
  9
$AUPREC
 70
     0
  9
$MENU
  1
.
  9
$ELEVATION
 40
0.0
  9
$PELEVATION
 40
0.0
  9
$THICKNESS
 40
0.0
  9
$LIMCHECK
 70
     0
  9
$CHAMFERA
 40
0.5
  9
$CHAMFERB
 40
0.5
  9
$CHAMFERC
 40
1.0
  9
$CHAMFERD
 40
0.0
  9
$SKPOLY
 70
     0
  9
$TDCREATE
 40
2455106.662517535
  9
$TDUCREATE
 40
2455106.287517535
  9
$TDUPDATE
 40
2458818.413924873
  9
$TDUUPDATE
 40
2458818.038924873
  9
$TDINDWG
 40
0.7485293634
  9
$TDUSRTIMER
 40
0.7485257523
  9
$USRTIMER
 70
     1
  9
$ANGBASE
 50
0.0
  9
$ANGDIR
 70
     0
  9
$PDMODE
 70
     0
  9
$PDSIZE
 40
0.0
  9
$PLINEWID
 40
0.0
  9
$SPLFRAME
 70
     0
  9
$SPLINETYPE
 70
     6
  9
$SPLINESEGS
 70
     8
  9
$HANDSEED
  5
2761
  9
$SURFTAB1
 70
     6
  9
$SURFTAB2
 70
     6
  9
$SURFTYPE
 70
     6
  9
$SURFU
 70
     6
  9
$SURFV
 70
     6
  9
$UCSBASE
  2

  9
$UCSNAME
  2

  9
$UCSORG
 10
0.0
 20
0.0
 30
0.0
  9
$UCSXDIR
 10
1.0
 20
0.0
 30
0.0
  9
$UCSYDIR
 10
0.0
 20
1.0
 30
0.0
  9
$UCSORTHOREF
  2

  9
$UCSORTHOVIEW
 70
     0
  9
$UCSORGTOP
 10
0.0
 20
0.0
 30
0.0
  9
$UCSORGBOTTOM
 10
0.0
 20
0.0
 30
0.0
  9
$UCSORGLEFT
 10
0.0
 20
0.0
 30
0.0
  9
$UCSORGRIGHT
 10
0.0
 20
0.0
 30
0.0
  9
$UCSORGFRONT
 10
0.0
 20
0.0
 30
0.0
  9
$UCSORGBACK
 10
0.0
 20
0.0
 30
0.0
  9
$PUCSBASE
  2

  9
$PUCSNAME
  2

  9
$PUCSORG
 10
0.0
 20
0.0
 30
0.0
  9
$PUCSXDIR
 10
1.0
 20
0.0
 30
0.0
  9
$PUCSYDIR
 10
0.0
 20
1.0
 30
0.0
  9
$PUCSORTHOREF
  2

  9
$PUCSORTHOVIEW
 70
     0
  9
$PUCSORGTOP
 10
0.0
 20
0.0
 30
0.0
  9
$PUCSORGBOTTOM
 10
0.0
 20
0.0
 30
0.0
  9
$PUCSORGLEFT
 10
0.0
 20
0.0
 30
0.0
  9
$PUCSORGRIGHT
 10
0.0
 20
0.0
 30
0.0
  9
$PUCSORGFRONT
 10
0.0
 20
0.0
 30
0.0
  9
$PUCSORGBACK
 10
0.0
 20
0.0
 30
0.0
  9
$USERI1
 70
     0
  9
$USERI2
 70
     0
  9
$USERI3
 70
     0
  9
$USERI4
 70
     0
  9
$USERI5
 70
     0
  9
$USERR1
 40
14.0
  9
$USERR2
 40
0.0
  9
$USERR3
 40
0.0
  9
$USERR4
 40
0.0
  9
$USERR5
 40
0.0
  9
$WORLDVIEW
 70
     1
  9
$SHADEDGE
 70
     3
  9
$SHADEDIF
 70
    70
  9
$TILEMODE
 70
     1
  9
$MAXACTVP
 70
    64
  9
$PINSBASE
 10
0.0
 20
0.0
 30
0.0
  9
$PLIMCHECK
 70
     0
  9
$PEXTMIN
 10
1.000000000000000E+20
 20
1.000000000000000E+20
 30
1.000000000000000E+20
  9
$PEXTMAX
 10
-1.000000000000000E+20
 20
-1.000000000000000E+20
 30
-1.000000000000000E+20
  9
$PLIMMIN
 10
0.0
 20
0.0
  9
$PLIMMAX
 10
12.0
 20
9.0
  9
$UNITMODE
 70
     0
  9
$VISRETAIN
 70
     1
  9
$PLINEGEN
 70
     0
  9
$PSLTSCALE
 70
     1
  9
$TREEDEPTH
 70
  3020
  9
$CMLSTYLE
  2
Standard
  9
$CMLJUST
 70
     0
  9
$CMLSCALE
 40
1.0
  9
$PROXYGRAPHICS
 70
     1
  9
$MEASUREMENT
 70
     1
  9
$CELWEIGHT
370
    -1
  9
$ENDCAPS
280
     0
  9
$JOINSTYLE
280
     0
  9
$LWDISPLAY
290
     0
  9
$INSUNITS
 70
     1
  9
$HYPERLINKBASE
  1

  9
$STYLESHEET
  1
P社図面.CTB
  9
$XEDIT
290
     1
  9
$CEPSNTYPE
380
     0
  9
$PSTYLEMODE
290
     1
  9
$FINGERPRINTGUID
  2
{867DB418-29F9-41BA-A41B-A0A0AD1D7293}
  9
$VERSIONGUID
  2
{39EF044E-ABCE-44A5-9B6D-1957DC083C61}
  9
$EXTNAMES
290
     1
  9
$PSVPSCALE
 40
0.0
  9
$OLESTARTUP
290
     0
  0
ENDSEC
  0
SECTION
  2
CLASSES
  0
CLASS
  1
ACDBDICTIONARYWDFLT
  2
AcDbDictionaryWithDefault
  3
ObjectDBX Classes
 90
        0
280
     0
281
     0
  0
CLASS
  1

  2
exOdDbSpline
  3

 90
    32768
280
     0
281
     1
  0
CLASS
  1

  2
exOdDbPolyline
  3

 90
    32768
280
     0
281
     1
  0
CLASS
  1

  2
exOdDbCircle
  3

 90
    32768
280
     0
281
     1
  0
CLASS
  1
MATERIAL
  2
AcDbMaterial
  3
ObjectDBX Classes
 90
     1153
280
     0
281
     0
  0
CLASS
  1
VISUALSTYLE
  2
AcDbVisualStyle
  3
ObjectDBX Classes
 90
     4095
280
     0
281
     0
  0
CLASS
  1
TABLESTYLE
  2
AcDbTableStyle
  3
ObjectDBX Classes
 90
     4095
280
     0
281
     0
  0
CLASS
  1
SCALE
  2
AcDbScale
  3
ObjectDBX Classes
 90
     1153
280
     0
281
     0
  0
CLASS
  1
MLEADERSTYLE
  2
AcDbMLeaderStyle
  3
ACDB_MLEADERSTYLE_CLASS
 90
     4095
280
     0
281
     0
  0
CLASS
  1
DICTIONARYVAR
  2
AcDbDictionaryVar
  3
ObjectDBX Classes
 90
        0
280
     0
281
     0
  0
CLASS
  1
CELLSTYLEMAP
  2
AcDbCellStyleMap
  3
ObjectDBX Classes
 90
     1152
280
     0
281
     0
  0
CLASS
  1
ACDBPLACEHOLDER
  2
AcDbPlaceHolder
  3
ObjectDBX Classes
 90
        0
280
     0
281
     0
  0
CLASS
  1
LAYOUT
  2
AcDbLayout
  3
ObjectDBX Classes
 90
        0
280
     0
281
     0
  0
ENDSEC
  0
SECTION
  2
TABLES
  0
TABLE
  2
VPORT
  5
8
330
0
100
AcDbSymbolTable
 70
     1
  0
VPORT
  5
26BE
330
8
100
AcDbSymbolTableRecord
100
AcDbViewportTableRecord
  2
*Active
 70
     0
 10
0.0
 20
0.0
 11
1.0
 21
1.0
 12
-17.1803965463896
 22
38.96254433102115
 13
0.0
 23
0.0
 14
0.5
 24
0.5
 15
0.5
 25
0.5
 16
0.0
 26
0.0
 36
1.0
 17
0.0
 27
0.0
 37
0.0
 40
796.9447677997005
 41
1.803827751196172
 42
50.0
 43
0.0
 44
0.0
 50
0.0
 51
0.0
 71
     0
 72
   100
 73
     1
 74
     3
 75
     0
 76
     0
 77
     0
 78
     0
281
     0
 65
     1
110
0.0
120
0.0
130
0.0
111
1.0
121
0.0
131
0.0
112
0.0
122
1.0
132
0.0
 79
     0
146
0.0
1001
ACAD_NAV_VCDISPLAY
1070
     3
  0
ENDTAB
  0
TABLE
  2
LTYPE
  5
5
330
0
100
AcDbSymbolTable
 70
     9
  0
LTYPE
  5
14
330
5
100
AcDbSymbolTableRecord
100
AcDbLinetypeTableRecord
  2
ByBlock
 70
     0
  3

 72
    65
 73
     0
 40
0.0
  0
LTYPE
  5
15
330
5
100
AcDbSymbolTableRecord
100
AcDbLinetypeTableRecord
  2
ByLayer
 70
     0
  3

 72
    65
 73
     0
 40
0.0
  0
LTYPE
  5
16
330
5
100
AcDbSymbolTableRecord
100
AcDbLinetypeTableRecord
  2
Continuous
 70
     0
  3
Solid line
 72
    65
 73
     0
 40
0.0
  0
LTYPE
  5
2A
330
5
100
AcDbSymbolTableRecord
100
AcDbLinetypeTableRecord
  2
DASHED
 70
     0
  3
Dashed
 72
    65
 73
     2
 40
15.0
 49
7.0
 74
     0
 49
-8.0
 74
     0
  0
LTYPE
  5
2E
330
5
100
AcDbSymbolTableRecord
100
AcDbLinetypeTableRecord
  2
DASH_CENTER
 70
     0
  3
Dash_Center
 72
    65
 73
     4
 40
14.0
 49
11.0
 74
     0
 49
-1.0
 74
     0
 49
1.0
 74
     0
 49
-1.0
 74
     0
  0
ENDTAB
  0
TABLE
  2
LAYER
  5
2
330
0
100
AcDbSymbolTable
 70
    11
  0
LAYER
  5
10
102
{ACAD_XDICTIONARY
360
270D
102
}
330
2
100
AcDbSymbolTableRecord
100
AcDbLayerTableRecord
  2
0
 70
     0
 62
     7
  6
Continuous
370
    -3
390
F
  0
LAYER
  5
32
102
{ACAD_XDICTIONARY
360
270F
102
}
330
2
100
AcDbSymbolTableRecord
100
AcDbLayerTableRecord
  2
10
 70
     0
 62
     7
  6
Continuous
370
    -3
390
F
  0
LAYER
  5
33
102
{ACAD_XDICTIONARY
360
2711
102
}
330
2
100
AcDbSymbolTableRecord
100
AcDbLayerTableRecord
  2
100
 70
     0
 62
     7
  6
Continuous
370
    -3
390
F
  0
LAYER
  5
34
102
{ACAD_XDICTIONARY
360
2713
102
}
330
2
100
AcDbSymbolTableRecord
100
AcDbLayerTableRecord
  2
110
 70
     0
 62
     7
  6
Continuous
370
    -3
390
F
  0
LAYER
  5
35
102
{ACAD_XDICTIONARY
360
2715
102
}
330
2
100
AcDbSymbolTableRecord
100
AcDbLayerTableRecord
  2
115
 70
     0
 62
     7
  6
Continuous
370
    -3
390
F
  0
LAYER
  5
36
102
{ACAD_XDICTIONARY
360
2717
102
}
330
2
100
AcDbSymbolTableRecord
100
AcDbLayerTableRecord
  2
60
 70
     0
 62
     7
  6
Continuous
370
    -3
390
F
  0
LAYER
  5
10F7
330
2
100
AcDbSymbolTableRecord
100
AcDbLayerTableRecord
  2
Defpoints
 70
     0
 62
     7
  6
Continuous
290
     0
370
    -3
390
F
  0
ENDTAB
  0
TABLE
  2
STYLE
  5
3
330
0
100
AcDbSymbolTable
 70
    25
  0
STYLE
  5
11
330
3
100
AcDbSymbolTableRecord
100
AcDbTextStyleTableRecord
  2
Standard
 70
     0
 40
0.0
 41
1.0
 50
0.0
 71
     0
 42
0.2
  3
txt
  4

  0
STYLE
  5
2B1
330
3
100
AcDbSymbolTableRecord
100
AcDbTextStyleTableRecord
  2
CONVERTER_3
 70
     0
 40
0.0
 41
1.068
 50
0.0
 71
     0
 42
0.2
  3
simplex.shx
  4
bigfont.shx
  0
STYLE
  5
320
330
3
100
AcDbSymbolTableRecord
100
AcDbTextStyleTableRecord
  2
CONVERTER_4
 70
     0
 40
0.0
 41
0.8009999999999999
 50
0.0
 71
     0
 42
0.2
  3
simplex.shx
  4

  0
STYLE
  5
32B
330
3
100
AcDbSymbolTableRecord
100
AcDbTextStyleTableRecord
  2
CONVERTER_7
 70
     0
 40
0.0
 41
0.89
 50
0.0
 71
     0
 42
0.2
  3
simplex.shx
  4

  0
STYLE
  5
34A
330
3
100
AcDbSymbolTableRecord
100
AcDbTextStyleTableRecord
  2
CONVERTER_17
 70
     0
 40
0.0
 41
0.6230000000000002
 50
0.0
 71
     0
 42
0.2
  3
txt.shx
  4

  0
STYLE
  5
9C4
330
3
100
AcDbSymbolTableRecord
100
AcDbTextStyleTableRecord
  2
CONVERTER_20
 70
     0
 40
0.0
 41
0.7565
 50
0.0
 71
     0
 42
0.2
  3
simplex.shx
  4

  0
ENDTAB
  0
TABLE
  2
VIEW
  5
6
330
0
100
AcDbSymbolTable
 70
     0
  0
ENDTAB
  0
TABLE
  2
UCS
  5
7
330
0
100
AcDbSymbolTable
 70
     0
  0
ENDTAB
  0
TABLE
  2
APPID
  5
9
330
0
100
AcDbSymbolTable
 70
     3
  0
APPID
  5
12
330
9
100
AcDbSymbolTableRecord
100
AcDbRegAppTableRecord
  2
ACAD
 70
     0
  0
APPID
  5
2721
330
9
100
AcDbSymbolTableRecord
100
AcDbRegAppTableRecord
  2
ACAD_NAV_VCDISPLAY
 70
     0
  0
APPID
  5
2760
330
9
100
AcDbSymbolTableRecord
100
AcDbRegAppTableRecord
  2
ACAD_MLEADERVER
 70
     0
  0
ENDTAB
  0
TABLE
  2
DIMSTYLE
  5
A
330
0
100
AcDbSymbolTable
 70
    37
100
AcDbDimStyleTable
 71
     1
340
27
  0
DIMSTYLE
105
27
330
A
100
AcDbSymbolTableRecord
100
AcDbDimStyleTableRecord
  2
Standard
 70
     0
340
11
  0
ENDTAB
  0
TABLE
  2
BLOCK_RECORD
  5
1
330
0
100
AcDbSymbolTable
 70
    89
  0
BLOCK_RECORD
  5
1F
330
1
100
AcDbSymbolTableRecord
100
AcDbBlockTableRecord
  2
*Model_Space
340
22
  0
BLOCK_RECORD
  5
1B
330
1
100
AcDbSymbolTableRecord
100
AcDbBlockTableRecord
  2
*Paper_Space
340
1E
  0
BLOCK_RECORD
  5
23
330
1
100
AcDbSymbolTableRecord
100
AcDbBlockTableRecord
  2
*Paper_Space0
340
26
  0
ENDTAB
  0
ENDSEC
  0
SECTION
  2
BLOCKS
  0
BLOCK
  5
20
330
1F
100
AcDbEntity
  8
0
100
AcDbBlockBegin
  2
*Model_Space
 70
     0
 10
0.0
 20
0.0
 30
0.0
  3
*Model_Space
  1

  0
ENDBLK
  5
21
330
1F
100
AcDbEntity
  8
0
100
AcDbBlockEnd
  0
BLOCK
  5
1C
330
1B
100
AcDbEntity
 67
     1
  8
0
100
AcDbBlockBegin
  2
*Paper_Space
 70
     0
 10
0.0
 20
0.0
 30
0.0
  3
*Paper_Space
  1

  0
ENDBLK
  5
1D
330
1B
100
AcDbEntity
 67
     1
  8
0
100
AcDbBlockEnd
  0
BLOCK
  5
24
330
23
100
AcDbEntity
 67
     1
  8
0
100
AcDbBlockBegin
  2
*Paper_Space0
 70
     0
 10
0.0
 20
0.0
 30
0.0
  3
*Paper_Space0
  1

  0
ENDBLK
  5
25
330
23
100
AcDbEntity
 67
     1
  8
0
100
AcDbBlockEnd
  0
ENDSEC
  0
SECTION
  2
ENTITIES
  0
TEXT
  5
B44
330
1F
100
AcDbEntity
  8
0
 62
     2
100
AcDbText
 10
-153.8292390493981
 20
-221.1405711301111
 30
0.0
 40
16.0
  1
ASEMDBT2P1.5K
 41
0.8009999999999999
  7
CONVERTER_4
100
AcDbText
  0
MTEXT
  5
B5F
330
1F
100
AcDbEntity
  8
0
 62
     2
100
AcDbMText
 10
411.0000000000011
 20
-510.9995720940504
 30
0.0
 40
8.0
 41
0.0
 71
     5
 72
     1
  1
 
  7
CONVERTER_17
 73
     1
 44
1.32052821128451
1001
ACAD
1000
MTEXTBEGIN
1070
    73
1070
     1
1070
    44
1040
1.32052821128451
1070
    74
1070
     0
1000
MTEXTEND
  0
MTEXT
  5
B67
330
1F
100
AcDbEntity
  8
0
 62
     2
100
AcDbMText
 10
263.0004
 20
-535.9993999999995
 30
0.0
 40
12.0
 41
0.0
 71
     5
 72
     1
  1
 
  7
CONVERTER_7
 73
     1
 44
1.32052821128451
1001
ACAD
1000
MTEXTBEGIN
1070
    73
1070
     1
1070
    44
1040
1.32052821128451
1070
    74
1070
     0
1000
MTEXTEND
  0
MTEXT
  5
B68
330
1F
100
AcDbEntity
  8
0
 62
     2
100
AcDbMText
 10
341.0004
 20
-535.9993999999995
 30
0.0
 40
12.0
 41
0.0
 71
     5
 72
     1
  1
 
  7
CONVERTER_7
 73
     1
 44
1.32052821128451
1001
ACAD
1000
MTEXTBEGIN
1070
    73
1070
     1
1070
    44
1040
1.32052821128451
1070
    74
1070
     0
1000
MTEXTEND
  0
MTEXT
  5
B69
330
1F
100
AcDbEntity
  8
0
 62
     2
100
AcDbMText
 10
185.0004
 20
-535.9993999999995
 30
0.0
 40
12.0
 41
0.0
 71
     5
 72
     1
  1
 
  7
CONVERTER_7
 73
     1
 44
1.32052821128451
1001
ACAD
1000
MTEXTBEGIN
1070
    73
1070
     1
1070
    44
1040
1.32052821128451
1070
    74
1070
     0
1000
MTEXTEND
  0
MTEXT
  5
B6A
330
1F
100
AcDbEntity
  8
0
 62
     2
100
AcDbMText
 10
411.0000000000011
 20
-559.9993999999996
 30
0.0
 40
8.0
 41
0.0
 71
     5
 72
     1
  1
 
  7
CONVERTER_17
 73
     1
 44
1.32052821128451
1001
ACAD
1000
MTEXTBEGIN
1070
    73
1070
     1
1070
    44
1040
1.32052821128451
1070
    74
1070
     0
1000
MTEXTEND
  0
MTEXT
  5
B6B
330
1F
100
AcDbEntity
  8
0
 62
     2
100
AcDbMText
 10
333.0004
 20
-559.9993999999996
 30
0.0
 40
8.0
 41
0.0
 71
     5
 72
     1
  1
 
  7
CONVERTER_17
 73
     1
 44
1.32052821128451
1001
ACAD
1000
MTEXTBEGIN
1070
    73
1070
     1
1070
    44
1040
1.32052821128451
1070
    74
1070
     0
1000
MTEXTEND
  0
MTEXT
  5
B6C
330
1F
100
AcDbEntity
  8
0
 62
     2
100
AcDbMText
 10
255.0004
 20
-559.9993999999996
 30
0.0
 40
8.0
 41
0.0
 71
     5
 72
     1
  1
 
  7
CONVERTER_17
 73
     1
 44
1.32052821128451
1001
ACAD
1000
MTEXTBEGIN
1070
    73
1070
     1
1070
    44
1040
1.32052821128451
1070
    74
1070
     0
1000
MTEXTEND
  0
MTEXT
  5
B6D
330
1F
100
AcDbEntity
  8
0
 62
     2
100
AcDbMText
 10
99.00040000000004
 20
-559.9993999999996
 30
0.0
 40
8.0
 41
0.0
 71
     5
 72
     1
  1
 
  7
CONVERTER_17
 73
     1
 44
1.32052821128451
1001
ACAD
1000
MTEXTBEGIN
1070
    73
1070
     1
1070
    44
1040
1.32052821128451
1070
    74
1070
     0
1000
MTEXTEND
  0
MTEXT
  5
B6E
330
1F
100
AcDbEntity
  8
0
 62
     2
100
AcDbMText
 10
177.0004
 20
-559.9993999999996
 30
0.0
 40
8.0
 41
0.0
 71
     5
 72
     1
  1
 
  7
CONVERTER_17
 73
     1
 44
1.32052821128451
1001
ACAD
1000
MTEXTBEGIN
1070
    73
1070
     1
1070
    44
1040
1.32052821128451
1070
    74
1070
     0
1000
MTEXTEND
  0
MTEXT
  5
B6F
330
1F
100
AcDbEntity
  8
0
 62
     2
100
AcDbMText
 10
419.0000000000011
 20
-535.9993999999995
 30
0.0
 40
12.0
 41
0.0
 71
     5
 72
     1
  1
 
  7
CONVERTER_7
 73
     1
 44
1.32052821128451
1001
ACAD
1000
MTEXTBEGIN
1070
    73
1070
     1
1070
    44
1040
1.32052821128451
1070
    74
1070
     0
1000
MTEXTEND
  0
MTEXT
  5
B70
330
1F
100
AcDbEntity
  8
0
 62
     2
100
AcDbMText
 10
411.0000000000011
 20
-481.9995154418491
 30
0.0
 40
12.0
 41
0.0
 71
     5
 72
     1
  1
 
  7
CONVERTER_7
 73
     1
 44
1.32052821128451
1001
ACAD
1000
MTEXTBEGIN
1070
    73
1070
     1
1070
    44
1040
1.32052821128451
1070
    74
1070
     0
1000
MTEXTEND
  0
POINT
  5
B79
330
1F
100
AcDbEntity
  8
115
 62
   171
100
AcDbPoint
 10
-578.0603404618509
 20
21.12429543207611
 30
0.0
  0
LINE
  5
B7D
330
1F
100
AcDbEntity
  8
110
  6
DASH_CENTER
 62
    30
100
AcDbLine
 10
51.7546667572642
 20
44.81229044585996
 30
0.0
 11
698.9598105001676
 21
44.81229044585996
 31
0.0
  0
LINE
  5
B7E
330
1F
100
AcDbEntity
  8
0
  6
Continuous
 62
     7
100
AcDbLine
 10
107.4227722081162
 20
-121.6160087559525
 30
0.0
 11
109.4227722081162
 21
-120.0841651695832
 31
0.0
  0
LINE
  5
B7F
330
1F
100
AcDbEntity
  8
0
  6
Continuous
 62
     7
100
AcDbLine
 10
107.4227722081162
 20
-122.3587207978286
 30
0.0
 11
109.4227722081162
 21
-120.594779698373
 31
0.0
  0
LINE
  5
B80
330
1F
100
AcDbEntity
  8
0
  6
Continuous
 62
     7
100
AcDbLine
 10
107.4227722081162
 20
-114.0877095541401
 30
0.0
 11
103.6227722081162
 21
-114.08770955414
 31
0.0
  0
LINE
  5
B81
330
1F
100
AcDbEntity
  8
0
  6
Continuous
 62
     7
100
AcDbLine
 10
107.4227722081162
 20
-117.6377095541402
 30
0.0
 11
103.6227722081162
 21
-117.6377095541399
 31
0.0
  0
LINE
  5
B82
330
1F
100
AcDbEntity
  8
0
  6
Continuous
 62
     7
100
AcDbLine
 10
107.4227722081162
 20
-124.7377095541401
 30
0.0
 11
103.6227722081162
 21
-124.7377095541401
 31
0.0
  0
LINE
  5
B83
330
1F
100
AcDbEntity
  8
0
  6
Continuous
 62
     7
100
AcDbLine
 10
107.4227722081162
 20
-128.28770955414
 30
0.0
 11
103.6227722081162
 21
-128.28770955414
 31
0.0
  0
LINE
  5
B84
330
1F
100
AcDbEntity
  8
0
  6
Continuous
 62
     7
100
AcDbLine
 10
107.4227722081162
 20
-128.8877095541402
 30
0.0
 11
109.4227722081162
 21
-128.8877095541402
 31
0.0
  0
LINE
  5
B85
330
1F
100
AcDbEntity
  8
0
  6
Continuous
 62
     7
100
AcDbLine
 10
107.4227722081162
 20
-113.4877095541401
 30
0.0
 11
107.4227722081162
 21
-128.8877095541402
 31
0.0
  0
LINE
  5
B86
330
1F
100
AcDbEntity
  8
0
  6
Continuous
 62
     7
100
AcDbLine
 10
109.4227722081162
 20
-113.4877095541401
 30
0.0
 11
107.4227722081162
 21
-113.4877095541401
 31
0.0
  0
LINE
  5
B87
330
1F
100
AcDbEntity
  8
0
  6
Continuous
 62
     7
100
AcDbLine
 10
102.1227722081162
 20
-115.9932897586193
 30
0.0
 11
102.1227722081162
 21
-121.1877095541401
 31
0.0
  0
LINE
  5
B88
330
1F
100
AcDbEntity
  8
0
  6
Continuous
 62
     7
100
AcDbLine
 10
102.1227722081162
 20
-126.614311711291
 30
0.0
 11
102.1227722081162
 21
-121.1877095541401
 31
0.0
  0
LINE
  5
B89
330
1F
100
AcDbEntity
  8
0
  6
DASHED
 62
     2
 48
0.33
100
AcDbLine
 10
91.42277220811621
 20
-165.1877095541381
 30
0.0
 11
91.42277220811621
 21
-175.1877095541381
 31
0.0
  0
LINE
  5
B8A
330
1F
100
AcDbEntity
  8
0
  6
DASHED
 62
     2
 48
0.33
100
AcDbLine
 10
103.4227722081162
 20
-165.1877095541381
 30
0.0
 11
103.4227722081162
 21
-175.1877095541381
 31
0.0
  0
LINE
  5
B8B
330
1F
100
AcDbEntity
  8
0
  6
DASH_CENTER
 62
    30
100
AcDbLine
 10
97.42277220811622
 20
-161.6464847953765
 30
0.0
 11
97.42277220811622
 21
-179.4730184964032
 31
0.0
  0
LINE
  5
B8C
330
1F
100
AcDbEntity
  8
0
  6
DASH_CENTER
 62
    30
100
AcDbLine
 10
95.20622560109293
 20
-121.1877095541401
 30
0.0
 11
138.2908153020613
 21
-121.1877095541401
 31
0.0
  0
LINE
  5
B8D
330
1F
100
AcDbEntity
  8
0
  6
Continuous
 62
     7
100
AcDbLine
 10
127.4227722081163
 20
-130.1877095541402
 30
0.0
 11
119.4227722081163
 21
-130.1877095541401
 31
0.0
  0
LINE
  5
B8E
330
1F
100
AcDbEntity
  8
0
  6
Continuous
 62
     7
100
AcDbLine
 10
119.4227722081163
 20
-112.1877095541401
 30
0.0
 11
127.4227722081163
 21
-112.1877095541401
 31
0.0
  0
LINE
  5
B8F
330
1F
100
AcDbEntity
  8
0
  6
Continuous
 62
     7
100
AcDbLine
 10
109.4227722081162
 20
-108.1877095541399
 30
0.0
 11
109.4227722081161
 21
-163.1877095541381
 31
0.0
  0
LINE
  5
B90
330
1F
100
AcDbEntity
  8
0
  6
Continuous
 62
     7
100
AcDbLine
 10
119.4227722081162
 20
-108.1877095541399
 30
0.0
 11
109.4227722081162
 21
-108.1877095541399
 31
0.0
  0
LINE
  5
B91
330
1F
100
AcDbEntity
  8
0
  6
Continuous
 62
     7
100
AcDbLine
 10
119.4227722081162
 20
-175.1877095541381
 30
0.0
 11
119.4227722081162
 21
-108.1877095541399
 31
0.0
  0
LINE
  5
B92
330
1F
100
AcDbEntity
  8
0
  6
Continuous
 62
     7
100
AcDbLine
 10
119.4227722081162
 20
-175.1877095541381
 30
0.0
 11
85.42277220811621
 21
-175.1877095541381
 31
0.0
  0
LINE
  5
B93
330
1F
100
AcDbEntity
  8
0
  6
Continuous
 62
     7
100
AcDbLine
 10
85.42277220811621
 20
-165.1877095541381
 30
0.0
 11
107.4227722081161
 21
-165.1877095541381
 31
0.0
  0
LINE
  5
B94
330
1F
100
AcDbEntity
  8
0
  6
Continuous
 62
     7
100
AcDbLine
 10
85.42277220811621
 20
-165.1877095541381
 30
0.0
 11
85.42277220811621
 21
-175.1877095541381
 31
0.0
  0
LINE
  5
BB0
330
1F
100
AcDbEntity
  8
0
  6
Continuous
 62
     7
100
AcDbLine
 10
103.4227722537146
 20
122.3122904458599
 30
0.0
 11
103.4227722537146
 21
44.81229044586
 31
0.0
  0
LINE
  5
BB2
330
1F
100
AcDbEntity
  8
0
  6
Continuous
 62
     7
100
AcDbLine
 10
96.1228722537146
 20
47.55744361662164
 30
0.0
 11
96.1228722537146
 21
42.06713727509838
 31
0.0
  0
LINE
  5
BB3
330
1F
100
AcDbEntity
  8
0
  6
Continuous
 62
     7
100
AcDbLine
 10
529.2160585711243
 20
79.08559359127929
 30
0.0
 11
529.2160585711242
 21
105.9598074277573
 31
0.0
  0
LINE
  5
BB4
330
1F
100
AcDbEntity
  8
0
  6
Continuous
 62
     7
100
AcDbLine
 10
582.2075948107583
 20
81.08559359127928
 30
0.0
 11
529.2160585711243
 21
81.08559359127928
 31
0.0
  0
LINE
  5
BB5
330
1F
100
AcDbEntity
  8
0
  6
Continuous
 62
     7
100
AcDbLine
 10
582.2075948107583
 20
105.9598074277573
 30
0.0
 11
582.2075948107579
 21
79.08559359127929
 31
0.0
  0
LINE
  5
BCD
330
1F
100
AcDbEntity
  8
0
  6
Continuous
 62
     7
100
AcDbLine
 10
648.4987722078856
 20
43.39033415964951
 30
0.0
 11
648.4987722078856
 21
144.7697619876962
 31
0.0
  0
LINE
  5
BCE
330
1F
100
AcDbEntity
  8
0
  6
Continuous
 62
     7
100
AcDbLine
 10
409.4993182534836
 20
155.7827904458601
 30
0.0
 11
409.4993182534836
 21
44.81229044585989
 31
0.0
  0
LINE
  5
BCF
330
1F
100
AcDbEntity
  8
0
  6
Continuous
 62
     7
100
AcDbLine
 10
362.8793182534836
 20
41.81244044585992
 30
0.0
 11
364.8793182534836
 21
41.81244044585992
 31
0.0
  0
LINE
  5
BD0
330
1F
100
AcDbEntity
  8
100
  6
Continuous
 62
    30
100
AcDbLine
 10
362.8793182534836
 20
42.31244044585992
 30
0.0
 11
365.3793182534836
 21
42.31244044585992
 31
0.0
  0
LINE
  5
BD1
330
1F
100
AcDbEntity
  8
100
  6
Continuous
 62
    30
100
AcDbLine
 10
362.8793182534836
 20
47.31214044585999
 30
0.0
 11
365.3793182534836
 21
47.31214044585999
 31
0.0
  0
LINE
  5
BD2
330
1F
100
AcDbEntity
  8
0
  6
Continuous
 62
     7
100
AcDbLine
 10
362.8793182534836
 20
47.81214044586
 30
0.0
 11
364.8793182534836
 21
47.81214044586
 31
0.0
  0
LINE
  5
BD3
330
1F
100
AcDbEntity
  8
0
  6
Continuous
 62
     7
100
AcDbLine
 10
344.2795182534837
 20
49.31327980601031
 30
0.0
 11
344.2795182534837
 21
40.21239044586002
 31
0.0
  0
LINE
  5
BD4
330
1F
100
AcDbEntity
  8
0
  6
Continuous
 62
     7
100
AcDbLine
 10
364.8793182534836
 20
47.81214044586
 30
0.0
 11
364.8793182534836
 21
41.81244044585992
 31
0.0
  0
LINE
  5
BD5
330
1F
100
AcDbEntity
  8
0
  6
Continuous
 62
     7
100
AcDbLine
 10
364.8793182534836
 20
47.81214044586
 30
0.0
 11
365.3793182534836
 21
47.31214044585999
 31
0.0
  0
LINE
  5
BD6
330
1F
100
AcDbEntity
  8
0
  6
Continuous
 62
     7
100
AcDbLine
 10
364.8793182534836
 20
41.81244044585992
 30
0.0
 11
365.3793182534836
 21
42.31244044585992
 31
0.0
  0
LINE
  5
BD7
330
1F
100
AcDbEntity
  8
0
  6
Continuous
 62
     7
100
AcDbLine
 10
365.3793182534836
 20
42.31244044585992
 30
0.0
 11
365.3793182534836
 21
47.31214044585999
 31
0.0
  0
LINE
  5
BD8
330
1F
100
AcDbEntity
  8
0
  6
Continuous
 62
     7
100
AcDbLine
 10
344.2795182534837
 20
40.3113010857096
 30
0.0
 11
342.4399182534837
 21
40.47250108570961
 31
0.0
  0
LINE
  5
BD9
330
1F
100
AcDbEntity
  8
0
  6
Continuous
 62
     7
100
AcDbLine
 10
345.5793182534837
 20
40.21239044586002
 30
0.0
 11
345.5793182534837
 21
44.81229044585996
 31
0.0
  0
LINE
  5
BDA
330
1F
100
AcDbEntity
  8
0
  6
Continuous
 62
     7
100
AcDbLine
 10
344.2795182534837
 20
40.21239044586002
 30
0.0
 11
344.2797182534837
 21
44.46389044585987
 31
0.0
  0
LINE
  5
BDB
330
1F
100
AcDbEntity
  8
0
  6
Continuous
 62
     7
100
AcDbLine
 10
344.2795182534837
 20
44.46389044585987
 30
0.0
 11
345.5793182534837
 21
44.11549044585978
 31
0.0
  0
LINE
  5
BDC
330
1F
100
AcDbEntity
  8
0
  6
Continuous
 62
     7
100
AcDbLine
 10
344.2795182534837
 20
40.21239044586002
 30
0.0
 11
345.5793182534837
 21
40.21239044586002
 31
0.0
  0
LINE
  5
BDD
330
1F
100
AcDbEntity
  8
0
  6
Continuous
 62
     7
100
AcDbLine
 10
340.9797182534835
 20
44.81229044586013
 30
0.0
 11
340.9797182534835
 21
42.06620108570972
 31
0.0
  0
LINE
  5
BDE
330
1F
100
AcDbEntity
  8
0
  6
Continuous
 62
     7
100
AcDbLine
 10
342.4399182534836
 20
49.15207980601024
 30
0.0
 11
344.2795182534837
 21
49.31327980601031
 31
0.0
  0
LINE
  5
BDF
330
1F
100
AcDbEntity
  8
0
  6
Continuous
 62
     7
100
AcDbLine
 10
345.5793182534837
 20
44.81229044585996
 30
0.0
 11
345.5793182534837
 21
49.41219044585984
 31
0.0
  0
LINE
  5
BE0
330
1F
100
AcDbEntity
  8
0
  6
Continuous
 62
     7
100
AcDbLine
 10
344.2797182534837
 20
45.16069044586004
 30
0.0
 11
344.2795182534837
 21
49.41219044585984
 31
0.0
  0
LINE
  5
BE1
330
1F
100
AcDbEntity
  8
0
  6
Continuous
 62
     7
100
AcDbLine
 10
344.2795182534837
 20
45.16069044586004
 30
0.0
 11
345.5793182534837
 21
44.81229044585996
 31
0.0
  0
LINE
  5
BE2
330
1F
100
AcDbEntity
  8
0
  6
Continuous
 62
     7
100
AcDbLine
 10
345.5793182534837
 20
49.41219044585984
 30
0.0
 11
344.2795182534837
 21
49.41219044585984
 31
0.0
  0
LINE
  5
BE3
330
1F
100
AcDbEntity
  8
0
  6
Continuous
 62
     7
100
AcDbLine
 10
340.9797182534835
 20
47.55837980601017
 30
0.0
 11
340.9797182534835
 21
44.81229044586013
 31
0.0
  0
LINE
  5
BE4
330
1F
100
AcDbEntity
  8
0
  6
Continuous
 62
     7
100
AcDbLine
 10
362.8793182534836
 20
224.9745812627231
 30
0.0
 11
364.8793182534836
 21
224.9745812627231
 31
0.0
  0
LINE
  5
BE5
330
1F
100
AcDbEntity
  8
100
  6
Continuous
 62
    30
100
AcDbLine
 10
362.8793182534836
 20
225.4745812627231
 30
0.0
 11
365.3793182534836
 21
225.4745812627231
 31
0.0
  0
LINE
  5
BE6
330
1F
100
AcDbEntity
  8
100
  6
Continuous
 62
    30
100
AcDbLine
 10
362.8793182534836
 20
230.4742812627232
 30
0.0
 11
365.3793182534836
 21
230.4742812627232
 31
0.0
  0
LINE
  5
BE7
330
1F
100
AcDbEntity
  8
0
  6
Continuous
 62
     7
100
AcDbLine
 10
362.8793182534836
 20
230.9742812627232
 30
0.0
 11
364.8793182534836
 21
230.9742812627232
 31
0.0
  0
LINE
  5
BE8
330
1F
100
AcDbEntity
  8
0
  6
Continuous
 62
     7
100
AcDbLine
 10
362.8793182534836
 20
234.9744312627232
 30
0.0
 11
345.6794182534837
 21
234.9744312627232
 31
0.0
  0
LINE
  5
BE9
330
1F
100
AcDbEntity
  8
0
  6
Continuous
 62
     7
100
AcDbLine
 10
362.8793182534836
 20
218.2537894590155
 30
0.0
 11
345.6794182534837
 21
218.2537894590155
 31
0.0
  0
LINE
  5
BEA
330
1F
100
AcDbEntity
  8
0
  6
Continuous
 62
     7
100
AcDbLine
 10
362.8793182534836
 20
243.31229044586
 30
0.0
 11
362.8793182534836
 21
44.81229044585996
 31
0.0
  0
LINE
  5
BEB
330
1F
100
AcDbEntity
  8
10
  6
Continuous
 62
     7
100
AcDbLine
 10
360.9427182534836
 20
244.8122904458598
 30
0.0
 11
352.8794182534837
 21
244.8122904458598
 31
0.0
  0
LINE
  5
BEC
330
1F
100
AcDbEntity
  8
10
  6
Continuous
 62
     7
100
AcDbLine
 10
352.8793182534836
 20
244.8122904458598
 30
0.0
 11
352.8793182534836
 21
44.81229044585989
 31
0.0
  0
LINE
  5
BED
330
1F
100
AcDbEntity
  8
10
  6
Continuous
 62
     7
100
AcDbLine
 10
345.5793182534837
 20
243.8122904446097
 30
0.0
 11
345.5793182534837
 21
44.81229044585996
 31
0.0
  0
LINE
  5
BEE
330
1F
100
AcDbEntity
  8
0
  6
Continuous
 62
     7
100
AcDbLine
 10
344.2795182534837
 20
232.4754206228736
 30
0.0
 11
344.2795182534837
 21
223.3745312627233
 31
0.0
  0
LINE
  5
BEF
330
1F
100
AcDbEntity
  8
0
  6
Continuous
 62
     7
100
AcDbLine
 10
364.8793182534836
 20
230.9742812627232
 30
0.0
 11
364.8793182534836
 21
224.9745812627231
 31
0.0
  0
LINE
  5
BF0
330
1F
100
AcDbEntity
  8
0
  6
Continuous
 62
     7
100
AcDbLine
 10
364.8793182534836
 20
230.9742812627232
 30
0.0
 11
365.3793182534836
 21
230.4742812627232
 31
0.0
  0
LINE
  5
BF1
330
1F
100
AcDbEntity
  8
0
  6
Continuous
 62
     7
100
AcDbLine
 10
364.8793182534836
 20
224.9745812627231
 30
0.0
 11
365.3793182534836
 21
225.4745812627231
 31
0.0
  0
LINE
  5
BF2
330
1F
100
AcDbEntity
  8
0
  6
Continuous
 62
     7
100
AcDbLine
 10
365.3793182534836
 20
225.4745812627231
 30
0.0
 11
365.3793182534836
 21
230.4742812627232
 31
0.0
  0
LINE
  5
BF3
330
1F
100
AcDbEntity
  8
0
  6
DASH_CENTER
 62
    30
100
AcDbLine
 10
366.8276005933785
 20
227.9744312627232
 30
0.0
 11
337.5790343473667
 21
227.9744312627232
 31
0.0
  0
LINE
  5
BF4
330
1F
100
AcDbEntity
  8
0
  6
Continuous
 62
     7
100
AcDbLine
 10
344.2795182534837
 20
223.4734419025728
 30
0.0
 11
342.4399182534836
 21
223.6346419025729
 31
0.0
  0
LINE
  5
BF5
330
1F
100
AcDbEntity
  8
0
  6
Continuous
 62
     7
100
AcDbLine
 10
345.5793182534837
 20
223.3745312627233
 30
0.0
 11
345.5793182534837
 21
227.9744312627232
 31
0.0
  0
LINE
  5
BF6
330
1F
100
AcDbEntity
  8
0
  6
Continuous
 62
     7
100
AcDbLine
 10
344.2795182534837
 20
223.3745312627233
 30
0.0
 11
344.2797182534837
 21
227.6260312627231
 31
0.0
  0
LINE
  5
BF7
330
1F
100
AcDbEntity
  8
0
  6
Continuous
 62
     7
100
AcDbLine
 10
344.2795182534837
 20
227.6260312627231
 30
0.0
 11
345.5793182534837
 21
227.277631262723
 31
0.0
  0
LINE
  5
BF8
330
1F
100
AcDbEntity
  8
0
  6
Continuous
 62
     7
100
AcDbLine
 10
344.2795182534837
 20
223.3745312627233
 30
0.0
 11
345.5793182534837
 21
223.3745312627233
 31
0.0
  0
LINE
  5
BF9
330
1F
100
AcDbEntity
  8
0
  6
Continuous
 62
     7
100
AcDbLine
 10
340.9797182534835
 20
227.9744312627234
 30
0.0
 11
340.9797182534835
 21
225.228341902573
 31
0.0
  0
LINE
  5
BFA
330
1F
100
AcDbEntity
  8
0
  6
Continuous
 62
     7
100
AcDbLine
 10
342.4399182534836
 20
232.3142206228735
 30
0.0
 11
344.2795182534837
 21
232.4754206228736
 31
0.0
  0
LINE
  5
BFB
330
1F
100
AcDbEntity
  8
0
  6
Continuous
 62
     7
100
AcDbLine
 10
345.5793182534837
 20
227.9744312627232
 30
0.0
 11
345.5793182534837
 21
232.5743312627231
 31
0.0
  0
LINE
  5
BFC
330
1F
100
AcDbEntity
  8
0
  6
Continuous
 62
     7
100
AcDbLine
 10
344.2797182534837
 20
228.3228312627233
 30
0.0
 11
344.2795182534837
 21
232.5743312627231
 31
0.0
  0
LINE
  5
BFD
330
1F
100
AcDbEntity
  8
0
  6
Continuous
 62
     7
100
AcDbLine
 10
344.2795182534837
 20
228.3228312627233
 30
0.0
 11
345.5793182534837
 21
227.9744312627232
 31
0.0
  0
LINE
  5
BFE
330
1F
100
AcDbEntity
  8
0
  6
Continuous
 62
     7
100
AcDbLine
 10
345.5793182534837
 20
232.5743312627231
 30
0.0
 11
344.2795182534837
 21
232.5743312627231
 31
0.0
  0
LINE
  5
BFF
330
1F
100
AcDbEntity
  8
0
  6
Continuous
 62
     7
100
AcDbLine
 10
340.9797182534835
 20
230.7205206228734
 30
0.0
 11
340.9797182534835
 21
227.9744312627234
 31
0.0
  0
LINE
  5
C00
330
1F
100
AcDbEntity
  8
10
  6
Continuous
 62
     7
100
AcDbLine
 10
345.5793182534837
 20
244.8122904458598
 30
0.0
 11
352.8793182534836
 21
244.8122904458598
 31
0.0
  0
LINE
  5
C01
330
1F
100
AcDbEntity
  8
10
  6
Continuous
 62
     7
100
AcDbLine
 10
345.5793182534837
 20
243.8122904458598
 30
0.0
 11
345.5793182534837
 21
244.8122904458598
 31
0.0
  0
LINE
  5
C02
330
1F
100
AcDbEntity
  8
0
  6
Continuous
 62
     7
100
AcDbLine
 10
270.7555182534838
 20
-133.8488610108532
 30
0.0
 11
270.7555182534838
 21
-142.9497503710033
 31
0.0
  0
LINE
  5
C03
330
1F
100
AcDbEntity
  8
0
  6
Continuous
 62
     7
100
AcDbLine
 10
286.8554182534837
 20
-141.3497003710035
 30
0.0
 11
291.3553182534837
 21
-141.3497003710035
 31
0.0
  0
LINE
  5
C04
330
1F
100
AcDbEntity
  8
100
  6
Continuous
 62
    30
100
AcDbLine
 10
286.8554182534837
 20
-140.8497003710035
 30
0.0
 11
291.8553182534838
 21
-140.8497003710035
 31
0.0
  0
LINE
  5
C05
330
1F
100
AcDbEntity
  8
100
  6
Continuous
 62
    30
100
AcDbLine
 10
286.8554182534837
 20
-135.8500003710035
 30
0.0
 11
291.8553182534838
 21
-135.8500003710035
 31
0.0
  0
LINE
  5
C06
330
1F
100
AcDbEntity
  8
0
  6
Continuous
 62
     7
100
AcDbLine
 10
286.8554182534837
 20
-135.3500003710035
 30
0.0
 11
291.3553182534837
 21
-135.3500003710035
 31
0.0
  0
LINE
  5
C07
330
1F
100
AcDbEntity
  8
0
  6
Continuous
 62
     7
100
AcDbLine
 10
291.3553182534837
 20
-135.3500003710035
 30
0.0
 11
291.3553182534837
 21
-141.3497003710035
 31
0.0
  0
LINE
  5
C08
330
1F
100
AcDbEntity
  8
0
  6
Continuous
 62
     7
100
AcDbLine
 10
291.3553182534837
 20
-135.3500003710035
 30
0.0
 11
291.8553182534838
 21
-135.8500003710035
 31
0.0
  0
LINE
  5
C09
330
1F
100
AcDbEntity
  8
0
  6
Continuous
 62
     7
100
AcDbLine
 10
291.3553182534837
 20
-141.3497003710035
 30
0.0
 11
291.8553182534838
 21
-140.8497003710035
 31
0.0
  0
LINE
  5
C0A
330
1F
100
AcDbEntity
  8
0
  6
Continuous
 62
     7
100
AcDbLine
 10
291.8553182534838
 20
-140.8497003710035
 30
0.0
 11
291.8553182534838
 21
-135.8500003710035
 31
0.0
  0
LINE
  5
C0B
330
1F
100
AcDbEntity
  8
0
  6
Continuous
 62
     7
100
AcDbLine
 10
270.7555182534838
 20
-142.8508397311539
 30
0.0
 11
268.9159182534835
 21
-142.6896397311538
 31
0.0
  0
LINE
  5
C0C
330
1F
100
AcDbEntity
  8
0
  6
Continuous
 62
     7
100
AcDbLine
 10
272.0553182534837
 20
-142.9497503710033
 30
0.0
 11
272.0553182534837
 21
-138.3498503710034
 31
0.0
  0
LINE
  5
C0D
330
1F
100
AcDbEntity
  8
0
  6
Continuous
 62
     7
100
AcDbLine
 10
270.7555182534838
 20
-142.9497503710033
 30
0.0
 11
270.7557182534835
 21
-138.6982503710035
 31
0.0
  0
LINE
  5
C0E
330
1F
100
AcDbEntity
  8
0
  6
Continuous
 62
     7
100
AcDbLine
 10
270.7555182534838
 20
-138.6982503710036
 30
0.0
 11
272.0553182534837
 21
-139.0466503710037
 31
0.0
  0
LINE
  5
C0F
330
1F
100
AcDbEntity
  8
0
  6
Continuous
 62
     7
100
AcDbLine
 10
270.7555182534838
 20
-142.9497503710033
 30
0.0
 11
272.0553182534837
 21
-142.9497503710033
 31
0.0
  0
LINE
  5
C10
330
1F
100
AcDbEntity
  8
0
  6
Continuous
 62
     7
100
AcDbLine
 10
267.4557182534837
 20
-138.3498503710036
 30
0.0
 11
267.4557182534837
 21
-141.0959397311537
 31
0.0
  0
LINE
  5
C11
330
1F
100
AcDbEntity
  8
0
  6
Continuous
 62
     7
100
AcDbLine
 10
268.9159182534835
 20
-134.0100610108531
 30
0.0
 11
270.7555182534838
 21
-133.8488610108532
 31
0.0
  0
LINE
  5
C12
330
1F
100
AcDbEntity
  8
0
  6
Continuous
 62
     7
100
AcDbLine
 10
272.0553182534837
 20
-138.3498503710034
 30
0.0
 11
272.0553182534837
 21
-133.7499503710036
 31
0.0
  0
LINE
  5
C13
330
1F
100
AcDbEntity
  8
0
  6
Continuous
 62
     7
100
AcDbLine
 10
270.7557182534835
 20
-138.0014503710033
 30
0.0
 11
270.7555182534838
 21
-133.7499503710036
 31
0.0
  0
LINE
  5
C14
330
1F
100
AcDbEntity
  8
0
  6
Continuous
 62
     7
100
AcDbLine
 10
270.7555182534838
 20
-138.0014503710033
 30
0.0
 11
272.0553182534837
 21
-138.3498503710034
 31
0.0
  0
LINE
  5
C15
330
1F
100
AcDbEntity
  8
0
  6
Continuous
 62
     7
100
AcDbLine
 10
272.0553182534837
 20
-133.7499503710036
 30
0.0
 11
270.7555182534838
 21
-133.7499503710036
 31
0.0
  0
LINE
  5
C16
330
1F
100
AcDbEntity
  8
0
  6
Continuous
 62
     7
100
AcDbLine
 10
267.4557182534837
 20
-135.6037610108533
 30
0.0
 11
267.4557182534837
 21
-138.3498503710036
 31
0.0
  0
LINE
  5
C17
330
1F
100
AcDbEntity
  8
0
  6
Continuous
 62
     7
100
AcDbLine
 10
270.7555182534838
 20
49.31327980601031
 30
0.0
 11
270.7555182534838
 21
40.21239044585995
 31
0.0
  0
LINE
  5
C18
330
1F
100
AcDbEntity
  8
0
  6
Continuous
 62
     7
100
AcDbLine
 10
286.8554182534837
 20
41.81244044585986
 30
0.0
 11
291.3553182534838
 21
41.81244044585986
 31
0.0
  0
LINE
  5
C19
330
1F
100
AcDbEntity
  8
100
  6
Continuous
 62
    30
100
AcDbLine
 10
286.8554182534837
 20
42.31244044585986
 30
0.0
 11
291.8553182534838
 21
42.31244044585986
 31
0.0
  0
LINE
  5
C1A
330
1F
100
AcDbEntity
  8
100
  6
Continuous
 62
    30
100
AcDbLine
 10
286.8554182534837
 20
47.31214044585994
 30
0.0
 11
291.8553182534838
 21
47.31214044585994
 31
0.0
  0
LINE
  5
C1B
330
1F
100
AcDbEntity
  8
0
  6
Continuous
 62
     7
100
AcDbLine
 10
286.8554182534837
 20
47.81214044585992
 30
0.0
 11
291.3553182534838
 21
47.81214044585992
 31
0.0
  0
LINE
  5
C1C
330
1F
100
AcDbEntity
  8
0
  6
Continuous
 62
     7
100
AcDbLine
 10
291.3553182534838
 20
47.81214044585992
 30
0.0
 11
291.3553182534838
 21
41.81244044585986
 31
0.0
  0
LINE
  5
C1D
330
1F
100
AcDbEntity
  8
0
  6
Continuous
 62
     7
100
AcDbLine
 10
291.3553182534838
 20
47.81214044585992
 30
0.0
 11
291.8553182534838
 21
47.31214044585994
 31
0.0
  0
LINE
  5
C1E
330
1F
100
AcDbEntity
  8
0
  6
Continuous
 62
     7
100
AcDbLine
 10
291.3553182534838
 20
41.81244044585986
 30
0.0
 11
291.8553182534838
 21
42.31244044585986
 31
0.0
  0
LINE
  5
C1F
330
1F
100
AcDbEntity
  8
0
  6
Continuous
 62
     7
100
AcDbLine
 10
291.8553182534838
 20
42.31244044585986
 30
0.0
 11
291.8553182534838
 21
47.31214044585994
 31
0.0
  0
LINE
  5
C20
330
1F
100
AcDbEntity
  8
0
  6
Continuous
 62
     7
100
AcDbLine
 10
270.7555182534838
 20
40.31130108570954
 30
0.0
 11
268.9159182534836
 21
40.47250108570961
 31
0.0
  0
LINE
  5
C21
330
1F
100
AcDbEntity
  8
0
  6
Continuous
 62
     7
100
AcDbLine
 10
272.0553182534837
 20
40.21239044585995
 30
0.0
 11
272.0553182534837
 21
44.81229044585996
 31
0.0
  0
LINE
  5
C22
330
1F
100
AcDbEntity
  8
0
  6
Continuous
 62
     7
100
AcDbLine
 10
270.7555182534838
 20
40.21239044585995
 30
0.0
 11
270.7557182534836
 21
44.46389044585987
 31
0.0
  0
LINE
  5
C23
330
1F
100
AcDbEntity
  8
0
  6
Continuous
 62
     7
100
AcDbLine
 10
270.7555182534838
 20
44.46389044585981
 30
0.0
 11
272.0553182534837
 21
44.11549044585966
 31
0.0
  0
LINE
  5
C24
330
1F
100
AcDbEntity
  8
0
  6
Continuous
 62
     7
100
AcDbLine
 10
270.7555182534838
 20
40.21239044585995
 30
0.0
 11
272.0553182534837
 21
40.21239044585995
 31
0.0
  0
LINE
  5
C25
330
1F
100
AcDbEntity
  8
0
  6
Continuous
 62
     7
100
AcDbLine
 10
267.4557182534837
 20
44.81229044585984
 30
0.0
 11
267.4557182534837
 21
42.06620108570968
 31
0.0
  0
LINE
  5
C26
330
1F
100
AcDbEntity
  8
0
  6
Continuous
 62
     7
100
AcDbLine
 10
268.9159182534836
 20
49.15207980601019
 30
0.0
 11
270.7555182534838
 21
49.31327980601031
 31
0.0
  0
LINE
  5
C27
330
1F
100
AcDbEntity
  8
0
  6
Continuous
 62
     7
100
AcDbLine
 10
272.0553182534837
 20
44.81229044585996
 30
0.0
 11
272.0553182534837
 21
49.41219044585977
 31
0.0
  0
LINE
  5
C28
330
1F
100
AcDbEntity
  8
0
  6
Continuous
 62
     7
100
AcDbLine
 10
270.7557182534836
 20
45.16069044585997
 30
0.0
 11
270.7555182534838
 21
49.41219044585977
 31
0.0
  0
LINE
  5
C29
330
1F
100
AcDbEntity
  8
0
  6
Continuous
 62
     7
100
AcDbLine
 10
270.7555182534838
 20
45.16069044585997
 30
0.0
 11
272.0553182534837
 21
44.81229044585996
 31
0.0
  0
LINE
  5
C2A
330
1F
100
AcDbEntity
  8
0
  6
Continuous
 62
     7
100
AcDbLine
 10
272.0553182534837
 20
49.41219044585977
 30
0.0
 11
270.7555182534838
 21
49.41219044585977
 31
0.0
  0
LINE
  5
C2B
330
1F
100
AcDbEntity
  8
0
  6
Continuous
 62
     7
100
AcDbLine
 10
267.4557182534837
 20
47.55837980601011
 30
0.0
 11
267.4557182534837
 21
44.81229044585984
 31
0.0
  0
LINE
  5
C2C
330
1F
100
AcDbEntity
  8
0
  6
Continuous
 62
     7
100
AcDbLine
 10
270.7555182534838
 20
232.4754206228736
 30
0.0
 11
270.7555182534838
 21
223.3745312627233
 31
0.0
  0
LINE
  5
C2D
330
1F
100
AcDbEntity
  8
0
  6
Continuous
 62
     7
100
AcDbLine
 10
286.8554182534837
 20
224.9745812627231
 30
0.0
 11
291.3553182534838
 21
224.9745812627231
 31
0.0
  0
LINE
  5
C2E
330
1F
100
AcDbEntity
  8
100
  6
Continuous
 62
    30
100
AcDbLine
 10
286.8554182534837
 20
225.4745812627231
 30
0.0
 11
291.8553182534838
 21
225.4745812627231
 31
0.0
  0
LINE
  5
C2F
330
1F
100
AcDbEntity
  8
100
  6
Continuous
 62
    30
100
AcDbLine
 10
286.8554182534837
 20
230.4742812627232
 30
0.0
 11
291.8553182534838
 21
230.4742812627232
 31
0.0
  0
LINE
  5
C30
330
1F
100
AcDbEntity
  8
0
  6
Continuous
 62
     7
100
AcDbLine
 10
286.8554182534837
 20
230.9742812627232
 30
0.0
 11
291.3553182534838
 21
230.9742812627232
 31
0.0
  0
LINE
  5
C31
330
1F
100
AcDbEntity
  8
0
  6
Continuous
 62
     7
100
AcDbLine
 10
291.3553182534838
 20
230.9742812627232
 30
0.0
 11
291.3553182534838
 21
224.9745812627231
 31
0.0
  0
LINE
  5
C32
330
1F
100
AcDbEntity
  8
0
  6
Continuous
 62
     7
100
AcDbLine
 10
291.3553182534838
 20
230.9742812627232
 30
0.0
 11
291.8553182534838
 21
230.4742812627232
 31
0.0
  0
LINE
  5
C33
330
1F
100
AcDbEntity
  8
0
  6
Continuous
 62
     7
100
AcDbLine
 10
291.3553182534838
 20
224.9745812627231
 30
0.0
 11
291.8553182534838
 21
225.4745812627231
 31
0.0
  0
LINE
  5
C34
330
1F
100
AcDbEntity
  8
0
  6
Continuous
 62
     7
100
AcDbLine
 10
291.8553182534838
 20
225.4745812627231
 30
0.0
 11
291.8553182534838
 21
230.4742812627232
 31
0.0
  0
LINE
  5
C69
330
1F
100
AcDbEntity
  8
0
  6
Continuous
 62
     7
100
AcDbLine
 10
197.4316182537146
 20
-142.9497503710031
 30
0.0
 11
197.4316182537146
 21
-133.8488610108529
 31
0.0
  0
LINE
  5
C7B
330
1F
100
AcDbEntity
  8
0
  6
Continuous
 62
     7
100
AcDbLine
 10
197.4316182537146
 20
49.31327980601031
 30
0.0
 11
197.4316182537146
 21
40.21239044586002
 31
0.0
  0
LINE
  5
C7C
330
1F
100
AcDbEntity
  8
0
  6
Continuous
 62
     7
100
AcDbLine
 10
197.4316182537146
 20
40.3113010857096
 30
0.0
 11
195.5920182537146
 21
40.47250108570961
 31
0.0
  0
LINE
  5
C7D
330
1F
100
AcDbEntity
  8
0
  6
Continuous
 62
     7
100
AcDbLine
 10
198.7314182537146
 20
40.21239044586002
 30
0.0
 11
198.7314182537146
 21
44.81229044585996
 31
0.0
  0
LINE
  5
C7E
330
1F
100
AcDbEntity
  8
0
  6
Continuous
 62
     7
100
AcDbLine
 10
197.4316182537146
 20
44.46389044585987
 30
0.0
 11
198.7314182537146
 21
44.11549044585973
 31
0.0
  0
LINE
  5
C7F
330
1F
100
AcDbEntity
  8
0
  6
Continuous
 62
     7
100
AcDbLine
 10
197.4316182537146
 20
40.21239044586002
 30
0.0
 11
198.7314182537146
 21
40.21239044586002
 31
0.0
  0
LINE
  5
C80
330
1F
100
AcDbEntity
  8
0
  6
Continuous
 62
     7
100
AcDbLine
 10
194.1318182537147
 20
44.81229044586007
 30
0.0
 11
194.1318182537147
 21
42.06620108570972
 31
0.0
  0
LINE
  5
C81
330
1F
100
AcDbEntity
  8
0
  6
Continuous
 62
     7
100
AcDbLine
 10
195.5920182537146
 20
49.15207980601024
 30
0.0
 11
197.4316182537146
 21
49.31327980601031
 31
0.0
  0
LINE
  5
C82
330
1F
100
AcDbEntity
  8
0
  6
Continuous
 62
     7
100
AcDbLine
 10
198.7314182537146
 20
44.81229044585996
 30
0.0
 11
198.7314182537146
 21
49.41219044585984
 31
0.0
  0
LINE
  5
C83
330
1F
100
AcDbEntity
  8
0
  6
Continuous
 62
     7
100
AcDbLine
 10
197.4316182537146
 20
45.16069044586004
 30
0.0
 11
198.7314182537146
 21
44.81229044585996
 31
0.0
  0
LINE
  5
C84
330
1F
100
AcDbEntity
  8
0
  6
Continuous
 62
     7
100
AcDbLine
 10
198.7314182537146
 20
49.41219044585984
 30
0.0
 11
197.4316182537146
 21
49.41219044585984
 31
0.0
  0
LINE
  5
C85
330
1F
100
AcDbEntity
  8
0
  6
Continuous
 62
     7
100
AcDbLine
 10
194.1318182537147
 20
47.55837980601017
 30
0.0
 11
194.1318182537147
 21
44.81229044586007
 31
0.0
  0
LINE
  5
C86
330
1F
100
AcDbEntity
  8
0
  6
Continuous
 62
     7
100
AcDbLine
 10
218.2314182537146
 20
41.81244044585992
 30
0.0
 11
213.2314182537146
 21
41.81244044585992
 31
0.0
  0
LINE
  5
C87
330
1F
100
AcDbEntity
  8
100
  6
Continuous
 62
    30
100
AcDbLine
 10
218.7314182537146
 20
42.31244044585992
 30
0.0
 11
213.2314182537148
 21
42.31244044585992
 31
0.0
  0
LINE
  5
C88
330
1F
100
AcDbEntity
  8
100
  6
Continuous
 62
    30
100
AcDbLine
 10
218.7314182537146
 20
47.31214044585999
 30
0.0
 11
213.2314182537146
 21
47.31214044585999
 31
0.0
  0
LINE
  5
C89
330
1F
100
AcDbEntity
  8
0
  6
Continuous
 62
     7
100
AcDbLine
 10
218.2314182537146
 20
47.81214044586
 30
0.0
 11
213.2314182537146
 21
47.81214044586
 31
0.0
  0
LINE
  5
C8A
330
1F
100
AcDbEntity
  8
0
  6
Continuous
 62
     7
100
AcDbLine
 10
218.2314182537146
 20
47.81214044586
 30
0.0
 11
218.2314182537146
 21
41.81244044585992
 31
0.0
  0
LINE
  5
C8B
330
1F
100
AcDbEntity
  8
0
  6
Continuous
 62
     7
100
AcDbLine
 10
218.7314182537146
 20
42.31244044585992
 30
0.0
 11
218.2314182537146
 21
41.81244044585992
 31
0.0
  0
LINE
  5
C8C
330
1F
100
AcDbEntity
  8
0
  6
Continuous
 62
     7
100
AcDbLine
 10
218.7314182537146
 20
47.31214044585999
 30
0.0
 11
218.2314182537146
 21
47.81214044586
 31
0.0
  0
LINE
  5
C8D
330
1F
100
AcDbEntity
  8
0
  6
Continuous
 62
     7
100
AcDbLine
 10
218.7314182537146
 20
42.31244044585992
 30
0.0
 11
218.7314182537146
 21
47.31214044585999
 31
0.0
  0
LINE
  5
C8E
330
1F
100
AcDbEntity
  8
0
  6
Continuous
 62
     7
100
AcDbLine
 10
197.4316182537146
 20
232.4754206228738
 30
0.0
 11
197.4316182537146
 21
223.3745312627235
 31
0.0
  0
LINE
  5
C8F
330
1F
100
AcDbEntity
  8
0
  6
Continuous
 62
     7
100
AcDbLine
 10
197.4316182537146
 20
223.4734419025731
 30
0.0
 11
195.5920182537146
 21
223.6346419025731
 31
0.0
  0
LINE
  5
C90
330
1F
100
AcDbEntity
  8
0
  6
Continuous
 62
     7
100
AcDbLine
 10
198.7314182537146
 20
223.3745312627235
 30
0.0
 11
198.7314182537146
 21
227.9744312627234
 31
0.0
  0
LINE
  5
C91
330
1F
100
AcDbEntity
  8
0
  6
Continuous
 62
     7
100
AcDbLine
 10
197.4316182537146
 20
227.6260312627233
 30
0.0
 11
198.7314182537146
 21
227.2776312627232
 31
0.0
  0
LINE
  5
C92
330
1F
100
AcDbEntity
  8
0
  6
Continuous
 62
     7
100
AcDbLine
 10
197.4316182537146
 20
223.3745312627235
 30
0.0
 11
198.7314182537146
 21
223.3745312627235
 31
0.0
  0
LINE
  5
C93
330
1F
100
AcDbEntity
  8
0
  6
Continuous
 62
     7
100
AcDbLine
 10
194.1318182537147
 20
227.9744312627236
 30
0.0
 11
194.1318182537147
 21
225.2283419025732
 31
0.0
  0
LINE
  5
C94
330
1F
100
AcDbEntity
  8
0
  6
Continuous
 62
     7
100
AcDbLine
 10
195.5920182537146
 20
232.3142206228737
 30
0.0
 11
197.4316182537146
 21
232.4754206228738
 31
0.0
  0
LINE
  5
C95
330
1F
100
AcDbEntity
  8
0
  6
Continuous
 62
     7
100
AcDbLine
 10
198.7314182537146
 20
227.9744312627234
 30
0.0
 11
198.7314182537146
 21
232.5743312627232
 31
0.0
  0
LINE
  5
C96
330
1F
100
AcDbEntity
  8
0
  6
Continuous
 62
     7
100
AcDbLine
 10
197.4316182537146
 20
228.3228312627235
 30
0.0
 11
198.7314182537146
 21
227.9744312627234
 31
0.0
  0
LINE
  5
C97
330
1F
100
AcDbEntity
  8
0
  6
Continuous
 62
     7
100
AcDbLine
 10
198.7314182537146
 20
232.5743312627232
 30
0.0
 11
197.4316182537146
 21
232.5743312627232
 31
0.0
  0
LINE
  5
C98
330
1F
100
AcDbEntity
  8
0
  6
Continuous
 62
     7
100
AcDbLine
 10
194.1318182537147
 20
230.7205206228736
 30
0.0
 11
194.1318182537147
 21
227.9744312627236
 31
0.0
  0
LINE
  5
C99
330
1F
100
AcDbEntity
  8
0
  6
Continuous
 62
     7
100
AcDbLine
 10
218.2314182537146
 20
224.9745812627233
 30
0.0
 11
213.2314182537146
 21
224.9745812627233
 31
0.0
  0
LINE
  5
C9A
330
1F
100
AcDbEntity
  8
100
  6
Continuous
 62
    30
100
AcDbLine
 10
218.7314182537146
 20
225.4745812627234
 30
0.0
 11
213.2314182537148
 21
225.4745812627234
 31
0.0
  0
LINE
  5
C9B
330
1F
100
AcDbEntity
  8
100
  6
Continuous
 62
    30
100
AcDbLine
 10
218.7314182537146
 20
230.4742812627234
 30
0.0
 11
213.2314182537146
 21
230.4742812627234
 31
0.0
  0
LINE
  5
C9C
330
1F
100
AcDbEntity
  8
0
  6
Continuous
 62
     7
100
AcDbLine
 10
218.2314182537146
 20
230.9742812627234
 30
0.0
 11
213.2314182537146
 21
230.9742812627234
 31
0.0
  0
LINE
  5
C9D
330
1F
100
AcDbEntity
  8
0
  6
Continuous
 62
     7
100
AcDbLine
 10
213.2314182537146
 20
218.2537894590157
 30
0.0
 11
198.7314182537146
 21
218.2537894590157
 31
0.0
  0
LINE
  5
C9E
330
1F
100
AcDbEntity
  8
0
  6
Continuous
 62
     7
100
AcDbLine
 10
213.2314182537146
 20
234.9744312627234
 30
0.0
 11
198.7314182537146
 21
234.9744312627234
 31
0.0
  0
LINE
  5
C9F
330
1F
100
AcDbEntity
  8
0
  6
Continuous
 62
     7
100
AcDbLine
 10
218.2314182537146
 20
230.9742812627234
 30
0.0
 11
218.2314182537146
 21
224.9745812627233
 31
0.0
  0
LINE
  5
CA0
330
1F
100
AcDbEntity
  8
0
  6
Continuous
 62
     7
100
AcDbLine
 10
218.7314182537146
 20
225.4745812627234
 30
0.0
 11
218.2314182537146
 21
224.9745812627233
 31
0.0
  0
LINE
  5
CA1
330
1F
100
AcDbEntity
  8
0
  6
Continuous
 62
     7
100
AcDbLine
 10
218.7314182537146
 20
230.4742812627234
 30
0.0
 11
218.2314182537146
 21
230.9742812627234
 31
0.0
  0
LINE
  5
CA2
330
1F
100
AcDbEntity
  8
0
  6
Continuous
 62
     7
100
AcDbLine
 10
218.7314182537146
 20
225.4745812627234
 30
0.0
 11
218.7314182537146
 21
230.4742812627234
 31
0.0
  0
LINE
  5
CA3
330
1F
100
AcDbEntity
  8
0
  6
DASH_CENTER
 62
    30
100
AcDbLine
 10
223.6404826018808
 20
227.9744312627234
 30
0.0
 11
189.6394790873329
 21
227.9744312627234
 31
0.0
  0
LINE
  5
CA4
330
1F
100
AcDbEntity
  8
0
  6
Continuous
 62
     7
100
AcDbLine
 10
195.5920182537146
 20
-134.0100610108529
 30
0.0
 11
197.4316182537146
 21
-133.8488610108529
 31
0.0
  0
LINE
  5
CA5
330
1F
100
AcDbEntity
  8
0
  6
Continuous
 62
     7
100
AcDbLine
 10
198.7314182537144
 20
-138.3498503710034
 30
0.0
 11
198.7314182537144
 21
-133.7499503710035
 31
0.0
  0
LINE
  5
CA6
330
1F
100
AcDbEntity
  8
0
  6
Continuous
 62
     7
100
AcDbLine
 10
197.4318182537146
 20
-138.0014503710033
 30
0.0
 11
197.4316182537146
 21
-133.7499503710035
 31
0.0
  0
LINE
  5
CA7
330
1F
100
AcDbEntity
  8
0
  6
Continuous
 62
     7
100
AcDbLine
 10
198.7314182537144
 20
-137.6530503710031
 30
0.0
 11
197.4316182537146
 21
-138.0014503710033
 31
0.0
  0
LINE
  5
CA8
330
1F
100
AcDbEntity
  8
0
  6
Continuous
 62
     7
100
AcDbLine
 10
198.7314182537144
 20
-133.7499503710035
 30
0.0
 11
197.4316182537146
 21
-133.7499503710035
 31
0.0
  0
LINE
  5
CA9
330
1F
100
AcDbEntity
  8
0
  6
Continuous
 62
     7
100
AcDbLine
 10
194.1318182537147
 20
-135.603761010853
 30
0.0
 11
194.1318182537147
 21
-138.3498503710035
 31
0.0
  0
LINE
  5
CAA
330
1F
100
AcDbEntity
  8
0
  6
Continuous
 62
     7
100
AcDbLine
 10
197.4316182537146
 20
-142.8508397311538
 30
0.0
 11
195.5920182537146
 21
-142.6896397311536
 31
0.0
  0
LINE
  5
CAB
330
1F
100
AcDbEntity
  8
0
  6
Continuous
 62
     7
100
AcDbLine
 10
198.7314182537144
 20
-142.9497503710031
 30
0.0
 11
198.7314182537144
 21
-138.3498503710034
 31
0.0
  0
LINE
  5
CAC
330
1F
100
AcDbEntity
  8
0
  6
Continuous
 62
     7
100
AcDbLine
 10
197.4316182537146
 20
-142.9497503710031
 30
0.0
 11
197.4318182537146
 21
-138.6982503710035
 31
0.0
  0
LINE
  5
CAD
330
1F
100
AcDbEntity
  8
0
  6
Continuous
 62
     7
100
AcDbLine
 10
198.7314182537144
 20
-138.3498503710034
 30
0.0
 11
197.4316182537146
 21
-138.6982503710035
 31
0.0
  0
LINE
  5
CAE
330
1F
100
AcDbEntity
  8
0
  6
Continuous
 62
     7
100
AcDbLine
 10
197.4316182537146
 20
-142.9497503710031
 30
0.0
 11
198.7314182537144
 21
-142.9497503710031
 31
0.0
  0
LINE
  5
CAF
330
1F
100
AcDbEntity
  8
0
  6
Continuous
 62
     7
100
AcDbLine
 10
194.1318182537147
 20
-138.3498503710035
 30
0.0
 11
194.1318182537147
 21
-141.0959397311535
 31
0.0
  0
LINE
  5
CB0
330
1F
100
AcDbEntity
  8
10
  6
Continuous
 62
     7
100
AcDbLine
 10
213.2314182537146
 20
-153.8887989627162
 30
0.0
 11
213.2314182537146
 21
44.81229044585996
 31
0.0
  0
LINE
  5
CB1
330
1F
100
AcDbEntity
  8
0
  6
Continuous
 62
     7
100
AcDbLine
 10
213.2314182537145
 20
-135.3500003710032
 30
0.0
 11
218.2314182537145
 21
-135.3500003710032
 31
0.0
  0
LINE
  5
CB2
330
1F
100
AcDbEntity
  8
100
  6
Continuous
 62
    30
100
AcDbLine
 10
213.2314182537147
 20
-135.8500003710032
 30
0.0
 11
218.7314182537146
 21
-135.8500003710032
 31
0.0
  0
LINE
  5
CB3
330
1F
100
AcDbEntity
  8
100
  6
Continuous
 62
    30
100
AcDbLine
 10
213.2314182537145
 20
-140.8497003710033
 30
0.0
 11
218.7314182537146
 21
-140.8497003710033
 31
0.0
  0
LINE
  5
CB4
330
1F
100
AcDbEntity
  8
0
  6
Continuous
 62
     7
100
AcDbLine
 10
213.2314182537145
 20
-141.3497003710033
 30
0.0
 11
218.2314182537145
 21
-141.3497003710033
 31
0.0
  0
LINE
  5
CB5
330
1F
100
AcDbEntity
  8
0
  6
Continuous
 62
     7
100
AcDbLine
 10
360.3794182534866
 20
38.46813593660336
 30
0.0
 11
345.5793182534837
 21
38.46813593660336
 31
0.0
  0
LINE
  5
CB6
330
1F
100
AcDbEntity
  8
0
  6
Continuous
 62
     7
100
AcDbLine
 10
345.5793182534837
 20
51.15644495511651
 30
0.0
 11
360.3794182534837
 21
51.15644495511651
 31
0.0
  0
LINE
  5
CB7
330
1F
100
AcDbEntity
  8
0
  6
Continuous
 62
     7
100
AcDbLine
 10
360.3794182534837
 20
38.46813593660336
 30
0.0
 11
345.5793182534837
 21
38.46813593660336
 31
0.0
  0
LINE
  5
CB8
330
1F
100
AcDbEntity
  8
0
  6
Continuous
 62
     7
100
AcDbLine
 10
286.8554182534865
 20
38.46813593660336
 30
0.0
 11
272.0553182534838
 21
38.46813593660336
 31
0.0
  0
LINE
  5
CB9
330
1F
100
AcDbEntity
  8
0
  6
Continuous
 62
     7
100
AcDbLine
 10
362.8793182534836
 20
55.02143790273715
 30
0.0
 11
345.5793182534837
 21
55.02143790273715
 31
0.0
  0
LINE
  5
CBA
330
1F
100
AcDbEntity
  8
0
  6
Continuous
 62
     7
100
AcDbLine
 10
362.8793182534836
 20
51.15644495511651
 30
0.0
 11
345.5793182534837
 21
51.15644495511651
 31
0.0
  0
LINE
  5
CBB
330
1F
100
AcDbEntity
  8
0
  6
Continuous
 62
     7
100
AcDbLine
 10
289.7554182534837
 20
241.8122904458598
 30
0.0
 11
343.5794182547178
 21
241.8122904458598
 31
0.0
  0
LINE
  5
CBC
330
1F
100
AcDbEntity
  8
0
  6
Continuous
 62
     7
100
AcDbLine
 10
272.0553182534837
 20
55.02143790273715
 30
0.0
 11
286.8554182534837
 21
55.02143790273715
 31
0.0
  0
LINE
  5
CBD
330
1F
100
AcDbEntity
  8
0
  6
Continuous
 62
     7
100
AcDbLine
 10
272.0553182534838
 20
51.15644495511651
 30
0.0
 11
286.8554182534837
 21
51.15644495511651
 31
0.0
  0
LINE
  5
CBE
330
1F
100
AcDbEntity
  8
0
  6
DASH_CENTER
 62
    30
100
AcDbLine
 10
293.3036005933786
 20
227.9744312627232
 30
0.0
 11
264.0550343473665
 21
227.9744312627232
 31
0.0
  0
LINE
  5
CBF
330
1F
100
AcDbEntity
  8
0
  6
Continuous
 62
     7
100
AcDbLine
 10
270.7555182534838
 20
223.4734419025728
 30
0.0
 11
268.9159182534836
 21
223.6346419025729
 31
0.0
  0
LINE
  5
CC0
330
1F
100
AcDbEntity
  8
0
  6
Continuous
 62
     7
100
AcDbLine
 10
272.0553182534837
 20
223.3745312627233
 30
0.0
 11
272.0553182534837
 21
227.9744312627232
 31
0.0
  0
LINE
  5
CC1
330
1F
100
AcDbEntity
  8
0
  6
Continuous
 62
     7
100
AcDbLine
 10
270.7555182534838
 20
223.3745312627233
 30
0.0
 11
270.7557182534836
 21
227.6260312627231
 31
0.0
  0
LINE
  5
CC2
330
1F
100
AcDbEntity
  8
0
  6
Continuous
 62
     7
100
AcDbLine
 10
270.7555182534838
 20
227.6260312627231
 30
0.0
 11
272.0553182534837
 21
227.277631262723
 31
0.0
  0
LINE
  5
CC3
330
1F
100
AcDbEntity
  8
0
  6
Continuous
 62
     7
100
AcDbLine
 10
270.7555182534838
 20
223.3745312627233
 30
0.0
 11
272.0553182534837
 21
223.3745312627233
 31
0.0
  0
LINE
  5
CC4
330
1F
100
AcDbEntity
  8
0
  6
Continuous
 62
     7
100
AcDbLine
 10
267.4557182534837
 20
227.9744312627234
 30
0.0
 11
267.4557182534837
 21
225.228341902573
 31
0.0
  0
LINE
  5
CC5
330
1F
100
AcDbEntity
  8
0
  6
Continuous
 62
     7
100
AcDbLine
 10
268.9159182534836
 20
232.3142206228735
 30
0.0
 11
270.7555182534838
 21
232.4754206228736
 31
0.0
  0
LINE
  5
CC6
330
1F
100
AcDbEntity
  8
0
  6
Continuous
 62
     7
100
AcDbLine
 10
272.0553182534837
 20
227.9744312627232
 30
0.0
 11
272.0553182534837
 21
232.5743312627231
 31
0.0
  0
LINE
  5
CC7
330
1F
100
AcDbEntity
  8
0
  6
Continuous
 62
     7
100
AcDbLine
 10
270.7557182534836
 20
228.3228312627233
 30
0.0
 11
270.7555182534838
 21
232.5743312627231
 31
0.0
  0
LINE
  5
CC8
330
1F
100
AcDbEntity
  8
0
  6
Continuous
 62
     7
100
AcDbLine
 10
270.7555182534838
 20
228.3228312627233
 30
0.0
 11
272.0553182534837
 21
227.9744312627232
 31
0.0
  0
LINE
  5
CC9
330
1F
100
AcDbEntity
  8
0
  6
Continuous
 62
     7
100
AcDbLine
 10
272.0553182534837
 20
232.5743312627231
 30
0.0
 11
270.7555182534838
 21
232.5743312627231
 31
0.0
  0
LINE
  5
CCA
330
1F
100
AcDbEntity
  8
0
  6
Continuous
 62
     7
100
AcDbLine
 10
267.4557182534837
 20
230.7205206228734
 30
0.0
 11
267.4557182534837
 21
227.9744312627234
 31
0.0
  0
LINE
  5
CCB
330
1F
100
AcDbEntity
  8
0
  6
Continuous
 62
     7
100
AcDbLine
 10
286.8554182534837
 20
234.9744312627232
 30
0.0
 11
272.1554182534837
 21
234.9744312627232
 31
0.0
  0
LINE
  5
CCC
330
1F
100
AcDbEntity
  8
0
  6
Continuous
 62
     7
100
AcDbLine
 10
286.8554182534837
 20
218.2537894590155
 30
0.0
 11
272.1554182534837
 21
218.2537894590155
 31
0.0
  0
LINE
  5
CCD
330
1F
100
AcDbEntity
  8
10
  6
Continuous
 62
     7
100
AcDbLine
 10
286.8554182534837
 20
44.81229044585989
 30
0.0
 11
286.8554182534836
 21
243.5133798544365
 31
0.0
  0
LINE
  5
CCE
330
1F
100
AcDbEntity
  8
10
  6
Continuous
 62
     7
100
AcDbLine
 10
284.9823182534837
 20
244.8122904458598
 30
0.0
 11
279.3554182534837
 21
244.8122904458598
 31
0.0
  0
LINE
  5
CCF
330
1F
100
AcDbEntity
  8
10
  6
Continuous
 62
     7
100
AcDbLine
 10
272.0553182534837
 20
244.8122904458598
 30
0.0
 11
279.3553182534836
 21
244.8122904458598
 31
0.0
  0
LINE
  5
CD0
330
1F
100
AcDbEntity
  8
0
  6
Continuous
 62
     7
100
AcDbLine
 10
279.3553182534836
 20
44.81229044585989
 30
0.0
 11
279.3553182534836
 21
244.8122904458598
 31
0.0
  0
LINE
  5
CD1
330
1F
100
AcDbEntity
  8
10
  6
Continuous
 62
     7
100
AcDbLine
 10
272.0553182534837
 20
44.81229044585996
 30
0.0
 11
272.0553182534837
 21
243.8122904446097
 31
0.0
  0
LINE
  5
CD2
330
1F
100
AcDbEntity
  8
10
  6
Continuous
 62
     7
100
AcDbLine
 10
279.3553182534836
 20
44.81229044585989
 30
0.0
 11
279.3553182534836
 21
114.4573210058975
 31
0.0
  0
LINE
  5
CD3
330
1F
100
AcDbEntity
  8
10
  6
Continuous
 62
     7
100
AcDbLine
 10
272.0553182534837
 20
243.8122904458598
 30
0.0
 11
272.0553182534837
 21
244.8122904458598
 31
0.0
  0
LINE
  5
CE0
330
1F
100
AcDbEntity
  8
0
  6
Continuous
 62
     7
100
AcDbLine
 10
215.2314182537146
 20
241.8122904458599
 30
0.0
 11
270.0554182534835
 21
241.8122904458598
 31
0.0
  0
LINE
  5
CE2
330
1F
100
AcDbEntity
  8
10
  6
Continuous
 62
     7
100
AcDbLine
 10
213.2314182537146
 20
44.81229044585996
 30
0.0
 11
213.2314182537146
 21
243.5133798544362
 31
0.0
  0
LINE
  5
CE3
330
1F
100
AcDbEntity
  8
10
  6
Continuous
 62
     7
100
AcDbLine
 10
205.9314182537146
 20
44.81229044585996
 30
0.0
 11
205.9314182537146
 21
244.8122904458599
 31
0.0
  0
LINE
  5
CE4
330
1F
100
AcDbEntity
  8
10
  6
Continuous
 62
     7
100
AcDbLine
 10
211.3583182537146
 20
244.8122904458599
 30
0.0
 11
205.9314182537146
 21
244.8122904458599
 31
0.0
  0
LINE
  5
CE5
330
1F
100
AcDbEntity
  8
0
  6
Continuous
 62
     7
100
AcDbLine
 10
124.4227722081163
 20
122.31229044586
 30
0.0
 11
103.3227722537145
 21
122.3122904458599
 31
0.0
  0
LINE
  5
CE6
330
1F
100
AcDbEntity
  8
0
  6
Continuous
 62
     7
100
AcDbLine
 10
137.4227722081162
 20
241.8122904458598
 30
0.0
 11
196.7314182537146
 21
241.8122904458599
 31
0.0
  0
LINE
  5
CE7
330
1F
100
AcDbEntity
  8
0
  6
Continuous
 62
     7
100
AcDbLine
 10
200.604401599922
 20
244.8122904458597
 30
0.0
 11
205.9314182537146
 21
244.8122904458599
 31
0.0
  0
LINE
  5
CE8
330
1F
100
AcDbEntity
  8
0
  6
Continuous
 62
     7
100
AcDbLine
 10
198.7314182537146
 20
44.81229044585996
 30
0.0
 11
198.7314182537146
 21
243.5136700754681
 31
0.0
  0
LINE
  5
CE9
330
1F
100
AcDbEntity
  8
0
  6
Continuous
 62
     7
100
AcDbLine
 10
127.4227722081162
 20
231.8122904458599
 30
0.0
 11
127.4227722081162
 21
44.81229044586
 31
0.0
  0
LINE
  5
CEA
330
1F
100
AcDbEntity
  8
0
  6
Continuous
 62
     7
100
AcDbLine
 10
213.2314182537145
 20
55.0214379027372
 30
0.0
 11
198.7314182537146
 21
55.0214379027372
 31
0.0
  0
LINE
  5
CEB
330
1F
100
AcDbEntity
  8
0
  6
Continuous
 62
     7
100
AcDbLine
 10
213.2314182537146
 20
51.15644495511657
 30
0.0
 11
198.7314182537146
 21
51.15644495511657
 31
0.0
  0
LINE
  5
CEC
330
1F
100
AcDbEntity
  8
0
  6
Continuous
 62
     7
100
AcDbLine
 10
97.42277225371459
 20
108.3122904458599
 30
0.0
 11
66.92277225371459
 21
108.3122904458599
 31
0.0
  0
LINE
  5
CED
330
1F
100
AcDbEntity
  8
0
  6
Continuous
 62
     7
100
AcDbLine
 10
65.42277225371458
 20
44.81229044586
 30
0.0
 11
65.42277225371458
 21
106.8122904458599
 31
0.0
  0
LINE
  5
CEE
330
1F
100
AcDbEntity
  8
0
  6
Continuous
 62
     7
100
AcDbLine
 10
103.4227722537146
 20
122.3122904458599
 30
0.0
 11
101.4227722537146
 21
122.3122904458599
 31
0.0
  0
LINE
  5
CEF
330
1F
100
AcDbEntity
  8
0
  6
Continuous
 62
     7
100
AcDbLine
 10
99.4227722537146
 20
117.8122904458601
 30
0.0
 11
99.4227722537146
 21
44.81229044586
 31
0.0
  0
LINE
  5
CF0
330
1F
100
AcDbEntity
  8
0
  6
Continuous
 62
     7
100
AcDbLine
 10
99.4227722537146
 20
120.8123436166219
 30
0.0
 11
99.4227722537146
 21
111.8123436166219
 31
0.0
  0
LINE
  5
CF1
330
1F
100
AcDbEntity
  8
0
  6
Continuous
 62
     7
100
AcDbLine
 10
96.12297225371458
 20
113.5672436166218
 30
0.0
 11
96.12297225371458
 21
119.0574436166217
 31
0.0
  0
LINE
  5
CF2
330
1F
100
AcDbEntity
  8
0
  6
Continuous
 62
     7
100
AcDbLine
 10
97.58317225371456
 20
111.9732436166216
 30
0.0
 11
99.4227722537146
 21
111.8123436166219
 31
0.0
  0
LINE
  5
CF3
330
1F
100
AcDbEntity
  8
0
  6
Continuous
 62
     7
100
AcDbLine
 10
97.58317225371456
 20
120.6511436166219
 30
0.0
 11
99.4227722537146
 21
120.8123436166219
 31
0.0
  0
LINE
  5
CF4
330
1F
100
AcDbEntity
  8
0
  6
DASH_CENTER
 62
    30
100
AcDbLine
 10
116.1744840633215
 20
116.31229044586
 30
0.0
 11
92.16184287475515
 21
116.31229044586
 31
0.0
  0
LINE
  5
CF5
330
1F
100
AcDbEntity
  8
0
  6
Continuous
 62
     7
100
AcDbLine
 10
97.58317225371456
 20
49.15114361662176
 30
0.0
 11
99.4227722537146
 21
49.31234361662177
 31
0.0
  0
LINE
  5
D77
330
1F
100
AcDbEntity
  8
0
  6
DASH_CENTER
 62
    30
100
AcDbLine
 10
-719.4852270799074
 20
44.81229044585996
 30
0.0
 11
-714.720080929674
 21
44.81229044585996
 31
0.0
  0
LINE
  5
DB0
330
1F
100
AcDbEntity
  8
0
  6
DASH_CENTER
 62
    30
100
AcDbLine
 10
-502.7200809296738
 20
259.2400767892711
 30
0.0
 11
-502.7200809296738
 21
-192.039894833946
 31
0.0
  0
LINE
  5
DB1
330
1F
100
AcDbEntity
  8
0
  6
Continuous
 62
     7
100
AcDbLine
 10
-476.3951877674974
 20
47.81229044585995
 30
0.0
 11
-445.5513630197954
 21
47.81229044585995
 31
0.0
  0
LINE
  5
DB2
330
1F
100
AcDbEntity
  8
0
  6
Continuous
 62
     7
100
AcDbLine
 10
-476.3951877674974
 20
41.81229044585996
 30
0.0
 11
-445.5513630197954
 21
41.81229044585996
 31
0.0
  0
LINE
  5
DB3
330
1F
100
AcDbEntity
  8
0
  6
Continuous
 62
     7
100
AcDbLine
 10
-499.7200809296738
 20
18.4873972836836
 30
0.0
 11
-499.7200809296738
 21
-12.35642746401856
 31
0.0
  0
LINE
  5
DB4
330
1F
100
AcDbEntity
  8
0
  6
Continuous
 62
     7
100
AcDbLine
 10
-505.7200809296737
 20
18.4873972836836
 30
0.0
 11
-505.7200809296737
 21
-12.35642746401856
 31
0.0
  0
LINE
  5
DB5
330
1F
100
AcDbEntity
  8
0
  6
Continuous
 62
     7
100
AcDbLine
 10
-529.0449740918502
 20
41.81229044585996
 30
0.0
 11
-559.8887988395525
 21
41.81229044585996
 31
0.0
  0
LINE
  5
DB6
330
1F
100
AcDbEntity
  8
0
  6
Continuous
 62
     7
100
AcDbLine
 10
-529.0449740918502
 20
47.81229044585995
 30
0.0
 11
-559.8887988395525
 21
47.81229044585995
 31
0.0
  0
LINE
  5
DB7
330
1F
100
AcDbEntity
  8
0
  6
Continuous
 62
     7
100
AcDbLine
 10
-505.7200809296737
 20
71.13718360803638
 30
0.0
 11
-505.7200809296737
 21
102.0142077175997
 31
0.0
  0
LINE
  5
DB8
330
1F
100
AcDbEntity
  8
0
  6
Continuous
 62
     7
100
AcDbLine
 10
-499.7200809296738
 20
71.13718360803638
 30
0.0
 11
-499.7200809296738
 21
102.0142077175997
 31
0.0
  0
LINE
  5
DB9
330
1F
100
AcDbEntity
  8
0
  6
Continuous
 62
     7
100
AcDbLine
 10
-499.9530198906686
 20
188.0723783187354
 30
0.0
 11
-504.1297642156841
 21
183.0947282640506
 31
0.0
  0
LINE
  5
DBA
330
1F
100
AcDbEntity
  8
0
  6
Continuous
 62
     7
100
AcDbLine
 10
-518.5630955723429
 20
192.1340082921329
 30
0.0
 11
-517.3444021382918
 21
182.2085467757196
 31
0.0
  0
LINE
  5
DBB
330
1F
100
AcDbEntity
  8
0
  6
Continuous
 62
     7
100
AcDbLine
 10
-518.5630955723429
 20
192.1340082921329
 30
0.0
 11
-536.3291648264292
 21
173.0822315239194
 31
0.0
  0
LINE
  5
DBC
330
1F
100
AcDbEntity
  8
0
  6
Continuous
 62
     7
100
AcDbLine
 10
-465.5180205268818
 20
182.4386977156952
 30
0.0
 11
-472.5386491531875
 21
174.0718383280257
 31
0.0
  0
LINE
  5
DBD
330
1F
100
AcDbEntity
  8
0
  6
Continuous
 62
     7
100
AcDbLine
 10
-432.6199809296736
 20
45.31229044585995
 30
0.0
 11
-431.2200809296738
 21
45.31229044585995
 31
0.0
  0
LINE
  5
DBE
330
1F
100
AcDbEntity
  8
0
  6
Continuous
 62
     7
100
AcDbLine
 10
-432.6199809296736
 20
44.31229044585996
 30
0.0
 11
-431.2200809296738
 21
44.31229044585996
 31
0.0
  0
LINE
  5
DBF
330
1F
100
AcDbEntity
  8
0
  6
Continuous
 62
     7
100
AcDbLine
 10
-430.7200809296737
 20
42.41239044585973
 30
0.0
 11
-430.7200809296737
 21
43.81229044585995
 31
0.0
  0
LINE
  5
DC0
330
1F
100
AcDbEntity
  8
0
  6
Continuous
 62
     7
100
AcDbLine
 10
-429.7200809296738
 20
42.41239044585973
 30
0.0
 11
-429.7200809296738
 21
43.81229044585995
 31
0.0
  0
LINE
  5
DC1
330
1F
100
AcDbEntity
  8
0
  6
Continuous
 62
     7
100
AcDbLine
 10
-429.2200809296738
 20
45.31229044585995
 30
0.0
 11
-427.8201809296736
 21
45.31229044585995
 31
0.0
  0
LINE
  5
DC2
330
1F
100
AcDbEntity
  8
0
  6
Continuous
 62
     7
100
AcDbLine
 10
-430.7200809296737
 20
45.81229044585995
 30
0.0
 11
-430.7200809296737
 21
47.21219044585972
 31
0.0
  0
LINE
  5
DC3
330
1F
100
AcDbEntity
  8
0
  6
Continuous
 62
     7
100
AcDbLine
 10
-429.7200809296738
 20
45.81229044585995
 30
0.0
 11
-429.7200809296738
 21
47.21219044585972
 31
0.0
  0
LINE
  5
DC4
330
1F
100
AcDbEntity
  8
0
  6
Continuous
 62
     7
100
AcDbLine
 10
-429.2200809296738
 20
44.31229044585996
 30
0.0
 11
-427.8201809296736
 21
44.31229044585996
 31
0.0
  0
LINE
  5
DC5
330
1F
100
AcDbEntity
  8
0
  6
Continuous
 62
     7
100
AcDbLine
 10
-430.7200809296737
 20
47.21219044585972
 30
0.0
 11
-429.7200809296738
 21
47.21219044585972
 31
0.0
  0
LINE
  5
DC6
330
1F
100
AcDbEntity
  8
0
  6
Continuous
 62
     7
100
AcDbLine
 10
-430.7200809296737
 20
42.41239044585973
 30
0.0
 11
-429.7200809296738
 21
42.41239044585973
 31
0.0
  0
LINE
  5
DC7
330
1F
100
AcDbEntity
  8
0
  6
Continuous
 62
     7
100
AcDbLine
 10
-432.6199809296736
 20
44.31229044585996
 30
0.0
 11
-432.6199809296736
 21
45.31229044585995
 31
0.0
  0
LINE
  5
DC8
330
1F
100
AcDbEntity
  8
0
  6
Continuous
 62
     7
100
AcDbLine
 10
-427.8201809296736
 20
44.31229044585996
 30
0.0
 11
-427.8201809296736
 21
45.31229044585995
 31
0.0
  0
LINE
  5
DC9
330
1F
100
AcDbEntity
  8
0
  6
Continuous
 62
     7
100
AcDbLine
 10
-502.2200809296738
 20
-25.28780955414017
 30
0.0
 11
-502.2200809296738
 21
-26.68770955414004
 31
0.0
  0
LINE
  5
DCA
330
1F
100
AcDbEntity
  8
0
  6
Continuous
 62
     7
100
AcDbLine
 10
-503.2200809296738
 20
-25.28780955414017
 30
0.0
 11
-503.2200809296738
 21
-26.68770955414004
 31
0.0
  0
LINE
  5
DCB
330
1F
100
AcDbEntity
  8
0
  6
Continuous
 62
     7
100
AcDbLine
 10
-505.119980929674
 20
-27.18770955414004
 30
0.0
 11
-503.7200809296738
 21
-27.18770955414004
 31
0.0
  0
LINE
  5
DCC
330
1F
100
AcDbEntity
  8
0
  6
Continuous
 62
     7
100
AcDbLine
 10
-505.119980929674
 20
-28.18770955414004
 30
0.0
 11
-503.7200809296738
 21
-28.18770955414004
 31
0.0
  0
LINE
  5
DCD
330
1F
100
AcDbEntity
  8
0
  6
Continuous
 62
     7
100
AcDbLine
 10
-502.2200809296738
 20
-28.68770955414004
 30
0.0
 11
-502.2200809296738
 21
-30.08760955414016
 31
0.0
  0
LINE
  5
DCE
330
1F
100
AcDbEntity
  8
0
  6
Continuous
 62
     7
100
AcDbLine
 10
-501.7200809296737
 20
-27.18770955414004
 30
0.0
 11
-500.3201809296739
 21
-27.18770955414004
 31
0.0
  0
LINE
  5
DCF
330
1F
100
AcDbEntity
  8
0
  6
Continuous
 62
     7
100
AcDbLine
 10
-501.7200809296737
 20
-28.18770955414004
 30
0.0
 11
-500.3201809296739
 21
-28.18770955414004
 31
0.0
  0
LINE
  5
DD0
330
1F
100
AcDbEntity
  8
0
  6
Continuous
 62
     7
100
AcDbLine
 10
-503.2200809296738
 20
-28.68770955414004
 30
0.0
 11
-503.2200809296738
 21
-30.08760955414016
 31
0.0
  0
LINE
  5
DD1
330
1F
100
AcDbEntity
  8
0
  6
Continuous
 62
     7
100
AcDbLine
 10
-500.3201809296739
 20
-27.18770955414004
 30
0.0
 11
-500.3201809296739
 21
-28.18770955414004
 31
0.0
  0
LINE
  5
DD2
330
1F
100
AcDbEntity
  8
0
  6
Continuous
 62
     7
100
AcDbLine
 10
-505.119980929674
 20
-27.18770955414004
 30
0.0
 11
-505.119980929674
 21
-28.18770955414004
 31
0.0
  0
LINE
  5
DD3
330
1F
100
AcDbEntity
  8
0
  6
Continuous
 62
     7
100
AcDbLine
 10
-503.2200809296738
 20
-25.28780955414017
 30
0.0
 11
-502.2200809296738
 21
-25.28780955414017
 31
0.0
  0
LINE
  5
DD4
330
1F
100
AcDbEntity
  8
0
  6
Continuous
 62
     7
100
AcDbLine
 10
-503.2200809296738
 20
-30.08760955414016
 30
0.0
 11
-502.2200809296738
 21
-30.08760955414016
 31
0.0
  0
LINE
  5
DD5
330
1F
100
AcDbEntity
  8
0
  6
Continuous
 62
     7
100
AcDbLine
 10
-572.8201809296741
 20
44.31229044586
 30
0.0
 11
-574.2200809296738
 21
44.31229044586
 31
0.0
  0
LINE
  5
DD6
330
1F
100
AcDbEntity
  8
0
  6
Continuous
 62
     7
100
AcDbLine
 10
-572.8201809296741
 20
45.31229044586001
 30
0.0
 11
-574.2200809296738
 21
45.31229044586001
 31
0.0
  0
LINE
  5
DD7
330
1F
100
AcDbEntity
  8
0
  6
Continuous
 62
     7
100
AcDbLine
 10
-574.7200809296738
 20
47.21219044586017
 30
0.0
 11
-574.7200809296738
 21
45.81229044586001
 31
0.0
  0
LINE
  5
DD8
330
1F
100
AcDbEntity
  8
0
  6
Continuous
 62
     7
100
AcDbLine
 10
-575.7200809296738
 20
47.21219044586017
 30
0.0
 11
-575.7200809296738
 21
45.81229044586001
 31
0.0
  0
LINE
  5
DD9
330
1F
100
AcDbEntity
  8
0
  6
Continuous
 62
     7
100
AcDbLine
 10
-576.2200809296738
 20
44.31229044586
 30
0.0
 11
-577.6199809296739
 21
44.31229044586
 31
0.0
  0
LINE
  5
DDA
330
1F
100
AcDbEntity
  8
0
  6
Continuous
 62
     7
100
AcDbLine
 10
-574.7200809296738
 20
43.81229044586
 30
0.0
 11
-574.7200809296738
 21
42.41239044586018
 31
0.0
  0
LINE
  5
DDB
330
1F
100
AcDbEntity
  8
0
  6
Continuous
 62
     7
100
AcDbLine
 10
-575.7200809296738
 20
43.81229044586
 30
0.0
 11
-575.7200809296738
 21
42.41239044586018
 31
0.0
  0
LINE
  5
DDC
330
1F
100
AcDbEntity
  8
0
  6
Continuous
 62
     7
100
AcDbLine
 10
-576.2200809296738
 20
45.31229044586001
 30
0.0
 11
-577.6199809296739
 21
45.31229044586001
 31
0.0
  0
LINE
  5
DDD
330
1F
100
AcDbEntity
  8
0
  6
Continuous
 62
     7
100
AcDbLine
 10
-574.7200809296738
 20
42.41239044586018
 30
0.0
 11
-575.7200809296738
 21
42.41239044586018
 31
0.0
  0
LINE
  5
DDE
330
1F
100
AcDbEntity
  8
0
  6
Continuous
 62
     7
100
AcDbLine
 10
-574.7200809296738
 20
47.21219044586017
 30
0.0
 11
-575.7200809296738
 21
47.21219044586017
 31
0.0
  0
LINE
  5
DDF
330
1F
100
AcDbEntity
  8
0
  6
Continuous
 62
     7
100
AcDbLine
 10
-572.8201809296741
 20
45.31229044586001
 30
0.0
 11
-572.8201809296741
 21
44.31229044586
 31
0.0
  0
LINE
  5
DE0
330
1F
100
AcDbEntity
  8
0
  6
Continuous
 62
     7
100
AcDbLine
 10
-577.6199809296739
 20
45.31229044586001
 30
0.0
 11
-577.6199809296739
 21
44.31229044586
 31
0.0
  0
LINE
  5
DE1
330
1F
100
AcDbEntity
  8
0
  6
Continuous
 62
     7
100
AcDbLine
 10
-503.2200809296738
 20
114.9123904458602
 30
0.0
 11
-503.2200809296738
 21
116.3122904458599
 31
0.0
  0
LINE
  5
DE2
330
1F
100
AcDbEntity
  8
0
  6
Continuous
 62
     7
100
AcDbLine
 10
-502.2200809296738
 20
114.9123904458602
 30
0.0
 11
-502.2200809296738
 21
116.3122904458599
 31
0.0
  0
LINE
  5
DE3
330
1F
100
AcDbEntity
  8
0
  6
Continuous
 62
     7
100
AcDbLine
 10
-500.3201809296736
 20
116.8122904458599
 30
0.0
 11
-501.7200809296737
 21
116.8122904458599
 31
0.0
  0
LINE
  5
DE4
330
1F
100
AcDbEntity
  8
0
  6
Continuous
 62
     7
100
AcDbLine
 10
-500.3201809296736
 20
117.8122904458599
 30
0.0
 11
-501.7200809296737
 21
117.8122904458599
 31
0.0
  0
LINE
  5
DE5
330
1F
100
AcDbEntity
  8
0
  6
Continuous
 62
     7
100
AcDbLine
 10
-503.2200809296738
 20
118.3122904458599
 30
0.0
 11
-503.2200809296738
 21
119.7121904458602
 31
0.0
  0
LINE
  5
DE6
330
1F
100
AcDbEntity
  8
0
  6
Continuous
 62
     7
100
AcDbLine
 10
-503.7200809296738
 20
116.8122904458599
 30
0.0
 11
-505.1199809296734
 21
116.8122904458599
 31
0.0
  0
LINE
  5
DE7
330
1F
100
AcDbEntity
  8
0
  6
Continuous
 62
     7
100
AcDbLine
 10
-503.7200809296738
 20
117.8122904458599
 30
0.0
 11
-505.1199809296734
 21
117.8122904458599
 31
0.0
  0
LINE
  5
DE8
330
1F
100
AcDbEntity
  8
0
  6
Continuous
 62
     7
100
AcDbLine
 10
-502.2200809296738
 20
118.3122904458599
 30
0.0
 11
-502.2200809296738
 21
119.7121904458602
 31
0.0
  0
LINE
  5
DE9
330
1F
100
AcDbEntity
  8
0
  6
Continuous
 62
     7
100
AcDbLine
 10
-505.1199809296734
 20
116.8122904458599
 30
0.0
 11
-505.1199809296734
 21
117.8122904458599
 31
0.0
  0
LINE
  5
DEA
330
1F
100
AcDbEntity
  8
0
  6
Continuous
 62
     7
100
AcDbLine
 10
-500.3201809296736
 20
116.8122904458599
 30
0.0
 11
-500.3201809296736
 21
117.8122904458599
 31
0.0
  0
LINE
  5
DEB
330
1F
100
AcDbEntity
  8
0
  6
Continuous
 62
     7
100
AcDbLine
 10
-502.2200809296738
 20
114.9123904458602
 30
0.0
 11
-503.2200809296738
 21
114.9123904458602
 31
0.0
  0
LINE
  5
DEC
330
1F
100
AcDbEntity
  8
0
  6
Continuous
 62
     7
100
AcDbLine
 10
-502.2200809296738
 20
119.7121904458602
 30
0.0
 11
-503.2200809296738
 21
119.7121904458602
 31
0.0
  0
LINE
  5
DED
330
1F
100
AcDbEntity
  8
0
  6
DASH_CENTER
 62
    30
100
AcDbLine
 10
-598.9272568050676
 20
-121.8234262230383
 30
0.0
 11
-611.8889698739426
 21
-144.2737718114591
 31
0.0
  0
LINE
  5
DEE
330
1F
100
AcDbEntity
  8
0
  6
DASH_CENTER
 62
    30
100
AcDbLine
 10
-393.5511919854048
 20
-144.2737718114591
 30
0.0
 11
-406.5129050542798
 21
-121.8234262230381
 31
0.0
  0
LINE
  5
DEF
330
1F
100
AcDbEntity
  8
0
  6
DASH_CENTER
 62
    30
100
AcDbLine
 10
-611.888969873943
 20
233.898352703179
 30
0.0
 11
-598.9272568050679
 21
211.448007114758
 31
0.0
  0
LINE
  5
DF0
330
1F
100
AcDbEntity
  8
0
  6
DASH_CENTER
 62
    30
100
AcDbLine
 10
-406.5129050542798
 20
211.4480071147581
 30
0.0
 11
-393.5511919854048
 21
233.8983527031792
 31
0.0
  0
LINE
  5
DF1
330
1F
100
AcDbEntity
  8
0
  6
Continuous
 62
     7
100
AcDbLine
 10
-409.3251263556721
 20
224.5174988999745
 30
0.0
 11
-404.2351159841315
 21
228.0815625316929
 31
0.0
  0
LINE
  5
DF2
330
1F
100
AcDbEntity
  8
0
  6
Continuous
 62
     7
100
AcDbLine
 10
-403.0144572976541
 20
-133.6433154851393
 30
0.0
 11
-401.5595346192961
 21
-132.8033154851392
 31
0.0
  0
LINE
  5
DF3
330
1F
100
AcDbEntity
  8
0
  6
Continuous
 62
     7
100
AcDbLine
 10
-402.4145072976542
 20
-134.68245936714
 30
0.0
 11
-400.9595846192963
 21
-133.84245936714
 31
0.0
  0
LINE
  5
DF4
330
1F
100
AcDbEntity
  8
0
  6
Continuous
 62
     7
100
AcDbLine
 10
-399.2999827744853
 20
-135.5167740826878
 30
0.0
 11
-400.1398327744851
 21
-134.0621112119511
 31
0.0
  0
LINE
  5
DF5
330
1F
100
AcDbEntity
  8
0
  6
Continuous
 62
     7
100
AcDbLine
 10
-398.2608388924843
 20
-134.9168240826877
 30
0.0
 11
-399.1006888924845
 21
-133.4621612119512
 31
0.0
  0
LINE
  5
DF6
330
1F
100
AcDbEntity
  8
0
  6
Continuous
 62
     7
100
AcDbLine
 10
-399.4809870476731
 20
-131.6032654851392
 30
0.0
 11
-398.0261509718559
 21
-130.7633154851393
 31
0.0
  0
LINE
  5
DF7
330
1F
100
AcDbEntity
  8
0
  6
Continuous
 62
     7
100
AcDbLine
 10
-401.339882774485
 20
-131.983563640328
 30
0.0
 11
-402.1797327744851
 21
-130.5289007695913
 31
0.0
  0
LINE
  5
DF8
330
1F
100
AcDbEntity
  8
0
  6
Continuous
 62
     7
100
AcDbLine
 10
-400.3007388924842
 20
-131.3836136403281
 30
0.0
 11
-401.1405888924842
 21
-129.9289507695914
 31
0.0
  0
LINE
  5
DF9
330
1F
100
AcDbEntity
  8
0
  6
Continuous
 62
     7
100
AcDbLine
 10
-398.8810370476733
 20
-132.64240936714
 30
0.0
 11
-397.426200971856
 21
-131.80245936714
 31
0.0
  0
LINE
  5
DFA
330
1F
100
AcDbEntity
  8
0
  6
Continuous
 62
     7
100
AcDbLine
 10
-402.1797327744851
 20
-130.5289007695913
 30
0.0
 11
-401.1405888924842
 21
-129.9289507695914
 31
0.0
  0
LINE
  5
DFB
330
1F
100
AcDbEntity
  8
0
  6
Continuous
 62
     7
100
AcDbLine
 10
-399.2999827744853
 20
-135.5167740826878
 30
0.0
 11
-398.2608388924843
 21
-134.9168240826877
 31
0.0
  0
LINE
  5
DFC
330
1F
100
AcDbEntity
  8
0
  6
Continuous
 62
     7
100
AcDbLine
 10
-402.4145072976542
 20
-134.68245936714
 30
0.0
 11
-403.0144572976541
 21
-133.6433154851393
 31
0.0
  0
LINE
  5
DFD
330
1F
100
AcDbEntity
  8
0
  6
Continuous
 62
     7
100
AcDbLine
 10
-397.426200971856
 20
-131.80245936714
 30
0.0
 11
-398.0261509718559
 21
-130.7633154851393
 31
0.0
  0
LINE
  5
DFE
330
1F
100
AcDbEntity
  8
0
  6
Continuous
 62
     7
100
AcDbLine
 10
-404.2351159841316
 20
-138.4569816399731
 30
0.0
 11
-409.3251263556721
 21
-134.8929180082546
 31
0.0
  0
LINE
  5
DFF
330
1F
100
AcDbEntity
  8
0
  6
Continuous
 62
     7
100
AcDbLine
 10
-393.788282503034
 20
-125.9227170275767
 30
0.0
 11
-393.246718043032
 21
-132.1128271307166
 31
0.0
  0
LINE
  5
E00
330
1F
100
AcDbEntity
  8
0
  6
Continuous
 62
     7
100
AcDbLine
 10
-607.4143572976537
 20
-130.7631154851392
 30
0.0
 11
-605.9594346192957
 21
-131.6031154851392
 31
0.0
  0
LINE
  5
E01
330
1F
100
AcDbEntity
  8
0
  6
Continuous
 62
     7
100
AcDbLine
 10
-608.0143072976535
 20
-131.80225936714
 30
0.0
 11
-606.5593846192955
 21
-132.64225936714
 31
0.0
  0
LINE
  5
E02
330
1F
100
AcDbEntity
  8
0
  6
Continuous
 62
     7
100
AcDbLine
 10
-607.1795827744844
 20
-134.9166740826878
 30
0.0
 11
-606.3397327744844
 21
-133.4620112119511
 31
0.0
  0
LINE
  5
E03
330
1F
100
AcDbEntity
  8
0
  6
Continuous
 62
     7
100
AcDbLine
 10
-606.1404388924835
 20
-135.5166240826877
 30
0.0
 11
-605.3005888924839
 21
-134.061961211951
 31
0.0
  0
LINE
  5
E04
330
1F
100
AcDbEntity
  8
0
  6
Continuous
 62
     7
100
AcDbLine
 10
-603.8808870476724
 20
-132.8031654851393
 30
0.0
 11
-602.426050971855
 21
-133.6431154851392
 31
0.0
  0
LINE
  5
E05
330
1F
100
AcDbEntity
  8
0
  6
Continuous
 62
     7
100
AcDbLine
 10
-605.1396827744845
 20
-131.3834636403281
 30
0.0
 11
-604.2998327744842
 21
-129.9288007695914
 31
0.0
  0
LINE
  5
E06
330
1F
100
AcDbEntity
  8
0
  6
Continuous
 62
     7
100
AcDbLine
 10
-604.1005388924835
 20
-131.9834136403281
 30
0.0
 11
-603.2606888924836
 21
-130.5287507695914
 31
0.0
  0
LINE
  5
E07
330
1F
100
AcDbEntity
  8
0
  6
Continuous
 62
     7
100
AcDbLine
 10
-604.4808370476727
 20
-133.84230936714
 30
0.0
 11
-603.0260009718553
 21
-134.68225936714
 31
0.0
  0
LINE
  5
E08
330
1F
100
AcDbEntity
  8
0
  6
Continuous
 62
     7
100
AcDbLine
 10
-604.2998327744842
 20
-129.9288007695914
 30
0.0
 11
-603.2606888924836
 21
-130.5287507695914
 31
0.0
  0
LINE
  5
E09
330
1F
100
AcDbEntity
  8
0
  6
Continuous
 62
     7
100
AcDbLine
 10
-607.1795827744844
 20
-134.9166740826878
 30
0.0
 11
-606.1404388924835
 21
-135.5166240826877
 31
0.0
  0
LINE
  5
E0A
330
1F
100
AcDbEntity
  8
0
  6
Continuous
 62
     7
100
AcDbLine
 10
-608.0143072976535
 20
-131.80225936714
 30
0.0
 11
-607.4143572976537
 21
-130.7631154851392
 31
0.0
  0
LINE
  5
E0B
330
1F
100
AcDbEntity
  8
0
  6
Continuous
 62
     7
100
AcDbLine
 10
-603.0260009718553
 20
-134.68225936714
 30
0.0
 11
-602.426050971855
 21
-133.6431154851392
 31
0.0
  0
LINE
  5
E0C
330
1F
100
AcDbEntity
  8
0
  6
Continuous
 62
     7
100
AcDbLine
 10
-612.1934438163157
 20
-132.1128271307165
 30
0.0
 11
-611.6518793563137
 21
-125.9227170275767
 31
0.0
  0
LINE
  5
E0D
330
1F
100
AcDbEntity
  8
0
  6
Continuous
 62
     7
100
AcDbLine
 10
-596.1150355036752
 20
-134.8929180082546
 30
0.0
 11
-601.2050458752162
 21
-138.4569816399731
 31
0.0
  0
LINE
  5
E0E
330
1F
100
AcDbEntity
  8
0
  6
Continuous
 62
     7
100
AcDbLine
 10
-707.1199809296739
 20
47.69249044586013
 30
0.0
 11
-707.1199809296739
 21
46.01249044586007
 31
0.0
  0
LINE
  5
E0F
330
1F
100
AcDbEntity
  8
0
  6
Continuous
 62
     7
100
AcDbLine
 10
-708.3198809296738
 20
47.69249044586013
 30
0.0
 11
-708.3198809296738
 21
46.01249044586007
 31
0.0
  0
LINE
  5
E10
330
1F
100
AcDbEntity
  8
0
  6
Continuous
 62
     7
100
AcDbLine
 10
-710.5996809296739
 20
45.41239044585995
 30
0.0
 11
-708.9199809296737
 21
45.41239044585995
 31
0.0
  0
LINE
  5
E11
330
1F
100
AcDbEntity
  8
0
  6
Continuous
 62
     7
100
AcDbLine
 10
-710.5996809296739
 20
44.21249044586011
 30
0.0
 11
-708.9199809296737
 21
44.21249044586011
 31
0.0
  0
LINE
  5
E12
330
1F
100
AcDbEntity
  8
0
  6
Continuous
 62
     7
100
AcDbLine
 10
-707.1199809296739
 20
43.61239044585993
 30
0.0
 11
-707.1199809296739
 21
41.93249044586013
 31
0.0
  0
LINE
  5
E13
330
1F
100
AcDbEntity
  8
0
  6
Continuous
 62
     7
100
AcDbLine
 10
-706.519880929674
 20
45.41239044585995
 30
0.0
 11
-704.8401809296738
 21
45.41239044585995
 31
0.0
  0
LINE
  5
E14
330
1F
100
AcDbEntity
  8
0
  6
Continuous
 62
     7
100
AcDbLine
 10
-706.519880929674
 20
44.21249044586011
 30
0.0
 11
-704.8401809296738
 21
44.21249044586011
 31
0.0
  0
LINE
  5
E15
330
1F
100
AcDbEntity
  8
0
  6
Continuous
 62
     7
100
AcDbLine
 10
-708.3198809296738
 20
43.61239044585999
 30
0.0
 11
-708.3198809296738
 21
41.93249044586013
 31
0.0
  0
LINE
  5
E16
330
1F
100
AcDbEntity
  8
0
  6
Continuous
 62
     7
100
AcDbLine
 10
-704.8401809296738
 20
45.41239044585995
 30
0.0
 11
-704.8401809296738
 21
44.21249044586011
 31
0.0
  0
LINE
  5
E17
330
1F
100
AcDbEntity
  8
0
  6
Continuous
 62
     7
100
AcDbLine
 10
-710.5996809296739
 20
45.41239044585995
 30
0.0
 11
-710.5996809296739
 21
44.21249044586011
 31
0.0
  0
LINE
  5
E18
330
1F
100
AcDbEntity
  8
0
  6
Continuous
 62
     7
100
AcDbLine
 10
-708.3198809296738
 20
47.69249044586013
 30
0.0
 11
-707.1199809296739
 21
47.69249044586013
 31
0.0
  0
LINE
  5
E19
330
1F
100
AcDbEntity
  8
0
  6
Continuous
 62
     7
100
AcDbLine
 10
-708.3198809296738
 20
41.93249044586013
 30
0.0
 11
-707.1199809296739
 21
41.93249044586013
 31
0.0
  0
LINE
  5
E1A
330
1F
100
AcDbEntity
  8
0
  6
Continuous
 62
     7
100
AcDbLine
 10
-710.6784087618588
 20
51.15644495511663
 30
0.0
 11
-705.0468339303157
 21
53.78249142653793
 31
0.0
  0
LINE
  5
E1B
330
1F
100
AcDbEntity
  8
0
  6
Continuous
 62
     7
100
AcDbLine
 10
-705.0468339303157
 20
35.8420894651822
 30
0.0
 11
-710.6784087618588
 21
38.46813593660352
 31
0.0
  0
LINE
  5
E1C
330
1F
100
AcDbEntity
  8
0
  6
Continuous
 62
     7
100
AcDbLine
 10
-602.4257045616937
 20
223.2678963768591
 30
0.0
 11
-603.8806272400514
 21
222.4278963768589
 31
0.0
  0
LINE
  5
E1D
330
1F
100
AcDbEntity
  8
0
  6
Continuous
 62
     7
100
AcDbLine
 10
-603.0256545616938
 20
224.3070402588598
 30
0.0
 11
-604.4805772400517
 21
223.4670402588598
 31
0.0
  0
LINE
  5
E1E
330
1F
100
AcDbEntity
  8
0
  6
Continuous
 62
     7
100
AcDbLine
 10
-606.1401790848627
 20
225.1413549744075
 30
0.0
 11
-605.3003290848629
 21
223.6866921036708
 31
0.0
  0
LINE
  5
E1F
330
1F
100
AcDbEntity
  8
0
  6
Continuous
 62
     7
100
AcDbLine
 10
-607.1793229668637
 20
224.5414049744076
 30
0.0
 11
-606.3394729668638
 21
223.0867421036709
 31
0.0
  0
LINE
  5
E20
330
1F
100
AcDbEntity
  8
0
  6
Continuous
 62
     7
100
AcDbLine
 10
-605.9591748116746
 20
221.2278463768589
 30
0.0
 11
-607.4140108874916
 21
220.3878963768591
 31
0.0
  0
LINE
  5
E21
330
1F
100
AcDbEntity
  8
0
  6
Continuous
 62
     7
100
AcDbLine
 10
-604.1002790848628
 20
221.608144532048
 30
0.0
 11
-603.2604290848629
 21
220.1534816613111
 31
0.0
  0
LINE
  5
E22
330
1F
100
AcDbEntity
  8
0
  6
Continuous
 62
     7
100
AcDbLine
 10
-605.1394229668634
 20
221.0081945320479
 30
0.0
 11
-604.2995729668635
 21
219.5535316613111
 31
0.0
  0
LINE
  5
E23
330
1F
100
AcDbEntity
  8
0
  6
Continuous
 62
     7
100
AcDbLine
 10
-606.5591248116747
 20
222.2669902588596
 30
0.0
 11
-608.0139608874921
 21
221.4270402588598
 31
0.0
  0
LINE
  5
E24
330
1F
100
AcDbEntity
  8
0
  6
Continuous
 62
     7
100
AcDbLine
 10
-603.2604290848629
 20
220.1534816613111
 30
0.0
 11
-604.2995729668635
 21
219.5535316613111
 31
0.0
  0
LINE
  5
E25
330
1F
100
AcDbEntity
  8
0
  6
Continuous
 62
     7
100
AcDbLine
 10
-606.1401790848627
 20
225.1413549744075
 30
0.0
 11
-607.1793229668637
 21
224.5414049744076
 31
0.0
  0
LINE
  5
E26
330
1F
100
AcDbEntity
  8
0
  6
Continuous
 62
     7
100
AcDbLine
 10
-603.0256545616938
 20
224.3070402588598
 30
0.0
 11
-602.4257045616937
 21
223.2678963768591
 31
0.0
  0
LINE
  5
E27
330
1F
100
AcDbEntity
  8
0
  6
Continuous
 62
     7
100
AcDbLine
 10
-608.0139608874921
 20
221.4270402588598
 30
0.0
 11
-607.4140108874916
 21
220.3878963768591
 31
0.0
  0
LINE
  5
E28
330
1F
100
AcDbEntity
  8
0
  6
Continuous
 62
     7
100
AcDbLine
 10
-601.2050458752162
 20
228.0815625316928
 30
0.0
 11
-596.1150355036756
 21
224.5174988999745
 31
0.0
  0
LINE
  5
E29
330
1F
100
AcDbEntity
  8
0
  6
Continuous
 62
     7
100
AcDbLine
 10
-611.6518793563137
 20
215.5472979192964
 30
0.0
 11
-612.1934438163157
 21
221.7374080224363
 31
0.0
  0
LINE
  5
E2A
330
1F
100
AcDbEntity
  8
0
  6
Continuous
 62
     7
100
AcDbLine
 10
-398.0258045616941
 20
220.3876963768591
 30
0.0
 11
-399.4807272400521
 21
221.2276963768591
 31
0.0
  0
LINE
  5
E2B
330
1F
100
AcDbEntity
  8
0
  6
Continuous
 62
     7
100
AcDbLine
 10
-397.4258545616944
 20
221.4268402588598
 30
0.0
 11
-398.880777240052
 21
222.2668402588599
 31
0.0
  0
LINE
  5
E2C
330
1F
100
AcDbEntity
  8
0
  6
Continuous
 62
     7
100
AcDbLine
 10
-398.2605790848633
 20
224.5412549744077
 30
0.0
 11
-399.1004290848634
 21
223.086592103671
 31
0.0
  0
LINE
  5
E2D
330
1F
100
AcDbEntity
  8
0
  6
Continuous
 62
     7
100
AcDbLine
 10
-399.2997229668642
 20
225.1412049744076
 30
0.0
 11
-400.1395729668642
 21
223.6865421036709
 31
0.0
  0
LINE
  5
E2E
330
1F
100
AcDbEntity
  8
0
  6
Continuous
 62
     7
100
AcDbLine
 10
-401.559274811675
 20
222.4277463768591
 30
0.0
 11
-403.0141108874922
 21
223.2676963768591
 31
0.0
  0
LINE
  5
E2F
330
1F
100
AcDbEntity
  8
0
  6
Continuous
 62
     7
100
AcDbLine
 10
-400.3004790848631
 20
221.0080445320481
 30
0.0
 11
-401.1403290848631
 21
219.5533816613113
 31
0.0
  0
LINE
  5
E30
330
1F
100
AcDbEntity
  8
0
  6
Continuous
 62
     7
100
AcDbLine
 10
-401.3396229668638
 20
221.607994532048
 30
0.0
 11
-402.1794729668638
 21
220.1533316613112
 31
0.0
  0
LINE
  5
E31
330
1F
100
AcDbEntity
  8
0
  6
Continuous
 62
     7
100
AcDbLine
 10
-400.9593248116753
 20
223.4668902588599
 30
0.0
 11
-402.4141608874925
 21
224.3068402588598
 31
0.0
  0
LINE
  5
E32
330
1F
100
AcDbEntity
  8
0
  6
Continuous
 62
     7
100
AcDbLine
 10
-401.1403290848631
 20
219.5533816613113
 30
0.0
 11
-402.1794729668638
 21
220.1533316613112
 31
0.0
  0
LINE
  5
E33
330
1F
100
AcDbEntity
  8
0
  6
Continuous
 62
     7
100
AcDbLine
 10
-398.2605790848633
 20
224.5412549744077
 30
0.0
 11
-399.2997229668642
 21
225.1412049744076
 31
0.0
  0
LINE
  5
E34
330
1F
100
AcDbEntity
  8
0
  6
Continuous
 62
     7
100
AcDbLine
 10
-397.4258545616944
 20
221.4268402588598
 30
0.0
 11
-398.0258045616941
 21
220.3876963768591
 31
0.0
  0
LINE
  5
E35
330
1F
100
AcDbEntity
  8
0
  6
Continuous
 62
     7
100
AcDbLine
 10
-402.4141608874925
 20
224.3068402588598
 30
0.0
 11
-403.0141108874922
 21
223.2676963768591
 31
0.0
  0
LINE
  5
E36
330
1F
100
AcDbEntity
  8
0
  6
Continuous
 62
     7
100
AcDbLine
 10
-393.246718043032
 20
221.7374080224364
 30
0.0
 11
-393.788282503034
 21
215.5472979192966
 31
0.0
  0
LINE
  5
E37
330
1F
100
AcDbEntity
  8
0
  6
Continuous
 62
     7
100
AcDbLine
 10
-298.3201809296737
 20
41.9320904458599
 30
0.0
 11
-298.3201809296737
 21
43.61209044585995
 31
0.0
  0
LINE
  5
E38
330
1F
100
AcDbEntity
  8
0
  6
Continuous
 62
     7
100
AcDbLine
 10
-297.1202809296741
 20
41.9320904458599
 30
0.0
 11
-297.1202809296741
 21
43.61209044585995
 31
0.0
  0
LINE
  5
E39
330
1F
100
AcDbEntity
  8
0
  6
Continuous
 62
     7
100
AcDbLine
 10
-294.840480929674
 20
44.21219044586007
 30
0.0
 11
-296.5201809296738
 21
44.21219044586007
 31
0.0
  0
LINE
  5
E3A
330
1F
100
AcDbEntity
  8
0
  6
Continuous
 62
     7
100
AcDbLine
 10
-294.840480929674
 20
45.41209044585992
 30
0.0
 11
-296.5201809296738
 21
45.41209044585992
 31
0.0
  0
LINE
  5
E3B
330
1F
100
AcDbEntity
  8
0
  6
Continuous
 62
     7
100
AcDbLine
 10
-298.3201809296737
 20
46.01219044586001
 30
0.0
 11
-298.3201809296737
 21
47.69209044585989
 31
0.0
  0
LINE
  5
E3C
330
1F
100
AcDbEntity
  8
0
  6
Continuous
 62
     7
100
AcDbLine
 10
-298.9202809296739
 20
44.21219044586007
 30
0.0
 11
-300.5999809296739
 21
44.21219044586007
 31
0.0
  0
LINE
  5
E3D
330
1F
100
AcDbEntity
  8
0
  6
Continuous
 62
     7
100
AcDbLine
 10
-298.9202809296739
 20
45.41209044585992
 30
0.0
 11
-300.5999809296739
 21
45.41209044585992
 31
0.0
  0
LINE
  5
E3E
330
1F
100
AcDbEntity
  8
0
  6
Continuous
 62
     7
100
AcDbLine
 10
-297.1202809296741
 20
46.01219044586001
 30
0.0
 11
-297.1202809296741
 21
47.69209044585989
 31
0.0
  0
LINE
  5
E3F
330
1F
100
AcDbEntity
  8
0
  6
Continuous
 62
     7
100
AcDbLine
 10
-300.5999809296739
 20
44.21219044586007
 30
0.0
 11
-300.5999809296739
 21
45.41209044585992
 31
0.0
  0
LINE
  5
E40
330
1F
100
AcDbEntity
  8
0
  6
Continuous
 62
     7
100
AcDbLine
 10
-294.840480929674
 20
44.21219044586007
 30
0.0
 11
-294.840480929674
 21
45.41209044585992
 31
0.0
  0
LINE
  5
E41
330
1F
100
AcDbEntity
  8
0
  6
Continuous
 62
     7
100
AcDbLine
 10
-297.1202809296741
 20
41.9320904458599
 30
0.0
 11
-298.3201809296737
 21
41.9320904458599
 31
0.0
  0
LINE
  5
E42
330
1F
100
AcDbEntity
  8
0
  6
Continuous
 62
     7
100
AcDbLine
 10
-297.1202809296741
 20
47.69209044585989
 30
0.0
 11
-298.3201809296737
 21
47.69209044585989
 31
0.0
  0
LINE
  5
E43
330
1F
100
AcDbEntity
  8
0
  6
Continuous
 62
     7
100
AcDbLine
 10
-294.761753097489
 20
38.46813593660341
 30
0.0
 11
-300.3933279290318
 21
35.84208946518208
 31
0.0
  0
LINE
  5
E44
330
1F
100
AcDbEntity
  8
0
  6
Continuous
 62
     7
100
AcDbLine
 10
-300.3933279290318
 20
53.78249142653789
 30
0.0
 11
-294.761753097489
 21
51.15644495511651
 31
0.0
  0
LINE
  5
E57
330
1F
100
AcDbEntity
  8
10
  6
Continuous
 62
     7
100
AcDbLine
 10
-262.720080929674
 20
-170.1877095541401
 30
0.0
 11
-262.720080929674
 21
-48.18770955414004
 31
0.0
  0
LINE
  5
E58
330
1F
100
AcDbEntity
  8
10
  6
Continuous
 62
     7
100
AcDbLine
 10
-332.5537969442469
 20
-68.18760955414006
 30
0.0
 11
-277.7202809296741
 21
-68.18760955414006
 31
0.0
  0
LINE
  5
E59
330
1F
100
AcDbEntity
  8
10
  6
Continuous
 62
     7
100
AcDbLine
 10
-394.8034059296738
 20
-150.18780955414
 30
0.0
 11
-277.7202809296741
 21
-150.18780955414
 31
0.0
  0
LINE
  5
E5A
330
1F
100
AcDbEntity
  8
10
  6
Continuous
 62
     7
100
AcDbLine
 10
-274.7202809296741
 20
-168.222349414303
 30
0.0
 11
-274.7202809296741
 21
-50.15306983706114
 31
0.0
  0
LINE
  5
E5B
330
1F
100
AcDbEntity
  8
0
  6
Continuous
 62
     7
100
AcDbLine
 10
-227.720080929674
 20
-149.18770955414
 30
0.0
 11
-227.720080929674
 21
-69.18770955414004
 31
0.0
  0
LINE
  5
E5C
330
1F
100
AcDbEntity
  8
0
  6
Continuous
 62
     7
100
AcDbLine
 10
-228.720080929674
 20
-68.18770955414004
 30
0.0
 11
-254.720080929674
 21
-68.18770955414004
 31
0.0
  0
LINE
  5
E5D
330
1F
100
AcDbEntity
  8
0
  6
Continuous
 62
     7
100
AcDbLine
 10
-254.720080929674
 20
-150.1877095541401
 30
0.0
 11
-228.720080929674
 21
-150.18770955414
 31
0.0
  0
LINE
  5
E5E
330
1F
100
AcDbEntity
  8
10
  6
Continuous
 62
     7
100
AcDbLine
 10
-258.720080929674
 20
-170.1877095541401
 30
0.0
 11
-272.7205809296739
 21
-170.1877095541401
 31
0.0
  0
LINE
  5
E5F
330
1F
100
AcDbEntity
  8
10
  6
Continuous
 62
     7
100
AcDbLine
 10
-258.720080929674
 20
-48.18770955414004
 30
0.0
 11
-272.7205809296739
 21
-48.18770955414004
 31
0.0
  0
LINE
  5
E60
330
1F
100
AcDbEntity
  8
0
  6
Continuous
 62
     7
100
AcDbLine
 10
-256.720080929674
 20
-168.1877095541401
 30
0.0
 11
-256.720080929674
 21
-50.18770955414004
 31
0.0
  0
LINE
  5
E61
330
1F
100
AcDbEntity
  8
0
  6
Continuous
 62
     7
100
AcDbLine
 10
-256.720080929674
 20
-79.74570553450984
 30
0.0
 11
-256.720080929674
 21
-70.74570553450984
 31
0.0
  0
LINE
  5
E62
330
1F
100
AcDbEntity
  8
0
  6
Continuous
 62
     7
100
AcDbLine
 10
-253.4202809296739
 20
-72.50060553450999
 30
0.0
 11
-253.4202809296739
 21
-77.99080553450996
 31
0.0
  0
LINE
  5
E63
330
1F
100
AcDbEntity
  8
0
  6
Continuous
 62
     7
100
AcDbLine
 10
-256.720080929674
 20
-79.74570553450984
 30
0.0
 11
-254.8804809296739
 21
-79.58480553451
 31
0.0
  0
LINE
  5
E64
330
1F
100
AcDbEntity
  8
0
  6
Continuous
 62
     7
100
AcDbLine
 10
-256.7201809296739
 20
-70.74570553450984
 30
0.0
 11
-254.8805809296738
 21
-70.90690553450986
 31
0.0
  0
LINE
  5
E65
330
1F
100
AcDbEntity
  8
100
  6
DASH_CENTER
 62
    30
100
AcDbLine
 10
-270.3452009344669
 20
-75.242163212896
 30
0.0
 11
-247.2758121067567
 21
-75.24812703140963
 31
0.0
  0
LINE
  5
E66
330
1F
100
AcDbEntity
  8
0
  6
Continuous
 62
     7
100
AcDbLine
 10
-256.720080929674
 20
-147.6297135737703
 30
0.0
 11
-256.720080929674
 21
-138.6297135737703
 31
0.0
  0
LINE
  5
E67
330
1F
100
AcDbEntity
  8
0
  6
Continuous
 62
     7
100
AcDbLine
 10
-253.4202809296739
 20
-140.38461357377
 30
0.0
 11
-253.4202809296739
 21
-145.8748135737702
 31
0.0
  0
LINE
  5
E68
330
1F
100
AcDbEntity
  8
0
  6
Continuous
 62
     7
100
AcDbLine
 10
-254.8804809296739
 20
-138.7906135737701
 30
0.0
 11
-256.720080929674
 21
-138.6297135737703
 31
0.0
  0
LINE
  5
E69
330
1F
100
AcDbEntity
  8
0
  6
Continuous
 62
     7
100
AcDbLine
 10
-254.8804809296739
 20
-147.4685135737703
 30
0.0
 11
-256.720080929674
 21
-147.6297135737703
 31
0.0
  0
LINE
  5
E6A
330
1F
100
AcDbEntity
  8
100
  6
DASH_CENTER
 62
    30
100
AcDbLine
 10
-247.2758121067567
 20
-143.1272920768705
 30
0.0
 11
-270.3452009344669
 21
-143.1332558953841
 31
0.0
  0
LINE
  5
E6B
330
1F
100
AcDbEntity
  8
110
  6
DASH_CENTER
 62
    30
100
AcDbLine
 10
-209.0789549596957
 20
-109.18770955414
 30
0.0
 11
-345.3621524094397
 21
-109.18770955414
 31
0.0
  0
LINE
  5
EAA
330
1F
100
AcDbEntity
  8
0
  6
Continuous
 62
     7
100
AcDbLine
 10
673.4987722078855
 20
136.2265178550976
 30
0.0
 11
673.4987722078855
 21
44.81219044586008
 31
0.0
  0
LINE
  5
EB3
330
1F
100
AcDbEntity
  8
0
  6
Continuous
 62
     7
100
AcDbLine
 10
648.4987722078856
 20
44.81219044586008
 30
0.0
 11
648.4987722078856
 21
-55.14518109597645
 31
0.0
  0
LINE
  5
EB8
330
1F
100
AcDbEntity
  8
0
  6
Continuous
 62
     7
100
AcDbLine
 10
673.4987722078855
 20
44.81219044586008
 30
0.0
 11
673.4987722078855
 21
-46.60193696337819
 31
0.0
  0
LINE
  5
EB9
330
1F
100
AcDbEntity
  8
0
  6
Continuous
 62
     7
100
AcDbLine
 10
669.3936625005006
 20
-51.52120229106515
 30
0.0
 11
649.0556030979826
 21
-55.03909378187975
 31
0.0
  0
LINE
  5
EBD
330
1F
100
AcDbEntity
  8
0
  6
Continuous
 62
     7
100
AcDbLine
 10
649.0556030979823
 20
144.6636746735997
 30
0.0
 11
669.3936625005006
 21
141.1457831827846
 31
0.0
  0
LINE
  5
EC3
330
1F
100
AcDbEntity
  8
10
  6
Continuous
 62
     7
100
AcDbLine
 10
345.5793182534837
 20
-62.21714856110938
 30
0.0
 11
345.5793182534837
 21
44.81229044585996
 31
0.0
  0
LINE
  5
EC5
330
1F
100
AcDbEntity
  8
0
  6
Continuous
 62
     7
100
AcDbLine
 10
341.2327029479156
 20
-152.1877095541399
 30
0.0
 11
289.7554182534837
 21
-152.1877095541399
 31
0.0
  0
LINE
  5
EC6
330
1F
100
AcDbEntity
  8
0
  6
Continuous
 62
     7
100
AcDbLine
 10
286.8554182534837
 20
34.60314298898277
 30
0.0
 11
272.0553182534837
 21
34.60314298898277
 31
0.0
  0
LINE
  5
EC7
330
1F
100
AcDbEntity
  8
0
  6
Continuous
 62
     7
100
AcDbLine
 10
286.8554182534837
 20
38.46813593660336
 30
0.0
 11
272.0553182534838
 21
38.46813593660336
 31
0.0
  0
LINE
  5
EC8
330
1F
100
AcDbEntity
  8
0
  6
DASH_CENTER
 62
    30
100
AcDbLine
 10
264.0550343473664
 20
-138.3498503710034
 30
0.0
 11
293.3036005933786
 21
-138.3498503710034
 31
0.0
  0
LINE
  5
EC9
330
1F
100
AcDbEntity
  8
0
  6
Continuous
 62
     7
100
AcDbLine
 10
272.1554182534837
 20
-145.3498503710034
 30
0.0
 11
286.8554182534837
 21
-145.3498503710034
 31
0.0
  0
LINE
  5
ECA
330
1F
100
AcDbEntity
  8
0
  6
Continuous
 62
     7
100
AcDbLine
 10
272.1554182534837
 20
-128.6292085672958
 30
0.0
 11
286.8554182534837
 21
-128.6292085672958
 31
0.0
  0
LINE
  5
ECB
330
1F
100
AcDbEntity
  8
10
  6
Continuous
 62
     7
100
AcDbLine
 10
286.8554182534836
 20
-153.8887989627168
 30
0.0
 11
286.8554182534837
 21
44.81229044585989
 31
0.0
  0
LINE
  5
ECC
330
1F
100
AcDbEntity
  8
10
  6
Continuous
 62
     7
100
AcDbLine
 10
279.3554182534837
 20
-155.1877095541399
 30
0.0
 11
284.9823182534837
 21
-155.1877095541399
 31
0.0
  0
LINE
  5
ECD
330
1F
100
AcDbEntity
  8
10
  6
Continuous
 62
     7
100
AcDbLine
 10
279.3553182534835
 20
-155.1877095541399
 30
0.0
 11
272.0553182534837
 21
-155.1877095541399
 31
0.0
  0
LINE
  5
ECE
330
1F
100
AcDbEntity
  8
0
  6
Continuous
 62
     7
100
AcDbLine
 10
279.3553182534835
 20
-155.1877095541399
 30
0.0
 11
279.3553182534836
 21
44.81229044585989
 31
0.0
  0
LINE
  5
ECF
330
1F
100
AcDbEntity
  8
10
  6
Continuous
 62
     7
100
AcDbLine
 10
272.0553182534835
 20
-154.1877095528898
 30
0.0
 11
272.0553182534837
 21
44.81229044585996
 31
0.0
  0
LINE
  5
ED0
330
1F
100
AcDbEntity
  8
10
  6
Continuous
 62
     7
100
AcDbLine
 10
279.3553182534836
 20
-24.83274011417768
 30
0.0
 11
279.3553182534836
 21
44.81229044585989
 31
0.0
  0
LINE
  5
ED1
330
1F
100
AcDbEntity
  8
10
  6
Continuous
 62
     7
100
AcDbLine
 10
272.0553182534837
 20
-155.1877095541399
 30
0.0
 11
272.0553182534837
 21
-154.1877095541399
 31
0.0
  0
LINE
  5
EDB
330
1F
100
AcDbEntity
  8
10
  6
Continuous
 62
     7
100
AcDbLine
 10
352.8793182534838
 20
-57.02282097954406
 30
0.0
 11
352.8793182534836
 21
44.81229044585989
 31
0.0
  0
LINE
  5
EDC
330
1F
100
AcDbEntity
  8
0
  6
Continuous
 62
     7
100
AcDbLine
 10
345.5793182534837
 20
34.60314298898277
 30
0.0
 11
362.8793182534836
 21
34.60314298898277
 31
0.0
  0
LINE
  5
EDD
330
1F
100
AcDbEntity
  8
0
  6
Continuous
 62
     7
100
AcDbLine
 10
345.5793182534837
 20
38.46813593660336
 30
0.0
 11
362.8793182534836
 21
38.46813593660336
 31
0.0
  0
LINE
  5
EE1
330
1F
100
AcDbEntity
  8
100
  6
DASH_CENTER
 62
    30
100
AcDbLine
 10
450.8526217838597
 20
-109.18770955414
 30
0.0
 11
318.1460147231073
 21
-109.18770955414
 31
0.0
  0
LINE
  5
EE2
330
1F
100
AcDbEntity
  8
100
  6
DASH_CENTER
 62
    30
100
AcDbLine
 10
384.4993182534836
 20
-175.5410130845163
 30
0.0
 11
384.4993182534836
 21
-42.83440602376384
 31
0.0
  0
LINE
  5
EE3
330
1F
100
AcDbEntity
  8
0
  6
Continuous
 62
     7
100
AcDbLine
 10
362.8793182534835
 20
-52.14758683337445
 30
0.0
 11
362.8793182534836
 21
44.81229044585996
 31
0.0
  0
LINE
  5
EE4
330
1F
100
AcDbEntity
  8
0
  6
Continuous
 62
     7
100
AcDbLine
 10
409.4993182534836
 20
-53.54599858116586
 30
0.0
 11
409.4993182534836
 21
44.81229044585989
 31
0.0
  0
LINE
  5
EE5
330
1F
100
AcDbEntity
  8
0
  6
Continuous
 62
     7
100
AcDbLine
 10
394.4993182534836
 20
241.8122904458597
 30
0.0
 11
364.8158130491678
 21
241.8122904458597
 31
0.0
  0
LINE
  5
EE6
330
1F
100
AcDbEntity
  8
0
  6
Continuous
 62
     7
100
AcDbLine
 10
409.4993182534834
 20
226.8122904458597
 30
0.0
 11
409.4993182534836
 21
123.8123904458598
 31
0.0
  0
LINE
  5
EE7
330
1F
100
AcDbEntity
  8
100
  6
DASH_CENTER
 62
    30
100
AcDbLine
 10
341.4155226610819
 20
-66.10361396173829
 30
0.0
 11
352.9457226610817
 21
-77.63391396173819
 31
0.0
  0
LINE
  5
EE9
330
1F
100
AcDbEntity
  8
0
  6
Continuous
 62
     7
100
AcDbLine
 10
270.0554182549024
 20
-152.1877095541399
 30
0.0
 11
215.2314182537145
 21
-152.1877095541399
 31
0.0
  0
LINE
  5
EEB
330
1F
100
AcDbEntity
  8
10
  6
Continuous
 62
     7
100
AcDbLine
 10
205.9314182537147
 20
-155.1877095541399
 30
0.0
 11
205.9314182537146
 21
44.81229044585996
 31
0.0
  0
LINE
  5
EEC
330
1F
100
AcDbEntity
  8
10
  6
Continuous
 62
     7
100
AcDbLine
 10
205.9314182537146
 20
-155.1877095541399
 30
0.0
 11
211.3583182537146
 21
-155.1877095541399
 31
0.0
  0
LINE
  5
EED
330
1F
100
AcDbEntity
  8
0
  6
Continuous
 62
     7
100
AcDbLine
 10
104.3227722537145
 20
-32.68770955414004
 30
0.0
 11
124.4227722081163
 21
-32.68770955414004
 31
0.0
  0
LINE
  5
EEE
330
1F
100
AcDbEntity
  8
0
  6
Continuous
 62
     7
100
AcDbLine
 10
196.7314182537146
 20
-152.18770955414
 30
0.0
 11
137.4227722081162
 21
-152.1877095541399
 31
0.0
  0
LINE
  5
EEF
330
1F
100
AcDbEntity
  8
0
  6
Continuous
 62
     7
100
AcDbLine
 10
205.9314182537146
 20
-155.1877095541399
 30
0.0
 11
200.604401599922
 21
-155.1877095541399
 31
0.0
  0
LINE
  5
EF0
330
1F
100
AcDbEntity
  8
0
  6
Continuous
 62
     7
100
AcDbLine
 10
198.7314182537146
 20
-153.8890891837488
 30
0.0
 11
198.7314182537146
 21
44.81229044585996
 31
0.0
  0
LINE
  5
EF1
330
1F
100
AcDbEntity
  8
0
  6
Continuous
 62
     7
100
AcDbLine
 10
127.4227722081162
 20
44.81229044586
 30
0.0
 11
127.4227722081162
 21
-142.1877095541399
 31
0.0
  0
LINE
  5
EF2
330
1F
100
AcDbEntity
  8
0
  6
Continuous
 62
     7
100
AcDbLine
 10
103.4227722537146
 20
44.81229044586
 30
0.0
 11
103.4227722537145
 21
-32.68770955414004
 31
0.0
  0
LINE
  5
EF3
330
1F
100
AcDbEntity
  8
0
  6
Continuous
 62
     7
100
AcDbLine
 10
198.7314182537146
 20
34.60314298898277
 30
0.0
 11
213.2314182537145
 21
34.60314298898277
 31
0.0
  0
LINE
  5
EF4
330
1F
100
AcDbEntity
  8
0
  6
Continuous
 62
     7
100
AcDbLine
 10
198.7314182537146
 20
38.46813593660341
 30
0.0
 11
213.2314182537146
 21
38.46813593660341
 31
0.0
  0
LINE
  5
EF5
330
1F
100
AcDbEntity
  8
0
  6
Continuous
 62
     7
100
AcDbLine
 10
198.7314182537144
 20
-128.6292085672956
 30
0.0
 11
213.2314182537145
 21
-128.6292085672956
 31
0.0
  0
LINE
  5
EF6
330
1F
100
AcDbEntity
  8
0
  6
Continuous
 62
     7
100
AcDbLine
 10
198.7314182537144
 20
-145.3498503710034
 30
0.0
 11
213.2314182537145
 21
-145.3498503710034
 31
0.0
  0
LINE
  5
EF7
330
1F
100
AcDbEntity
  8
0
  6
Continuous
 62
     7
100
AcDbLine
 10
66.92277225371459
 20
-18.68770955413998
 30
0.0
 11
97.42277225371459
 21
-18.68770955413998
 31
0.0
  0
LINE
  5
EF8
330
1F
100
AcDbEntity
  8
0
  6
Continuous
 62
     7
100
AcDbLine
 10
65.42277225371458
 20
-17.18770955413998
 30
0.0
 11
65.42277225371458
 21
44.81229044586
 31
0.0
  0
LINE
  5
EF9
330
1F
100
AcDbEntity
  8
0
  6
Continuous
 62
     7
100
AcDbLine
 10
101.4227722537146
 20
-32.68770955414004
 30
0.0
 11
108.5381262081162
 21
-32.68770955414004
 31
0.0
  0
LINE
  5
EFA
330
1F
100
AcDbEntity
  8
0
  6
Continuous
 62
     7
100
AcDbLine
 10
99.4227722537146
 20
44.81229044586
 30
0.0
 11
99.4227722537146
 21
-28.18770955414004
 31
0.0
  0
LINE
  5
EFB
330
1F
100
AcDbEntity
  8
0
  6
Continuous
 62
     7
100
AcDbLine
 10
97.42277225371459
 20
108.3122904458599
 30
0.0
 11
66.92277225371459
 21
108.3122904458599
 31
0.0
  0
LINE
  5
EFC
330
1F
100
AcDbEntity
  8
0
  6
Continuous
 62
     7
100
AcDbLine
 10
65.42277225371458
 20
105.3122904458601
 30
0.0
 11
65.42277225371458
 21
106.8122904458599
 31
0.0
  0
LINE
  5
EFD
330
1F
100
AcDbEntity
  8
0
  6
Continuous
 62
     7
100
AcDbLine
 10
99.4227722537146
 20
-22.18776272490186
 30
0.0
 11
99.4227722537146
 21
-31.18776272490186
 31
0.0
  0
LINE
  5
EFE
330
1F
100
AcDbEntity
  8
0
  6
Continuous
 62
     7
100
AcDbLine
 10
96.12297225371458
 20
-29.43286272490173
 30
0.0
 11
96.12297225371458
 21
-23.94266272490177
 31
0.0
  0
LINE
  5
EFF
330
1F
100
AcDbEntity
  8
0
  6
Continuous
 62
     7
100
AcDbLine
 10
99.4227722537146
 20
-22.18776272490186
 30
0.0
 11
97.58317225371456
 21
-22.34866272490172
 31
0.0
  0
LINE
  5
F00
330
1F
100
AcDbEntity
  8
0
  6
Continuous
 62
     7
100
AcDbLine
 10
99.4227722537146
 20
-31.18776272490186
 30
0.0
 11
97.58317225371456
 21
-31.02656272490186
 31
0.0
  0
LINE
  5
F01
330
1F
100
AcDbEntity
  8
0
  6
DASH_CENTER
 62
    30
100
AcDbLine
 10
94.35174980700777
 20
-26.68770955414004
 30
0.0
 11
118.3643909955741
 21
-26.68770955414004
 31
0.0
  0
LINE
  5
F02
330
1F
100
AcDbEntity
  8
0
  6
Continuous
 62
     7
100
AcDbLine
 10
218.2314182537145
 20
-135.3500003710032
 30
0.0
 11
218.2314182537145
 21
-141.3497003710033
 31
0.0
  0
LINE
  5
F03
330
1F
100
AcDbEntity
  8
0
  6
Continuous
 62
     7
100
AcDbLine
 10
218.2314182537145
 20
-135.3500003710032
 30
0.0
 11
218.7314182537146
 21
-135.8500003710032
 31
0.0
  0
LINE
  5
F04
330
1F
100
AcDbEntity
  8
0
  6
Continuous
 62
     7
100
AcDbLine
 10
218.2314182537145
 20
-141.3497003710033
 30
0.0
 11
218.7314182537146
 21
-140.8497003710033
 31
0.0
  0
LINE
  5
F05
330
1F
100
AcDbEntity
  8
0
  6
Continuous
 62
     7
100
AcDbLine
 10
218.7314182537146
 20
-140.8497003710033
 30
0.0
 11
218.7314182537146
 21
-135.8500003710032
 31
0.0
  0
LINE
  5
F06
330
1F
100
AcDbEntity
  8
0
  6
DASH_CENTER
 62
    30
100
AcDbLine
 10
189.6394790873329
 20
-138.3498503710034
 30
0.0
 11
223.6404826018807
 21
-138.3498503710034
 31
0.0
  0
LINE
  5
F07
330
1F
100
AcDbEntity
  8
0
  6
Continuous
 62
     7
100
AcDbLine
 10
346.876236390309
 20
-74.46427939274276
 30
0.0
 11
346.876236390309
 21
-73.06437939274286
 31
0.0
  0
LINE
  5
F08
330
1F
100
AcDbEntity
  8
0
  6
Continuous
 62
     7
100
AcDbLine
 10
347.876236390309
 20
-74.46427939274276
 30
0.0
 11
347.876236390309
 21
-73.06437939274286
 31
0.0
  0
LINE
  5
F09
330
1F
100
AcDbEntity
  8
0
  6
Continuous
 62
     7
100
AcDbLine
 10
349.7761363903093
 20
-72.56437939274286
 30
0.0
 11
348.376236390309
 21
-72.56437939274286
 31
0.0
  0
LINE
  5
F0A
330
1F
100
AcDbEntity
  8
0
  6
Continuous
 62
     7
100
AcDbLine
 10
349.7761363903093
 20
-71.56437939274288
 30
0.0
 11
348.376236390309
 21
-71.56437939274288
 31
0.0
  0
LINE
  5
F0B
330
1F
100
AcDbEntity
  8
0
  6
Continuous
 62
     7
100
AcDbLine
 10
346.876236390309
 20
-71.06437939274286
 30
0.0
 11
346.876236390309
 21
-69.66447939274273
 31
0.0
  0
LINE
  5
F0C
330
1F
100
AcDbEntity
  8
0
  6
Continuous
 62
     7
100
AcDbLine
 10
346.376236390309
 20
-72.56437939274286
 30
0.0
 11
344.976336390309
 21
-72.56437939274286
 31
0.0
  0
LINE
  5
F0D
330
1F
100
AcDbEntity
  8
0
  6
Continuous
 62
     7
100
AcDbLine
 10
346.376236390309
 20
-71.56437939274288
 30
0.0
 11
344.976336390309
 21
-71.56437939274288
 31
0.0
  0
LINE
  5
F0E
330
1F
100
AcDbEntity
  8
0
  6
Continuous
 62
     7
100
AcDbLine
 10
347.876236390309
 20
-71.06437939274286
 30
0.0
 11
347.876236390309
 21
-69.66447939274273
 31
0.0
  0
LINE
  5
F0F
330
1F
100
AcDbEntity
  8
0
  6
Continuous
 62
     7
100
AcDbLine
 10
344.976336390309
 20
-72.56437939274286
 30
0.0
 11
344.976336390309
 21
-71.56437939274288
 31
0.0
  0
LINE
  5
F10
330
1F
100
AcDbEntity
  8
0
  6
Continuous
 62
     7
100
AcDbLine
 10
349.7761363903093
 20
-72.56437939274286
 30
0.0
 11
349.7761363903093
 21
-71.56437939274288
 31
0.0
  0
LINE
  5
F11
330
1F
100
AcDbEntity
  8
0
  6
Continuous
 62
     7
100
AcDbLine
 10
347.876236390309
 20
-74.46427939274276
 30
0.0
 11
346.876236390309
 21
-74.46427939274276
 31
0.0
  0
LINE
  5
F12
330
1F
100
AcDbEntity
  8
0
  6
Continuous
 62
     7
100
AcDbLine
 10
347.876236390309
 20
-69.66447939274273
 30
0.0
 11
346.876236390309
 21
-69.66447939274273
 31
0.0
  0
LINE
  5
F13
330
1F
100
AcDbEntity
  8
100
  6
DASH_CENTER
 62
    30
100
AcDbLine
 10
341.4152239397719
 20
-152.2714762710475
 30
0.0
 11
352.9455239397718
 21
-140.7412762710475
 31
0.0
  0
LINE
  5
F14
330
1F
100
AcDbEntity
  8
0
  6
Continuous
 62
     7
100
AcDbLine
 10
349.7758893707764
 20
-146.8107625418204
 30
0.0
 11
348.3759893707764
 21
-146.8107625418204
 31
0.0
  0
LINE
  5
F15
330
1F
100
AcDbEntity
  8
0
  6
Continuous
 62
     7
100
AcDbLine
 10
349.7758893707764
 20
-145.8107625418204
 30
0.0
 11
348.3759893707764
 21
-145.8107625418204
 31
0.0
  0
LINE
  5
F16
330
1F
100
AcDbEntity
  8
0
  6
Continuous
 62
     7
100
AcDbLine
 10
347.8759893707764
 20
-143.9108625418201
 30
0.0
 11
347.8759893707764
 21
-145.3107625418204
 31
0.0
  0
LINE
  5
F17
330
1F
100
AcDbEntity
  8
0
  6
Continuous
 62
     7
100
AcDbLine
 10
346.8759893707764
 20
-143.9108625418201
 30
0.0
 11
346.8759893707764
 21
-145.3107625418204
 31
0.0
  0
LINE
  5
F18
330
1F
100
AcDbEntity
  8
0
  6
Continuous
 62
     7
100
AcDbLine
 10
346.3759893707764
 20
-146.8107625418204
 30
0.0
 11
344.9760893707764
 21
-146.8107625418204
 31
0.0
  0
LINE
  5
F19
330
1F
100
AcDbEntity
  8
0
  6
Continuous
 62
     7
100
AcDbLine
 10
347.8759893707764
 20
-147.3107625418204
 30
0.0
 11
347.8759893707764
 21
-148.7106625418201
 31
0.0
  0
LINE
  5
F1A
330
1F
100
AcDbEntity
  8
0
  6
Continuous
 62
     7
100
AcDbLine
 10
346.8759893707764
 20
-147.3107625418204
 30
0.0
 11
346.8759893707764
 21
-148.7106625418201
 31
0.0
  0
LINE
  5
F1B
330
1F
100
AcDbEntity
  8
0
  6
Continuous
 62
     7
100
AcDbLine
 10
346.3759893707764
 20
-145.8107625418204
 30
0.0
 11
344.9760893707764
 21
-145.8107625418204
 31
0.0
  0
LINE
  5
F1C
330
1F
100
AcDbEntity
  8
0
  6
Continuous
 62
     7
100
AcDbLine
 10
347.8759893707764
 20
-148.7106625418201
 30
0.0
 11
346.8759893707764
 21
-148.7106625418201
 31
0.0
  0
LINE
  5
F1D
330
1F
100
AcDbEntity
  8
0
  6
Continuous
 62
     7
100
AcDbLine
 10
347.8759893707764
 20
-143.9108625418201
 30
0.0
 11
346.8759893707764
 21
-143.9108625418201
 31
0.0
  0
LINE
  5
F1E
330
1F
100
AcDbEntity
  8
0
  6
Continuous
 62
     7
100
AcDbLine
 10
349.7758893707764
 20
-145.8107625418204
 30
0.0
 11
349.7758893707764
 21
-146.8107625418204
 31
0.0
  0
LINE
  5
F1F
330
1F
100
AcDbEntity
  8
0
  6
Continuous
 62
     7
100
AcDbLine
 10
344.9760893707764
 20
-145.8107625418204
 30
0.0
 11
344.9760893707764
 21
-146.8107625418204
 31
0.0
  0
LINE
  5
F20
330
1F
100
AcDbEntity
  8
100
  6
DASH_CENTER
 62
    30
100
AcDbLine
 10
427.5830987688229
 20
-152.2717900694795
 30
0.0
 11
416.052898768823
 21
-140.7414900694796
 31
0.0
  0
LINE
  5
F21
330
1F
100
AcDbEntity
  8
0
  6
Continuous
 62
     7
100
AcDbLine
 10
422.1223850395957
 20
-143.9111246384751
 30
0.0
 11
422.1223850395957
 21
-145.311024638475
 31
0.0
  0
LINE
  5
F22
330
1F
100
AcDbEntity
  8
0
  6
Continuous
 62
     7
100
AcDbLine
 10
421.1223850395957
 20
-143.9111246384751
 30
0.0
 11
421.1223850395957
 21
-145.311024638475
 31
0.0
  0
LINE
  5
F23
330
1F
100
AcDbEntity
  8
0
  6
Continuous
 62
     7
100
AcDbLine
 10
419.2224850395957
 20
-145.811024638475
 30
0.0
 11
420.6223850395956
 21
-145.811024638475
 31
0.0
  0
LINE
  5
F24
330
1F
100
AcDbEntity
  8
0
  6
Continuous
 62
     7
100
AcDbLine
 10
419.2224850395957
 20
-146.811024638475
 30
0.0
 11
420.6223850395956
 21
-146.811024638475
 31
0.0
  0
LINE
  5
F25
330
1F
100
AcDbEntity
  8
0
  6
Continuous
 62
     7
100
AcDbLine
 10
422.1223850395957
 20
-147.311024638475
 30
0.0
 11
422.1223850395957
 21
-148.7109246384751
 31
0.0
  0
LINE
  5
F26
330
1F
100
AcDbEntity
  8
0
  6
Continuous
 62
     7
100
AcDbLine
 10
422.6223850395958
 20
-145.811024638475
 30
0.0
 11
424.0222850395957
 21
-145.811024638475
 31
0.0
  0
LINE
  5
F27
330
1F
100
AcDbEntity
  8
0
  6
Continuous
 62
     7
100
AcDbLine
 10
422.6223850395958
 20
-146.811024638475
 30
0.0
 11
424.0222850395957
 21
-146.811024638475
 31
0.0
  0
LINE
  5
F28
330
1F
100
AcDbEntity
  8
0
  6
Continuous
 62
     7
100
AcDbLine
 10
421.1223850395957
 20
-147.311024638475
 30
0.0
 11
421.1223850395957
 21
-148.7109246384751
 31
0.0
  0
LINE
  5
F29
330
1F
100
AcDbEntity
  8
0
  6
Continuous
 62
     7
100
AcDbLine
 10
424.0222850395957
 20
-145.811024638475
 30
0.0
 11
424.0222850395957
 21
-146.811024638475
 31
0.0
  0
LINE
  5
F2A
330
1F
100
AcDbEntity
  8
0
  6
Continuous
 62
     7
100
AcDbLine
 10
419.2224850395957
 20
-145.811024638475
 30
0.0
 11
419.2224850395957
 21
-146.811024638475
 31
0.0
  0
LINE
  5
F2B
330
1F
100
AcDbEntity
  8
0
  6
Continuous
 62
     7
100
AcDbLine
 10
421.1223850395957
 20
-143.9111246384751
 30
0.0
 11
422.1223850395957
 21
-143.9111246384751
 31
0.0
  0
LINE
  5
F2C
330
1F
100
AcDbEntity
  8
0
  6
Continuous
 62
     7
100
AcDbLine
 10
421.1223850395957
 20
-148.7109246384751
 30
0.0
 11
422.1223850395957
 21
-148.7109246384751
 31
0.0
  0
LINE
  5
F2D
330
1F
100
AcDbEntity
  8
100
  6
DASH_CENTER
 62
    30
100
AcDbLine
 10
427.583398768823
 20
-66.10392903880074
 30
0.0
 11
416.053098768823
 21
-77.63412903880061
 31
0.0
  0
LINE
  5
F2E
330
1F
100
AcDbEntity
  8
0
  6
Continuous
 62
     7
100
AcDbLine
 10
419.2227333378185
 20
-71.56464276802783
 30
0.0
 11
420.6226333378185
 21
-71.56464276802783
 31
0.0
  0
LINE
  5
F2F
330
1F
100
AcDbEntity
  8
0
  6
Continuous
 62
     7
100
AcDbLine
 10
419.2227333378185
 20
-72.56464276802784
 30
0.0
 11
420.6226333378185
 21
-72.56464276802784
 31
0.0
  0
LINE
  5
F30
330
1F
100
AcDbEntity
  8
0
  6
Continuous
 62
     7
100
AcDbLine
 10
421.1226333378185
 20
-74.46454276802795
 30
0.0
 11
421.1226333378185
 21
-73.06464276802784
 31
0.0
  0
LINE
  5
F31
330
1F
100
AcDbEntity
  8
0
  6
Continuous
 62
     7
100
AcDbLine
 10
422.1226333378186
 20
-74.46454276802795
 30
0.0
 11
422.1226333378186
 21
-73.06464276802784
 31
0.0
  0
LINE
  5
F32
330
1F
100
AcDbEntity
  8
0
  6
Continuous
 62
     7
100
AcDbLine
 10
422.6226333378185
 20
-71.56464276802783
 30
0.0
 11
424.0225333378186
 21
-71.56464276802783
 31
0.0
  0
LINE
  5
F33
330
1F
100
AcDbEntity
  8
0
  6
Continuous
 62
     7
100
AcDbLine
 10
421.1226333378185
 20
-71.06464276802784
 30
0.0
 11
421.1226333378185
 21
-69.66474276802796
 31
0.0
  0
LINE
  5
F34
330
1F
100
AcDbEntity
  8
0
  6
Continuous
 62
     7
100
AcDbLine
 10
422.1226333378186
 20
-71.06464276802784
 30
0.0
 11
422.1226333378186
 21
-69.66474276802796
 31
0.0
  0
LINE
  5
F35
330
1F
100
AcDbEntity
  8
0
  6
Continuous
 62
     7
100
AcDbLine
 10
422.6226333378185
 20
-72.56464276802784
 30
0.0
 11
424.0225333378186
 21
-72.56464276802784
 31
0.0
  0
LINE
  5
F36
330
1F
100
AcDbEntity
  8
0
  6
Continuous
 62
     7
100
AcDbLine
 10
421.1226333378185
 20
-69.66474276802796
 30
0.0
 11
422.1226333378186
 21
-69.66474276802796
 31
0.0
  0
LINE
  5
F37
330
1F
100
AcDbEntity
  8
0
  6
Continuous
 62
     7
100
AcDbLine
 10
421.1226333378185
 20
-74.46454276802795
 30
0.0
 11
422.1226333378186
 21
-74.46454276802795
 31
0.0
  0
LINE
  5
F38
330
1F
100
AcDbEntity
  8
0
  6
Continuous
 62
     7
100
AcDbLine
 10
419.2227333378185
 20
-72.56464276802784
 30
0.0
 11
419.2227333378185
 21
-71.56464276802783
 31
0.0
  0
LINE
  5
F39
330
1F
100
AcDbEntity
  8
0
  6
Continuous
 62
     7
100
AcDbLine
 10
424.0225333378186
 20
-72.56464276802784
 30
0.0
 11
424.0225333378186
 21
-71.56464276802783
 31
0.0
  0
LINE
  5
F3A
330
1F
100
AcDbEntity
  8
60
  6
Continuous
 62
     7
100
AcDbLine
 10
397.4995182534835
 20
-73.48070955413994
 30
0.0
 11
397.4995182534835
 21
-85.72130955414001
 31
0.0
  0
LINE
  5
F3B
330
1F
100
AcDbEntity
  8
60
  6
Continuous
 62
     7
100
AcDbLine
 10
357.4995182534833
 20
-135.9275095541401
 30
0.0
 11
357.4995182534833
 21
-84.59100955413999
 31
0.0
  0
LINE
  5
F3C
330
1F
100
AcDbEntity
  8
0
  6
Continuous
 62
     7
100
AcDbLine
 10
99.4227722537146
 20
40.31223727509825
 30
0.0
 11
97.58317225371456
 21
40.47343727509825
 31
0.0
  0
LINE
  5
F44
330
1F
100
AcDbEntity
  8
0
  6
DASH_CENTER
 62
    30
100
AcDbLine
 10
-714.720080929674
 20
44.81229044585996
 30
0.0
 11
-288.6356115705739
 21
44.81229044585996
 31
0.0
  0
ARC
  5
F53
330
1F
100
AcDbEntity
  8
0
  6
Continuous
 62
     7
100
AcDbCircle
 10
103.9172968115156
 20
-115.8627095541401
 30
0.0
 40
1.7992692244374
100
AcDbArc
 50
99.42121415175645
 51
260.5787858482435
  0
ARC
  5
F54
330
1F
100
AcDbEntity
  8
0
  6
Continuous
 62
     7
100
AcDbCircle
 10
103.9172968115156
 20
-115.8627095541401
 30
0.0
 40
1.799269224437388
100
AcDbArc
 50
260.5787858482435
 51
273.3606764323617
  0
ARC
  5
F55
330
1F
100
AcDbEntity
  8
0
  6
Continuous
 62
     7
100
AcDbCircle
 10
107.0736055414496
 20
-121.1877095541401
 30
0.0
 40
4.950833333333331
100
AcDbArc
 50
134.1884606831657
 51
225.8115393168342
  0
ARC
  5
F56
330
1F
100
AcDbEntity
  8
0
  6
Continuous
 62
     7
100
AcDbCircle
 10
103.8996025817719
 20
-126.5127095541402
 30
0.0
 40
1.796457640964119
100
AcDbArc
 50
98.86448193601488
 51
261.1355180639851
  0
ARC
  5
F57
330
1F
100
AcDbEntity
  8
0
  6
Continuous
 62
     7
100
AcDbCircle
 10
103.8996025817719
 20
-126.5127095541402
 30
0.0
 40
1.796457640964123
100
AcDbArc
 50
86.06857387389158
 51
98.86448193601488
  0
ARC
  5
F5E
330
1F
100
AcDbEntity
  8
0
  6
Continuous
 62
     7
100
AcDbCircle
 10
342.5796147315915
 20
42.06620492928641
 30
0.0
 40
1.599996478112713
100
AcDbArc
 50
180.0001376382529
 51
264.9982890533556
  0
ARC
  5
F5F
330
1F
100
AcDbEntity
  8
0
  6
Continuous
 62
     7
100
AcDbCircle
 10
342.5796147315915
 20
47.5583759624335
 30
0.0
 40
1.59999647811275
100
AcDbArc
 50
95.00171094664636
 51
179.9998623617474
  0
ARC
  5
F60
330
1F
100
AcDbEntity
  8
0
  6
Continuous
 62
     7
100
AcDbCircle
 10
342.5796147315915
 20
225.2283457461496
 30
0.0
 40
1.599996478112769
100
AcDbArc
 50
180.0001376382521
 51
264.9982890533537
  0
ARC
  5
F61
330
1F
100
AcDbEntity
  8
0
  6
Continuous
 62
     7
100
AcDbCircle
 10
342.5796147315915
 20
230.7205167792968
 30
0.0
 40
1.599996478112758
100
AcDbArc
 50
95.00171094664636
 51
179.9998623617479
  0
ARC
  5
F62
330
1F
100
AcDbEntity
  8
10
  6
Continuous
 62
     7
100
AcDbCircle
 10
360.9427234577995
 20
242.8122864146314
 30
0.0
 40
2.000004031235095
100
AcDbArc
 50
14.47760164093207
 51
90.00014909236346
  0
ARC
  5
F63
330
1F
100
AcDbEntity
  8
10
  6
Continuous
 62
     7
100
AcDbCircle
 10
364.8158130491678
 20
243.8122944770881
 30
0.0
 40
2.000004031235087
100
AcDbArc
 50
194.4776016409313
 51
270.0001490923635
  0
ARC
  5
F64
330
1F
100
AcDbEntity
  8
10
  6
Continuous
 62
     7
100
AcDbCircle
 10
343.5793182522336
 20
243.8122904446097
 30
0.0
 40
2.000000001250019
100
AcDbArc
 50
270.0028648247855
 51
0.00000003581111
  0
ARC
  5
F65
330
1F
100
AcDbEntity
  8
0
  6
Continuous
 62
     7
100
AcDbCircle
 10
269.0556147315917
 20
-141.095935887577
 30
0.0
 40
1.599996478112713
100
AcDbArc
 50
180.0001376382516
 51
264.9982890533515
  0
ARC
  5
F66
330
1F
100
AcDbEntity
  8
0
  6
Continuous
 62
     7
100
AcDbCircle
 10
269.0556147315917
 20
-135.6037648544297
 30
0.0
 40
1.599996478112693
100
AcDbArc
 50
95.00171094664862
 51
179.9998623617494
  0
ARC
  5
F67
330
1F
100
AcDbEntity
  8
0
  6
Continuous
 62
     7
100
AcDbCircle
 10
269.0556147315917
 20
42.0662049292863
 30
0.0
 40
1.599996478112713
100
AcDbArc
 50
180.0001376382521
 51
264.9982890533514
  0
ARC
  5
F68
330
1F
100
AcDbEntity
  8
0
  6
Continuous
 62
     7
100
AcDbCircle
 10
269.0556147315917
 20
47.55837596243355
 30
0.0
 40
1.599996478112686
100
AcDbArc
 50
95.00171094664862
 51
179.9998623617496
  0
ARC
  5
F6F
330
1F
100
AcDbEntity
  8
0
  6
Continuous
 62
     7
100
AcDbCircle
 10
195.7317147318226
 20
42.0662049292863
 30
0.0
 40
1.599996478112655
100
AcDbArc
 50
180.0001376382503
 51
264.9982890533533
  0
ARC
  5
F70
330
1F
100
AcDbEntity
  8
0
  6
Continuous
 62
     7
100
AcDbCircle
 10
195.7317147318226
 20
47.5583759624335
 30
0.0
 40
1.599996478112629
100
AcDbArc
 50
95.00171094664578
 51
179.9998623617481
  0
ARC
  5
F71
330
1F
100
AcDbEntity
  8
0
  6
Continuous
 62
     7
100
AcDbCircle
 10
195.7317147318226
 20
225.2283457461498
 30
0.0
 40
1.599996478112628
100
AcDbArc
 50
180.000137638251
 51
264.9982890533542
  0
ARC
  5
F72
330
1F
100
AcDbEntity
  8
0
  6
Continuous
 62
     7
100
AcDbCircle
 10
195.7317147318227
 20
230.720516779297
 30
0.0
 40
1.599996478112676
100
AcDbArc
 50
95.00171094664766
 51
179.9998623617509
  0
ARC
  5
F73
330
1F
100
AcDbEntity
  8
0
  6
Continuous
 62
     7
100
AcDbCircle
 10
195.7317147318226
 20
-135.6037648544297
 30
0.0
 40
1.59999647811266
100
AcDbArc
 50
95.0017109466467
 51
179.9998623617499
  0
ARC
  5
F74
330
1F
100
AcDbEntity
  8
0
  6
Continuous
 62
     7
100
AcDbCircle
 10
195.7317147318226
 20
-141.095935887577
 30
0.0
 40
1.599996478112655
100
AcDbArc
 50
180.0001376382501
 51
264.9982890533534
  0
ARC
  5
F75
330
1F
100
AcDbEntity
  8
0
  6
Continuous
 62
     7
100
AcDbCircle
 10
269.0556147315917
 20
225.2283457461495
 30
0.0
 40
1.599996478112713
100
AcDbArc
 50
180.0001376382491
 51
264.9982890533513
  0
ARC
  5
F76
330
1F
100
AcDbEntity
  8
0
  6
Continuous
 62
     7
100
AcDbCircle
 10
269.0556147315917
 20
230.7205167792968
 30
0.0
 40
1.599996478112705
100
AcDbArc
 50
95.0017109466486
 51
179.9998623617499
  0
ARC
  5
F77
330
1F
100
AcDbEntity
  8
10
  6
Continuous
 62
     7
100
AcDbCircle
 10
284.9823234577995
 20
242.8122864146314
 30
0.0
 40
2.000004031235095
100
AcDbArc
 50
14.47760164093207
 51
90.00014909236346
  0
ARC
  5
F78
330
1F
100
AcDbEntity
  8
10
  6
Continuous
 62
     7
100
AcDbCircle
 10
288.8554130491678
 20
243.8122944770881
 30
0.0
 40
2.000004031235087
100
AcDbArc
 50
194.4776016409313
 51
270.0001490923635
  0
ARC
  5
F79
330
1F
100
AcDbEntity
  8
10
  6
Continuous
 62
     7
100
AcDbCircle
 10
270.0553182522337
 20
243.8122904446097
 30
0.0
 40
2.000000001249989
100
AcDbArc
 50
270.0028648247789
 51
0.00000003581193
  0
ARC
  5
F7D
330
1F
100
AcDbEntity
  8
10
  6
Continuous
 62
     7
100
AcDbCircle
 10
211.3583234580303
 20
242.8122864146315
 30
0.0
 40
2.000004031235155
100
AcDbArc
 50
14.47760164093245
 51
90.00014909236268
  0
ARC
  5
F7E
330
1F
100
AcDbEntity
  8
10
  6
Continuous
 62
     7
100
AcDbCircle
 10
215.2314130493989
 20
243.8122944770882
 30
0.0
 40
2.000004031235047
100
AcDbArc
 50
194.4776016409333
 51
270.0001490923659
  0
ARC
  5
F7F
330
1F
100
AcDbEntity
  8
0
  6
Continuous
 62
     7
100
AcDbCircle
 10
97.7228687318226
 20
119.0574397730452
 30
0.0
 40
1.599996478112584
100
AcDbArc
 50
95.00171094664484
 51
179.9998623617504
  0
ARC
  5
F80
330
1F
100
AcDbEntity
  8
0
  6
Continuous
 62
     7
100
AcDbCircle
 10
97.72291854143782
 20
113.5671931010433
 30
0.0
 40
1.600046288488436
100
AcDbArc
 50
180.0017719790555
 51
264.9966547125468
  0
ARC
  5
F81
330
1F
100
AcDbEntity
  8
0
  6
Continuous
 62
     7
100
AcDbCircle
 10
97.7228687318226
 20
47.55743977304507
 30
0.0
 40
1.599996478112638
100
AcDbArc
 50
95.00171094664652
 51
179.9998623617522
  0
ARC
  5
F9E
330
1F
100
AcDbEntity
  8
0
  6
DASHED
 62
   171
 48
0.5
100
AcDbCircle
 10
-502.720080929671
 20
44.81229044586075
 30
0.0
 40
100.000000000003
100
AcDbArc
 50
180.5285015335384
 51
199.4714984664619
  0
ARC
  5
FA0
330
1F
100
AcDbEntity
  8
0
  6
DASHED
 62
   171
 48
0.5
100
AcDbCircle
 10
-502.720080929674
 20
44.81229044585996
 30
0.0
 40
100.0000000000001
100
AcDbArc
 50
325.4043722677932
 51
180.528501533538
  0
ARC
  5
FA6
330
1F
100
AcDbEntity
  8
0
  6
Continuous
 62
    54
100
AcDbCircle
 10
-460.720080929674
 20
44.81229044585996
 30
0.0
 40
163.0
100
AcDbArc
 50
345.5338062225705
 51
355.1918189615607
  0
ARC
  5
FA8
330
1F
100
AcDbEntity
  8
0
  6
Continuous
 62
     7
100
AcDbCircle
 10
-502.7200809296738
 20
44.81229044585979
 30
0.0
 40
200.0000000000001
100
AcDbArc
 50
63.47696073872863
 51
90.00000000000005
  0
ARC
  5
FA9
330
1F
100
AcDbEntity
  8
0
  6
Continuous
 62
     7
100
AcDbCircle
 10
-502.7200809296738
 20
63.10300857876097
 30
0.0
 40
115.0
100
AcDbArc
 50
74.78467803001795
 51
106.9928823084461
  0
ARC
  5
FAA
330
1F
100
AcDbEntity
  8
0
  6
Continuous
 62
     7
100
AcDbCircle
 10
-502.7200809296738
 20
63.10300857876097
 30
0.0
 40
125.0
100
AcDbArc
 50
72.68550031586716
 51
88.7315690384662
  0
ARC
  5
FAB
330
1F
100
AcDbEntity
  8
0
  6
Continuous
 62
     7
100
AcDbCircle
 10
-502.7200809296738
 20
63.10300857876097
 30
0.0
 40
120.0
100
AcDbArc
 50
90.6730896712097
 51
97.00000000000002
  0
ARC
  5
FAC
330
1F
100
AcDbEntity
  8
0
  6
DASHED
 62
   171
 48
0.5
100
AcDbCircle
 10
-502.7200809296738
 20
44.81229044585996
 30
0.0
 40
100.0
100
AcDbArc
 50
199.471498466462
 51
255.9302326328497
  0
ARC
  5
FAD
330
1F
100
AcDbEntity
  8
0
  6
DASH_CENTER
 62
    30
100
AcDbCircle
 10
-502.7200809296718
 20
44.81229044585988
 30
0.0
 40
72.49999999999793
100
AcDbArc
 50
347.7146174121579
 51
8.880785353275983
  0
ARC
  5
FAE
330
1F
100
AcDbEntity
  8
0
  6
Continuous
 62
     7
100
AcDbCircle
 10
-431.2200809296738
 20
45.81229044585995
 30
0.0
 40
0.5
100
AcDbArc
 50
270.0
 51
0.0
  0
ARC
  5
FAF
330
1F
100
AcDbEntity
  8
0
  6
Continuous
 62
     7
100
AcDbCircle
 10
-431.2200809296738
 20
43.81229044585995
 30
0.0
 40
0.5
100
AcDbArc
 50
0.0
 51
90.0
  0
ARC
  5
FB0
330
1F
100
AcDbEntity
  8
0
  6
Continuous
 62
     7
100
AcDbCircle
 10
-429.2200809296738
 20
43.81229044585995
 30
0.0
 40
0.5
100
AcDbArc
 50
90.0
 51
180.0
  0
ARC
  5
FB1
330
1F
100
AcDbEntity
  8
0
  6
Continuous
 62
     7
100
AcDbCircle
 10
-429.2200809296738
 20
45.81229044585995
 30
0.0
 40
0.5
100
AcDbArc
 50
180.0
 51
270.0
  0
ARC
  5
FB2
330
1F
100
AcDbEntity
  8
0
  6
DASH_CENTER
 62
    30
100
AcDbCircle
 10
-502.7200809296738
 20
44.81229044585996
 30
0.0
 40
72.5
100
AcDbArc
 50
261.1192146467244
 51
278.8807853532758
  0
ARC
  5
FB3
330
1F
100
AcDbEntity
  8
0
  6
Continuous
 62
     7
100
AcDbCircle
 10
-501.7200809296737
 20
-26.68770955414004
 30
0.0
 40
0.5
100
AcDbArc
 50
180.0
 51
270.0
  0
ARC
  5
FB4
330
1F
100
AcDbEntity
  8
0
  6
Continuous
 62
     7
100
AcDbCircle
 10
-503.7200809296738
 20
-26.68770955414004
 30
0.0
 40
0.5
100
AcDbArc
 50
270.0
 51
0.0
  0
ARC
  5
FB5
330
1F
100
AcDbEntity
  8
0
  6
Continuous
 62
     7
100
AcDbCircle
 10
-503.7200809296738
 20
-28.68770955414004
 30
0.0
 40
0.5
100
AcDbArc
 50
0.0
 51
90.0
  0
ARC
  5
FB6
330
1F
100
AcDbEntity
  8
0
  6
Continuous
 62
     7
100
AcDbCircle
 10
-501.7200809296737
 20
-28.68770955414004
 30
0.0
 40
0.5
100
AcDbArc
 50
90.0
 51
180.0
  0
ARC
  5
FB7
330
1F
100
AcDbEntity
  8
0
  6
DASH_CENTER
 62
    30
100
AcDbCircle
 10
-502.7200809296778
 20
44.81229044585993
 30
0.0
 40
72.49999999999606
100
AcDbArc
 50
171.7044714499213
 51
188.8807853532761
  0
ARC
  5
FB8
330
1F
100
AcDbEntity
  8
0
  6
Continuous
 62
     7
100
AcDbCircle
 10
-574.2200809296738
 20
43.81229044586
 30
0.0
 40
0.5
100
AcDbArc
 50
90.0
 51
180.0
  0
ARC
  5
FB9
330
1F
100
AcDbEntity
  8
0
  6
Continuous
 62
     7
100
AcDbCircle
 10
-574.2200809296738
 20
45.81229044586001
 30
0.0
 40
0.5
100
AcDbArc
 50
180.0
 51
270.0
  0
ARC
  5
FBA
330
1F
100
AcDbEntity
  8
0
  6
Continuous
 62
     7
100
AcDbCircle
 10
-576.2200809296738
 20
45.81229044586001
 30
0.0
 40
0.5
100
AcDbArc
 50
270.0
 51
0.0
  0
ARC
  5
FBB
330
1F
100
AcDbEntity
  8
0
  6
Continuous
 62
     7
100
AcDbCircle
 10
-576.2200809296738
 20
43.81229044586
 30
0.0
 40
0.5
100
AcDbArc
 50
0.0
 51
90.0
  0
ARC
  5
FBC
330
1F
100
AcDbEntity
  8
0
  6
DASH_CENTER
 62
    30
100
AcDbCircle
 10
-502.7200809296738
 20
44.81229044585996
 30
0.0
 40
72.5
100
AcDbArc
 50
81.11921464672422
 51
98.88078535327558
  0
ARC
  5
FBD
330
1F
100
AcDbEntity
  8
0
  6
Continuous
 62
     7
100
AcDbCircle
 10
-503.7200809296738
 20
116.3122904458599
 30
0.0
 40
0.5
100
AcDbArc
 50
0.0
 51
90.0
  0
ARC
  5
FBE
330
1F
100
AcDbEntity
  8
0
  6
Continuous
 62
     7
100
AcDbCircle
 10
-501.7200809296737
 20
116.3122904458599
 30
0.0
 40
0.5
100
AcDbArc
 50
90.0
 51
180.0
  0
ARC
  5
FBF
330
1F
100
AcDbEntity
  8
0
  6
Continuous
 62
     7
100
AcDbCircle
 10
-501.7200809296737
 20
118.3122904458599
 30
0.0
 40
0.5
100
AcDbArc
 50
180.0
 51
270.0
  0
ARC
  5
FC0
330
1F
100
AcDbEntity
  8
0
  6
Continuous
 62
     7
100
AcDbCircle
 10
-503.7200809296738
 20
118.3122904458599
 30
0.0
 40
0.5
100
AcDbArc
 50
270.0
 51
0.0
  0
ARC
  5
FC1
330
1F
100
AcDbEntity
  8
0
  6
DASH_CENTER
 62
    30
100
AcDbCircle
 10
-481.7200809296743
 20
8.439223486913418
 30
0.0
 40
163.0
100
AcDbArc
 50
295.6048415793063
 51
304.3951584206935
  0
ARC
  5
FC2
330
1F
100
AcDbEntity
  8
0
  6
DASH_CENTER
 62
    30
100
AcDbCircle
 10
-523.7200809296735
 20
8.439223486913306
 30
0.0
 40
163.0
100
AcDbArc
 50
235.6048415793065
 51
244.3951584206935
  0
ARC
  5
FC3
330
1F
100
AcDbEntity
  8
0
  6
DASH_CENTER
 62
    30
100
AcDbCircle
 10
-544.7200809296738
 20
44.81229044585996
 30
0.0
 40
163.0
100
AcDbArc
 50
175.6048415793065
 51
184.3951584206935
  0
ARC
  5
FC4
330
1F
100
AcDbEntity
  8
0
  6
DASH_CENTER
 62
    30
100
AcDbCircle
 10
-523.7200809296738
 20
81.18535740480643
 30
0.0
 40
163.0
100
AcDbArc
 50
115.6048415793065
 51
124.3951584206934
  0
ARC
  5
FC5
330
1F
100
AcDbEntity
  8
0
  6
DASH_CENTER
 62
    30
100
AcDbCircle
 10
-481.7200809296743
 20
81.18535740480661
 30
0.0
 40
162.9999999999999
100
AcDbArc
 50
55.60484157930645
 51
64.39515842069339
  0
ARC
  5
FC6
330
1F
100
AcDbEntity
  8
0
  6
DASH_CENTER
 62
    30
100
AcDbCircle
 10
-460.720080929674
 20
44.81229044585996
 30
0.0
 40
162.9999999999999
100
AcDbArc
 50
355.6048415793065
 51
4.395158420693508
  0
ARC
  5
FC7
330
1F
100
AcDbEntity
  8
0
  6
Continuous
 62
     7
100
AcDbCircle
 10
-502.7200809296738
 20
44.81229044585996
 30
0.0
 40
200.0
100
AcDbArc
 50
123.4769607387283
 51
176.5230392612715
  0
ARC
  5
FC8
330
1F
100
AcDbEntity
  8
0
  6
Continuous
 62
     7
100
AcDbCircle
 10
-502.7200809296735
 20
44.81229044585859
 30
0.0
 40
200.0000000000014
100
AcDbArc
 50
90.00000000000005
 51
116.5230392612714
  0
ARC
  5
FC9
330
1F
100
AcDbEntity
  8
0
  6
Continuous
 62
     7
100
AcDbCircle
 10
-502.7200809296738
 20
44.81229044585996
 30
0.0
 40
200.0
100
AcDbArc
 50
3.476960738728285
 51
56.52303926127157
  0
ARC
  5
FCA
330
1F
100
AcDbEntity
  8
0
  6
Continuous
 62
     7
100
AcDbCircle
 10
-502.7200809296738
 20
44.81229044585996
 30
0.0
 40
200.0
100
AcDbArc
 50
183.4769607387284
 51
236.5230392612719
  0
ARC
  5
FCB
330
1F
100
AcDbEntity
  8
0
  6
Continuous
 62
     7
100
AcDbCircle
 10
-401.8595846192964
 20
-132.2836136403281
 30
0.0
 40
0.5999999999999419
100
AcDbArc
 50
300.0000000000044
 51
29.99999999999842
  0
ARC
  5
FCC
330
1F
100
AcDbEntity
  8
0
  6
Continuous
 62
     7
100
AcDbCircle
 10
-400.6595346192963
 20
-134.362161211951
 30
0.0
 40
0.5999999999999166
100
AcDbArc
 50
29.99999999999488
 51
119.9999999999944
  0
ARC
  5
FCD
330
1F
100
AcDbEntity
  8
0
  6
Continuous
 62
     7
100
AcDbCircle
 10
-398.5809870476733
 20
-133.162111211951
 30
0.0
 40
0.6000000000000032
100
AcDbArc
 50
120.0000000000011
 51
210.0000000000101
  0
ARC
  5
FCE
330
1F
100
AcDbEntity
  8
0
  6
Continuous
 62
     7
100
AcDbCircle
 10
-399.7810370476731
 20
-131.083563640328
 30
0.0
 40
0.6000000000002409
100
AcDbArc
 50
209.9999999999942
 51
299.9999999999951
  0
ARC
  5
FCF
330
1F
100
AcDbEntity
  8
0
  6
Continuous
 62
     7
100
AcDbCircle
 10
-400.2200809296742
 20
-132.7229173299502
 30
0.0
 40
7.000000000000017
100
AcDbArc
 50
235.0000000000003
 51
5.000000000000207
  0
ARC
  5
FD0
330
1F
100
AcDbEntity
  8
0
  6
Continuous
 62
     7
100
AcDbCircle
 10
-605.6593846192956
 20
-131.0834136403281
 30
0.0
 40
0.5999999999999703
100
AcDbArc
 50
239.9999999999907
 51
330.0000000000043
  0
ARC
  5
FD1
330
1F
100
AcDbEntity
  8
0
  6
Continuous
 62
     7
100
AcDbCircle
 10
-606.8594346192956
 20
-133.1619612119511
 30
0.0
 40
0.5999999999998602
100
AcDbArc
 50
330.0000000000036
 51
60.00000000000702
  0
ARC
  5
FD2
330
1F
100
AcDbEntity
  8
0
  6
Continuous
 62
     7
100
AcDbCircle
 10
-604.7808870476725
 20
-134.3620112119512
 30
0.0
 40
0.5999999999999549
100
AcDbArc
 50
60.00000000001507
 51
150.0000000000034
  0
ARC
  5
FD3
330
1F
100
AcDbEntity
  8
0
  6
Continuous
 62
     7
100
AcDbCircle
 10
-603.5808370476726
 20
-132.2834636403282
 30
0.0
 40
0.6000000000002409
100
AcDbArc
 50
150.0000000000058
 51
239.9999999999995
  0
ARC
  5
FD4
330
1F
100
AcDbEntity
  8
0
  6
Continuous
 62
     7
100
AcDbCircle
 10
-605.2200809296735
 20
-132.7229173299502
 30
0.0
 40
7.000000000000132
100
AcDbArc
 50
174.9999999999999
 51
304.9999999999986
  0
ARC
  5
FD5
330
1F
100
AcDbEntity
  8
0
  6
Continuous
 62
     7
100
AcDbCircle
 10
-706.519880929674
 20
46.01249044586007
 30
0.0
 40
0.5999999999997954
100
AcDbArc
 50
180.0
 51
270.0
  0
ARC
  5
FD6
330
1F
100
AcDbEntity
  8
0
  6
Continuous
 62
     7
100
AcDbCircle
 10
-708.9199809296737
 20
46.01249044586007
 30
0.0
 40
0.5999999999999091
100
AcDbArc
 50
270.0
 51
0.0
  0
ARC
  5
FD7
330
1F
100
AcDbEntity
  8
0
  6
Continuous
 62
     7
100
AcDbCircle
 10
-708.9199809296737
 20
43.61239044585999
 30
0.0
 40
0.6000000000002501
100
AcDbArc
 50
0.0
 51
90.0
  0
ARC
  5
FD8
330
1F
100
AcDbEntity
  8
0
  6
Continuous
 62
     7
100
AcDbCircle
 10
-706.519880929674
 20
43.61239044585993
 30
0.0
 40
0.6000000000001366
100
AcDbArc
 50
90.0
 51
180.0
  0
ARC
  5
FD9
330
1F
100
AcDbEntity
  8
0
  6
Continuous
 62
     7
100
AcDbCircle
 10
-707.7200809296742
 20
44.81229044586007
 30
0.0
 40
6.999999999999922
100
AcDbArc
 50
114.9999999999989
 51
245.0000000000011
  0
ARC
  5
FDA
330
1F
100
AcDbEntity
  8
0
  6
Continuous
 62
     7
100
AcDbCircle
 10
-603.5805772400516
 20
221.9081945320479
 30
0.0
 40
0.5999999999998811
100
AcDbArc
 50
119.999999999989
 51
210.0000000000089
  0
ARC
  5
FDB
330
1F
100
AcDbEntity
  8
0
  6
Continuous
 62
     7
100
AcDbCircle
 10
-604.7806272400516
 20
223.9867421036708
 30
0.0
 40
0.599999999999903
100
AcDbArc
 50
210.0000000000035
 51
300.0000000000131
  0
ARC
  5
FDC
330
1F
100
AcDbEntity
  8
0
  6
Continuous
 62
     7
100
AcDbCircle
 10
-606.8591748116747
 20
222.7866921036708
 30
0.0
 40
0.599999999999938
100
AcDbArc
 50
299.9999999999984
 51
29.99999999999659
  0
ARC
  5
FDD
330
1F
100
AcDbEntity
  8
0
  6
Continuous
 62
     7
100
AcDbCircle
 10
-605.6591248116744
 20
220.7081445320479
 30
0.0
 40
0.5999999999998187
100
AcDbArc
 50
30.00000000001126
 51
119.9999999999984
  0
ARC
  5
FDE
330
1F
100
AcDbEntity
  8
0
  6
Continuous
 62
     7
100
AcDbCircle
 10
-605.2200809296736
 20
222.34749822167
 30
0.0
 40
6.999999999999917
100
AcDbArc
 50
55.00000000000018
 51
185.0000000000006
  0
ARC
  5
FDF
330
1F
100
AcDbEntity
  8
0
  6
Continuous
 62
     7
100
AcDbCircle
 10
-399.7807772400522
 20
220.707994532048
 30
0.0
 40
0.5999999999999665
100
AcDbArc
 50
59.99999999999689
 51
150.0000000000009
  0
ARC
  5
FE0
330
1F
100
AcDbEntity
  8
0
  6
Continuous
 62
     7
100
AcDbCircle
 10
-398.5807272400522
 20
222.786542103671
 30
0.0
 40
0.5999999999998679
100
AcDbArc
 50
149.9999999999915
 51
239.9999999999955
  0
ARC
  5
FE1
330
1F
100
AcDbEntity
  8
0
  6
Continuous
 62
     7
100
AcDbCircle
 10
-400.6592748116752
 20
223.986592103671
 30
0.0
 40
0.6000000000000402
100
AcDbArc
 50
240.0000000000009
 51
329.999999999998
  0
ARC
  5
FE2
330
1F
100
AcDbEntity
  8
0
  6
Continuous
 62
     7
100
AcDbCircle
 10
-401.8593248116751
 20
221.908044532048
 30
0.0
 40
0.6000000000001075
100
AcDbArc
 50
329.9999999999952
 51
59.99999999999553
  0
ARC
  5
FE3
330
1F
100
AcDbEntity
  8
0
  6
Continuous
 62
     7
100
AcDbCircle
 10
-400.2200809296742
 20
222.34749822167
 30
0.0
 40
7.000000000000072
100
AcDbArc
 50
355.0
 51
124.9999999999991
  0
ARC
  5
FE4
330
1F
100
AcDbEntity
  8
0
  6
Continuous
 62
     7
100
AcDbCircle
 10
-298.9202809296739
 20
43.61209044585995
 30
0.0
 40
0.5999999999999659
100
AcDbArc
 50
0.0
 51
90.0
  0
ARC
  5
FE5
330
1F
100
AcDbEntity
  8
0
  6
Continuous
 62
     7
100
AcDbCircle
 10
-296.5201809296738
 20
43.61209044585995
 30
0.0
 40
0.5999999999999091
100
AcDbArc
 50
90.0
 51
180.0
  0
ARC
  5
FE6
330
1F
100
AcDbEntity
  8
0
  6
Continuous
 62
     7
100
AcDbCircle
 10
-296.5201809296738
 20
46.01219044586001
 30
0.0
 40
0.6000000000000796
100
AcDbArc
 50
180.0
 51
270.0
  0
ARC
  5
FE7
330
1F
100
AcDbEntity
  8
0
  6
Continuous
 62
     7
100
AcDbCircle
 10
-298.9202809296739
 20
46.01219044586001
 30
0.0
 40
0.6000000000001366
100
AcDbArc
 50
270.0
 51
0.0
  0
ARC
  5
FE8
330
1F
100
AcDbEntity
  8
0
  6
Continuous
 62
     7
100
AcDbCircle
 10
-502.7200809296738
 20
44.81229044585996
 30
0.0
 40
200.0
100
AcDbArc
 50
303.4769607387283
 51
356.5230392612715
  0
ARC
  5
FE9
330
1F
100
AcDbEntity
  8
0
  6
Continuous
 62
     7
100
AcDbCircle
 10
-297.720080929674
 20
44.81229044585996
 30
0.0
 40
7.000000000000049
100
AcDbArc
 50
295.0000000000009
 51
64.99999999999897
  0
ARC
  5
FEE
330
1F
100
AcDbEntity
  8
0
  6
DASHED
 62
   171
 48
0.5
100
AcDbCircle
 10
-502.7198640453019
 20
44.81209749086423
 30
0.0
 40
99.99972111131553
100
AcDbArc
 50
284.0695845513528
 51
334.4554419244215
  0
ARC
  5
FF4
330
1F
100
AcDbEntity
  8
10
  6
Continuous
 62
     7
100
AcDbCircle
 10
-272.7205809296739
 20
-50.18770955414004
 30
0.0
 40
2.000000000000002
100
AcDbArc
 50
90.0
 51
180.0
  0
ARC
  5
FF5
330
1F
100
AcDbEntity
  8
10
  6
Continuous
 62
     7
100
AcDbCircle
 10
-277.7202809296741
 20
-65.18760955414006
 30
0.0
 40
3.0
100
AcDbArc
 50
270.0
 51
0.0
  0
ARC
  5
FF6
330
1F
100
AcDbEntity
  8
10
  6
Continuous
 62
     7
100
AcDbCircle
 10
-277.7202809296741
 20
-153.18780955414
 30
0.0
 40
3.0
100
AcDbArc
 50
0.0
 51
90.0
  0
ARC
  5
FF7
330
1F
100
AcDbEntity
  8
10
  6
Continuous
 62
     7
100
AcDbCircle
 10
-272.720580930924
 20
-168.1877095528901
 30
0.0
 40
2.000000001250019
100
AcDbArc
 50
180.0028648247821
 51
270.0000000358111
  0
ARC
  5
FF8
330
1F
100
AcDbEntity
  8
10
  6
Continuous
 62
     7
100
AcDbCircle
 10
-332.5221743257543
 20
-63.18770955414004
 30
0.0
 40
5.000000000000051
100
AcDbArc
 50
218.6004240928907
 51
270.0
  0
ARC
  5
FF9
330
1F
100
AcDbEntity
  8
0
  6
Continuous
 62
     7
100
AcDbCircle
 10
-255.0202774077819
 20
-72.50060937808648
 30
0.0
 40
1.599996478112599
100
AcDbArc
 50
0.00013763824983
 51
84.99828905335512
  0
ARC
  5
FFA
330
1F
100
AcDbEntity
  8
0
  6
Continuous
 62
     7
100
AcDbCircle
 10
-255.0202272173972
 20
-77.99085605008833
 30
0.0
 40
1.600046288488431
100
AcDbArc
 50
275.0033452874528
 51
359.9982280209437
  0
ARC
  5
FFB
330
1F
100
AcDbEntity
  8
0
  6
Continuous
 62
     7
100
AcDbCircle
 10
-255.020177407782
 20
-145.8748097301936
 30
0.0
 40
1.599996478112598
100
AcDbArc
 50
275.0017109466448
 51
359.9998623617499
  0
ARC
  5
FFC
330
1F
100
AcDbEntity
  8
0
  6
Continuous
 62
     7
100
AcDbCircle
 10
-255.0202272173972
 20
-140.3845630581917
 30
0.0
 40
1.600046288488416
100
AcDbArc
 50
0.00177197905657
 51
84.99665471254719
  0
ARC
  5
1003
330
1F
100
AcDbEntity
  8
10
  6
Continuous
 62
     7
100
AcDbCircle
 10
284.9823234577995
 20
-153.1877055229116
 30
0.0
 40
2.000004031235099
100
AcDbArc
 50
269.9998509076365
 51
345.5223983590684
  0
ARC
  5
1004
330
1F
100
AcDbEntity
  8
10
  6
Continuous
 62
     7
100
AcDbCircle
 10
288.8554130491678
 20
-154.1877135853683
 30
0.0
 40
2.000004031235071
100
AcDbArc
 50
89.99985090763651
 51
165.5223983590691
  0
ARC
  5
1005
330
1F
100
AcDbEntity
  8
10
  6
Continuous
 62
     7
100
AcDbCircle
 10
270.0553182522337
 20
-154.1877095528898
 30
0.0
 40
2.000000001249985
100
AcDbArc
 50
359.9999999641881
 51
89.99713517522106
  0
ARC
  5
1009
330
1F
100
AcDbEntity
  8
0
  6
Continuous
 62
     7
100
AcDbCircle
 10
394.4993182534836
 20
226.8122904458597
 30
0.0
 40
15.0
100
AcDbArc
 50
0.0
 51
90.0
  0
ARC
  5
100A
330
1F
100
AcDbEntity
  8
100
  6
DASH_CENTER
 62
    30
100
AcDbCircle
 10
384.4992525208077
 20
-109.1876177829697
 30
0.0
 40
52.50002983269759
100
AcDbArc
 50
124.7059464210458
 51
145.4956730652209
  0
ARC
  5
100C
330
1F
100
AcDbEntity
  8
10
  6
Continuous
 62
     7
100
AcDbCircle
 10
211.3583234580304
 20
-153.1877055229116
 30
0.0
 40
2.000004031235099
100
AcDbArc
 50
269.9998509076365
 51
345.5223983590685
  0
ARC
  5
100D
330
1F
100
AcDbEntity
  8
10
  6
Continuous
 62
     7
100
AcDbCircle
 10
215.2314130493988
 20
-154.1877135853683
 30
0.0
 40
2.000004031235115
100
AcDbArc
 50
89.99985090763569
 51
165.5223983590679
  0
ARC
  5
100E
330
1F
100
AcDbEntity
  8
0
  6
Continuous
 62
     7
100
AcDbCircle
 10
97.7228687318226
 20
-29.43285888132522
 30
0.0
 40
1.599996478112634
100
AcDbArc
 50
180.000137638248
 51
264.9982890533537
  0
ARC
  5
100F
330
1F
100
AcDbEntity
  8
0
  6
Continuous
 62
     7
100
AcDbCircle
 10
97.72291854143782
 20
-23.94261220932339
 30
0.0
 40
1.600046288488416
100
AcDbArc
 50
95.00334528745256
 51
179.998228020945
  0
ARC
  5
1010
330
1F
100
AcDbEntity
  8
0
  6
Continuous
 62
     7
100
AcDbCircle
 10
346.376236390309
 20
-73.06437939274286
 30
0.0
 40
0.5
100
AcDbArc
 50
0.0
 51
90.0
  0
ARC
  5
1011
330
1F
100
AcDbEntity
  8
0
  6
Continuous
 62
     7
100
AcDbCircle
 10
348.376236390309
 20
-73.06437939274286
 30
0.0
 40
0.5
100
AcDbArc
 50
90.0
 51
180.0
  0
ARC
  5
1012
330
1F
100
AcDbEntity
  8
0
  6
Continuous
 62
     7
100
AcDbCircle
 10
348.376236390309
 20
-71.06437939274286
 30
0.0
 40
0.5
100
AcDbArc
 50
180.0
 51
270.0
  0
ARC
  5
1013
330
1F
100
AcDbEntity
  8
0
  6
Continuous
 62
     7
100
AcDbCircle
 10
346.376236390309
 20
-71.06437939274286
 30
0.0
 40
0.5
100
AcDbArc
 50
270.0
 51
0.0
  0
ARC
  5
1014
330
1F
100
AcDbEntity
  8
100
  6
DASH_CENTER
 62
    30
100
AcDbCircle
 10
384.4993182534836
 20
-109.1879095541401
 30
0.0
 40
52.5
100
AcDbArc
 50
202.2054303520531
 51
235.4954914442264
  0
ARC
  5
1015
330
1F
100
AcDbEntity
  8
0
  6
Continuous
 62
     7
100
AcDbCircle
 10
348.3759893707764
 20
-147.3107625418204
 30
0.0
 40
0.5
100
AcDbArc
 50
90.0
 51
180.0
  0
ARC
  5
1016
330
1F
100
AcDbEntity
  8
0
  6
Continuous
 62
     7
100
AcDbCircle
 10
348.3759893707764
 20
-145.3107625418204
 30
0.0
 40
0.5
100
AcDbArc
 50
180.0
 51
270.0
  0
ARC
  5
1017
330
1F
100
AcDbEntity
  8
0
  6
Continuous
 62
     7
100
AcDbCircle
 10
346.3759893707764
 20
-145.3107625418204
 30
0.0
 40
0.5
100
AcDbArc
 50
270.0
 51
0.0
  0
ARC
  5
1018
330
1F
100
AcDbEntity
  8
0
  6
Continuous
 62
     7
100
AcDbCircle
 10
346.3759893707764
 20
-147.3107625418204
 30
0.0
 40
0.5
100
AcDbArc
 50
0.0
 51
90.0
  0
ARC
  5
1019
330
1F
100
AcDbEntity
  8
100
  6
DASH_CENTER
 62
    30
100
AcDbCircle
 10
384.4994054707578
 20
-109.1878227344396
 30
0.0
 40
52.5
100
AcDbArc
 50
304.7059404485781
 51
325.49567903769
  0
ARC
  5
101A
330
1F
100
AcDbEntity
  8
0
  6
Continuous
 62
     7
100
AcDbCircle
 10
422.6223850395958
 20
-145.311024638475
 30
0.0
 40
0.5
100
AcDbArc
 50
180.0
 51
270.0
  0
ARC
  5
101B
330
1F
100
AcDbEntity
  8
0
  6
Continuous
 62
     7
100
AcDbCircle
 10
420.6223850395956
 20
-145.311024638475
 30
0.0
 40
0.5
100
AcDbArc
 50
270.0
 51
0.0
  0
ARC
  5
101C
330
1F
100
AcDbEntity
  8
0
  6
Continuous
 62
     7
100
AcDbCircle
 10
420.6223850395956
 20
-147.311024638475
 30
0.0
 40
0.5
100
AcDbArc
 50
0.0
 51
90.0
  0
ARC
  5
101D
330
1F
100
AcDbEntity
  8
0
  6
Continuous
 62
     7
100
AcDbCircle
 10
422.6223850395958
 20
-147.311024638475
 30
0.0
 40
0.5
100
AcDbArc
 50
90.0
 51
180.0
  0
ARC
  5
101E
330
1F
100
AcDbEntity
  8
100
  6
DASH_CENTER
 62
    30
100
AcDbCircle
 10
384.4993182534836
 20
-109.1875095541401
 30
0.0
 40
52.5
100
AcDbArc
 50
22.20524990337944
 51
55.49549144422619
  0
ARC
  5
101F
330
1F
100
AcDbEntity
  8
0
  6
Continuous
 62
     7
100
AcDbCircle
 10
420.6226333378185
 20
-71.06464276802784
 30
0.0
 40
0.5
100
AcDbArc
 50
270.0
 51
0.0
  0
ARC
  5
1020
330
1F
100
AcDbEntity
  8
0
  6
Continuous
 62
     7
100
AcDbCircle
 10
420.6226333378185
 20
-73.06464276802784
 30
0.0
 40
0.5
100
AcDbArc
 50
0.0
 51
90.0
  0
ARC
  5
1021
330
1F
100
AcDbEntity
  8
0
  6
Continuous
 62
     7
100
AcDbCircle
 10
422.6226333378185
 20
-73.06464276802784
 30
0.0
 40
0.5
100
AcDbArc
 50
90.0
 51
180.0
  0
ARC
  5
1022
330
1F
100
AcDbEntity
  8
0
  6
Continuous
 62
     7
100
AcDbCircle
 10
422.6226333378185
 20
-71.06464276802784
 30
0.0
 40
0.5
100
AcDbArc
 50
180.0
 51
270.0
  0
ARC
  5
1023
330
1F
100
AcDbEntity
  8
60
  6
Continuous
 62
     7
100
AcDbCircle
 10
362.4995146099672
 20
-84.59101770117035
 30
0.0
 40
4.999996356490646
100
AcDbArc
 50
131.8097837566016
 51
179.9999066418416
  0
ARC
  5
1024
330
1F
100
AcDbEntity
  8
60
  6
Continuous
 62
     7
100
AcDbCircle
 10
407.4994872993695
 20
-85.72125775869492
 30
0.0
 40
9.999969046020156
100
AcDbArc
 50
180.0002967669588
 51
241.7266662850579
  0
ARC
  5
1025
330
1F
100
AcDbEntity
  8
60
  6
Continuous
 62
     7
100
AcDbCircle
 10
389.4995401177525
 20
-119.1877923378997
 30
0.0
 40
28.00003545395387
100
AcDbArc
 50
327.8631838874893
 51
61.7262783595675
  0
ARC
  5
1026
330
1F
100
AcDbEntity
  8
0
  6
Continuous
 62
     7
100
AcDbCircle
 10
97.7228687318226
 20
42.0671411186749
 30
0.0
 40
1.599996478112634
100
AcDbArc
 50
180.000137638248
 51
264.9982890533537
  0
ARC
  5
1029
330
1F
100
AcDbEntity
  8
0
  6
Continuous
 62
     7
100
AcDbCircle
 10
-502.7200809296727
 20
44.81229044585625
 30
0.0
 40
199.9999999999961
100
AcDbArc
 50
281.7108402510294
 51
296.5230392612717
  0
ARC
  5
102A
330
1F
100
AcDbEntity
  8
0
  6
DASHED
 62
     2
 48
0.5
100
AcDbCircle
 10
-502.7200809296742
 20
44.81229044586018
 30
0.0
 40
196.5000000000002
100
AcDbArc
 50
258.1685170595778
 51
281.8314829404222
  0
ARC
  5
102B
330
1F
100
AcDbEntity
  8
0
  6
Continuous
 62
     7
100
AcDbCircle
 10
-502.7200809296738
 20
44.81229044585996
 30
0.0
 40
196.5
100
AcDbArc
 50
281.8314829404221
 51
180.0
  0
ARC
  5
102C
330
1F
100
AcDbEntity
  8
0
  6
DASHED
 62
     2
 48
0.5
100
AcDbCircle
 10
-502.720080929674
 20
44.8122904458594
 30
0.0
 40
199.9999999999993
100
AcDbArc
 50
258.2891597489704
 51
281.7108402510296
  0
ARC
  5
102D
330
1F
100
AcDbEntity
  8
0
  6
Continuous
 62
     7
100
AcDbCircle
 10
-502.720080929674
 20
44.81229044585984
 30
0.0
 40
196.4999999999999
100
AcDbArc
 50
179.9999999999999
 51
258.1685170595778
  0
ARC
  5
102E
330
1F
100
AcDbEntity
  8
0
  6
Continuous
 62
     7
100
AcDbCircle
 10
-502.7200809296748
 20
44.81229044585744
 30
0.0
 40
199.9999999999973
100
AcDbArc
 50
243.4769607387285
 51
258.2891597489705
  0
CIRCLE
  5
1036
102
{ACAD_REACTORS
330
10F6
330
10F5
102
}
330
1F
100
AcDbEntity
  8
0
  6
Continuous
 62
     7
100
AcDbCircle
 10
-502.7200809296738
 20
44.81229044585996
 30
0.0
 40
24.0
  0
CIRCLE
  5
1037
102
{ACAD_REACTORS
330
10F5
102
}
330
1F
100
AcDbEntity
  8
0
  6
Continuous
 62
     7
100
AcDbCircle
 10
-502.7200809296738
 20
44.81229044585996
 30
0.0
 40
60.0
  0
CIRCLE
  5
1038
330
1F
100
AcDbEntity
  8
0
  6
Continuous
 62
     7
100
AcDbCircle
 10
-430.2200809296738
 20
44.81229044585996
 30
0.0
 40
4.5
  0
CIRCLE
  5
1039
330
1F
100
AcDbEntity
  8
0
  6
Continuous
 62
     7
100
AcDbCircle
 10
-502.7200809296738
 20
-27.68770955414004
 30
0.0
 40
4.5
  0
CIRCLE
  5
103A
330
1F
100
AcDbEntity
  8
0
  6
Continuous
 62
     7
100
AcDbCircle
 10
-575.2200809296738
 20
44.81229044586
 30
0.0
 40
4.5
  0
CIRCLE
  5
103B
330
1F
100
AcDbEntity
  8
0
  6
Continuous
 62
     7
100
AcDbCircle
 10
-502.7200809296738
 20
117.3122904458599
 30
0.0
 40
4.5
  0
CIRCLE
  5
103C
330
1F
100
AcDbEntity
  8
0
  6
Continuous
 62
     7
100
AcDbCircle
 10
-502.7200809296738
 20
44.81229044585996
 30
0.0
 40
63.5
  0
CIRCLE
  5
103D
330
1F
100
AcDbEntity
  8
0
  6
Continuous
 62
     7
100
AcDbCircle
 10
-502.7200809296738
 20
44.81229044585996
 30
0.0
 40
77.5
  0
CIRCLE
  5
103E
330
1F
100
AcDbEntity
  8
0
  6
Continuous
 62
     7
100
AcDbCircle
 10
-400.2200809296742
 20
-132.7229173299502
 30
0.0
 40
5.250000000000061
  0
CIRCLE
  5
103F
330
1F
100
AcDbEntity
  8
0
  6
Continuous
 62
     7
100
AcDbCircle
 10
-605.2200809296735
 20
-132.7229173299502
 30
0.0
 40
5.249999999999988
  0
CIRCLE
  5
1040
330
1F
100
AcDbEntity
  8
0
  6
Continuous
 62
     7
100
AcDbCircle
 10
-707.7200809296741
 20
44.81229044586007
 30
0.0
 40
5.249999999999886
  0
CIRCLE
  5
1041
330
1F
100
AcDbEntity
  8
0
  6
Continuous
 62
     7
100
AcDbCircle
 10
-605.2200809296736
 20
222.34749822167
 30
0.0
 40
5.249999999999988
  0
CIRCLE
  5
1042
330
1F
100
AcDbEntity
  8
0
  6
Continuous
 62
     7
100
AcDbCircle
 10
-400.2200809296742
 20
222.34749822167
 30
0.0
 40
5.249999999999988
  0
CIRCLE
  5
1043
330
1F
100
AcDbEntity
  8
0
  6
Continuous
 62
     7
100
AcDbCircle
 10
-297.720080929674
 20
44.81229044585996
 30
0.0
 40
5.25
  0
CIRCLE
  5
1048
330
1F
100
AcDbEntity
  8
0
  6
Continuous
 62
     7
100
AcDbCircle
 10
384.4993182534836
 20
-109.18770955414
 30
0.0
 40
40.99996654157149
  0
CIRCLE
  5
1049
330
1F
100
AcDbEntity
  8
0
  6
Continuous
 62
     7
100
AcDbCircle
 10
384.4993182534836
 20
-109.18770955414
 30
0.0
 40
61.0
  0
CIRCLE
  5
104A
330
1F
100
AcDbEntity
  8
0
  6
Continuous
 62
     7
100
AcDbCircle
 10
347.3762363903091
 20
-72.06437939274286
 30
0.0
 40
4.5
  0
CIRCLE
  5
104B
330
1F
100
AcDbEntity
  8
0
  6
Continuous
 62
     7
100
AcDbCircle
 10
347.3759893707764
 20
-146.3107625418204
 30
0.0
 40
4.500000000000028
  0
CIRCLE
  5
104C
330
1F
100
AcDbEntity
  8
0
  6
Continuous
 62
     7
100
AcDbCircle
 10
421.6223850395957
 20
-146.311024638475
 30
0.0
 40
4.5
  0
CIRCLE
  5
104D
330
1F
100
AcDbEntity
  8
0
  6
Continuous
 62
     7
100
AcDbCircle
 10
421.6226333378186
 20
-72.06464276802783
 30
0.0
 40
4.5
  0
CIRCLE
  5
104E
330
1F
100
AcDbEntity
  8
60
  6
Continuous
 62
     7
100
AcDbCircle
 10
384.4993182534836
 20
-109.18770955414
 30
0.0
 40
38.00000000000011
  0
ARC
  5
1059
330
1F
100
AcDbEntity
  8
0
  6
Continuous
 62
     7
100
AcDbCircle
 10
124.4227722081163
 20
125.3122904458599
 30
0.0
 40
2.999999999999901
100
AcDbArc
 50
270.0
 51
0.0
  0
ARC
  5
105A
330
1F
100
AcDbEntity
  8
0
  6
Continuous
 62
     7
100
AcDbCircle
 10
137.4227722081162
 20
231.8122904458599
 30
0.0
 40
9.999999999999916
100
AcDbArc
 50
90.0
 51
180.0
  0
ARC
  5
105B
330
1F
100
AcDbEntity
  8
0
  6
Continuous
 62
     7
100
AcDbCircle
 10
196.7314182537146
 20
243.8122904458599
 30
0.0
 40
2.0
100
AcDbArc
 50
270.0
 51
345.5224878140662
  0
ARC
  5
105C
330
1F
100
AcDbEntity
  8
0
  6
Continuous
 62
     7
100
AcDbCircle
 10
200.604401599922
 20
242.8122904458599
 30
0.0
 40
1.999999999999914
100
AcDbArc
 50
90.0
 51
165.5224878140708
  0
ARC
  5
105D
330
1F
100
AcDbEntity
  8
0
  6
Continuous
 62
     7
100
AcDbCircle
 10
101.4227722537146
 20
120.31229044586
 30
0.0
 40
1.999999999999899
100
AcDbArc
 50
90.0000000000006
 51
180.0
  0
ARC
  5
105E
330
1F
100
AcDbEntity
  8
0
  6
Continuous
 62
     7
100
AcDbCircle
 10
97.42277225371459
 20
110.3122904458599
 30
0.0
 40
2.0
100
AcDbArc
 50
270.0000000000004
 51
0.0
  0
ARC
  5
105F
330
1F
100
AcDbEntity
  8
0
  6
Continuous
 62
     7
100
AcDbCircle
 10
66.92277225371459
 20
106.8122904458599
 30
0.0
 40
1.5
100
AcDbArc
 50
90.00000000000026
 51
180.0
  0
ARC
  5
1070
330
1F
100
AcDbEntity
  8
0
  6
Continuous
 62
     7
100
AcDbCircle
 10
-446.0513630197955
 20
50.81229044585995
 30
0.0
 40
3.0
100
AcDbArc
 50
270.0
 51
6.32060418323963
  0
ARC
  5
1071
330
1F
100
AcDbEntity
  8
0
  6
Continuous
 62
     7
100
AcDbCircle
 10
-476.3951877674974
 20
50.81229044585995
 30
0.0
 40
3.000000000000075
100
AcDbArc
 50
192.839588406904
 51
270.0
  0
ARC
  5
1072
330
1F
100
AcDbEntity
  8
0
  6
Continuous
 62
     7
100
AcDbCircle
 10
-476.3951877674974
 20
38.81229044585996
 30
0.0
 40
3.0
100
AcDbArc
 50
90.0
 51
167.1604115930957
  0
ARC
  5
1073
330
1F
100
AcDbEntity
  8
0
  6
Continuous
 62
     7
100
AcDbCircle
 10
-446.0513630197955
 20
38.81229044585996
 30
0.0
 40
3.000000000000003
100
AcDbArc
 50
353.6793958167603
 51
90.0
  0
ARC
  5
1074
330
1F
100
AcDbEntity
  8
0
  6
Continuous
 62
     7
100
AcDbCircle
 10
-496.7200809296738
 20
-11.85642746401856
 30
0.0
 40
3.0
100
AcDbArc
 50
180.0
 51
276.3206041832396
  0
ARC
  5
1075
330
1F
100
AcDbEntity
  8
0
  6
Continuous
 62
     7
100
AcDbCircle
 10
-496.7200809296738
 20
18.4873972836836
 30
0.0
 40
3.000000000000031
100
AcDbArc
 50
102.8395884069066
 51
180.0
  0
ARC
  5
1076
330
1F
100
AcDbEntity
  8
0
  6
Continuous
 62
     7
100
AcDbCircle
 10
-508.7200809296738
 20
18.4873972836836
 30
0.0
 40
3.0
100
AcDbArc
 50
0.0
 51
77.16041159309654
  0
ARC
  5
1077
330
1F
100
AcDbEntity
  8
0
  6
Continuous
 62
     7
100
AcDbCircle
 10
-508.7200809296738
 20
-11.85642746401856
 30
0.0
 40
3.000000000000008
100
AcDbArc
 50
263.6793958167593
 51
0.0
  0
ARC
  5
1078
330
1F
100
AcDbEntity
  8
0
  6
Continuous
 62
     7
100
AcDbCircle
 10
-559.3887988395525
 20
38.81229044585996
 30
0.0
 40
3.0
100
AcDbArc
 50
90.0
 51
186.3206041832398
  0
ARC
  5
1079
330
1F
100
AcDbEntity
  8
0
  6
Continuous
 62
     7
100
AcDbCircle
 10
-529.0449740918502
 20
38.81229044585996
 30
0.0
 40
2.999999999999912
100
AcDbArc
 50
12.83958840690504
 51
90.0
  0
ARC
  5
107A
330
1F
100
AcDbEntity
  8
0
  6
Continuous
 62
     7
100
AcDbCircle
 10
-529.0449740918502
 20
50.81229044585995
 30
0.0
 40
3.0
100
AcDbArc
 50
270.0
 51
347.1604115930952
  0
ARC
  5
107B
330
1F
100
AcDbEntity
  8
0
  6
Continuous
 62
     7
100
AcDbCircle
 10
-559.3887988395525
 20
50.81229044585995
 30
0.0
 40
2.999999999999836
100
AcDbArc
 50
173.6793958167599
 51
270.0
  0
ARC
  5
107C
330
1F
100
AcDbEntity
  8
0
  6
Continuous
 62
     7
100
AcDbCircle
 10
-508.7200809296738
 20
101.5142077175996
 30
0.0
 40
3.0
100
AcDbArc
 50
0.0
 51
95.06252734749113
  0
ARC
  5
107D
330
1F
100
AcDbEntity
  8
0
  6
Continuous
 62
     7
100
AcDbCircle
 10
-508.7200809296738
 20
71.13718360803638
 30
0.0
 40
2.999999999999993
100
AcDbArc
 50
282.8395884069034
 51
0.0
  0
ARC
  5
107E
330
1F
100
AcDbEntity
  8
0
  6
Continuous
 62
     7
100
AcDbCircle
 10
-496.7200809296738
 20
71.13718360803638
 30
0.0
 40
3.0
100
AcDbArc
 50
180.0
 51
257.1604115930934
  0
ARC
  5
107F
330
1F
100
AcDbEntity
  8
0
  6
Continuous
 62
     7
100
AcDbCircle
 10
-496.7200809296738
 20
101.5142077175996
 30
0.0
 40
2.999999999999991
100
AcDbArc
 50
84.93747265249362
 51
180.0
  0
ARC
  5
1080
330
1F
100
AcDbEntity
  8
0
  6
Continuous
 62
     7
100
AcDbCircle
 10
-412.1930085374275
 20
228.6132591214196
 30
0.0
 40
5.000000000000018
100
AcDbArc
 50
255.9298980528878
 51
305.0000000000003
  0
ARC
  5
1081
330
1F
100
AcDbEntity
  8
0
  6
Continuous
 62
     7
100
AcDbCircle
 10
-616.6328528467727
 20
215.1115192055581
 30
0.0
 40
4.999999999999952
100
AcDbArc
 50
315.9298980528962
 51
4.9999999999999
  0
ARC
  5
1082
330
1F
100
AcDbEntity
  8
0
  6
Continuous
 62
     7
100
AcDbCircle
 10
-593.2471533219204
 20
228.6132591214193
 30
0.0
 40
4.999999999999978
100
AcDbArc
 50
234.9999999999996
 51
284.0701019471076
  0
ARC
  5
1083
330
1F
100
AcDbEntity
  8
0
  6
Continuous
 62
     7
100
AcDbCircle
 10
-388.8073090125753
 20
215.1115192055584
 30
0.0
 40
4.999999999999881
100
AcDbArc
 50
174.9999999999998
 51
224.0701019471123
  0
ARC
  5
1084
330
1F
100
AcDbEntity
  8
0
  6
Continuous
 62
     7
100
AcDbCircle
 10
-616.6328528467723
 20
-125.4869383138385
 30
0.0
 40
5.000000000000111
100
AcDbArc
 50
354.9999999999998
 51
44.07010194710028
  0
ARC
  5
1085
330
1F
100
AcDbEntity
  8
0
  6
Continuous
 62
     7
100
AcDbCircle
 10
-707.1599252390193
 20
58.31403036172122
 30
0.0
 40
4.999999999999941
100
AcDbArc
 50
294.9999999999985
 51
344.0701019471047
  0
ARC
  5
1086
330
1F
100
AcDbEntity
  8
0
  6
Continuous
 62
     7
100
AcDbCircle
 10
-707.1599252390194
 20
31.31055052999892
 30
0.0
 40
4.999999999999893
100
AcDbArc
 50
15.92989805288792
 51
64.99999999999909
  0
ARC
  5
1087
330
1F
100
AcDbEntity
  8
0
  6
Continuous
 62
     7
100
AcDbCircle
 10
-593.2471533219199
 20
-138.9886782296996
 30
0.0
 40
4.999999999999893
100
AcDbArc
 50
75.92989805289088
 51
125.0000000000004
  0
ARC
  5
1088
330
1F
100
AcDbEntity
  8
0
  6
Continuous
 62
     7
100
AcDbCircle
 10
-412.1930085374276
 20
-138.9886782296996
 30
0.0
 40
5.00000000000012
100
AcDbArc
 50
54.99999999999753
 51
104.0701019471025
  0
ARC
  5
1089
330
1F
100
AcDbEntity
  8
0
  6
Continuous
 62
     7
100
AcDbCircle
 10
-388.8073090125753
 20
-125.4869383138384
 30
0.0
 40
5.000000000000012
100
AcDbArc
 50
135.9298980528925
 51
185.0000000000004
  0
ARC
  5
108A
330
1F
100
AcDbEntity
  8
0
  6
Continuous
 62
     7
100
AcDbCircle
 10
-298.2802366203283
 20
31.31055052999881
 30
0.0
 40
5.000000000000058
100
AcDbArc
 50
115.0000000000008
 51
164.0701019471097
  0
ARC
  5
108B
330
1F
100
AcDbEntity
  8
0
  6
Continuous
 62
     7
100
AcDbCircle
 10
-298.2802366203283
 20
58.31403036172115
 30
0.0
 40
5.000000000000174
100
AcDbArc
 50
195.9298980528962
 51
244.9999999999991
  0
ARC
  5
1096
330
1F
100
AcDbEntity
  8
0
  6
Continuous
 62
     7
100
AcDbCircle
 10
-258.720080929674
 20
-50.18770955414004
 30
0.0
 40
2.0
100
AcDbArc
 50
0.0
 51
90.0
  0
ARC
  5
1097
330
1F
100
AcDbEntity
  8
0
  6
Continuous
 62
     7
100
AcDbCircle
 10
-254.720080929674
 20
-66.18770955414004
 30
0.0
 40
2.0
100
AcDbArc
 50
180.0
 51
270.0
  0
ARC
  5
1098
330
1F
100
AcDbEntity
  8
0
  6
Continuous
 62
     7
100
AcDbCircle
 10
-254.720080929674
 20
-152.1877095541401
 30
0.0
 40
2.0
100
AcDbArc
 50
90.0
 51
180.0
  0
ARC
  5
1099
330
1F
100
AcDbEntity
  8
0
  6
Continuous
 62
     7
100
AcDbCircle
 10
-258.720080929674
 20
-168.1877095541401
 30
0.0
 40
2.0
100
AcDbArc
 50
270.0
 51
0.0
  0
ARC
  5
109A
330
1F
100
AcDbEntity
  8
0
  6
Continuous
 62
     7
100
AcDbCircle
 10
-228.720080929674
 20
-69.18770955414004
 30
0.0
 40
1.0
100
AcDbArc
 50
0.0
 51
90.0
  0
ARC
  5
109B
330
1F
100
AcDbEntity
  8
0
  6
Continuous
 62
     7
100
AcDbCircle
 10
-228.720080929674
 20
-149.18770955414
 30
0.0
 40
1.0
100
AcDbArc
 50
270.0
 51
0.0
  0
ARC
  5
10A4
330
1F
100
AcDbEntity
  8
0
  6
Continuous
 62
     7
100
AcDbCircle
 10
647.8429249728005
 20
-50.1883812811542
 30
0.0
 40
4.999999999999016
100
AcDbArc
 50
270.9391909457405
 51
284.0362434679337
  0
ARC
  5
10A5
330
1F
100
AcDbEntity
  8
0
  6
Continuous
 62
     7
100
AcDbCircle
 10
647.8429249728002
 20
139.8129621728712
 30
0.0
 40
5.000000000001894
100
AcDbArc
 50
75.96375653207188
 51
89.06080905425598
  0
ARC
  5
10A9
330
1F
100
AcDbEntity
  8
0
  6
Continuous
 62
     7
100
AcDbCircle
 10
124.4227722081163
 20
-35.68770955414005
 30
0.0
 40
3.0
100
AcDbArc
 50
0.0
 51
90.0
  0
ARC
  5
10AA
330
1F
100
AcDbEntity
  8
0
  6
Continuous
 62
     7
100
AcDbCircle
 10
137.4227722081162
 20
-142.1877095541399
 30
0.0
 40
10.00000000000003
100
AcDbArc
 50
180.0
 51
269.9999999999999
  0
ARC
  5
10AB
330
1F
100
AcDbEntity
  8
0
  6
Continuous
 62
     7
100
AcDbCircle
 10
196.7314182537146
 20
-154.18770955414
 30
0.0
 40
1.999999999999898
100
AcDbArc
 50
14.47751218593068
 51
90.0
  0
ARC
  5
10AC
330
1F
100
AcDbEntity
  8
0
  6
Continuous
 62
     7
100
AcDbCircle
 10
200.604401599922
 20
-153.1877095541399
 30
0.0
 40
2.000000000000115
100
AcDbArc
 50
194.477512185932
 51
270.0
  0
ARC
  5
10AD
330
1F
100
AcDbEntity
  8
0
  6
Continuous
 62
     7
100
AcDbCircle
 10
101.4227722537146
 20
-30.68770955414005
 30
0.0
 40
2.000000000000014
100
AcDbArc
 50
180.0
 51
269.9999999999994
  0
ARC
  5
10AE
330
1F
100
AcDbEntity
  8
0
  6
Continuous
 62
     7
100
AcDbCircle
 10
97.42277225371459
 20
-20.68770955413999
 30
0.0
 40
2.000000000000014
100
AcDbArc
 50
0.0
 51
89.9999999999996
  0
ARC
  5
10AF
330
1F
100
AcDbEntity
  8
0
  6
Continuous
 62
     7
100
AcDbCircle
 10
66.92277225371459
 20
-17.18770955413998
 30
0.0
 40
1.499999999999993
100
AcDbArc
 50
180.0
 51
270.0000000000002
  0
ARC
  5
10B0
330
1F
100
AcDbEntity
  8
0
  6
Continuous
 62
     7
100
AcDbCircle
 10
66.92277225371459
 20
106.8122904458599
 30
0.0
 40
1.5
100
AcDbArc
 50
90.00000000000026
 51
180.0
  0
HATCH
  5
10F5
330
1F
100
AcDbEntity
  8
0
  6
Continuous
 62
    54
100
AcDbHatch
 10
0.0
 20
0.0
 30
0.0
210
0.0
220
0.0
230
1.0
  2
CUSTOM10
 70
     0
 71
     1
 91
        2
 92
        1
 93
        1
 72
     2
 10
-502.7200809296738
 20
44.81229044585996
 40
60.0
 50
0.0
 51
360.0
 73
     1
 97
        1
330
1037
 92
       16
 93
        1
 72
     2
 10
-502.7200809296738
 20
44.81229044585996
 40
24.0
 50
0.0
 51
360.0
 73
     1
 97
        1
330
1036
 75
     1
 76
     2
 52
0.0
 41
2.5
 77
     0
 78
     2
 53
0.0
 43
-31.05532812110869
 44
0.0
 45
-2.5
 46
2.5
 79
     0
 53
90.0
 43
-31.05532812110869
 44
0.0
 45
-2.499999999999999
 46
-2.5
 79
     0
 98
        1
 10
-31.05532812110869
 20
0.0
  0
HATCH
  5
10F6
330
1F
100
AcDbEntity
  8
0
  6
Continuous
 62
    54
100
AcDbHatch
 10
0.0
 20
0.0
 30
0.0
210
0.0
220
0.0
230
1.0
  2
CUSTOM11
 70
     0
 71
     1
 91
        1
 92
        1
 93
        1
 72
     2
 10
-502.7200809296738
 20
44.81229044585996
 40
24.0
 50
0.0
 51
360.0
 73
     1
 97
        1
330
1036
 75
     1
 76
     2
 52
90.00000000000005
 41
2.5
 77
     0
 78
     2
 53
90.0
 43
-31.05532812110869
 44
0.0
 45
-2.499999999999999
 46
-2.5
 79
     0
 53
180.0000000000001
 43
-31.05532812110869
 44
0.0
 45
2.500000000000002
 46
-2.499999999999996
 79
     0
 98
        1
 10
-31.05532812110869
 20
0.0
  0
LINE
  5
148F
330
1F
100
AcDbEntity
  8
0
  6
DASHED
 62
     2
 48
0.5
100
AcDbLine
 10
-588.7203461447017
 20
-55.18774618245014
 30
0.0
 11
-588.7203461447017
 21
-43.18775214521521
 31
0.0
  0
LINE
  5
1490
330
1F
100
AcDbEntity
  8
0
  6
DASHED
 62
     2
 48
0.5
100
AcDbLine
 10
-562.7203461447018
 20
-55.18775214521521
 30
0.0
 11
-602.7203461447018
 21
-55.18775214521521
 31
0.0
  0
LINE
  5
1491
330
1F
100
AcDbEntity
  8
0
  6
DASHED
 62
     2
 48
0.5
100
AcDbLine
 10
-601.7203461447017
 20
-55.18775214521521
 30
0.0
 11
-601.7203461447017
 21
-46.18775214521519
 31
0.0
  0
LINE
  5
1493
330
1F
100
AcDbEntity
  8
0
  6
DASHED
 62
     2
 48
0.5
100
AcDbLine
 10
-602.7203461447015
 20
-55.18775214521521
 30
0.0
 11
-602.7203461447018
 21
-45.3313456846642
 31
0.0
  0
ARC
  5
1494
330
1F
100
AcDbEntity
  8
0
  6
DASHED
 62
     2
 48
0.5
100
AcDbCircle
 10
-598.7203461447018
 20
-46.18775214521519
 30
0.0
 40
3.0
100
AcDbArc
 50
90.0
 51
180.0
  0
ARC
  5
1495
330
1F
100
AcDbEntity
  8
0
  6
DASHED
 62
     2
 48
0.5
100
AcDbCircle
 10
-599.7203461447018
 20
-46.18775214521519
 30
0.0
 40
3.0
100
AcDbArc
 50
90.0
 51
180.0
  0
ARC
  5
1496
330
1F
100
AcDbEntity
  8
0
  6
DASHED
 62
     2
 48
0.5
100
AcDbCircle
 10
-594.7203461447018
 20
-45.3313456846642
 30
0.0
 40
8.000000000000014
100
AcDbArc
 50
149.9999999999998
 51
180.0
  0
LINE
  5
1497
330
1F
100
AcDbEntity
  8
0
  6
DASHED
 62
     2
 48
0.5
100
AcDbLine
 10
-598.7203461447018
 20
-43.18775214521521
 30
0.0
 11
-568.920295986136
 21
-43.18775214521521
 31
0.0
  0
LINE
  5
1498
330
1F
100
AcDbEntity
  8
0
  6
DASHED
 62
     2
 48
0.5
100
AcDbLine
 10
-576.7203461447017
 20
-43.18775214521521
 30
0.0
 11
-576.7203461447017
 21
-55.18775214521521
 31
0.0
  0
LINE
  5
1499
330
1F
100
AcDbEntity
  8
100
  6
DASH_CENTER
 62
    30
100
AcDbLine
 10
-582.7203461447018
 20
-72.21646088163658
 30
0.0
 11
-582.7203461447018
 21
-33.45684362697938
 31
0.0
  0
LINE
  5
149D
330
1F
100
AcDbEntity
  8
0
  6
DASHED
 62
     2
 48
0.5
100
AcDbLine
 10
-562.7203461447018
 20
-49.07450970239136
 30
0.0
 11
-562.7200809296741
 21
-62.18770955413811
 31
0.0
  0
LINE
  5
149F
330
1F
100
AcDbEntity
  8
0
  6
DASHED
 62
     2
 48
0.5
100
AcDbLine
 10
-561.0159580926583
 20
-44.53265907897895
 30
0.0
 11
-562.7203461447018
 21
-48.18773105181964
 31
0.0
  0
LINE
  5
14A0
330
1F
100
AcDbEntity
  8
0
  6
DASHED
 62
     2
 48
0.5
100
AcDbLine
 10
-585.1669466023698
 20
-12.78437229233964
 30
0.0
 11
-601.6485493749772
 21
-41.33134568466418
 31
0.0
  0
LINE
  5
14A1
330
1F
100
AcDbEntity
  8
0
  6
DASHED
 62
     2
 48
0.5
100
AcDbLine
 10
-563.0916689052077
 20
-34.78682578255224
 30
0.0
 11
-566.2013726250261
 21
-41.45560693043728
 31
0.0
  0
ARC
  5
14A3
330
1F
100
AcDbEntity
  8
0
  6
DASHED
 62
     2
 48
0.5
100
AcDbCircle
 10
-568.920295986136
 20
-40.1877521452152
 30
0.0
 40
3.0
100
AcDbArc
 50
270.0
 51
335.0000000000014
  0
ARC
  5
14A4
330
1F
100
AcDbEntity
  8
0
  6
DASHED
 62
     2
 48
0.5
100
AcDbCircle
 10
-555.5781113704385
 20
-47.06836864942316
 30
0.0
 40
6.000000000000021
100
AcDbArc
 50
60.08867325862605
 51
154.9999999999999
  0
LINE
  5
14AA
330
1F
100
AcDbEntity
  8
0
  6
DASHED
 62
   171
 48
0.5
100
AcDbLine
 10
-478.409919723712
 20
-52.18775214521542
 30
0.0
 11
-527.0309725656925
 21
-52.18775214521542
 31
0.0
  0
ARC
  5
14B0
330
1F
100
AcDbEntity
  8
0
  6
DASH_CENTER
 62
     7
100
AcDbCircle
 10
-586.0329720061542
 20
-12.28437229233964
 30
0.0
 40
1.000000000000057
100
AcDbArc
 50
330.0000000000007
 51
34.4240283173818
  0
LINE
  5
14B2
330
1F
100
AcDbEntity
  8
0
  6
DASHED
 62
     2
 48
0.5
100
AcDbLine
 10
-420.2732152569781
 20
-12.7843722923397
 30
0.0
 11
-403.7916124843706
 21
-41.33134568466426
 31
0.0
  0
LINE
  5
14B3
330
1F
100
AcDbEntity
  8
0
  6
DASHED
 62
     2
 48
0.5
100
AcDbLine
 10
-406.7198157146462
 20
-43.18775214521525
 30
0.0
 11
-436.5198658732118
 21
-43.18775214521525
 31
0.0
  0
ARC
  5
14B4
330
1F
100
AcDbEntity
  8
0
  6
DASHED
 62
     2
 48
0.5
100
AcDbCircle
 10
-410.7198157146461
 20
-45.33134568466425
 30
0.0
 40
8.000000000000014
100
AcDbArc
 50
360.0
 51
30.00000000000017
  0
ARC
  5
14B5
330
1F
100
AcDbEntity
  8
0
  6
DASHED
 62
     2
 48
0.5
100
AcDbCircle
 10
-405.7198157146461
 20
-46.18775214521531
 30
0.0
 40
3.0
100
AcDbArc
 50
360.0
 51
89.99999999999998
  0
ARC
  5
14B6
330
1F
100
AcDbEntity
  8
0
  6
DASHED
 62
     2
 48
0.5
100
AcDbCircle
 10
-406.7198157146462
 20
-46.18775214521531
 30
0.0
 40
3.0
100
AcDbArc
 50
360.0
 51
89.99999999999998
  0
LINE
  5
14B7
330
1F
100
AcDbEntity
  8
0
  6
DASHED
 62
     2
 48
0.5
100
AcDbLine
 10
-402.7198157146463
 20
-55.18775214521525
 30
0.0
 11
-402.7198157146462
 21
-45.33134568466425
 31
0.0
  0
LINE
  5
14B9
330
1F
100
AcDbEntity
  8
0
  6
DASHED
 62
     2
 48
0.5
100
AcDbLine
 10
-403.7198157146462
 20
-55.18775214521525
 30
0.0
 11
-403.7198157146462
 21
-46.18775214521531
 31
0.0
  0
LINE
  5
14BA
330
1F
100
AcDbEntity
  8
0
  6
DASHED
 62
     2
 48
0.5
100
AcDbLine
 10
-442.7198157146461
 20
-55.18775214521525
 30
0.0
 11
-402.7198157146462
 21
-55.18775214521525
 31
0.0
  0
LINE
  5
14BB
330
1F
100
AcDbEntity
  8
0
  6
DASHED
 62
     2
 48
0.5
100
AcDbLine
 10
-416.7198157146462
 20
-55.18774618245014
 30
0.0
 11
-416.7198157146462
 21
-43.18775214521525
 31
0.0
  0
ARC
  5
14BC
330
1F
100
AcDbEntity
  8
0
  6
DASHED
 62
     2
 48
0.5
100
AcDbCircle
 10
-436.5198658732118
 20
-40.18775214521524
 30
0.0
 40
3.0
100
AcDbArc
 50
204.9999999999986
 51
270.0
  0
LINE
  5
14BD
330
1F
100
AcDbEntity
  8
0
  6
DASHED
 62
     2
 48
0.5
100
AcDbLine
 10
-442.3484929541401
 20
-34.78682578255229
 30
0.0
 11
-439.2387892343219
 21
-41.45560693043734
 31
0.0
  0
LINE
  5
14BE
330
1F
100
AcDbEntity
  8
0
  6
DASHED
 62
     2
 48
0.5
100
AcDbLine
 10
-444.4242037666895
 20
-44.532659078979
 30
0.0
 11
-442.7198157146461
 21
-48.18773105181969
 31
0.0
  0
LINE
  5
14C0
330
1F
100
AcDbEntity
  8
0
  6
DASHED
 62
     2
 48
0.5
100
AcDbLine
 10
-442.7198157146461
 20
-49.07450970239143
 30
0.0
 11
-442.7200809296741
 21
-62.18770955413822
 31
0.0
  0
LINE
  5
14C4
330
1F
100
AcDbEntity
  8
100
  6
DASH_CENTER
 62
    30
100
AcDbLine
 10
-422.7198157146461
 20
-72.21646088163663
 30
0.0
 11
-422.7198157146461
 21
-33.45684362697944
 31
0.0
  0
LINE
  5
14C5
330
1F
100
AcDbEntity
  8
0
  6
DASHED
 62
     2
 48
0.5
100
AcDbLine
 10
-428.7198157146462
 20
-43.18775214521525
 30
0.0
 11
-428.7198157146462
 21
-55.18775214521525
 31
0.0
  0
ARC
  5
14C6
330
1F
100
AcDbEntity
  8
0
  6
DASHED
 62
     2
 48
0.5
100
AcDbCircle
 10
-449.8620504889093
 20
-47.06836864942316
 30
0.0
 40
6.000000000000021
100
AcDbArc
 50
25.00000000000007
 51
119.9113267413739
  0
ARC
  5
14C7
330
1F
100
AcDbEntity
  8
0
  6
DASH_CENTER
 62
     7
100
AcDbCircle
 10
-419.4071898531936
 20
-12.2843722923397
 30
0.0
 40
1.000000000000057
100
AcDbArc
 50
145.5759716826181
 51
209.9999999999993
  0
LINE
  5
1599
330
1F
100
AcDbEntity
  8
0
  6
DASH_CENTER
 62
    30
100
AcDbLine
 10
-422.7200809296737
 20
-79.16726700870379
 30
0.0
 11
-422.7200809296743
 21
-29.62569165553816
 31
0.0
  0
LINE
  5
159A
330
1F
100
AcDbEntity
  8
0
  6
DASHED
 62
     2
 48
0.5
100
AcDbLine
 10
-578.5200809296742
 20
-34.18770955413857
 30
0.0
 11
-577.7200809296742
 21
-34.98770955413852
 31
0.0
  0
LINE
  5
159B
330
1F
100
AcDbEntity
  8
0
  6
DASHED
 62
     2
 48
0.5
100
AcDbLine
 10
-587.7200809296744
 20
-34.98770955413875
 30
0.0
 11
-586.9200809296743
 21
-34.18770955413857
 31
0.0
  0
LINE
  5
159C
330
1F
100
AcDbEntity
  8
0
  6
DASHED
 62
     2
 48
0.5
100
AcDbLine
 10
-586.9200809296743
 20
-34.18770955413857
 30
0.0
 11
-578.5200809296742
 21
-34.18770955413857
 31
0.0
  0
LINE
  5
159D
330
1F
100
AcDbEntity
  8
0
  6
DASHED
 62
     2
 48
0.5
100
AcDbLine
 10
-577.7200809296747
 20
-34.98770955413818
 30
0.0
 11
-577.7200809296747
 21
-38.18770955413857
 31
0.0
  0
LINE
  5
159E
330
1F
100
AcDbEntity
  8
0
  6
DASHED
 62
     2
 48
0.5
100
AcDbLine
 10
-590.8700809296743
 20
-43.18770955413866
 30
0.0
 11
-574.5700809296741
 21
-43.18770955413856
 31
0.0
  0
LINE
  5
159F
330
1F
100
AcDbEntity
  8
0
  6
DASHED
 62
     2
 48
0.5
100
AcDbLine
 10
-574.5700809296741
 20
-43.18770955413856
 30
0.0
 11
-574.5700809296745
 21
-38.18770955413857
 31
0.0
  0
LINE
  5
15A0
330
1F
100
AcDbEntity
  8
0
  6
DASHED
 62
     2
 48
0.5
100
AcDbLine
 10
-590.8700809296743
 20
-38.18770955413868
 30
0.0
 11
-590.8700809296743
 21
-43.18770955413866
 31
0.0
  0
LINE
  5
15A1
330
1F
100
AcDbEntity
  8
0
  6
DASHED
 62
     2
 48
0.5
100
AcDbLine
 10
-590.8700809296743
 20
-38.18770955413868
 30
0.0
 11
-574.5700809296741
 21
-38.18770955413857
 31
0.0
  0
LINE
  5
15A2
330
1F
100
AcDbEntity
  8
0
  6
DASHED
 62
     2
 48
0.5
100
AcDbLine
 10
-587.7200809296744
 20
-38.18770955413879
 30
0.0
 11
-587.7200809296744
 21
-34.98770955413863
 31
0.0
  0
LINE
  5
15A3
330
1F
100
AcDbEntity
  8
0
  6
DASHED
 62
     2
 48
0.5
100
AcDbLine
 10
-587.7200809296741
 20
-67.18770955413856
 30
0.0
 11
-587.7200809296744
 21
-43.18770955413878
 31
0.0
  0
LINE
  5
15A4
330
1F
100
AcDbEntity
  8
0
  6
DASHED
 62
     2
 48
0.5
100
AcDbLine
 10
-577.7200809296746
 20
-43.18770955413856
 30
0.0
 11
-577.7200809296742
 21
-67.18770955413856
 31
0.0
  0
LINE
  5
15A5
330
1F
100
AcDbEntity
  8
0
  6
DASHED
 62
     2
 48
0.5
100
AcDbLine
 10
-574.570080929674
 20
-74.18770955413845
 30
0.0
 11
-574.570080929674
 21
-67.18770955413845
 31
0.0
  0
LINE
  5
15A6
330
1F
100
AcDbEntity
  8
0
  6
DASHED
 62
     2
 48
0.5
100
AcDbLine
 10
-590.8700809296743
 20
-67.18770955413856
 30
0.0
 11
-590.8700809296743
 21
-74.18770955413856
 31
0.0
  0
LINE
  5
15A7
330
1F
100
AcDbEntity
  8
0
  6
DASHED
 62
     2
 48
0.5
100
AcDbLine
 10
-590.870080929674
 20
-74.18770955413856
 30
0.0
 11
-574.570080929674
 21
-74.18770955413845
 31
0.0
  0
LINE
  5
15A8
330
1F
100
AcDbEntity
  8
0
  6
DASHED
 62
     2
 48
0.5
100
AcDbLine
 10
-417.7200809296739
 20
-38.18770955413811
 30
0.0
 11
-417.7200809296738
 21
-34.98770955413795
 31
0.0
  0
LINE
  5
15A9
330
1F
100
AcDbEntity
  8
0
  6
DASHED
 62
     2
 48
0.5
100
AcDbLine
 10
-427.7200809296735
 20
-43.18770955413787
 30
0.0
 11
-427.720080929674
 21
-67.18770955413788
 31
0.0
  0
LINE
  5
15AA
330
1F
100
AcDbEntity
  8
0
  6
DASHED
 62
     2
 48
0.5
100
AcDbLine
 10
-414.570080929674
 20
-38.187709554138
 30
0.0
 11
-430.8700809296739
 21
-38.187709554138
 31
0.0
  0
LINE
  5
15AB
330
1F
100
AcDbEntity
  8
0
  6
DASHED
 62
     2
 48
0.5
100
AcDbLine
 10
-414.5700809296738
 20
-38.187709554138
 30
0.0
 11
-414.570080929674
 21
-43.18770955413799
 31
0.0
  0
LINE
  5
15AC
330
1F
100
AcDbEntity
  8
0
  6
DASHED
 62
     2
 48
0.5
100
AcDbLine
 10
-430.8700809296739
 20
-43.18770955413799
 30
0.0
 11
-430.8700809296738
 21
-38.187709554138
 31
0.0
  0
LINE
  5
15AD
330
1F
100
AcDbEntity
  8
0
  6
DASHED
 62
     2
 48
0.5
100
AcDbLine
 10
-414.570080929674
 20
-43.18770955413799
 30
0.0
 11
-430.8700809296739
 21
-43.18770955413799
 31
0.0
  0
LINE
  5
15AF
330
1F
100
AcDbEntity
  8
0
  6
DASHED
 62
     2
 48
0.5
100
AcDbLine
 10
-414.570080929674
 20
-74.18770955413788
 30
0.0
 11
-430.8700809296739
 21
-74.18770955413788
 31
0.0
  0
LINE
  5
15B0
330
1F
100
AcDbEntity
  8
0
  6
DASHED
 62
     2
 48
0.5
100
AcDbLine
 10
-414.570080929674
 20
-67.18770955413788
 30
0.0
 11
-414.5700809296738
 21
-74.18770955413788
 31
0.0
  0
LINE
  5
15B1
330
1F
100
AcDbEntity
  8
0
  6
DASHED
 62
     2
 48
0.5
100
AcDbLine
 10
-427.7200809296735
 20
-34.9877095541375
 30
0.0
 11
-427.7200809296735
 21
-38.18770955413788
 31
0.0
  0
LINE
  5
15B2
330
1F
100
AcDbEntity
  8
0
  6
DASHED
 62
     2
 48
0.5
100
AcDbLine
 10
-417.7200809296738
 20
-67.18770955413788
 30
0.0
 11
-417.7200809296739
 21
-43.1877095541381
 31
0.0
  0
LINE
  5
15B3
330
1F
100
AcDbEntity
  8
0
  6
DASHED
 62
     2
 48
0.5
100
AcDbLine
 10
-418.5200809296738
 20
-34.18770955413787
 30
0.0
 11
-426.920080929674
 21
-34.18770955413787
 31
0.0
  0
LINE
  5
15B4
330
1F
100
AcDbEntity
  8
0
  6
DASHED
 62
     2
 48
0.5
100
AcDbLine
 10
-417.7200809296738
 20
-34.98770955413807
 30
0.0
 11
-418.5200809296738
 21
-34.18770955413787
 31
0.0
  0
LINE
  5
15B5
330
1F
100
AcDbEntity
  8
0
  6
DASHED
 62
     2
 48
0.5
100
AcDbLine
 10
-426.920080929674
 20
-34.18770955413787
 30
0.0
 11
-427.720080929674
 21
-34.98770955413784
 31
0.0
  0
LINE
  5
15B6
330
1F
100
AcDbEntity
  8
0
  6
DASHED
 62
     2
 48
0.5
100
AcDbLine
 10
-430.8700809296738
 20
-74.18770955413788
 30
0.0
 11
-430.8700809296739
 21
-67.18770955413788
 31
0.0
  0
ARC
  5
15B7
330
1F
100
AcDbEntity
  8
0
100
AcDbCircle
 10
-527.7200809296738
 20
-125.1877095541401
 30
0.0
 40
4.999999999999995
100
AcDbArc
 50
207.2097968970177
 51
332.7902031029861
  0
LINE
  5
15B8
330
1F
100
AcDbEntity
  8
0
  6
Continuous
 62
     7
100
AcDbLine
 10
-521.6579031031831
 20
-124.6877095541401
 30
0.0
 11
-527.7200809296742
 21
-128.1877095541401
 31
0.0
  0
LINE
  5
15B9
330
1F
100
AcDbEntity
  8
0
  6
Continuous
 62
     7
100
AcDbLine
 10
-533.782258756165
 20
-117.6877095541401
 30
0.0
 11
-527.7200809296742
 21
-114.1877095541401
 31
0.0
  0
LINE
  5
15BA
330
1F
100
AcDbEntity
  8
0
  6
Continuous
 62
     7
100
AcDbLine
 10
-527.7200809296742
 20
-114.1877095541401
 30
0.0
 11
-521.6579031031831
 21
-117.6877095541401
 31
0.0
  0
LINE
  5
15BB
330
1F
100
AcDbEntity
  8
0
  6
Continuous
 62
     7
100
AcDbLine
 10
-521.6579031031831
 20
-117.6877095541401
 30
0.0
 11
-521.6579031031831
 21
-124.6877095541401
 31
0.0
  0
CIRCLE
  5
15BC
330
1F
100
AcDbEntity
  8
0
  6
Continuous
 62
     7
100
AcDbCircle
 10
-527.7200809296742
 20
-121.1877095541401
 30
0.0
 40
6.062177826491107
  0
CIRCLE
  5
15BD
330
1F
100
AcDbEntity
  8
0
  6
Continuous
 62
     7
100
AcDbCircle
 10
-527.7200809296742
 20
-121.1877095541401
 30
0.0
 40
7.699999999999986
  0
LINE
  5
15BE
330
1F
100
AcDbEntity
  8
0
  6
Continuous
 62
     7
100
AcDbLine
 10
-533.782258756165
 20
-124.6877095541401
 30
0.0
 11
-533.782258756165
 21
-117.6877095541401
 31
0.0
  0
LINE
  5
15BF
330
1F
100
AcDbEntity
  8
0
  6
Continuous
 62
     7
100
AcDbLine
 10
-527.7200809296742
 20
-128.1877095541401
 30
0.0
 11
-533.782258756165
 21
-124.6877095541401
 31
0.0
  0
ARC
  5
15C0
330
1F
100
AcDbEntity
  8
0
100
AcDbCircle
 10
-477.720080929674
 20
-117.18770955414
 30
0.0
 40
5.0
100
AcDbArc
 50
27.20979689701139
 51
152.7902031029886
  0
ARC
  5
15C1
330
1F
100
AcDbEntity
  8
0
100
AcDbCircle
 10
-477.720080929674
 20
-125.18770955414
 30
0.0
 40
5.0
100
AcDbArc
 50
207.2097968970157
 51
332.7902031029843
  0
LINE
  5
15C2
330
1F
100
AcDbEntity
  8
0
  6
Continuous
 62
     7
100
AcDbLine
 10
-471.6579031031828
 20
-117.6877095541401
 30
0.0
 11
-477.720080929674
 21
-114.1877095541401
 31
0.0
  0
LINE
  5
15C3
330
1F
100
AcDbEntity
  8
0
  6
Continuous
 62
     7
100
AcDbLine
 10
-477.720080929674
 20
-114.1877095541401
 30
0.0
 11
-483.782258756165
 21
-117.6877095541401
 31
0.0
  0
LINE
  5
15C4
330
1F
100
AcDbEntity
  8
0
  6
Continuous
 62
     7
100
AcDbLine
 10
-483.782258756165
 20
-124.6877095541401
 30
0.0
 11
-477.720080929674
 21
-128.1877095541401
 31
0.0
  0
LINE
  5
15C5
330
1F
100
AcDbEntity
  8
0
  6
Continuous
 62
     7
100
AcDbLine
 10
-483.782258756165
 20
-117.6877095541401
 30
0.0
 11
-483.782258756165
 21
-124.6877095541401
 31
0.0
  0
LINE
  5
15C6
330
1F
100
AcDbEntity
  8
0
  6
Continuous
 62
     7
100
AcDbLine
 10
-477.720080929674
 20
-128.1877095541401
 30
0.0
 11
-471.6579031031828
 21
-124.6877095541401
 31
0.0
  0
LINE
  5
15C7
330
1F
100
AcDbEntity
  8
0
  6
Continuous
 62
     7
100
AcDbLine
 10
-471.6579031031828
 20
-124.6877095541401
 30
0.0
 11
-471.6579031031828
 21
-117.6877095541401
 31
0.0
  0
CIRCLE
  5
15C8
330
1F
100
AcDbEntity
  8
0
  6
Continuous
 62
     7
100
AcDbCircle
 10
-477.720080929674
 20
-121.1877095541401
 30
0.0
 40
7.699999999999986
  0
CIRCLE
  5
15C9
330
1F
100
AcDbEntity
  8
0
  6
Continuous
 62
     7
100
AcDbCircle
 10
-477.720080929674
 20
-121.1877095541401
 30
0.0
 40
6.062177826491107
  0
LINE
  5
15CA
330
1F
100
AcDbEntity
  8
0
  6
DASH_CENTER
 62
    30
100
AcDbLine
 10
-488.7200809296738
 20
-121.1877095541401
 30
0.0
 11
-466.720080929674
 21
-121.1877095541401
 31
0.0
  0
LINE
  5
15CB
330
1F
100
AcDbEntity
  8
0
100
AcDbLine
 10
-460.720080929674
 20
-172.1877095541388
 30
0.0
 11
-401.7200809296739
 21
-172.1877095541382
 31
0.0
  0
LINE
  5
15CC
330
1F
100
AcDbEntity
  8
0
100
AcDbLine
 10
-460.720080929674
 20
-167.1877095541401
 30
0.0
 11
-460.720080929674
 21
-175.18770955414
 31
0.0
  0
LINE
  5
15CD
330
1F
100
AcDbEntity
  8
0
  6
DASH_CENTER
 62
    30
100
AcDbLine
 10
-472.7200809296738
 20
-157.2002344364828
 30
0.0
 11
-472.7200809296739
 21
-182.4882255218409
 31
0.0
  0
LINE
  5
15CE
330
1F
100
AcDbEntity
  8
0
  6
DASHED
 62
     2
 48
0.3
100
AcDbLine
 10
-478.720080929674
 20
-165.1877095541401
 30
0.0
 11
-478.720080929674
 21
-175.18770955414
 31
0.0
  0
LINE
  5
15CF
330
1F
100
AcDbEntity
  8
0
  6
DASHED
 62
     2
 48
0.3
100
AcDbLine
 10
-466.720080929674
 20
-165.1877095541401
 30
0.0
 11
-466.720080929674
 21
-175.18770955414
 31
0.0
  0
ARC
  5
15D0
330
1F
100
AcDbEntity
  8
0
100
AcDbCircle
 10
-462.720080929674
 20
-167.1877095541401
 30
0.0
 40
2.0
100
AcDbArc
 50
360.0
 51
89.99999999999998
  0
LINE
  5
15D1
330
1F
100
AcDbEntity
  8
0
100
AcDbLine
 10
-464.720080929674
 20
-121.18770955414
 30
0.0
 11
-460.720080929674
 21
-167.1877095541401
 31
0.0
  0
ARC
  5
15D2
330
1F
100
AcDbEntity
  8
0
100
AcDbCircle
 10
-477.720080929674
 20
-121.18770955414
 30
0.0
 40
13.0
100
AcDbArc
 50
360.0
 51
89.99999999999998
  0
LINE
  5
15D3
330
1F
100
AcDbEntity
  8
0
  6
DASH_CENTER
 62
    30
100
AcDbLine
 10
-477.720080929674
 20
-108.18770955414
 30
0.0
 11
-477.720080929674
 21
-134.4194112925567
 31
0.0
  0
LINE
  5
15D4
330
1F
100
AcDbEntity
  8
0
100
AcDbLine
 10
-540.7200809296738
 20
-121.18770955414
 30
0.0
 11
-544.7200809296738
 21
-167.1877095541401
 31
0.0
  0
ARC
  5
15D5
330
1F
100
AcDbEntity
  8
0
100
AcDbCircle
 10
-527.7200809296738
 20
-121.18770955414
 30
0.0
 40
13.0
100
AcDbArc
 50
90.0
 51
180.0
  0
ARC
  5
15D6
330
1F
100
AcDbEntity
  8
0
100
AcDbCircle
 10
-527.7200809296738
 20
-117.18770955414
 30
0.0
 40
5.000000000000013
100
AcDbArc
 50
27.20979689700949
 51
152.7902031029876
  0
LINE
  5
15D7
330
1F
100
AcDbEntity
  8
0
  6
DASH_CENTER
 62
    30
100
AcDbLine
 10
-538.7200809296738
 20
-121.18770955414
 30
0.0
 11
-516.7200809296741
 21
-121.1877095541401
 31
0.0
  0
LINE
  5
15D8
330
1F
100
AcDbEntity
  8
0
  6
DASH_CENTER
 62
    30
100
AcDbLine
 10
-527.7200809296738
 20
-108.18770955414
 30
0.0
 11
-527.7200809296738
 21
-134.4194112925567
 31
0.0
  0
LINE
  5
15D9
330
1F
100
AcDbEntity
  8
0
  6
DASHED
 62
     2
 48
0.3
100
AcDbLine
 10
-526.7200809296737
 20
-165.1877095541401
 30
0.0
 11
-526.7200809296737
 21
-175.18770955414
 31
0.0
  0
LINE
  5
15DA
330
1F
100
AcDbEntity
  8
0
  6
DASHED
 62
     2
 48
0.3
100
AcDbLine
 10
-538.7200809296738
 20
-165.1877095541401
 30
0.0
 11
-538.7200809296738
 21
-175.18770955414
 31
0.0
  0
LINE
  5
15DB
330
1F
100
AcDbEntity
  8
0
  6
DASH_CENTER
 62
    30
100
AcDbLine
 10
-532.7200809296738
 20
-157.2002344364828
 30
0.0
 11
-532.7200809296738
 21
-182.4882255218409
 31
0.0
  0
ARC
  5
15DC
330
1F
100
AcDbEntity
  8
0
100
AcDbCircle
 10
-542.7200809296738
 20
-167.1877095541401
 30
0.0
 40
2.0
100
AcDbArc
 50
90.0
 51
180.0
  0
LINE
  5
15DD
330
1F
100
AcDbEntity
  8
0
100
AcDbLine
 10
-544.7200809296738
 20
-167.1877095541401
 30
0.0
 11
-544.7200809296738
 21
-175.18770955414
 31
0.0
  0
ARC
  5
15DE
330
1F
100
AcDbEntity
  8
0
 62
   250
100
AcDbCircle
 10
-485.720080929674
 20
-175.1877095541399
 30
0.0
 40
1.0
100
AcDbArc
 50
0.0
 51
90.0
  0
ARC
  5
15DF
330
1F
100
AcDbEntity
  8
0
 62
   250
100
AcDbCircle
 10
-519.7200809296738
 20
-175.18770955414
 30
0.0
 40
1.0
100
AcDbArc
 50
90.0
 51
180.0
  0
LINE
  5
15E0
330
1F
100
AcDbEntity
  8
0
100
AcDbLine
 10
-484.7200809296738
 20
-175.1877095541399
 30
0.0
 11
-484.7200809296738
 21
-175.18770955414
 31
0.0
  0
LINE
  5
15E1
330
1F
100
AcDbEntity
  8
0
100
AcDbLine
 10
-520.7200809296738
 20
-175.18770955414
 30
0.0
 11
-520.7200809296738
 21
-175.18770955414
 31
0.0
  0
LINE
  5
15E3
330
1F
100
AcDbEntity
  8
0
 62
   250
100
AcDbLine
 10
-519.7200809296738
 20
-174.18770955414
 30
0.0
 11
-485.720080929674
 21
-174.1877095541399
 31
0.0
  0
LINE
  5
15E4
330
1F
100
AcDbEntity
  8
0
100
AcDbLine
 10
-542.7200809296738
 20
-165.1877095541401
 30
0.0
 11
-462.720080929674
 21
-165.1877095541401
 31
0.0
  0
LINE
  5
15E5
330
1F
100
AcDbEntity
  8
0
100
AcDbLine
 10
-527.7200809296738
 20
-108.1877095541399
 30
0.0
 11
-477.720080929674
 21
-108.18770955414
 31
0.0
  0
LINE
  5
15E6
330
1F
100
AcDbEntity
  8
0
100
AcDbLine
 10
-544.7200809296738
 20
-175.18770955414
 30
0.0
 11
-460.720080929674
 21
-175.18770955414
 31
0.0
  0
LINE
  5
15E7
330
1F
100
AcDbEntity
  8
0
100
AcDbLine
 10
-606.7200809296742
 20
-175.1877095541396
 30
0.0
 11
-398.7200809296742
 21
-175.1877095541404
 31
0.0
  0
ARC
  5
15E8
330
1F
100
AcDbEntity
  8
0
  6
DASHED
 62
     2
 48
0.5
100
AcDbCircle
 10
-560.7200809296741
 20
-62.18770955413811
 30
0.0
 40
2.0
100
AcDbArc
 50
180.0
 51
270.0
  0
ARC
  5
15E9
330
1F
100
AcDbEntity
  8
0
  6
DASHED
 62
     2
 48
0.5
100
AcDbCircle
 10
-444.7200809296742
 20
-62.18770955413811
 30
0.0
 40
2.0
100
AcDbArc
 50
269.9999999999999
 51
359.9999999999968
  0
LINE
  5
15EA
330
1F
100
AcDbEntity
  8
0
  6
DASHED
 62
     2
 48
0.5
100
AcDbLine
 10
-442.7200809296739
 20
-55.18770955413799
 30
0.0
 11
-442.7200809296739
 21
-55.18770955413811
 31
0.0
  0
LINE
  5
15EB
330
1F
100
AcDbEntity
  8
0
  6
DASHED
 62
     2
 48
0.5
100
AcDbLine
 10
-562.7200809296741
 20
-55.18770955413788
 30
0.0
 11
-562.7200809296741
 21
-55.18770955413799
 31
0.0
  0
LINE
  5
15EC
330
1F
100
AcDbEntity
  8
0
  6
DASHED
 62
     2
 48
0.5
100
AcDbLine
 10
-407.7200809296742
 20
-67.18770955413788
 30
0.0
 11
-442.7200809296741
 21
-67.18770955413788
 31
0.0
  0
LINE
  5
15ED
330
1F
100
AcDbEntity
  8
0
  6
DASHED
 62
     2
 48
0.5
100
AcDbLine
 10
-416.720080929674
 20
-67.18770955413835
 30
0.0
 11
-416.720080929674
 21
-55.18770955413778
 31
0.0
  0
LINE
  5
15EE
330
1F
100
AcDbEntity
  8
0
  6
DASHED
 62
     2
 48
0.5
100
AcDbLine
 10
-428.7200809296738
 20
-67.18770955413835
 30
0.0
 11
-428.720080929674
 21
-55.18770955413778
 31
0.0
  0
LINE
  5
15EF
330
1F
100
AcDbEntity
  8
0
  6
DASHED
 62
     2
 48
0.5
100
AcDbLine
 10
-560.7200809296743
 20
-64.18770955413811
 30
0.0
 11
-444.7200809296742
 21
-64.18770955413811
 31
0.0
  0
LINE
  5
15F0
330
1F
100
AcDbEntity
  8
0
  6
DASHED
 62
     2
 48
0.5
100
AcDbLine
 10
-597.7200809296738
 20
-67.18770955413788
 30
0.0
 11
-562.7200809296741
 21
-67.18770955413788
 31
0.0
  0
LINE
  5
15F1
330
1F
100
AcDbEntity
  8
0
  6
DASHED
 62
     2
 48
0.5
100
AcDbLine
 10
-576.7200809296744
 20
-67.18770955413835
 30
0.0
 11
-576.7200809296741
 21
-55.18770955413778
 31
0.0
  0
LINE
  5
15F2
330
1F
100
AcDbEntity
  8
0
  6
DASHED
 62
     2
 48
0.5
100
AcDbLine
 10
-588.7200809296741
 20
-67.18770955413835
 30
0.0
 11
-588.7200809296741
 21
-55.18770955413778
 31
0.0
  0
LINE
  5
15F3
330
1F
100
AcDbEntity
  8
0
  6
DASH_CENTER
 62
    30
100
AcDbLine
 10
-582.7200809296742
 20
-79.1672670087046
 30
0.0
 11
-582.7200809296742
 21
-29.62569165553896
 31
0.0
  0
LINE
  5
15F4
330
1F
100
AcDbEntity
  8
0
  6
DASHED
 62
     2
 48
0.5
100
AcDbLine
 10
-442.7200809296739
 20
-55.18770955413799
 30
0.0
 11
-402.7200809296738
 21
-55.18770955413799
 31
0.0
  0
LINE
  5
15F6
330
1F
100
AcDbEntity
  8
0
  6
DASHED
 62
     2
 48
0.5
100
AcDbLine
 10
-602.7200809296742
 20
-55.18770955413822
 30
0.0
 11
-562.7200809296741
 21
-55.18770955413822
 31
0.0
  0
ARC
  5
15F7
330
1F
100
AcDbEntity
  8
0
100
AcDbCircle
 10
-362.720080929674
 20
-158.1877095541383
 30
0.0
 40
3.0
100
AcDbArc
 50
0.0
 51
89.99999999999982
  0
ARC
  5
15F8
330
1F
100
AcDbEntity
  8
0
100
AcDbCircle
 10
-642.7200809296738
 20
-158.1877095541381
 30
0.0
 40
3.0
100
AcDbArc
 50
90.0
 51
180.0
  0
LINE
  5
15F9
330
1F
100
AcDbEntity
  8
0
  6
DASHED
 62
     2
 48
0.5
100
AcDbLine
 10
-407.7200809296742
 20
-67.18770955413777
 30
0.0
 11
-398.7200809296742
 21
-175.1877095541383
 31
0.0
  0
LINE
  5
15FA
330
1F
100
AcDbEntity
  8
0
  6
DASHED
 62
     2
 48
0.5
100
AcDbLine
 10
-597.7200809296738
 20
-67.18770955413822
 30
0.0
 11
-606.7200809296738
 21
-175.1877095541383
 31
0.0
  0
LINE
  5
15FB
330
1F
100
AcDbEntity
  8
0
  6
DASH_CENTER
 62
    30
100
AcDbLine
 10
-377.7200809296742
 20
-181.8106444772943
 30
0.0
 11
-377.7200809296742
 21
-146.943109324945
 31
0.0
  0
LINE
  5
15FC
330
1F
100
AcDbEntity
  8
0
  6
DASHED
 62
     2
 48
0.5
100
AcDbLine
 10
-371.7200809296742
 20
-175.1877095541381
 30
0.0
 11
-371.7200809296742
 21
-155.1877095541381
 31
0.0
  0
LINE
  5
15FD
330
1F
100
AcDbEntity
  8
0
  6
DASHED
 62
     2
 48
0.5
100
AcDbLine
 10
-383.7200809296742
 20
-175.1877095541381
 30
0.0
 11
-383.7200809296742
 21
-155.1877095541381
 31
0.0
  0
LINE
  5
15FE
330
1F
100
AcDbEntity
  8
0
  6
DASHED
 62
     2
 48
0.5
100
AcDbLine
 10
-621.7200809296738
 20
-175.1877095541381
 30
0.0
 11
-621.7200809296738
 21
-155.1877095541381
 31
0.0
  0
LINE
  5
15FF
330
1F
100
AcDbEntity
  8
0
  6
DASHED
 62
     2
 48
0.5
100
AcDbLine
 10
-633.7200809296738
 20
-175.1877095541381
 30
0.0
 11
-633.7200809296738
 21
-155.1877095541381
 31
0.0
  0
LINE
  5
1600
330
1F
100
AcDbEntity
  8
0
  6
DASH_CENTER
 62
    30
100
AcDbLine
 10
-627.7200809296738
 20
-181.8106444772943
 30
0.0
 11
-627.7200809296738
 21
-146.943109324945
 31
0.0
  0
ARC
  5
1601
330
1F
100
AcDbEntity
  8
0
100
AcDbCircle
 10
-615.6540786708376
 20
-150.187709554138
 30
0.0
 40
5.0
100
AcDbArc
 50
270.0
 51
355.2363583092738
  0
LINE
  5
1602
330
1F
100
AcDbEntity
  8
0
100
AcDbLine
 10
-609.6340907898207
 20
-138.1558278758973
 30
0.0
 11
-610.6713498796132
 21
-150.6029369534067
 31
0.0
  0
ARC
  5
1603
330
1F
100
AcDbEntity
  8
0
100
AcDbCircle
 10
-603.7200809296741
 20
-175.1877095541383
 30
0.0
 40
3.0
100
AcDbArc
 50
90.0
 51
180.0
  0
ARC
  5
1604
330
1F
100
AcDbEntity
  8
0
100
AcDbCircle
 10
-401.7200809296739
 20
-175.1877095541382
 30
0.0
 40
3.0
100
AcDbArc
 50
0.0
 51
90.0
  0
LINE
  5
1605
330
1F
100
AcDbEntity
  8
0
100
AcDbLine
 10
-359.720080929674
 20
-175.1877095541381
 30
0.0
 11
-398.720080929674
 21
-175.187709554138
 31
0.0
  0
ARC
  5
1606
330
1F
100
AcDbEntity
  8
0
100
AcDbCircle
 10
-389.7860831885105
 20
-150.187709554138
 30
0.0
 40
5.0
100
AcDbArc
 50
184.7636416907262
 51
270.0
  0
LINE
  5
1607
330
1F
100
AcDbEntity
  8
0
100
AcDbLine
 10
-395.8060710698559
 20
-138.155827871955
 30
0.0
 11
-394.768811979735
 21
-150.6029369534067
 31
0.0
  0
LINE
  5
1608
330
1F
100
AcDbEntity
  8
0
  6
DASHED
 62
     2
 48
0.5
100
AcDbLine
 10
-602.7200809296742
 20
-55.18770955413788
 30
0.0
 11
-562.7200809296741
 21
-55.18770955413788
 31
0.0
  0
LINE
  5
1609
330
1F
100
AcDbEntity
  8
0
100
AcDbLine
 10
-603.7200809296741
 20
-172.1877095541383
 30
0.0
 11
-544.7200809296738
 21
-172.1877095541383
 31
0.0
  0
LINE
  5
160A
330
1F
100
AcDbEntity
  8
0
100
AcDbLine
 10
-398.7200809296742
 20
-175.1877095541382
 30
0.0
 11
-398.720080929674
 21
-175.187709554138
 31
0.0
  0
LINE
  5
160B
330
1F
100
AcDbEntity
  8
0
100
AcDbLine
 10
-606.7200809296742
 20
-175.1877095541383
 30
0.0
 11
-606.7200809296738
 21
-175.1877095541382
 31
0.0
  0
LINE
  5
160C
330
1F
100
AcDbEntity
  8
0
100
AcDbLine
 10
-642.7200809296738
 20
-155.1877095541381
 30
0.0
 11
-615.6540786708376
 21
-155.1877095541382
 31
0.0
  0
LINE
  5
160D
330
1F
100
AcDbEntity
  8
0
100
AcDbLine
 10
-645.7200809296738
 20
-175.1877095541381
 30
0.0
 11
-645.7200809296738
 21
-158.1877095541381
 31
0.0
  0
LINE
  5
160E
330
1F
100
AcDbEntity
  8
0
100
AcDbLine
 10
-362.720080929674
 20
-155.1877095541383
 30
0.0
 11
-389.7860831885106
 21
-155.1877095541382
 31
0.0
  0
LINE
  5
160F
330
1F
100
AcDbEntity
  8
0
100
AcDbLine
 10
-359.720080929674
 20
-175.1877095541381
 30
0.0
 11
-359.7200809296742
 21
-158.1877095541383
 31
0.0
  0
LINE
  5
1610
330
1F
100
AcDbEntity
  8
0
100
AcDbLine
 10
-645.7200809296738
 20
-175.1877095541381
 30
0.0
 11
-606.7200809296738
 21
-175.187709554138
 31
0.0
  0
LINE
  5
1611
330
1F
100
AcDbEntity
  8
0
  6
DASHED
 62
     2
 48
0.5
100
AcDbLine
 10
-602.7203461447018
 20
-55.18775214521521
 30
0.0
 11
-609.6340907894922
 21
-138.1558278719548
 31
0.0
  0
LINE
  5
1612
330
1F
100
AcDbEntity
  8
0
  6
DASHED
 62
     2
 48
0.5
100
AcDbLine
 10
-402.7198157146462
 20
-55.18775214521525
 30
0.0
 11
-395.8060710698559
 21
-138.155827871955
 31
0.0
  0
MTEXT
  5
162B
330
1F
100
AcDbEntity
  8
0
 62
     2
100
AcDbMText
 10
-595.3375885785167
 20
6.95592436863612
 30
0.0
 40
8.0
 41
0.0
 71
     7
 72
     1
  1
 
  7
CONVERTER_20
 11
0.9486712700853971
 21
0.3162638476249847
 31
0.0
 73
     1
 44
0.6002400960384203
1001
ACAD
1000
MTEXTBEGIN
1070
    73
1070
     1
1070
    44
1040
0.6002400960384203
1070
    74
1070
     0
1000
MTEXTEND
  0
MTEXT
  5
162F
330
1F
100
AcDbEntity
  8
0
 62
     2
100
AcDbMText
 10
-600.9178855276846
 20
-11.68175857338727
 30
0.0
 40
8.0
 41
0.0
 71
     7
 72
     1
  1
 
  7
CONVERTER_20
 11
0.9069771527525654
 21
0.4211798242851263
 31
0.0
 73
     1
 44
0.6002400960384203
1001
ACAD
1000
MTEXTBEGIN
1070
    73
1070
     1
1070
    44
1040
0.6002400960384203
1070
    74
1070
     0
1000
MTEXTEND
  0
ARC
  5
1BA3
330
1F
100
AcDbEntity
  8
0
  6
Continuous
 62
     7
100
AcDbCircle
 10
107.4227722081161
 20
-163.1877095541381
 30
0.0
 40
2.0
100
AcDbArc
 50
270.0
 51
360.0
  0
LINE
  5
1C34
330
1F
100
AcDbEntity
  8
0
  6
Continuous
 62
     7
100
AcDbLine
 10
463.4987722078856
 20
-55.18770955414004
 30
0.0
 11
463.4987722078856
 21
144.7697619876962
 31
0.0
  0
LINE
  5
1C35
330
1F
100
AcDbEntity
  8
0
 62
     7
100
AcDbLine
 10
463.4987722078856
 20
144.7697619876962
 30
0.0
 11
647.9248811739966
 21
144.8122904458599
 31
0.0
  0
LINE
  5
1C5F
330
1F
100
AcDbEntity
  8
0
 62
     7
100
AcDbLine
 10
463.4987722078856
 20
-55.18770955414004
 30
0.0
 11
512.9987722078856
 21
-55.18770955414004
 31
0.0
  0
ARC
  5
1F8B
330
1F
100
AcDbEntity
  8
10
  6
Continuous
 62
     7
100
AcDbCircle
 10
503.9988722041353
 20
-8.608118116895411
 30
0.0
 40
2.00000000625
100
AcDbArc
 50
0.0028646815273226
 51
89.9942703146219
  0
LINE
  5
1F8C
330
1F
100
AcDbEntity
  8
10
  6
Continuous
 62
     7
100
AcDbLine
 10
463.4987722078856
 20
-6.6082181206458
 30
0.0
 11
503.9990722078855
 21
-6.6082181206458
 31
0.0
  0
LINE
  5
1F8D
330
1F
100
AcDbEntity
  8
10
  6
Continuous
 62
     7
100
AcDbLine
 10
505.9987722078855
 20
-37.20897378322189
 30
0.0
 11
505.9987722078855
 21
-8.608018120645795
 31
0.0
  0
LINE
  5
1F8E
330
1F
100
AcDbEntity
  8
10
  6
Continuous
 62
     7
100
AcDbLine
 10
505.9987722078855
 20
-11.74011538456858
 30
0.0
 11
605.9987722078856
 21
-11.74011538456858
 31
0.0
  0
LINE
  5
1F8F
330
1F
100
AcDbEntity
  8
10
  6
Continuous
 62
     7
100
AcDbLine
 10
471.4987722078856
 20
-43.20897378322189
 30
0.0
 11
499.9987722078855
 21
-43.20897378322189
 31
0.0
  0
LINE
  5
1F92
330
1F
100
AcDbEntity
  8
10
  6
Continuous
 62
     7
100
AcDbLine
 10
468.4987722078855
 20
-55.20897378322183
 30
0.0
 11
512.9987722078856
 21
-55.20897378322189
 31
0.0
  0
LINE
  5
1F93
330
1F
100
AcDbEntity
  8
10
  6
Continuous
 62
     7
100
AcDbLine
 10
468.4987722078855
 20
-55.20897378322183
 30
0.0
 11
468.4987722078855
 21
-46.20897378322189
 31
0.0
  0
ARC
  5
1F94
330
1F
100
AcDbEntity
  8
10
  6
Continuous
 62
     7
100
AcDbCircle
 10
471.4987722078856
 20
-46.20897378322189
 30
0.0
 40
3.0
100
AcDbArc
 50
90.0
 51
180.0
  0
LINE
  5
1F95
330
1F
100
AcDbEntity
  8
10
  6
Continuous
 62
     7
100
AcDbLine
 10
605.9987722078856
 20
-8.608218120645799
 30
0.0
 11
605.9987722078856
 21
-37.20897378322189
 31
0.0
  0
LINE
  5
1F96
330
1F
100
AcDbEntity
  8
10
  6
Continuous
 62
     7
100
AcDbLine
 10
607.9987722078856
 20
-6.6082181206458
 30
0.0
 11
648.4987722078856
 21
-6.6082181206458
 31
0.0
  0
ARC
  5
1F97
330
1F
100
AcDbEntity
  8
10
  6
Continuous
 62
     7
100
AcDbCircle
 10
607.9987722078856
 20
-8.608218120645799
 30
0.0
 40
2.0
100
AcDbArc
 50
90.0
 51
180.0
  0
ARC
  5
1F98
330
1F
100
AcDbEntity
  8
0
  6
Continuous
 62
     7
100
AcDbCircle
 10
611.9987722078856
 20
-37.20897378322189
 30
0.0
 40
6.0
100
AcDbArc
 50
180.0
 51
270.0
  0
LINE
  5
1F99
330
1F
100
AcDbEntity
  8
10
  6
Continuous
 62
     7
100
AcDbLine
 10
611.9987722078856
 20
-43.20897378322189
 30
0.0
 11
640.4985722078857
 21
-43.20897378322189
 31
0.0
  0
LINE
  5
1F9B
330
1F
100
AcDbEntity
  8
10
  6
Continuous
 62
     7
100
AcDbLine
 10
598.9987722078856
 20
-55.20897378322189
 30
0.0
 11
643.4985722078855
 21
-55.20897378322183
 31
0.0
  0
ARC
  5
1F9D
330
1F
100
AcDbEntity
  8
10
  6
Continuous
 62
     7
100
AcDbCircle
 10
640.4985722070522
 20
-46.2089737823885
 30
0.0
 40
3.000000000833325
100
AcDbArc
 50
359.9999999840836
 51
89.9980901247677
  0
LINE
  5
1F9E
330
1F
100
AcDbEntity
  8
10
  6
Continuous
 62
     7
100
AcDbLine
 10
643.4985722078855
 20
-55.20897378322183
 30
0.0
 11
643.4985722078855
 21
-46.20897378322189
 31
0.0
  0
ARC
  5
1F9F
330
1F
100
AcDbEntity
  8
0
  6
Continuous
 62
     7
100
AcDbCircle
 10
515.9987722078856
 20
-54.20897378322189
 30
0.0
 40
3.0
100
AcDbArc
 50
90.0
 51
180.0
  0
LINE
  5
1FA0
330
1F
100
AcDbEntity
  8
10
  6
Continuous
 62
     7
100
AcDbLine
 10
515.9987722078856
 20
-51.20897378322189
 30
0.0
 11
523.8440664572963
 21
-51.20897378322189
 31
0.0
  0
LINE
  5
1FA1
330
1F
100
AcDbEntity
  8
10
  6
Continuous
 62
     7
100
AcDbLine
 10
523.8440664572963
 20
-51.20897378322189
 30
0.0
 11
595.9987722078856
 21
-51.20897378322189
 31
0.0
  0
LINE
  5
1FA2
330
1F
100
AcDbEntity
  8
10
  6
Continuous
 62
     7
100
AcDbLine
 10
589.1638722078855
 20
-51.20897378322189
 30
0.0
 11
595.9987722078856
 21
-51.20897378322189
 31
0.0
  0
ARC
  5
1FA3
330
1F
100
AcDbEntity
  8
0
  6
Continuous
 62
     7
100
AcDbCircle
 10
595.9987722078856
 20
-54.20897378322189
 30
0.0
 40
3.0
100
AcDbArc
 50
0.0
 51
90.0
  0
LINE
  5
1FA5
330
1F
100
AcDbEntity
  8
10
  6
DASHED
 62
     7
100
AcDbLine
 10
598.9987722078856
 20
-54.20897378322189
 30
0.0
 11
598.9987722078856
 21
-55.20897378322189
 31
0.0
  0
ARC
  5
1FA6
330
1F
100
AcDbEntity
  8
0
  6
Continuous
 62
     7
100
AcDbCircle
 10
499.9987722078855
 20
-37.20897378322189
 30
0.0
 40
6.0
100
AcDbArc
 50
270.0
 51
0.000000000000007
  0
LINE
  5
1FA7
330
1F
100
AcDbEntity
  8
10
  6
DASHED
 62
     7
100
AcDbLine
 10
512.9987722078856
 20
-54.20897378322189
 30
0.0
 11
512.9987722078856
 21
-55.20897378322189
 31
0.0
  0
LINE
  5
1FAB
330
1F
100
AcDbEntity
  8
0
  6
DASH_CENTER
 62
    30
100
AcDbLine
 10
555.7118266909412
 20
170.9795330552924
 30
0.0
 11
555.7118266909412
 21
-180.5192411228422
 31
0.0
  0
LINE
  5
1FAC
330
1F
100
AcDbEntity
  8
0
 62
     7
100
AcDbLine
 10
643.4985722078855
 20
-55.20897378322183
 30
0.0
 11
648.7158485833637
 21
-155.9552453876413
 31
0.0
  0
LINE
  5
1FAD
330
1F
100
AcDbEntity
  8
0
 62
     7
100
AcDbLine
 10
468.4987722078855
 20
-55.20897378322183
 30
0.0
 11
462.8044695020773
 21
-155.8721127511327
 31
0.0
  0
LINE
  5
1FAE
330
1F
100
AcDbEntity
  8
0
 62
     7
100
AcDbLine
 10
461.7118266909414
 20
-175.1877095541381
 30
0.0
 11
499.7118266909414
 21
-175.1877095541381
 31
0.0
  0
LINE
  5
1FB0
330
1F
100
AcDbEntity
  8
0
  6
DASH_CENTER
 62
    30
100
AcDbLine
 10
525.8061985049871
 20
-115.1877095541381
 30
0.0
 11
586.0936580193865
 21
-115.1877095541381
 31
0.0
  0
CIRCLE
  5
1FB1
330
1F
100
AcDbEntity
  8
0
 62
     7
100
AcDbCircle
 10
555.7118266909415
 20
-115.187709554139
 30
0.0
 40
9.0
  0
LINE
  5
1FC0
330
1F
100
AcDbEntity
  8
0
  6
DASH_CENTER
 62
    30
100
AcDbLine
 10
480.7118266909413
 20
-145.8909694065004
 30
0.0
 11
480.7118266909414
 21
-185.2866624314738
 31
0.0
  0
ARC
  5
1FDF
330
1F
100
AcDbEntity
  8
0
  6
Continuous
 62
     7
100
AcDbCircle
 10
668.4987722078854
 20
136.2265178550976
 30
0.0
 40
5.0
100
AcDbArc
 50
0.0
 51
79.68975972969653
  0
ARC
  5
1FE0
330
1F
100
AcDbEntity
  8
0
  6
Continuous
 62
     7
100
AcDbCircle
 10
668.4987722078854
 20
-46.60193696337819
 30
0.0
 40
5.0
100
AcDbArc
 50
280.3102402703022
 51
0.0
  0
LINE
  5
1FE1
330
1F
100
AcDbEntity
  8
0
  6
Continuous
 62
     7
100
AcDbLine
 10
681.4987722078856
 20
84.46095341802298
 30
0.0
 11
681.4987722078853
 21
5.163627473696465
 31
0.0
  0
LINE
  5
1FE2
330
1F
100
AcDbEntity
  8
0
  6
Continuous
 62
     7
100
AcDbLine
 10
685.4987722078853
 20
58.81229044585996
 30
0.0
 11
685.4987722078853
 21
30.81229044585996
 31
0.0
  0
LINE
  5
1FE5
330
1F
100
AcDbEntity
  8
0
 62
     7
100
AcDbLine
 10
673.4987722078855
 20
87.22651785509766
 30
0.0
 11
679.746841677064
 21
86.44550917145036
 31
0.0
  0
LINE
  5
1FE6
330
1F
100
AcDbEntity
  8
0
 62
     7
100
AcDbLine
 10
673.4987722078855
 20
2.398063036621806
 30
0.0
 11
679.7468416770637
 21
3.17907172026912
 31
0.0
  0
LINE
  5
1FE8
330
1F
100
AcDbEntity
  8
0
 62
     7
100
AcDbLine
 10
681.4987722078853
 20
58.81229044585996
 30
0.0
 11
685.4987722078853
 21
58.81229044585996
 31
0.0
  0
LINE
  5
1FE9
330
1F
100
AcDbEntity
  8
0
 62
     7
100
AcDbLine
 10
681.4987722078853
 20
30.81229044585996
 30
0.0
 11
685.4987722078853
 21
30.81229044585996
 31
0.0
  0
ARC
  5
1FED
330
1F
100
AcDbEntity
  8
0
 62
     7
100
AcDbCircle
 10
679.4987722078854
 20
5.163627473696465
 30
0.0
 40
2.0
100
AcDbArc
 50
277.1250163489018
 51
359.9999999999998
  0
ARC
  5
1FEE
330
1F
100
AcDbEntity
  8
0
 62
     7
100
AcDbCircle
 10
679.4987722078856
 20
84.46095341802298
 30
0.0
 40
2.0
100
AcDbArc
 50
359.9999999999998
 51
82.87498365109822
  0
LINE
  5
2014
330
1F
100
AcDbEntity
  8
0
 62
     7
100
AcDbLine
 10
464.7118266909414
 20
-155.1877095541381
 30
0.0
 11
496.7118266909414
 21
-155.1877095541381
 31
0.0
  0
LINE
  5
2015
330
1F
100
AcDbEntity
  8
0
 62
     7
100
AcDbLine
 10
474.7118266909414
 20
-55.18770955414004
 30
0.0
 11
474.7118266909416
 21
-55.20897378322189
 31
0.0
  0
LINE
  5
2016
330
1F
100
AcDbEntity
  8
0
 62
     7
100
AcDbLine
 10
486.7118266909414
 20
-55.18770955414004
 30
0.0
 11
486.7118266909414
 21
-55.20897378322189
 31
0.0
  0
LINE
  5
2017
330
1F
100
AcDbEntity
  8
0
 62
     7
100
AcDbLine
 10
624.7118266909414
 20
-55.18770955414004
 30
0.0
 11
624.7118266909414
 21
-55.20897378322189
 31
0.0
  0
LINE
  5
2018
330
1F
100
AcDbEntity
  8
0
 62
     7
100
AcDbLine
 10
636.7118266909415
 20
-55.18770955414004
 30
0.0
 11
636.7118266909415
 21
-55.20897378322189
 31
0.0
  0
LINE
  5
2019
330
1F
100
AcDbEntity
  8
0
 62
     7
100
AcDbLine
 10
499.7118266909414
 20
-55.18770955414004
 30
0.0
 11
499.7118266909416
 21
-55.20897378322189
 31
0.0
  0
LINE
  5
201A
330
1F
100
AcDbEntity
  8
0
 62
     7
100
AcDbLine
 10
611.7118266909415
 20
-55.18770955414004
 30
0.0
 11
611.7118266909415
 21
-55.20897378322189
 31
0.0
  0
LINE
  5
201B
330
1F
100
AcDbEntity
  8
0
  6
DASHED
 62
     2
 48
0.5
100
AcDbLine
 10
474.7118266909414
 20
-155.1877095541381
 30
0.0
 11
474.7118266909414
 21
-175.1877095541381
 31
0.0
  0
LINE
  5
201C
330
1F
100
AcDbEntity
  8
0
  6
DASHED
 62
     2
 48
0.5
100
AcDbLine
 10
486.7118266909414
 20
-155.1877095541381
 30
0.0
 11
486.7118266909414
 21
-175.1877095541381
 31
0.0
  0
LINE
  5
201D
330
1F
100
AcDbEntity
  8
0
 62
     7
100
AcDbLine
 10
611.7118266909415
 20
-175.1877095541382
 30
0.0
 11
611.7118266909415
 21
-175.1877095541381
 31
0.0
  0
LINE
  5
201E
330
1F
100
AcDbEntity
  8
0
 62
     7
100
AcDbLine
 10
499.7118266909414
 20
-175.1877095541382
 30
0.0
 11
499.7118266909414
 21
-175.1877095541381
 31
0.0
  0
LINE
  5
201F
330
1F
100
AcDbEntity
  8
0
  6
DASHED
 62
     2
 48
0.5
100
AcDbLine
 10
624.7118266909414
 20
-155.1877095541381
 30
0.0
 11
624.7118266909414
 21
-175.1877095541381
 31
0.0
  0
LINE
  5
2020
330
1F
100
AcDbEntity
  8
0
  6
DASHED
 62
     2
 48
0.5
100
AcDbLine
 10
636.7118266909415
 20
-155.1877095541381
 30
0.0
 11
636.7118266909415
 21
-175.1877095541381
 31
0.0
  0
LINE
  5
2021
330
1F
100
AcDbEntity
  8
0
  6
DASH_CENTER
 62
    30
100
AcDbLine
 10
630.7118266909415
 20
-145.8909694065004
 30
0.0
 11
630.7118266909415
 21
-185.2866624314738
 31
0.0
  0
LINE
  5
2022
330
1F
100
AcDbEntity
  8
0
 62
     7
100
AcDbLine
 10
611.7118266909415
 20
-155.1877095541381
 30
0.0
 11
646.7118266909412
 21
-155.1877095541381
 31
0.0
  0
LINE
  5
2024
330
1F
100
AcDbEntity
  8
0
 62
     7
100
AcDbLine
 10
611.7118266909415
 20
-175.1877095541381
 30
0.0
 11
649.7118266909414
 21
-175.1877095541381
 31
0.0
  0
LINE
  5
2025
330
1F
100
AcDbEntity
  8
0
 62
     7
100
AcDbLine
 10
502.7118266909414
 20
-172.1877095541382
 30
0.0
 11
608.7118266909413
 21
-172.1877095541382
 31
0.0
  0
LINE
  5
205F
330
1F
100
AcDbEntity
  8
0
  6
Continuous
 62
     7
100
AcDbLine
 10
444.4987722078855
 20
-51.20897378322183
 30
0.0
 11
444.4987722078855
 21
-43.5504782925198
 31
0.0
  0
LINE
  5
2062
330
1F
100
AcDbEntity
  8
0
 62
     7
100
AcDbLine
 10
463.4987722078856
 20
141.791026216778
 30
0.0
 11
444.4987722078855
 21
140.7910262167781
 31
0.0
  0
LINE
  5
2063
330
1F
100
AcDbEntity
  8
0
 62
     7
100
AcDbLine
 10
463.4987722078856
 20
-52.20897378322189
 30
0.0
 11
444.4987722078855
 21
-51.20897378322183
 31
0.0
  0
LINE
  5
2064
330
1F
100
AcDbEntity
  8
0
 62
     7
100
AcDbLine
 10
422.4993182534835
 20
133.791026216778
 30
0.0
 11
409.4993182534836
 21
133.791026216778
 31
0.0
  0
LINE
  5
2067
330
1F
100
AcDbEntity
  8
0
 62
     7
100
AcDbLine
 10
422.4993182534836
 20
-44.20897378322189
 30
0.0
 11
409.4993182534836
 21
-44.20897378322189
 31
0.0
  0
LINE
  5
2069
330
1F
100
AcDbEntity
  8
0
 62
     7
100
AcDbLine
 10
422.4993182534836
 20
133.791026216778
 30
0.0
 11
444.4987722078855
 21
140.7910262167781
 31
0.0
  0
LINE
  5
206A
330
1F
100
AcDbEntity
  8
0
 62
     7
100
AcDbLine
 10
422.4993182534836
 20
-44.20897378322183
 30
0.0
 11
444.4987722078855
 21
-51.20897378322183
 31
0.0
  0
LINE
  5
206E
330
1F
100
AcDbEntity
  8
0
  6
Continuous
 62
     7
100
AcDbLine
 10
455.4987722078856
 20
-39.39860082090918
 30
0.0
 11
455.4987722078859
 21
-15.20897378322189
 31
0.0
  0
LINE
  5
206F
330
1F
100
AcDbEntity
  8
0
  6
Continuous
 62
     7
100
AcDbLine
 10
430.4987722078855
 20
-37.13701606086079
 30
0.0
 11
430.4987722078855
 21
-15.20897378322189
 31
0.0
  0
LINE
  5
2070
330
1F
100
AcDbEntity
  8
0
 62
     7
100
AcDbLine
 10
453.4987722078859
 20
44.79102621677809
 30
0.0
 11
432.4987722078855
 21
44.79102621677809
 31
0.0
  0
LINE
  5
2071
330
1F
100
AcDbEntity
  8
0
 62
     7
100
AcDbLine
 10
453.4987722078859
 20
14.7910262167781
 30
0.0
 11
432.4987722078855
 21
14.7910262167781
 31
0.0
  0
LINE
  5
2072
330
1F
100
AcDbEntity
  8
0
 62
     7
100
AcDbLine
 10
449.7533357491485
 20
-44.34272101422817
 30
0.0
 11
434.7533357491483
 21
-42.08113625417985
 31
0.0
  0
LINE
  5
2073
330
1F
100
AcDbEntity
  8
0
 62
     7
100
AcDbLine
 10
450.4987722078857
 20
-10.20897378322189
 30
0.0
 11
435.4987722078854
 21
-10.20897378322189
 31
0.0
  0
LINE
  5
2074
330
1F
100
AcDbEntity
  8
0
  6
Continuous
 62
     7
100
AcDbLine
 10
430.4987722078855
 20
16.79102621677811
 30
0.0
 11
430.4987722078855
 21
42.7910262167781
 31
0.0
  0
LINE
  5
2075
330
1F
100
AcDbEntity
  8
0
  6
Continuous
 62
     7
100
AcDbLine
 10
455.4987722078857
 20
16.79102621677811
 30
0.0
 11
455.4987722078857
 21
42.7910262167781
 31
0.0
  0
ARC
  5
2076
330
1F
100
AcDbEntity
  8
0
 62
     7
100
AcDbCircle
 10
432.4987722078855
 20
42.7910262167781
 30
0.0
 40
2.0
100
AcDbArc
 50
90.0
 51
179.9999999999999
  0
ARC
  5
2077
330
1F
100
AcDbEntity
  8
0
 62
     7
100
AcDbCircle
 10
453.4987722078859
 20
42.7910262167781
 30
0.0
 40
2.0
100
AcDbArc
 50
0.0
 51
90.0
  0
ARC
  5
2078
330
1F
100
AcDbEntity
  8
0
 62
     7
100
AcDbCircle
 10
432.4987722078855
 20
16.79102621677811
 30
0.0
 40
2.0
100
AcDbArc
 50
179.9999999999999
 51
270.0
  0
ARC
  5
2079
330
1F
100
AcDbEntity
  8
0
 62
     7
100
AcDbCircle
 10
453.4987722078859
 20
16.79102621677811
 30
0.0
 40
2.0
100
AcDbArc
 50
270.0
 51
359.9999999999998
  0
ARC
  5
207A
330
1F
100
AcDbEntity
  8
0
 62
     7
100
AcDbCircle
 10
435.4987722078854
 20
-15.20897378322189
 30
0.0
 40
5.0
100
AcDbArc
 50
90.0
 51
180.0
  0
ARC
  5
207B
330
1F
100
AcDbEntity
  8
0
 62
     7
100
AcDbCircle
 10
450.4987722078857
 20
-15.20897378322189
 30
0.0
 40
5.0
100
AcDbArc
 50
359.9999999999998
 51
90.0
  0
ARC
  5
207C
330
1F
100
AcDbEntity
  8
0
 62
     7
100
AcDbCircle
 10
450.4987722078857
 20
-39.39860082090911
 30
0.0
 40
5.0
100
AcDbArc
 50
261.4259625049939
 51
359.9999999999997
  0
ARC
  5
207D
330
1F
100
AcDbEntity
  8
0
 62
     7
100
AcDbCircle
 10
435.4987722078853
 20
-37.13701606086079
 30
0.0
 40
5.0
100
AcDbArc
 50
180.0
 51
261.4259625049939
  0
LINE
  5
207F
330
1F
100
AcDbEntity
  8
0
  6
Continuous
 62
     7
100
AcDbLine
 10
444.4987722078855
 20
44.79102621677809
 30
0.0
 11
444.4987722078855
 21
140.7910262167781
 31
0.0
  0
LINE
  5
2080
330
1F
100
AcDbEntity
  8
0
  6
Continuous
 62
     7
100
AcDbLine
 10
444.4987722078855
 20
-10.20897378322189
 30
0.0
 11
444.4987722078855
 21
14.7910262167781
 31
0.0
  0
LINE
  5
2081
330
1F
100
AcDbEntity
  8
0
 62
     7
100
AcDbLine
 10
422.4993182534835
 20
33.07518830324494
 30
0.0
 11
422.4993182534835
 21
26.50686413031133
 31
0.0
  0
LINE
  5
2087
330
1F
100
AcDbEntity
  8
0
 62
     7
100
AcDbLine
 10
409.4993182534836
 20
36.79102621677812
 30
0.0
 11
420.8034326219913
 21
35.05193169854613
 31
0.0
  0
LINE
  5
2088
330
1F
100
AcDbEntity
  8
0
 62
     7
100
AcDbLine
 10
409.4993182534836
 20
22.79102621677811
 30
0.0
 11
420.8034326219913
 21
24.53012073501009
 31
0.0
  0
ARC
  5
2089
330
1F
100
AcDbEntity
  8
0
 62
     7
100
AcDbCircle
 10
420.4993182534836
 20
33.0751883032449
 30
0.0
 40
2.0
100
AcDbArc
 50
0.0000000000003053
 51
81.25383773744474
  0
ARC
  5
208A
330
1F
100
AcDbEntity
  8
0
 62
     7
100
AcDbCircle
 10
420.4993182534836
 20
26.50686413031133
 30
0.0
 40
2.0
100
AcDbArc
 50
278.7461622625552
 51
0.0000000000003944
  0
LINE
  5
209D
330
1F
100
AcDbEntity
  8
0
  6
Continuous
 62
     7
100
AcDbLine
 10
419.4993182534836
 20
123.2986721190004
 30
0.0
 11
419.4993182534836
 21
90.61176683111904
 31
0.0
  0
LINE
  5
209E
330
1F
100
AcDbEntity
  8
0
 62
     7
100
AcDbLine
 10
419.4993182534836
 20
123.2986721190004
 30
0.0
 11
409.4993182534836
 21
123.2986721190004
 31
0.0
  0
LINE
  5
209F
330
1F
100
AcDbEntity
  8
0
 62
     7
100
AcDbLine
 10
419.4993182534836
 20
90.61176683111904
 30
0.0
 11
409.4993182534836
 21
90.61176683111904
 31
0.0
  0
LINE
  5
20A0
330
1F
100
AcDbEntity
  8
0
 62
     7
100
AcDbLine
 10
419.4993182534833
 20
-0.9871859393992965
 30
0.0
 11
409.4993182534834
 21
-0.9871859393991826
 31
0.0
  0
LINE
  5
20A1
330
1F
100
AcDbEntity
  8
0
 62
     7
100
AcDbLine
 10
419.4993182534832
 20
-33.67409122728072
 30
0.0
 11
409.4993182534834
 21
-33.67409122728066
 31
0.0
  0
LINE
  5
20A2
330
1F
100
AcDbEntity
  8
0
  6
Continuous
 62
     7
100
AcDbLine
 10
419.4993182534832
 20
-33.67409122728072
 30
0.0
 11
419.4993182534833
 21
-0.9871859393992965
 31
0.0
  0
ARC
  5
20B0
330
1F
100
AcDbEntity
  8
0
  6
Continuous
 62
     7
100
AcDbCircle
 10
423.1752182534836
 20
102.7051694750597
 30
0.0
 40
1.824085319413543
100
AcDbArc
 50
316.7449211691293
 51
43.2550788308707
  0
LINE
  5
20B1
330
1F
100
AcDbEntity
  8
0
  6
Continuous
 62
     7
100
AcDbLine
 10
424.5037182534836
 20
101.4552194750597
 30
0.0
 11
420.9993182534836
 21
101.4552194750597
 31
0.0
  0
LINE
  5
20B2
330
1F
100
AcDbEntity
  8
0
  6
Continuous
 62
     7
100
AcDbLine
 10
424.5037182534836
 20
103.9552194750598
 30
0.0
 11
420.9993182534836
 21
103.9552194750598
 31
0.0
  0
ARC
  5
20B3
330
1F
100
AcDbEntity
  8
0
  6
Continuous
 62
     7
100
AcDbCircle
 10
415.6716151057841
 20
106.9551194750597
 30
0.0
 40
9.327703147699542
100
AcDbArc
 50
341.2389196264117
 51
18.76108037358813
  0
LINE
  5
20B4
330
1F
100
AcDbEntity
  8
0
  6
Continuous
 62
     7
100
AcDbLine
 10
424.9993182534836
 20
102.7051194750597
 30
0.0
 11
424.9993182534836
 21
111.2051194750597
 31
0.0
  0
ARC
  5
20B5
330
1F
100
AcDbEntity
  8
0
  6
Continuous
 62
     7
100
AcDbCircle
 10
423.1752182534836
 20
111.2051694750597
 30
0.0
 40
1.824085319413543
100
AcDbArc
 50
316.7449211691293
 51
43.2550788308707
  0
LINE
  5
20B6
330
1F
100
AcDbEntity
  8
0
  6
Continuous
 62
     7
100
AcDbLine
 10
424.5037182534836
 20
109.9552194750597
 30
0.0
 11
420.9993182534836
 21
109.9552194750597
 31
0.0
  0
LINE
  5
20B7
330
1F
100
AcDbEntity
  8
0
  6
Continuous
 62
     7
100
AcDbLine
 10
424.5037182534836
 20
112.4552194750598
 30
0.0
 11
420.9993182534836
 21
112.4552194750598
 31
0.0
  0
LINE
  5
20C6
330
1F
100
AcDbEntity
  8
0
  6
Continuous
 62
     7
100
AcDbLine
 10
420.9993182534836
 20
113.0552194750597
 30
0.0
 11
420.9993182534836
 21
100.8552194750597
 31
0.0
  0
LINE
  5
20C8
330
1F
100
AcDbEntity
  8
0
 62
     7
100
AcDbLine
 10
420.9993182534836
 20
113.0552194750597
 30
0.0
 11
419.4993182534836
 21
113.0552194750597
 31
0.0
  0
LINE
  5
20C9
330
1F
100
AcDbEntity
  8
0
 62
     7
100
AcDbLine
 10
420.9993182534836
 20
100.8552194750597
 30
0.0
 11
419.4993182534836
 21
100.8552194750597
 31
0.0
  0
LINE
  5
20CA
330
1F
100
AcDbEntity
  8
0
 62
     7
100
AcDbLine
 10
420.9993182534833
 20
-23.43063858334
 30
0.0
 11
419.4993182534832
 21
-23.43063858334
 31
0.0
  0
LINE
  5
20CB
330
1F
100
AcDbEntity
  8
0
 62
     7
100
AcDbLine
 10
420.9993182534833
 20
-11.23063858334001
 30
0.0
 11
419.4993182534832
 21
-11.23063858334001
 31
0.0
  0
LINE
  5
20CC
330
1F
100
AcDbEntity
  8
0
  6
Continuous
 62
     7
100
AcDbLine
 10
420.9993182534833
 20
-11.23063858334001
 30
0.0
 11
420.9993182534833
 21
-23.43063858334
 31
0.0
  0
LINE
  5
20CD
330
1F
100
AcDbEntity
  8
0
  6
Continuous
 62
     7
100
AcDbLine
 10
424.5037182534833
 20
-11.83063858333997
 30
0.0
 11
420.9993182534833
 21
-11.83063858333997
 31
0.0
  0
LINE
  5
20CE
330
1F
100
AcDbEntity
  8
0
  6
Continuous
 62
     7
100
AcDbLine
 10
424.5037182534833
 20
-14.33063858333997
 30
0.0
 11
420.9993182534833
 21
-14.33063858333997
 31
0.0
  0
ARC
  5
20CF
330
1F
100
AcDbEntity
  8
0
  6
Continuous
 62
     7
100
AcDbCircle
 10
423.1752182534832
 20
-13.08068858334002
 30
0.0
 40
1.824085319413543
100
AcDbArc
 50
316.7449211691293
 51
43.2550788308707
  0
LINE
  5
20D0
330
1F
100
AcDbEntity
  8
0
  6
Continuous
 62
     7
100
AcDbLine
 10
424.9993182534833
 20
-21.58073858334001
 30
0.0
 11
424.9993182534833
 21
-13.08073858334001
 31
0.0
  0
ARC
  5
20D1
330
1F
100
AcDbEntity
  8
0
  6
Continuous
 62
     7
100
AcDbCircle
 10
415.6720182534832
 20
-17.33073858334001
 30
0.0
 40
9.327321420965411
100
AcDbArc
 50
341.2381231435893
 51
18.76187685641063
  0
LINE
  5
20D2
330
1F
100
AcDbEntity
  8
0
  6
Continuous
 62
     7
100
AcDbLine
 10
424.5037182534833
 20
-20.33063858333997
 30
0.0
 11
420.9993182534833
 21
-20.33063858333997
 31
0.0
  0
LINE
  5
20D3
330
1F
100
AcDbEntity
  8
0
  6
Continuous
 62
     7
100
AcDbLine
 10
424.5037182534833
 20
-22.83063858333997
 30
0.0
 11
420.9993182534833
 21
-22.83063858333997
 31
0.0
  0
ARC
  5
20D4
330
1F
100
AcDbEntity
  8
0
  6
Continuous
 62
     7
100
AcDbCircle
 10
423.1752182534832
 20
-21.58068858334002
 30
0.0
 40
1.824085319413543
100
AcDbArc
 50
316.7449211691293
 51
43.2550788308707
  0
LINE
  5
20D5
330
1F
100
AcDbEntity
  8
0
  6
DASH_CENTER
 62
    30
100
AcDbLine
 10
404.4327752382196
 20
106.9552194750597
 30
0.0
 11
434.9973459621313
 21
106.9552194750597
 31
0.0
  0
LINE
  5
20D6
330
1F
100
AcDbEntity
  8
0
  6
DASH_CENTER
 62
    30
100
AcDbLine
 10
404.4327752382192
 20
-17.33063858333997
 30
0.0
 11
434.9973459621311
 21
-17.33063858333997
 31
0.0
  0
LINE
  5
20D8
330
1F
100
AcDbEntity
  8
0
  6
Continuous
 62
     7
100
AcDbLine
 10
677.4987722078853
 20
114.9240193971693
 30
0.0
 11
677.4987722078853
 21
123.4240193971693
 31
0.0
  0
ARC
  5
20D9
330
1F
100
AcDbEntity
  8
0
  6
Continuous
 62
     7
100
AcDbCircle
 10
668.1714722078853
 20
119.1740193971693
 30
0.0
 40
9.327321420965411
100
AcDbArc
 50
341.2381231435893
 51
18.76187685641063
  0
LINE
  5
20DA
330
1F
100
AcDbEntity
  8
0
  6
Continuous
 62
     7
100
AcDbLine
 10
677.0031722078855
 20
116.1741193971693
 30
0.0
 11
673.4987722078855
 21
116.1741193971693
 31
0.0
  0
LINE
  5
20DB
330
1F
100
AcDbEntity
  8
0
  6
Continuous
 62
     7
100
AcDbLine
 10
677.0031722078855
 20
113.6741193971693
 30
0.0
 11
673.4987722078855
 21
113.6741193971693
 31
0.0
  0
ARC
  5
20DC
330
1F
100
AcDbEntity
  8
0
  6
Continuous
 62
     7
100
AcDbCircle
 10
675.6746722078855
 20
114.9240693971693
 30
0.0
 40
1.824085319413543
100
AcDbArc
 50
316.7449211691293
 51
43.2550788308707
  0
LINE
  5
20DD
330
1F
100
AcDbEntity
  8
0
  6
Continuous
 62
     7
100
AcDbLine
 10
677.0031722078855
 20
124.6741193971693
 30
0.0
 11
673.4987722078855
 21
124.6741193971693
 31
0.0
  0
LINE
  5
20DE
330
1F
100
AcDbEntity
  8
0
  6
Continuous
 62
     7
100
AcDbLine
 10
677.0031722078855
 20
122.1741193971693
 30
0.0
 11
673.4987722078855
 21
122.1741193971693
 31
0.0
  0
ARC
  5
20DF
330
1F
100
AcDbEntity
  8
0
  6
Continuous
 62
     7
100
AcDbCircle
 10
675.6746722078855
 20
123.4240693971693
 30
0.0
 40
1.824085319413543
100
AcDbArc
 50
316.7449211691293
 51
43.2550788308707
  0
LINE
  5
20E0
330
1F
100
AcDbEntity
  8
0
  6
DASH_CENTER
 62
    30
100
AcDbLine
 10
661.0810504992213
 20
119.1741193971693
 30
0.0
 11
687.4967999165331
 21
119.1741193971693
 31
0.0
  0
LINE
  5
20E1
330
1F
100
AcDbEntity
  8
0
  6
DASH_CENTER
 62
    30
100
AcDbLine
 10
661.0810504992215
 20
-11.84794433668776
 30
0.0
 11
687.4967999165334
 21
-11.84794433668776
 31
0.0
  0
ARC
  5
20E2
330
1F
100
AcDbEntity
  8
0
  6
Continuous
 62
     7
100
AcDbCircle
 10
675.6746722078855
 20
-7.597994336687746
 30
0.0
 40
1.824085319413543
100
AcDbArc
 50
316.7449211691293
 51
43.2550788308707
  0
LINE
  5
20E3
330
1F
100
AcDbEntity
  8
0
  6
Continuous
 62
     7
100
AcDbLine
 10
677.0031722078855
 20
-8.84794433668776
 30
0.0
 11
673.4987722078856
 21
-8.84794433668776
 31
0.0
  0
LINE
  5
20E4
330
1F
100
AcDbEntity
  8
0
  6
Continuous
 62
     7
100
AcDbLine
 10
677.0031722078855
 20
-6.34794433668776
 30
0.0
 11
673.4987722078856
 21
-6.34794433668776
 31
0.0
  0
ARC
  5
20E5
330
1F
100
AcDbEntity
  8
0
  6
Continuous
 62
     7
100
AcDbCircle
 10
675.6746722078855
 20
-16.09799433668775
 30
0.0
 40
1.824085319413543
100
AcDbArc
 50
316.7449211691293
 51
43.2550788308707
  0
LINE
  5
20E6
330
1F
100
AcDbEntity
  8
0
  6
Continuous
 62
     7
100
AcDbLine
 10
677.0031722078855
 20
-17.34794433668776
 30
0.0
 11
673.4987722078856
 21
-17.34794433668776
 31
0.0
  0
LINE
  5
20E7
330
1F
100
AcDbEntity
  8
0
  6
Continuous
 62
     7
100
AcDbLine
 10
677.0031722078855
 20
-14.84794433668776
 30
0.0
 11
673.4987722078856
 21
-14.84794433668776
 31
0.0
  0
ARC
  5
20E8
330
1F
100
AcDbEntity
  8
0
  6
Continuous
 62
     7
100
AcDbCircle
 10
668.1714722078854
 20
-11.84804433668779
 30
0.0
 40
9.327321420965411
100
AcDbArc
 50
341.2381231435893
 51
18.76187685641063
  0
LINE
  5
20E9
330
1F
100
AcDbEntity
  8
0
  6
Continuous
 62
     7
100
AcDbLine
 10
677.4987722078856
 20
-16.09804433668779
 30
0.0
 11
677.4987722078856
 21
-7.598044336687792
 31
0.0
  0
ARC
  5
20EB
330
1F
100
AcDbEntity
  8
0
 62
     7
100
AcDbCircle
 10
608.7118266909413
 20
-175.1877095541382
 30
0.0
 40
3.0
100
AcDbArc
 50
0.0
 51
90.0
  0
LINE
  5
20EC
330
1F
100
AcDbEntity
  8
0
 62
     7
100
AcDbLine
 10
611.7118266909415
 20
-155.1877095541381
 30
0.0
 11
611.7118266909415
 21
-175.1877095541382
 31
0.0
  0
ARC
  5
20ED
330
1F
100
AcDbEntity
  8
0
 62
     7
100
AcDbCircle
 10
502.7118266909414
 20
-175.1877095541382
 30
0.0
 40
3.0
100
AcDbArc
 50
90.0
 51
180.0
  0
LINE
  5
20EE
330
1F
100
AcDbEntity
  8
0
 62
     7
100
AcDbLine
 10
499.7118266909414
 20
-158.1877095541381
 30
0.0
 11
499.7118266909414
 21
-175.1877095541381
 31
0.0
  0
LINE
  5
20F0
330
1F
100
AcDbEntity
  8
0
  6
DASHED
 62
     2
 48
0.5
100
AcDbLine
 10
472.2113815849515
 20
-69.0233943063905
 30
0.0
 11
467.8431847559076
 21
-155.1877095541381
 31
0.0
  0
LINE
  5
20F1
330
1F
100
AcDbEntity
  8
0
  6
DASHED
 62
     2
 48
0.5
100
AcDbLine
 10
639.2182239069528
 20
-69.10553979141571
 30
0.0
 11
643.676100744484
 21
-155.1877095541381
 31
0.0
  0
LINE
  5
20F2
330
1F
100
AcDbEntity
  8
0
 62
     7
100
AcDbLine
 10
515.9987722078856
 20
-59.18770955414004
 30
0.0
 11
595.9987722078857
 21
-59.18770955414004
 31
0.0
  0
LINE
  5
20F3
330
1F
100
AcDbEntity
  8
0
 62
     7
100
AcDbLine
 10
512.9987722078856
 20
-54.70897378322189
 30
0.0
 11
512.9987722078856
 21
-56.18770955414004
 31
0.0
  0
LINE
  5
20F4
330
1F
100
AcDbEntity
  8
0
 62
     7
100
AcDbLine
 10
598.9987722078856
 20
-55.20897378322189
 30
0.0
 11
598.9987722078857
 21
-56.18770955414004
 31
0.0
  0
ARC
  5
20F5
330
1F
100
AcDbEntity
  8
0
 62
     7
100
AcDbCircle
 10
515.9987722078856
 20
-56.18770955414004
 30
0.0
 40
3.0
100
AcDbArc
 50
180.0
 51
270.0
  0
ARC
  5
20F6
330
1F
100
AcDbEntity
  8
0
 62
     7
100
AcDbCircle
 10
595.9987722078857
 20
-56.18770955414004
 30
0.0
 40
3.0
100
AcDbArc
 50
270.0
 51
0.0
  0
LINE
  5
20F7
330
1F
100
AcDbEntity
  8
0
 62
     7
100
AcDbLine
 10
598.9987722078857
 20
-55.18770955414004
 30
0.0
 11
647.9248811739973
 21
-55.18770955414004
 31
0.0
  0
LINE
  5
20F9
330
1F
100
AcDbEntity
  8
0
 62
     7
 48
0.5
100
AcDbLine
 10
621.7985069928577
 20
-34.20897378322178
 30
0.0
 11
620.9985069928579
 21
-35.00897378322174
 31
0.0
  0
LINE
  5
20FA
330
1F
100
AcDbEntity
  8
0
 62
     7
 48
0.5
100
AcDbLine
 10
630.9985069928577
 20
-35.00897378322196
 30
0.0
 11
630.1985069928576
 21
-34.20897378322178
 31
0.0
  0
LINE
  5
20FB
330
1F
100
AcDbEntity
  8
0
 62
     7
 48
0.5
100
AcDbLine
 10
630.1985069928579
 20
-34.20897378322178
 30
0.0
 11
621.7985069928577
 21
-34.20897378322178
 31
0.0
  0
LINE
  5
20FC
330
1F
100
AcDbEntity
  8
0
 62
     7
 48
0.5
100
AcDbLine
 10
620.9985069928579
 20
-35.00897378322139
 30
0.0
 11
620.9985069928579
 21
-38.20897378322178
 31
0.0
  0
LINE
  5
20FD
330
1F
100
AcDbEntity
  8
0
 62
     7
 48
0.5
100
AcDbLine
 10
617.8485069928577
 20
-43.20897378322189
 30
0.0
 11
617.8485069928577
 21
-38.2089737832219
 31
0.0
  0
LINE
  5
20FE
330
1F
100
AcDbEntity
  8
0
 62
     7
 48
0.5
100
AcDbLine
 10
634.1485069928577
 20
-38.2089737832219
 30
0.0
 11
634.1485069928577
 21
-43.20897378322189
 31
0.0
  0
LINE
  5
20FF
330
1F
100
AcDbEntity
  8
0
 62
     7
 48
0.5
100
AcDbLine
 10
634.1485069928577
 20
-38.2089737832219
 30
0.0
 11
617.8485069928577
 21
-38.2089737832219
 31
0.0
  0
LINE
  5
2100
330
1F
100
AcDbEntity
  8
0
 62
     7
 48
0.5
100
AcDbLine
 10
630.9985069928577
 20
-38.20897378322201
 30
0.0
 11
630.9985069928577
 21
-35.00897378322185
 31
0.0
  0
LINE
  5
2101
330
1F
100
AcDbEntity
  8
0
  6
DASH_CENTER
 62
    30
100
AcDbLine
 10
625.9985069928581
 20
-79.18853123778768
 30
0.0
 11
625.9985069928574
 21
-29.64695588462206
 31
0.0
  0
LINE
  5
2102
330
1F
100
AcDbEntity
  8
100
  6
DASH_CENTER
 62
    30
100
AcDbLine
 10
625.9987722078856
 20
-72.23772511072053
 30
0.0
 11
625.9987722078856
 21
-33.47810785606333
 31
0.0
  0
LINE
  5
2103
330
1F
100
AcDbEntity
  8
0
  6
DASHED
 62
     2
 48
0.5
100
AcDbLine
 10
617.8485069928577
 20
-74.20897378322178
 30
0.0
 11
617.8485069928577
 21
-67.20897378322177
 31
0.0
  0
LINE
  5
2104
330
1F
100
AcDbEntity
  8
0
  6
DASHED
 62
     2
 48
0.5
100
AcDbLine
 10
634.1485069928577
 20
-67.20897378322177
 30
0.0
 11
634.1485069928577
 21
-74.20897378322178
 31
0.0
  0
LINE
  5
2105
330
1F
100
AcDbEntity
  8
0
  6
DASHED
 62
     2
 48
0.5
100
AcDbLine
 10
634.1485069928577
 20
-74.20897378322178
 30
0.0
 11
617.8485069928577
 21
-74.20897378322178
 31
0.0
  0
LINE
  5
2107
330
1F
100
AcDbEntity
  8
0
  6
DASHED
 62
     2
 48
0.5
100
AcDbLine
 10
615.7118266909415
 20
-64.18770955413811
 30
0.0
 11
615.7118266909415
 21
-67.20897378322177
 31
0.0
  0
LINE
  5
2108
330
1F
100
AcDbEntity
  8
0
  6
DASHED
 62
     2
 48
0.5
100
AcDbLine
 10
637.2209003454488
 20
-67.20897378322177
 30
0.0
 11
615.7118266909415
 21
-67.20897378322177
 31
0.0
  0
ARC
  5
210A
330
1F
100
AcDbEntity
  8
0
  6
DASHED
 62
     2
 48
0.5
100
AcDbCircle
 10
637.2209003454488
 20
-69.20897378322178
 30
0.0
 40
2.0
100
AcDbArc
 50
2.964488090692681
 51
90.0
  0
LINE
  5
210B
330
1F
100
AcDbEntity
  8
0
  6
DASHED
 62
     2
 48
0.5
100
AcDbLine
 10
615.7118266909415
 20
-64.18770955413811
 30
0.0
 11
605.0082162167472
 21
-64.18770955413811
 31
0.0
  0
LINE
  5
211D
330
1F
100
AcDbEntity
  8
0
 62
     7
 48
0.5
100
AcDbLine
 10
480.4251463890251
 20
-38.20897378322201
 30
0.0
 11
480.4251463890249
 21
-35.00897378322185
 31
0.0
  0
LINE
  5
211E
330
1F
100
AcDbEntity
  8
0
 62
     7
 48
0.5
100
AcDbLine
 10
477.2751463890251
 20
-38.2089737832219
 30
0.0
 11
493.5751463890252
 21
-38.2089737832219
 31
0.0
  0
LINE
  5
211F
330
1F
100
AcDbEntity
  8
0
 62
     7
 48
0.5
100
AcDbLine
 10
477.2751463890251
 20
-38.2089737832219
 30
0.0
 11
477.2751463890251
 21
-43.20897378322189
 31
0.0
  0
LINE
  5
2120
330
1F
100
AcDbEntity
  8
0
 62
     7
 48
0.5
100
AcDbLine
 10
493.5751463890252
 20
-43.20897378322189
 30
0.0
 11
493.5751463890252
 21
-38.2089737832219
 31
0.0
  0
LINE
  5
2121
330
1F
100
AcDbEntity
  8
0
 62
     7
 48
0.5
100
AcDbLine
 10
490.4251463890248
 20
-35.00897378322139
 30
0.0
 11
490.4251463890248
 21
-38.20897378322178
 31
0.0
  0
LINE
  5
2122
330
1F
100
AcDbEntity
  8
0
 62
     7
 48
0.5
100
AcDbLine
 10
481.2251463890248
 20
-34.20897378322178
 30
0.0
 11
489.6251463890251
 21
-34.20897378322178
 31
0.0
  0
LINE
  5
2123
330
1F
100
AcDbEntity
  8
0
 62
     7
 48
0.5
100
AcDbLine
 10
480.4251463890249
 20
-35.00897378322196
 30
0.0
 11
481.2251463890251
 21
-34.20897378322178
 31
0.0
  0
LINE
  5
2124
330
1F
100
AcDbEntity
  8
0
 62
     7
 48
0.5
100
AcDbLine
 10
489.6251463890251
 20
-34.20897378322178
 30
0.0
 11
490.4251463890251
 21
-35.00897378322174
 31
0.0
  0
LINE
  5
2125
330
1F
100
AcDbEntity
  8
100
  6
DASH_CENTER
 62
    30
100
AcDbLine
 10
485.4248811739973
 20
-72.23772511072053
 30
0.0
 11
485.4248811739973
 21
-33.47810785606333
 31
0.0
  0
LINE
  5
2126
330
1F
100
AcDbEntity
  8
0
  6
DASH_CENTER
 62
    30
100
AcDbLine
 10
485.4251463890248
 20
-79.18853123778768
 30
0.0
 11
485.4251463890253
 21
-29.64695588462206
 31
0.0
  0
LINE
  5
2127
330
1F
100
AcDbEntity
  8
0
  6
DASHED
 62
     2
 48
0.5
100
AcDbLine
 10
495.7118266909414
 20
-64.18770955413811
 30
0.0
 11
506.4154371651356
 21
-64.18770955413811
 31
0.0
  0
LINE
  5
2128
330
1F
100
AcDbEntity
  8
0
  6
DASHED
 62
     2
 48
0.5
100
AcDbLine
 10
474.2027530364338
 20
-67.20897378322177
 30
0.0
 11
495.7118266909414
 21
-67.20897378322177
 31
0.0
  0
LINE
  5
2129
330
1F
100
AcDbEntity
  8
0
  6
DASHED
 62
     2
 48
0.5
100
AcDbLine
 10
495.7118266909414
 20
-64.18770955413811
 30
0.0
 11
495.7118266909414
 21
-67.20897378322177
 31
0.0
  0
LINE
  5
212A
330
1F
100
AcDbEntity
  8
0
  6
DASHED
 62
     2
 48
0.5
100
AcDbLine
 10
477.2751463890251
 20
-74.20897378322178
 30
0.0
 11
493.5751463890252
 21
-74.20897378322178
 31
0.0
  0
LINE
  5
212B
330
1F
100
AcDbEntity
  8
0
  6
DASHED
 62
     2
 48
0.5
100
AcDbLine
 10
477.2751463890251
 20
-67.20897378322177
 30
0.0
 11
477.2751463890251
 21
-74.20897378322178
 31
0.0
  0
LINE
  5
212C
330
1F
100
AcDbEntity
  8
0
  6
DASHED
 62
     2
 48
0.5
100
AcDbLine
 10
493.5751463890252
 20
-74.20897378322178
 30
0.0
 11
493.5751463890252
 21
-67.20897378322177
 31
0.0
  0
ARC
  5
212D
330
1F
100
AcDbEntity
  8
0
  6
DASHED
 62
     2
 48
0.5
100
AcDbCircle
 10
474.2027530364338
 20
-69.20897378322178
 30
0.0
 40
2.0
100
AcDbArc
 50
90.0
 51
177.0355119093073
  0
LINE
  5
221B
330
1F
100
AcDbEntity
  8
0
 62
     7
100
AcDbLine
 10
461.7118266909414
 20
-175.1877095541381
 30
0.0
 11
461.7118266909414
 21
-158.1877095541381
 31
0.0
  0
ARC
  5
221C
330
1F
100
AcDbEntity
  8
0
 62
     7
100
AcDbCircle
 10
496.7118266909414
 20
-158.1877095541381
 30
0.0
 40
3.0
100
AcDbArc
 50
0.0
 51
89.99999999999994
  0
ARC
  5
221D
330
1F
100
AcDbEntity
  8
0
 62
     7
100
AcDbCircle
 10
464.7118266909414
 20
-158.1877095541381
 30
0.0
 40
3.0
100
AcDbArc
 50
89.99999999999994
 51
180.0000000000001
  0
LINE
  5
221E
330
1F
100
AcDbEntity
  8
0
 62
     7
100
AcDbLine
 10
649.7118266909413
 20
-175.1877095541381
 30
0.0
 11
649.7118266909414
 21
-158.1877095541381
 31
0.0
  0
ARC
  5
221F
330
1F
100
AcDbEntity
  8
0
 62
     7
100
AcDbCircle
 10
646.7118266909412
 20
-158.1877095541381
 30
0.0
 40
3.0
100
AcDbArc
 50
359.9999999999998
 51
90.00000000000005
  0
LINE
  5
2229
330
1F
100
AcDbEntity
  8
0
 62
     7
100
AcDbLine
 10
529.2160585711242
 20
105.9598074277573
 30
0.0
 11
582.2075948107583
 21
105.9598074277572
 31
0.0
  0
LINE
  5
222A
330
1F
100
AcDbEntity
  8
0
  6
Continuous
 62
     7
100
AcDbLine
 10
582.2075948107583
 20
79.08559359127929
 30
0.0
 11
529.2160585711243
 21
79.08559359127929
 31
0.0
  0
ARC
  5
2265
330
1F
100
AcDbEntity
  8
10
  6
DASHED
 62
   171
 48
0.5
100
AcDbCircle
 10
-369.3923341879267
 20
1.64721058017426
 30
0.0
 40
300.5998931516941
100
AcDbArc
 50
160.2269375073385
 51
173.4638542781752
  0
LINE
  5
2266
330
1F
100
AcDbEntity
  8
10
  6
DASHED
 62
   171
 48
0.5
100
AcDbLine
 10
-613.1754985331926
 20
107.5523517981092
 30
0.0
 11
-668.6467341879264
 21
29.14311058017421
 31
0.0
  0
LINE
  5
2267
330
1F
100
AcDbEntity
  8
10
  6
DASHED
 62
   171
 48
0.5
100
AcDbLine
 10
-609.3091528076485
 20
106.7705915958661
 30
0.0
 11
-666.4008341879267
 21
26.0843105801742
 31
0.0
  0
LINE
  5
2268
330
1F
100
AcDbEntity
  8
110
  6
DASH_CENTER
 62
    30
100
AcDbLine
 10
-596.8066932907582
 20
61.40197501873196
 30
0.0
 11
-666.1436790270477
 21
73.62778557615832
 31
0.0
  0
ARC
  5
2269
330
1F
100
AcDbEntity
  8
10
  6
DASHED
 62
   171
 48
0.5
100
AcDbCircle
 10
-644.1749966744757
 20
100.4299719486334
 30
0.0
 40
8.599993538927414
100
AcDbArc
 50
83.22489748812847
 51
160.2269427165673
  0
ARC
  5
226A
330
1F
100
AcDbEntity
  8
10
  6
DASHED
 62
   171
 48
0.5
100
AcDbCircle
 10
-611.8828341879265
 20
106.6094105801742
 30
0.0
 40
1.60003726518994
100
AcDbArc
 50
53.75462623232099
 51
144.7216602362573
  0
ARC
  5
226B
330
1F
100
AcDbEntity
  8
10
  6
DASHED
 62
   171
 48
0.5
100
AcDbCircle
 10
-615.7097705469121
 20
108.1260388786291
 30
0.0
 40
2.39999141043238
100
AcDbArc
 50
263.2241588344548
 51
324.7212056971668
  0
ARC
  5
226C
330
1F
100
AcDbEntity
  8
10
  6
DASHED
 62
   171
 48
0.5
100
AcDbCircle
 10
-615.0512445039428
 20
98.39214832659022
 30
0.0
 40
5.800021198105173
100
AcDbArc
 50
350.0002544353182
 51
40.57083665711582
  0
LINE
  5
226D
330
1F
100
AcDbEntity
  8
0
  6
DASHED
 62
   171
 48
0.5
100
AcDbLine
 10
-610.9291314251436
 20
107.9168496946243
 30
0.0
 11
-609.3091528076485
 21
106.7705915958661
 31
0.0
  0
LINE
  5
226E
330
1F
100
AcDbEntity
  8
10
  6
DASHED
 62
   171
 48
0.5
100
AcDbLine
 10
-609.3392576344686
 20
97.38499708165917
 30
0.0
 11
-620.4979772444496
 21
34.10110054833126
 31
0.0
  0
LINE
  5
226F
330
1F
100
AcDbEntity
  8
10
  6
DASHED
 62
   171
 48
0.5
100
AcDbLine
 10
-615.9929341879276
 20
105.7427105801742
 30
0.0
 11
-643.1604341879276
 21
108.9700105801742
 31
0.0
  0
LINE
  5
2270
330
1F
100
AcDbEntity
  8
10
  6
DASHED
 62
   171
 48
0.5
100
AcDbLine
 10
-610.6455341879266
 20
102.1641105801741
 30
0.0
 11
-611.6588341879276
 21
103.3477105801742
 31
0.0
  0
ARC
  5
2271
330
1F
100
AcDbEntity
  8
10
  6
DASHED
 62
   171
 48
0.5
100
AcDbCircle
 10
-607.0668674237127
 20
90.76175969021424
 30
0.0
 40
0.9999601049460109
100
AcDbArc
 50
169.9994391254222
 51
258.1778218788908
  0
LINE
  5
2272
330
1F
100
AcDbEntity
  8
10
  6
DASHED
 62
   171
 48
0.5
100
AcDbLine
 10
-612.7629532883145
 20
64.21545486330211
 30
0.0
 11
-607.5534341879264
 21
93.76081058017419
 31
0.0
  0
LINE
  5
2273
330
1F
100
AcDbEntity
  8
10
  6
DASHED
 62
   171
 48
0.5
100
AcDbLine
 10
-608.5500998163047
 20
94.95050451562031
 30
0.0
 11
-619.1424341879276
 21
34.87871058017419
 31
0.0
  0
LINE
  5
2274
330
1F
100
AcDbEntity
  8
10
  6
DASHED
 62
   171
 48
0.5
100
AcDbLine
 10
-608.7352341879266
 20
93.96901058017432
 30
0.0
 11
-607.5534341879264
 21
93.76081058017419
 31
0.0
  0
LINE
  5
2275
330
1F
100
AcDbEntity
  8
10
  6
DASHED
 62
   171
 48
0.5
100
AcDbLine
 10
-607.2717341879264
 20
89.78301058017411
 30
0.0
 11
-599.1392341879266
 21
88.0806105801742
 31
0.0
  0
LINE
  5
2276
330
1F
100
AcDbEntity
  8
10
  6
DASHED
 62
   171
 48
0.5
100
AcDbLine
 10
-609.7318341879264
 20
95.15901058017432
 30
0.0
 11
-608.5501341879274
 21
94.95051058017413
 31
0.0
  0
ARC
  5
2277
330
1F
100
AcDbEntity
  8
10
  6
DASHED
 62
   171
 48
0.5
100
AcDbCircle
 10
-600.2047061453311
 20
82.9907539749613
 30
0.0
 40
5.199984120264681
100
AcDbArc
 50
3.477396803070521
 51
78.17640870137394
  0
ARC
  5
2278
330
1F
100
AcDbEntity
  8
10
  6
DASHED
 62
   171
 48
0.5
100
AcDbCircle
 10
-626.8821241292751
 20
37.05451762320939
 30
0.0
 40
6.800014530488137
100
AcDbArc
 50
260.0000006218081
 51
349.9991708404025
  0
ARC
  5
2279
330
1F
100
AcDbEntity
  8
10
  6
DASHED
 62
   171
 48
0.5
100
AcDbCircle
 10
-616.4893467365902
 20
37.32400149213658
 30
0.0
 40
0.9999732195207704
100
AcDbArc
 50
81.8238823459872
 51
170.0020037111987
  0
LINE
  5
227A
330
1F
100
AcDbEntity
  8
10
  6
DASHED
 62
   171
 48
0.5
100
AcDbLine
 10
-612.7626780628015
 20
64.21540633429618
 30
0.0
 11
-617.9723341879267
 21
34.67241058017407
 31
0.0
  0
LINE
  5
227B
330
1F
100
AcDbEntity
  8
10
  6
DASHED
 62
   171
 48
0.5
100
AcDbLine
 10
-616.3471341879276
 20
38.31381058017411
 30
0.0
 11
-608.1228341879266
 21
37.13211058017419
 31
0.0
  0
LINE
  5
227C
330
1F
100
AcDbEntity
  8
10
  6
DASHED
 62
   171
 48
0.5
100
AcDbLine
 10
-619.1540341879276
 20
34.88061058017417
 30
0.0
 11
-617.9723341879267
 21
34.67241058017407
 31
0.0
  0
LINE
  5
227D
330
1F
100
AcDbEntity
  8
10
  6
DASHED
 62
   171
 48
0.5
100
AcDbLine
 10
-620.4980341879267
 20
34.1011105801743
 30
0.0
 11
-619.3162341879276
 21
33.89291058017426
 31
0.0
  0
LINE
  5
227E
330
1F
100
AcDbEntity
  8
10
  6
DASHED
 62
   171
 48
0.5
100
AcDbLine
 10
-619.3181341879276
 20
33.89311058017421
 30
0.0
 11
-619.1443341879276
 21
34.87871058017419
 31
0.0
  0
ARC
  5
227F
330
1F
100
AcDbEntity
  8
10
  6
DASHED
 62
   171
 48
0.5
100
AcDbCircle
 10
-630.4031341879277
 20
29.75491058017406
 30
0.0
 40
2.999969361510008
100
AcDbArc
 50
260.0007604670524
 51
350.0007604670528
  0
LINE
  5
2280
330
1F
100
AcDbEntity
  8
10
  6
DASHED
 62
   171
 48
0.5
100
AcDbLine
 10
-659.4609900268014
 20
35.89222309303119
 30
0.0
 11
-627.2750312050807
 21
30.21882749327625
 31
0.0
  0
LINE
  5
2281
330
1F
100
AcDbEntity
  8
110
  6
DASH_CENTER
 62
    30
100
AcDbLine
 10
-640.5321341879266
 20
41.41561058017429
 30
0.0
 11
-643.6883341879267
 21
23.5161105801742
 31
0.0
  0
LINE
  5
2282
330
1F
100
AcDbEntity
  8
10
  6
DASHED
 62
   171
 48
0.5
100
AcDbLine
 10
-654.5594341879266
 20
30.96801058017428
 30
0.0
 11
-630.9241341879276
 21
26.80031058017426
 31
0.0
  0
ARC
  5
2283
330
1F
100
AcDbEntity
  8
0
  6
DASHED
 62
   171
 48
0.5
100
AcDbCircle
 10
-668.6524369272425
 20
32.59800528273519
 30
0.0
 40
1.999999999999444
100
AcDbArc
 50
324.7222015060037
 51
49.43836263821347
  0
ARC
  5
2284
330
1F
100
AcDbEntity
  8
0
  6
DASHED
 62
   171
 48
0.5
100
AcDbCircle
 10
-666.0513741351304
 20
35.63683274600027
 30
0.0
 40
1.999999999999934
100
AcDbArc
 50
173.4638542781768
 51
229.4383626381891
  0
ARC
  5
2285
330
1F
100
AcDbEntity
  8
10
  6
DASHED
 62
   171
 48
0.5
100
AcDbCircle
 10
-667.6670410845822
 20
28.4502508315154
 30
0.0
 40
1.199972692743707
100
AcDbArc
 50
144.7206857042792
 51
234.7245836526576
  0
ARC
  5
2286
330
1F
100
AcDbEntity
  8
10
  6
DASHED
 62
   171
 48
0.5
100
AcDbCircle
 10
-668.9629336692897
 20
31.63770649844736
 30
0.0
 40
1.59999628280218
100
AcDbArc
 50
144.7423730709411
 51
229.7404019407538
  0
ARC
  5
2287
330
1F
100
AcDbEntity
  8
10
  6
DASHED
 62
   171
 48
0.5
100
AcDbCircle
 10
-654.0385412307535
 20
33.9224206383787
 30
0.0
 40
2.999978044061666
100
AcDbArc
 50
169.9990454301178
 51
260.0009262880623
  0
LINE
  5
2288
330
1F
100
AcDbEntity
  8
10
  6
DASHED
 62
   171
 48
0.5
100
AcDbLine
 10
-668.0584442075454
 20
35.68887020406805
 30
0.0
 11
-670.2693341879276
 21
32.56131058017428
 31
0.0
  0
LINE
  5
2289
330
1F
100
AcDbEntity
  8
10
  6
DASHED
 62
   171
 48
0.5
100
AcDbLine
 10
-664.4941632920365
 20
28.77896205987918
 30
0.0
 11
-662.9405341879276
 21
27.68071058017426
 31
0.0
  0
LINE
  5
228A
330
1F
100
AcDbEntity
  8
110
  6
DASHED
 62
   171
 48
0.5
100
AcDbLine
 10
-664.2065893189906
 20
29.18538334299922
 30
0.0
 11
-662.2465341879276
 21
27.79981058017416
 31
0.0
  0
LINE
  5
228B
330
1F
100
AcDbEntity
  8
110
  6
DASHED
 62
   171
 48
0.5
100
AcDbLine
 10
-661.8962183960816
 20
32.4505742259683
 30
0.0
 11
-659.9375341879277
 21
31.06591058017426
 31
0.0
  0
LINE
  5
228C
330
1F
100
AcDbEntity
  8
10
  6
DASHED
 62
   171
 48
0.5
100
AcDbLine
 10
-661.6061136878506
 20
32.86057213540818
 30
0.0
 11
-660.0541341879265
 21
31.76351058017417
 31
0.0
  0
LINE
  5
228D
330
1F
100
AcDbEntity
  8
10
  6
DASHED
 62
   171
 48
0.5
100
AcDbLine
 10
-666.4008341879267
 20
26.0843105801742
 30
0.0
 11
-668.3601341879266
 21
27.47051058017411
 31
0.0
  0
LINE
  5
228E
330
1F
100
AcDbEntity
  8
110
  6
DASH_CENTER
 62
    30
100
AcDbLine
 10
-659.6165341879266
 20
28.38891058017407
 30
0.0
 11
-670.1920341879278
 21
35.87061058017417
 31
0.0
  0
LINE
  5
228F
330
1F
100
AcDbEntity
  8
10
  6
DASHED
 62
   171
 48
0.5
100
AcDbLine
 10
-668.5877341879264
 20
29.22341058017429
 30
0.0
 11
-669.9969341879266
 21
30.41701058017407
 31
0.0
  0
LINE
  5
2290
330
1F
100
AcDbEntity
  8
10
  6
DASHED
 62
   171
 48
0.5
100
AcDbLine
 10
-656.8192341879266
 20
35.42831058017418
 30
0.0
 11
-656.9929341879276
 21
34.44341058017426
 31
0.0
  0
LINE
  5
2291
330
1F
100
AcDbEntity
  8
10
  6
DASHED
 62
   171
 48
0.5
100
AcDbLine
 10
-659.9375341879277
 20
31.06591058017426
 30
0.0
 11
-662.2465341879276
 21
27.79981058017416
 31
0.0
  0
LINE
  5
2292
330
1F
100
AcDbEntity
  8
10
  6
DASHED
 62
   171
 48
0.5
100
AcDbLine
 10
-662.9405341879276
 20
27.68071058017426
 30
0.0
 11
-662.2463341879264
 21
27.79961058017426
 31
0.0
  0
LINE
  5
2293
330
1F
100
AcDbEntity
  8
10
  6
DASHED
 62
   171
 48
0.5
100
AcDbLine
 10
-660.0543341879264
 20
31.76371058017418
 30
0.0
 11
-659.9375341879277
 21
31.06591058017426
 31
0.0
  0
LINE
  5
2294
330
1F
100
AcDbEntity
  8
10
  6
DASHED
 62
   171
 48
0.5
100
AcDbLine
 10
-662.9405341879276
 20
27.68071058017426
 30
0.0
 11
-660.0541341879265
 21
31.76351058017417
 31
0.0
  0
LINE
  5
2295
330
1F
100
AcDbEntity
  8
10
  6
DASHED
 62
   171
 48
0.5
100
AcDbLine
 10
-627.2750341879266
 20
30.21881058017431
 30
0.0
 11
-627.4487341879274
 21
29.23391058017415
 31
0.0
  0
ARC
  5
2296
330
1F
100
AcDbEntity
  8
10
  6
DASHED
 62
   171
 48
0.5
100
AcDbCircle
 10
-607.383225231038
 20
42.27931912357331
 30
0.0
 40
5.199961524362543
100
AcDbArc
 50
261.8240006656662
 51
336.5155065609021
  0
CIRCLE
  5
229F
330
1F
100
AcDbEntity
  8
0
 62
     7
100
AcDbCircle
 10
532.2160585711243
 20
93.13624028452975
 30
0.0
 40
1.399999999999999
  0
CIRCLE
  5
22A0
330
1F
100
AcDbEntity
  8
0
 62
     7
100
AcDbCircle
 10
579.2075948107581
 20
93.1362402845305
 30
0.0
 40
1.399999999999999
  0
SPLINE
  5
2469
330
1F
100
AcDbEntity
  8
0
  6
Continuous
 62
     2
100
AcDbSpline
210
0.0
220
0.0
230
1.0
 70
  1064
 71
     3
 72
    19
 73
    15
 74
    13
 42
0.0000000001
 43
0.0000000001
 44
0.00000001
 40
0.0
 40
0.0
 40
0.0
 40
0.0
 40
4.820319278937081
 40
9.813544834038642
 40
11.59187901207645
 40
13.18014963840769
 40
14.69762220315073
 40
16.33162450704279
 40
17.94440735849065
 40
19.5436968265292
 40
21.66510073944357
 40
23.61446178803997
 40
25.4898534960563
 40
28.25724926031241
 40
28.25724926031241
 40
28.25724926031241
 40
28.25724926031241
 10
65.42277225371456
 20
92.95699716826289
 30
0.0
 10
66.64243269424225
 20
94.00119606616021
 30
0.0
 10
69.12550316483678
 20
96.12704957327105
 30
0.0
 10
72.53267806594106
 20
98.09404232984675
 30
0.0
 10
75.16377225151399
 20
98.93215864264053
 30
0.0
 10
76.63467218890642
 20
99.83404781452529
 30
0.0
 10
77.11566143524411
 20
101.4075405701466
 30
0.0
 10
77.5089329057663
 20
102.9459496120121
 30
0.0
 10
78.57917101362386
 20
104.2371314636605
 30
0.0
 10
80.26300874034587
 20
105.0185045304029
 30
0.0
 10
82.16516016731809
 20
104.7792159669096
 30
0.0
 10
84.21378759295924
 20
104.56240362271
 30
0.0
 10
86.10465989039928
 20
105.9979498704038
 30
0.0
 10
86.68964394056489
 20
107.4479803321633
 30
0.0
 10
87.03833153137749
 20
108.3122904458599
 30
0.0
 11
65.42277225371456
 21
92.95699716826289
 31
0.0
 11
69.17859921312988
 21
95.97846069084015
 31
0.0
 11
73.55421805364243
 21
98.38392555628068
 31
0.0
 11
75.21084548554028
 21
99.03049960733419
 31
0.0
 11
76.49380426381873
 21
99.96677966945249
 31
0.0
 11
77.09000146082399
 21
101.3622265088315
 31
0.0
 11
77.62441434465573
 21
102.906365879629
 31
0.0
 11
78.65897042560527
 21
104.143605647037
 31
0.0
 11
80.11175652249724
 21
104.81229044586
 31
0.0
 11
82.23288811959459
 21
104.7783006531799
 31
0.0
 11
84.18195281351051
 21
104.81229044586
 31
0.0
 11
85.72695854670987
 21
105.875329168982
 31
0.0
 11
87.03833153137749
 21
108.3122904458599
 31
0.0
  0
LINE
  5
246A
330
1F
100
AcDbEntity
  8
0
  6
Continuous
 62
     7
100
AcDbLine
 10
80.11175652249722
 20
104.81229044586
 30
0.0
 11
65.42277225371458
 21
104.81229044586
 31
0.0
  0
ENDSEC
  0
SECTION
  2
OBJECTS
  0
DICTIONARY
  5
C
330
0
100
AcDbDictionary
281
     1
  3
ACAD_CIP_PREVIOUS_PRODUCT_INFO
350
270C
  3
ACAD_COLOR
350
ADB
  3
ACAD_GROUP
350
D
  3
ACAD_LAYOUT
350
1A
  3
ACAD_MATERIAL
350
ADA
  3
ACAD_MLEADERSTYLE
350
2709
  3
ACAD_MLINESTYLE
350
17
  3
ACAD_PLOTSETTINGS
350
19
  3
ACAD_PLOTSTYLENAME
350
E
  3
ACAD_SCALELIST
350
26F7
  3
ACAD_TABLESTYLE
350
26F5
  3
ACAD_VISUALSTYLE
350
26DC
  3
ACDB_RECOMPOSE_DATA
350
2724
  3
AcDbVariableDictionary
350
2719
  3
DWGPROPS
350
2725
  0
DICTIONARY
  5
270D
330
10
100
AcDbDictionary
280
     1
281
     1
  3
ADSK_XREC_LAYER_RECONCILED
360
270E
  0
DICTIONARY
  5
270F
330
32
100
AcDbDictionary
280
     1
281
     1
  3
ADSK_XREC_LAYER_RECONCILED
360
2710
  0
DICTIONARY
  5
2711
330
33
100
AcDbDictionary
280
     1
281
     1
  3
ADSK_XREC_LAYER_RECONCILED
360
2712
  0
DICTIONARY
  5
2713
330
34
100
AcDbDictionary
280
     1
281
     1
  3
ADSK_XREC_LAYER_RECONCILED
360
2714
  0
DICTIONARY
  5
2715
330
35
100
AcDbDictionary
280
     1
281
     1
  3
ADSK_XREC_LAYER_RECONCILED
360
2716
  0
DICTIONARY
  5
2717
330
36
100
AcDbDictionary
280
     1
281
     1
  3
ADSK_XREC_LAYER_RECONCILED
360
2718
  0
XRECORD
  5
270C
102
{ACAD_REACTORS
330
C
102
}
330
C
100
AcDbXrecord
280
     1
300
ACDLT
300
2012
300
ACDLT_F_S
  0
DICTIONARY
  5
ADB
102
{ACAD_REACTORS
330
C
102
}
330
C
100
AcDbDictionary
281
     1
  0
DICTIONARY
  5
D
102
{ACAD_REACTORS
330
C
102
}
330
C
100
AcDbDictionary
281
     1
  0
DICTIONARY
  5
1A
102
{ACAD_REACTORS
330
C
102
}
330
C
100
AcDbDictionary
281
     1
  3
Layout1
350
1E
  3
Layout2
350
26
  3
Model
350
22
  0
DICTIONARY
  5
ADA
102
{ACAD_REACTORS
330
C
102
}
330
C
100
AcDbDictionary
281
     1
  3
ByBlock
350
26CC
  3
ByLayer
350
26C4
  3
Global
350
26D4
  0
DICTIONARY
  5
2709
102
{ACAD_REACTORS
330
C
102
}
330
C
100
AcDbDictionary
281
     1
  3
Standard
350
270A
  0
DICTIONARY
  5
17
102
{ACAD_REACTORS
330
C
102
}
330
C
100
AcDbDictionary
281
     1
  3
Standard
350
18
  0
DICTIONARY
  5
19
102
{ACAD_REACTORS
330
C
102
}
330
C
100
AcDbDictionary
281
     1
  0
ACDBDICTIONARYWDFLT
  5
E
102
{ACAD_REACTORS
330
C
102
}
330
C
100
AcDbDictionary
281
     1
  3
Normal
350
F
100
AcDbDictionaryWithDefault
340
F
  0
DICTIONARY
  5
26F7
102
{ACAD_REACTORS
330
C
102
}
330
C
100
AcDbDictionary
281
     1
  3
A0
350
26F8
  3
A1
350
26F9
  3
A2
350
26FA
  3
A3
350
26FB
  3
A4
350
26FC
  3
A5
350
26FD
  3
A6
350
26FE
  3
A7
350
26FF
  3
A8
350
2700
  3
A9
350
2701
  3
B0
350
2702
  3
B1
350
2703
  3
B2
350
2704
  3
B3
350
2705
  3
B4
350
2706
  3
B5
350
2707
  3
B6
350
2708
  0
DICTIONARY
  5
26F5
102
{ACAD_REACTORS
330
C
102
}
330
C
100
AcDbDictionary
281
     1
  3
Standard
350
26F6
  0
DICTIONARY
  5
26DC
102
{ACAD_REACTORS
330
C
102
}
330
C
100
AcDbDictionary
281
     1
  3
2dWireframe
350
26E2
  3
Basic
350
26E1
  3
Brighten
350
26E8
  3
ColorChange
350
26EC
  3
Conceptual
350
26E5
  3
Dim
350
26E7
  3
EdgeColorOff
350
26F4
  3
Facepattern
350
26EB
  3
Flat
350
26DD
  3
FlatWithEdges
350
26DE
  3
Gouraud
350
26DF
  3
GouraudWithEdges
350
26E0
  3
Hidden
350
26E4
  3
JitterOff
350
26F2
  3
Linepattern
350
26EA
  3
OverhangOff
350
26F3
  3
Realistic
350
26E6
  3
Shaded
350
26F1
  3
Shaded with edges
350
26F0
  3
Shades of Gray
350
26ED
  3
Sketchy
350
26EE
  3
Thicken
350
26E9
  3
Wireframe
350
26E3
  3
X-Ray
350
26EF
  0
XRECORD
  5
2724
102
{ACAD_REACTORS
330
C
102
}
330
C
100
AcDbXrecord
280
     1
 90
        1
330
26F6
  0
DICTIONARY
  5
2719
102
{ACAD_REACTORS
330
C
102
}
330
C
100
AcDbDictionary
281
     1
  3
CANNOSCALE
350
271C
  3
CMLEADERSTYLE
350
271B
  3
CTABLESTYLE
350
271A
  3
DIMASSOC
350
2720
  3
INDEXCTL
350
271E
  3
SORTENTS
350
271D
  3
XCLIPFRAME
350
271F
  0
XRECORD
  5
2725
102
{ACAD_REACTORS
330
C
102
}
330
C
100
AcDbXrecord
280
     1
  1
DWGPROPS COOKIE
  2

  3

  4

  6

  7

  8
to.oishi
  9

300
=
301
=
302
=
303
=
304
=
305
=
306
=
307
=
308
=
309
=
 40
0.7485292939814815
 41
2455106.662517535
 42
2458818.413924873
  1

 90
        0
  0
XRECORD
  5
270E
102
{ACAD_REACTORS
330
270D
102
}
330
270D
100
AcDbXrecord
280
     1
290
     1
  0
XRECORD
  5
2710
102
{ACAD_REACTORS
330
270F
102
}
330
270F
100
AcDbXrecord
280
     1
290
     1
  0
XRECORD
  5
2712
102
{ACAD_REACTORS
330
2711
102
}
330
2711
100
AcDbXrecord
280
     1
290
     1
  0
XRECORD
  5
2714
102
{ACAD_REACTORS
330
2713
102
}
330
2713
100
AcDbXrecord
280
     1
290
     1
  0
XRECORD
  5
2716
102
{ACAD_REACTORS
330
2715
102
}
330
2715
100
AcDbXrecord
280
     1
290
     1
  0
XRECORD
  5
2718
102
{ACAD_REACTORS
330
2717
102
}
330
2717
100
AcDbXrecord
280
     1
290
     1
  0
LAYOUT
  5
1E
102
{ACAD_XDICTIONARY
360
2726
102
}
102
{ACAD_REACTORS
330
1A
102
}
330
1A
100
AcDbPlotSettings
  1

  2

  4

  6

 40
0.0
 41
0.0
 42
0.0
 43
0.0
 44
0.0
 45
0.0
 46
0.0
 47
0.0
 48
0.0
 49
0.0
140
0.0
141
0.0
142
1.0
143
1.0
 70
   688
 72
     0
 73
     0
 74
     5
  7
P社図面.ctb
 75
    16
147
1.0
148
0.0
149
0.0
100
AcDbLayout
  1
Layout1
 70
     1
 71
     1
 10
0.0
 20
0.0
 11
12.0
 21
9.0
 12
0.0
 22
0.0
 32
0.0
 14
1.000000000000000E+20
 24
1.000000000000000E+20
 34
1.000000000000000E+20
 15
-1.000000000000000E+20
 25
-1.000000000000000E+20
 35
-1.000000000000000E+20
146
0.0
 13
0.0
 23
0.0
 33
0.0
 16
1.0
 26
0.0
 36
0.0
 17
0.0
 27
1.0
 37
0.0
 76
     0
330
1B
  0
LAYOUT
  5
26
102
{ACAD_XDICTIONARY
360
272A
102
}
102
{ACAD_REACTORS
330
1A
102
}
330
1A
100
AcDbPlotSettings
  1

  2

  4

  6

 40
0.0
 41
0.0
 42
0.0
 43
0.0
 44
0.0
 45
0.0
 46
0.0
 47
0.0
 48
0.0
 49
0.0
140
0.0
141
0.0
142
1.0
143
1.0
 70
   688
 72
     0
 73
     0
 74
     5
  7
P社図面.ctb
 75
    16
147
1.0
148
0.0
149
0.0
100
AcDbLayout
  1
Layout2
 70
     1
 71
     2
 10
0.0
 20
0.0
 11
0.0
 21
0.0
 12
0.0
 22
0.0
 32
0.0
 14
0.0
 24
0.0
 34
0.0
 15
0.0
 25
0.0
 35
0.0
146
0.0
 13
0.0
 23
0.0
 33
0.0
 16
1.0
 26
0.0
 36
0.0
 17
0.0
 27
1.0
 37
0.0
 76
     0
330
23
  0
LAYOUT
  5
22
102
{ACAD_XDICTIONARY
360
2728
102
}
102
{ACAD_REACTORS
330
1A
102
}
330
1A
100
AcDbPlotSettings
  1

  2
Acrobat Distiller
  4
A3
  6

 40
3.174999952316283
 41
3.174999952316283
 42
3.17498779296875
 43
3.17498779296875
 44
297.0318298339844
 45
420.1583251953125
 46
0.0
 47
0.0
 48
-855.9995999999998
 49
-572.0004
140
781.9995999999998
141
571.9996
142
1.0
143
3.958352337929413
 70
 11952
 72
     1
 73
     1
 74
     4
  7
P社図面.ctb
 75
     0
147
0.2526303660282785
148
855.9995999999998
149
572.0004
100
AcDbLayout
  1
Model
 70
     1
 71
     0
 10
0.0
 20
0.0
 11
0.0
 21
0.0
 12
0.0
 22
0.0
 32
0.0
 14
-855.9995999999998
 24
-572.0004
 34
0.0
 15
781.9995999999998
 25
571.9996
 35
0.0
146
0.0
 13
0.0
 23
0.0
 33
0.0
 16
1.0
 26
0.0
 36
0.0
 17
0.0
 27
1.0
 37
0.0
 76
     0
330
1F
331
26BE
  0
MATERIAL
  5
26CC
102
{ACAD_XDICTIONARY
360
26CD
102
}
102
{ACAD_REACTORS
330
ADA
102
}
330
ADA
100
AcDbMaterial
  1
ByBlock
 72
     0
 43
0.0208333333333333
 43
0.0
 43
0.0
 43
0.0
 43
0.0
 43
0.0208333333333333
 43
0.0
 43
0.0
 43
0.0
 43
0.0
 43
1.0
 43
0.0
 43
0.0
 43
0.0
 43
0.0
 43
1.0
 77
     0
 47
0.0208333333333333
 47
0.0
 47
0.0
 47
0.0
 47
0.0
 47
0.0208333333333333
 47
0.0
 47
0.0
 47
0.0
 47
0.0
 47
1.0
 47
0.0
 47
0.0
 47
0.0
 47
0.0
 47
1.0
171
     0
 49
0.0208333333333333
 49
0.0
 49
0.0
 49
0.0
 49
0.0
 49
0.0208333333333333
 49
0.0
 49
0.0
 49
0.0
 49
0.0
 49
1.0
 49
0.0
 49
0.0
 49
0.0
 49
0.0
 49
1.0
175
     0
142
0.0208333333333333
142
0.0
142
0.0
142
0.0
142
0.0
142
0.0208333333333333
142
0.0
142
0.0
142
0.0
142
0.0
142
1.0
142
0.0
142
0.0
142
0.0
142
0.0
142
1.0
179
     0
144
0.0208333333333333
144
0.0
144
0.0
144
0.0
144
0.0
144
0.0208333333333333
144
0.0
144
0.0
144
0.0
144
0.0
144
1.0
144
0.0
144
0.0
144
0.0
144
0.0
144
1.0
147
0.0208333333333333
147
0.0
147
0.0
147
0.0
147
0.0
147
0.0208333333333333
147
0.0
147
0.0
147
0.0
147
0.0
147
1.0
147
0.0
147
0.0
147
0.0
147
0.0
147
1.0
  0
MATERIAL
  5
26C4
102
{ACAD_XDICTIONARY
360
26C5
102
}
102
{ACAD_REACTORS
330
ADA
102
}
330
ADA
100
AcDbMaterial
  1
ByLayer
 72
     0
 43
0.0208333333333333
 43
0.0
 43
0.0
 43
0.0
 43
0.0
 43
0.0208333333333333
 43
0.0
 43
0.0
 43
0.0
 43
0.0
 43
1.0
 43
0.0
 43
0.0
 43
0.0
 43
0.0
 43
1.0
 77
     0
 47
0.0208333333333333
 47
0.0
 47
0.0
 47
0.0
 47
0.0
 47
0.0208333333333333
 47
0.0
 47
0.0
 47
0.0
 47
0.0
 47
1.0
 47
0.0
 47
0.0
 47
0.0
 47
0.0
 47
1.0
171
     0
 49
0.0208333333333333
 49
0.0
 49
0.0
 49
0.0
 49
0.0
 49
0.0208333333333333
 49
0.0
 49
0.0
 49
0.0
 49
0.0
 49
1.0
 49
0.0
 49
0.0
 49
0.0
 49
0.0
 49
1.0
175
     0
142
0.0208333333333333
142
0.0
142
0.0
142
0.0
142
0.0
142
0.0208333333333333
142
0.0
142
0.0
142
0.0
142
0.0
142
1.0
142
0.0
142
0.0
142
0.0
142
0.0
142
1.0
179
     0
144
0.0208333333333333
144
0.0
144
0.0
144
0.0
144
0.0
144
0.0208333333333333
144
0.0
144
0.0
144
0.0
144
0.0
144
1.0
144
0.0
144
0.0
144
0.0
144
0.0
144
1.0
147
0.0208333333333333
147
0.0
147
0.0
147
0.0
147
0.0
147
0.0208333333333333
147
0.0
147
0.0
147
0.0
147
0.0
147
1.0
147
0.0
147
0.0
147
0.0
147
0.0
147
1.0
  0
MATERIAL
  5
26D4
102
{ACAD_XDICTIONARY
360
26D5
102
}
102
{ACAD_REACTORS
330
ADA
102
}
330
ADA
100
AcDbMaterial
  1
Global
 72
     0
 43
0.0208333333333333
 43
0.0
 43
0.0
 43
0.0
 43
0.0
 43
0.0208333333333333
 43
0.0
 43
0.0
 43
0.0
 43
0.0
 43
1.0
 43
0.0
 43
0.0
 43
0.0
 43
0.0
 43
1.0
 77
     0
 47
0.0208333333333333
 47
0.0
 47
0.0
 47
0.0
 47
0.0
 47
0.0208333333333333
 47
0.0
 47
0.0
 47
0.0
 47
0.0
 47
1.0
 47
0.0
 47
0.0
 47
0.0
 47
0.0
 47
1.0
171
     0
 49
0.0208333333333333
 49
0.0
 49
0.0
 49
0.0
 49
0.0
 49
0.0208333333333333
 49
0.0
 49
0.0
 49
0.0
 49
0.0
 49
1.0
 49
0.0
 49
0.0
 49
0.0
 49
0.0
 49
1.0
175
     0
142
0.0208333333333333
142
0.0
142
0.0
142
0.0
142
0.0
142
0.0208333333333333
142
0.0
142
0.0
142
0.0
142
0.0
142
1.0
142
0.0
142
0.0
142
0.0
142
0.0
142
1.0
179
     0
144
0.0208333333333333
144
0.0
144
0.0
144
0.0
144
0.0
144
0.0208333333333333
144
0.0
144
0.0
144
0.0
144
0.0
144
1.0
144
0.0
144
0.0
144
0.0
144
0.0
144
1.0
147
0.0208333333333333
147
0.0
147
0.0
147
0.0
147
0.0
147
0.0208333333333333
147
0.0
147
0.0
147
0.0
147
0.0
147
1.0
147
0.0
147
0.0
147
0.0
147
0.0
147
1.0
  0
MLEADERSTYLE
  5
270A
102
{ACAD_REACTORS
330
2709
102
}
330
2709
100
AcDbMLeaderStyle
170
     2
171
     1
172
     0
 90
        2
 40
0.0
 41
0.0
173
     1
 91
-1056964608
340
14
 92
       -2
290
     1
 42
2.0
291
     1
 43
0.36
  3
Standard
 44
4.0
300

342
11
174
     1
178
     6
175
     1
176
     0
 93
-1056964608
 45
4.0
292
     0
297
     0
 46
4.0
 94
-1056964608
 47
1.0
 49
1.0
140
1.0
293
     1
141
0.0
294
     1
177
     0
142
1.0
295
     0
296
     0
143
0.125
1001
ACAD_MLEADERVER
1070
     2
  0
MLINESTYLE
  5
18
102
{ACAD_REACTORS
330
17
102
}
330
17
100
AcDbMlineStyle
  2
STANDARD
 70
     0
  3

 62
   256
 51
90.0
 52
90.0
 71
     2
 49
0.5
 62
   256
  6
BYLAYER
 49
-0.5
 62
   256
  6
BYLAYER
  0
ACDBPLACEHOLDER
  5
F
102
{ACAD_REACTORS
330
E
102
}
330
E
  0
SCALE
  5
26F8
102
{ACAD_REACTORS
330
26F7
102
}
330
26F7
100
AcDbScale
 70
     0
300
1:1
140
1.0
141
1.0
290
     1
  0
SCALE
  5
26F9
102
{ACAD_REACTORS
330
26F7
102
}
330
26F7
100
AcDbScale
 70
     0
300
1:2
140
1.0
141
2.0
290
     0
  0
SCALE
  5
26FA
102
{ACAD_REACTORS
330
26F7
102
}
330
26F7
100
AcDbScale
 70
     0
300
1:4
140
1.0
141
4.0
290
     0
  0
SCALE
  5
26FB
102
{ACAD_REACTORS
330
26F7
102
}
330
26F7
100
AcDbScale
 70
     0
300
1:5
140
1.0
141
5.0
290
     0
  0
SCALE
  5
26FC
102
{ACAD_REACTORS
330
26F7
102
}
330
26F7
100
AcDbScale
 70
     0
300
1:8
140
1.0
141
8.0
290
     0
  0
SCALE
  5
26FD
102
{ACAD_REACTORS
330
26F7
102
}
330
26F7
100
AcDbScale
 70
     0
300
1:10
140
1.0
141
10.0
290
     0
  0
SCALE
  5
26FE
102
{ACAD_REACTORS
330
26F7
102
}
330
26F7
100
AcDbScale
 70
     0
300
1:16
140
1.0
141
16.0
290
     0
  0
SCALE
  5
26FF
102
{ACAD_REACTORS
330
26F7
102
}
330
26F7
100
AcDbScale
 70
     0
300
1:20
140
1.0
141
20.0
290
     0
  0
SCALE
  5
2700
102
{ACAD_REACTORS
330
26F7
102
}
330
26F7
100
AcDbScale
 70
     0
300
1:30
140
1.0
141
30.0
290
     0
  0
SCALE
  5
2701
102
{ACAD_REACTORS
330
26F7
102
}
330
26F7
100
AcDbScale
 70
     0
300
1:40
140
1.0
141
40.0
290
     0
  0
SCALE
  5
2702
102
{ACAD_REACTORS
330
26F7
102
}
330
26F7
100
AcDbScale
 70
     0
300
1:50
140
1.0
141
50.0
290
     0
  0
SCALE
  5
2703
102
{ACAD_REACTORS
330
26F7
102
}
330
26F7
100
AcDbScale
 70
     0
300
1:100
140
1.0
141
100.0
290
     0
  0
SCALE
  5
2704
102
{ACAD_REACTORS
330
26F7
102
}
330
26F7
100
AcDbScale
 70
     0
300
2:1
140
2.0
141
1.0
290
     0
  0
SCALE
  5
2705
102
{ACAD_REACTORS
330
26F7
102
}
330
26F7
100
AcDbScale
 70
     0
300
4:1
140
4.0
141
1.0
290
     0
  0
SCALE
  5
2706
102
{ACAD_REACTORS
330
26F7
102
}
330
26F7
100
AcDbScale
 70
     0
300
8:1
140
8.0
141
1.0
290
     0
  0
SCALE
  5
2707
102
{ACAD_REACTORS
330
26F7
102
}
330
26F7
100
AcDbScale
 70
     0
300
10:1
140
10.0
141
1.0
290
     0
  0
SCALE
  5
2708
102
{ACAD_REACTORS
330
26F7
102
}
330
26F7
100
AcDbScale
 70
     0
300
100:1
140
100.0
141
1.0
290
     0
  0
TABLESTYLE
  5
26F6
102
{ACAD_XDICTIONARY
360
2722
102
}
102
{ACAD_REACTORS
330
26F5
102
}
330
26F5
100
AcDbTableStyle
  3
Standard
 70
     0
 71
     0
 40
1.5
 41
1.5
280
     0
281
     0
  7
Standard
140
4.5
170
     2
 62
     0
 63
     7
283
     0
274
    -2
284
     1
 64
     0
275
    -2
285
     1
 65
     0
276
    -2
286
     1
 66
     0
277
    -2
287
     1
 67
     0
278
    -2
288
     1
 68
     0
279
    -2
289
     1
 69
     0
  7
Standard
140
6.0
170
     5
 62
     0
 63
     7
283
     0
274
    -2
284
     1
 64
     0
275
    -2
285
     1
 65
     0
276
    -2
286
     1
 66
     0
277
    -2
287
     1
 67
     0
278
    -2
288
     1
 68
     0
279
    -2
289
     1
 69
     0
  7
Standard
140
4.5
170
     5
 62
     0
 63
     7
283
     0
274
    -2
284
     1
 64
     0
275
    -2
285
     1
 65
     0
276
    -2
286
     1
 66
     0
277
    -2
287
     1
 67
     0
278
    -2
288
     1
 68
     0
279
    -2
289
     1
 69
     0
  0
VISUALSTYLE
  5
26E2
102
{ACAD_XDICTIONARY
360
2739
102
}
102
{ACAD_REACTORS
330
26DC
102
}
330
26DC
100
AcDbVisualStyle
  2
2dWireframe
 70
     4
 71
     0
 72
     2
 73
     0
 90
        0
 40
-0.6
 41
-30.0
 62
     5
 63
     7
 74
     1
 91
        4
 64
     7
 65
   257
 75
     1
175
     1
 42
1.0
 92
        0
 66
   257
 43
1.0
 76
     1
 77
     6
 78
     2
 67
     7
 79
     5
170
     0
171
     0
290
     0
174
     0
 93
        1
 44
0.0
173
     0
291
     0
 45
0.0
1001
ACAD
1000
AcDbSavedByObjectVersion
1070
     0
  0
VISUALSTYLE
  5
26E1
102
{ACAD_XDICTIONARY
360
2737
102
}
102
{ACAD_REACTORS
330
26DC
102
}
330
26DC
100
AcDbVisualStyle
  2
Basic
 70
     7
 71
     1
 72
     0
 73
     1
 90
        0
 40
-0.6
 41
-30.0
 62
     5
 63
     7
 74
     0
 91
        4
 64
     7
 65
   257
 75
     1
175
     1
 42
1.0
 92
        8
 66
     7
 43
1.0
 76
     1
 77
     6
 78
     2
 67
     7
 79
     5
170
     0
171
     0
290
     0
174
     0
 93
        1
 44
0.0
173
     0
291
     1
 45
0.0
1001
ACAD
1000
AcDbSavedByObjectVersion
1070
     0
  0
VISUALSTYLE
  5
26E8
102
{ACAD_XDICTIONARY
360
2745
102
}
102
{ACAD_REACTORS
330
26DC
102
}
330
26DC
100
AcDbVisualStyle
  2
Brighten
 70
    12
 71
     2
 72
     2
 73
     0
 90
        0
 40
-0.6
 41
-30.0
 62
     5
 63
     7
 74
     1
 91
        4
 64
     7
 65
   257
 75
     1
175
     1
 42
1.0
 92
        8
 66
     7
 43
1.0
 76
     1
 77
     6
 78
     2
 67
     7
 79
     5
170
     0
171
     0
290
     0
174
     0
 93
        1
 44
50.0
173
     0
291
     1
 45
0.0
1001
ACAD
1000
AcDbSavedByObjectVersion
1070
     0
  0
VISUALSTYLE
  5
26EC
102
{ACAD_XDICTIONARY
360
274D
102
}
102
{ACAD_REACTORS
330
26DC
102
}
330
26DC
100
AcDbVisualStyle
  2
ColorChange
 70
    16
 71
     2
 72
     2
 73
     3
 90
        0
 40
-0.6
 41
-30.0
 62
     5
 63
     8
 74
     1
 91
        4
 64
     7
 65
   257
 75
     1
175
     1
 42
1.0
 92
        8
 66
     8
 43
1.0
 76
     1
 77
     6
 78
     2
 67
     7
 79
     5
170
     0
171
     0
290
     0
174
     0
 93
        1
 44
0.0
173
     0
291
     1
 45
0.0
1001
ACAD
1000
AcDbSavedByObjectVersion
1070
     0
  0
VISUALSTYLE
  5
26E5
102
{ACAD_XDICTIONARY
360
273F
102
}
102
{ACAD_REACTORS
330
26DC
102
}
330
26DC
100
AcDbVisualStyle
  2
Conceptual
 70
     9
 71
     3
 72
     2
 73
     0
 90
        0
 40
-0.6
 41
-30.0
 62
     5
 63
     7
 74
     2
 91
        2
 64
     7
 65
   257
 75
     1
175
     1
 42
179.0
 92
        8
 66
     7
 43
1.0
 76
     1
 77
     6
 78
     2
 67
     7
 79
     3
170
     0
171
     0
290
     0
174
     0
 93
        1
 44
0.0
173
     0
291
     0
 45
0.0
1001
ACAD
1000
AcDbSavedByObjectVersion
1070
     0
  0
VISUALSTYLE
  5
26E7
102
{ACAD_XDICTIONARY
360
2743
102
}
102
{ACAD_REACTORS
330
26DC
102
}
330
26DC
100
AcDbVisualStyle
  2
Dim
 70
    11
 71
     2
 72
     2
 73
     0
 90
        0
 40
-0.6
 41
-30.0
 62
     5
 63
     7
 74
     1
 91
        4
 64
     7
 65
   257
 75
     1
175
     1
 42
1.0
 92
        8
 66
     7
 43
1.0
 76
     1
 77
     6
 78
     2
 67
     7
 79
     5
170
     0
171
     0
290
     0
174
     0
 93
        1
 44
-50.0
173
     0
291
     1
 45
0.0
1001
ACAD
1000
AcDbSavedByObjectVersion
1070
     0
  0
VISUALSTYLE
  5
26F4
102
{ACAD_XDICTIONARY
360
275D
102
}
102
{ACAD_REACTORS
330
26DC
102
}
330
26DC
100
AcDbVisualStyle
  2
EdgeColorOff
 70
    22
 71
     2
 72
     2
 73
     0
 90
        0
 40
-0.6
 41
-30.0
 62
     5
 63
     7
 74
     1
 91
        4
 64
     7
 65
   257
 75
     1
175
     1
 42
1.0
 92
        8
 66
     7
 43
1.0
 76
     1
 77
     6
 78
     2
 67
     7
 79
     5
170
     0
171
     0
290
     0
174
     0
 93
        1
 44
0.0
173
     0
291
     1
 45
0.0
1001
ACAD
1000
AcDbSavedByObjectVersion
1070
     0
  0
VISUALSTYLE
  5
26EB
102
{ACAD_XDICTIONARY
360
274B
102
}
102
{ACAD_REACTORS
330
26DC
102
}
330
26DC
100
AcDbVisualStyle
  2
Facepattern
 70
    15
 71
     2
 72
     2
 73
     0
 90
        0
 40
-0.6
 41
-30.0
 62
     5
 63
     7
 74
     1
 91
        4
 64
     7
 65
   257
 75
     1
175
     1
 42
1.0
 92
        8
 66
     7
 43
1.0
 76
     1
 77
     6
 78
     2
 67
     7
 79
     5
170
     0
171
     0
290
     0
174
     0
 93
        1
 44
0.0
173
     0
291
     1
 45
0.0
1001
ACAD
1000
AcDbSavedByObjectVersion
1070
     0
  0
VISUALSTYLE
  5
26DD
102
{ACAD_XDICTIONARY
360
272F
102
}
102
{ACAD_REACTORS
330
26DC
102
}
330
26DC
100
AcDbVisualStyle
  2
Flat
 70
     0
 71
     2
 72
     1
 73
     1
 90
        2
 40
-0.6
 41
30.0
 62
     5
 63
     7
 74
     0
 91
        0
 64
     7
 65
   257
 75
     1
175
     1
 42
1.0
 92
        8
 66
     7
 43
1.0
 76
     1
 77
     6
 78
     2
 67
     7
 79
     5
170
     0
171
     0
290
     0
174
     0
 93
       13
 44
0.0
173
     0
291
     1
 45
0.0
1001
ACAD
1000
AcDbSavedByObjectVersion
1070
     0
  0
VISUALSTYLE
  5
26DE
102
{ACAD_XDICTIONARY
360
2731
102
}
102
{ACAD_REACTORS
330
26DC
102
}
330
26DC
100
AcDbVisualStyle
  2
FlatWithEdges
 70
     1
 71
     2
 72
     1
 73
     1
 90
        2
 40
-0.6
 41
30.0
 62
     5
 63
     7
 74
     1
 91
        0
 64
     7
 65
   257
 75
     1
175
     1
 42
1.0
 92
        0
 66
   257
 43
1.0
 76
     1
 77
     6
 78
     2
 67
     7
 79
     5
170
     0
171
     0
290
     0
174
     0
 93
       13
 44
0.0
173
     0
291
     1
 45
0.0
1001
ACAD
1000
AcDbSavedByObjectVersion
1070
     0
  0
VISUALSTYLE
  5
26DF
102
{ACAD_XDICTIONARY
360
2733
102
}
102
{ACAD_REACTORS
330
26DC
102
}
330
26DC
100
AcDbVisualStyle
  2
Gouraud
 70
     2
 71
     2
 72
     2
 73
     1
 90
        2
 40
-0.6
 41
30.0
 62
     5
 63
     7
 74
     0
 91
        0
 64
     7
 65
   257
 75
     1
175
     1
 42
1.0
 92
        0
 66
     7
 43
1.0
 76
     1
 77
     6
 78
     2
 67
     7
 79
     5
170
     0
171
     0
290
     0
174
     0
 93
       13
 44
0.0
173
     0
291
     1
 45
0.0
1001
ACAD
1000
AcDbSavedByObjectVersion
1070
     0
  0
VISUALSTYLE
  5
26E0
102
{ACAD_XDICTIONARY
360
2735
102
}
102
{ACAD_REACTORS
330
26DC
102
}
330
26DC
100
AcDbVisualStyle
  2
GouraudWithEdges
 70
     3
 71
     2
 72
     2
 73
     1
 90
        2
 40
-0.6
 41
30.0
 62
     5
 63
     7
 74
     1
 91
        0
 64
     7
 65
   257
 75
     1
175
     1
 42
1.0
 92
        0
 66
   257
 43
1.0
 76
     1
 77
     6
 78
     2
 67
     7
 79
     5
170
     0
171
     0
290
     0
174
     0
 93
       13
 44
0.0
173
     0
291
     1
 45
0.0
1001
ACAD
1000
AcDbSavedByObjectVersion
1070
     0
  0
VISUALSTYLE
  5
26E4
102
{ACAD_XDICTIONARY
360
273D
102
}
102
{ACAD_REACTORS
330
26DC
102
}
330
26DC
100
AcDbVisualStyle
  2
Hidden
 70
     6
 71
     1
 72
     2
 73
     2
 90
        0
 40
-0.6
 41
-30.0
 62
     5
 63
     7
 74
     2
 91
        2
 64
     7
 65
   257
 75
     2
175
     1
 42
40.0
 92
        0
 66
   257
 43
1.0
 76
     1
 77
     6
 78
     2
 67
     7
 79
     3
170
     0
171
     0
290
     0
174
     0
 93
        1
 44
0.0
173
     0
291
     0
 45
0.0
1001
ACAD
1000
AcDbSavedByObjectVersion
1070
     0
  0
VISUALSTYLE
  5
26F2
102
{ACAD_XDICTIONARY
360
2759
102
}
102
{ACAD_REACTORS
330
26DC
102
}
330
26DC
100
AcDbVisualStyle
  2
JitterOff
 70
    20
 71
     2
 72
     2
 73
     0
 90
        0
 40
-0.6
 41
-30.0
 62
     5
 63
     7
 74
     1
 91
        4
 64
     7
 65
   257
 75
     1
175
     1
 42
1.0
 92
       10
 66
     7
 43
1.0
 76
     1
 77
     6
 78
     2
 67
     7
 79
     5
170
     0
171
     0
290
     0
174
     0
 93
        1
 44
0.0
173
     0
291
     1
 45
0.0
1001
ACAD
1000
AcDbSavedByObjectVersion
1070
     0
  0
VISUALSTYLE
  5
26EA
102
{ACAD_XDICTIONARY
360
2749
102
}
102
{ACAD_REACTORS
330
26DC
102
}
330
26DC
100
AcDbVisualStyle
  2
Linepattern
 70
    14
 71
     2
 72
     2
 73
     0
 90
        0
 40
-0.6
 41
-30.0
 62
     5
 63
     7
 74
     1
 91
        4
 64
     7
 65
   257
 75
     7
175
     7
 42
1.0
 92
        8
 66
     7
 43
1.0
 76
     1
 77
     6
 78
     2
 67
     7
 79
     5
170
     0
171
     0
290
     0
174
     0
 93
        1
 44
0.0
173
     0
291
     1
 45
0.0
1001
ACAD
1000
AcDbSavedByObjectVersion
1070
     0
  0
VISUALSTYLE
  5
26F3
102
{ACAD_XDICTIONARY
360
275B
102
}
102
{ACAD_REACTORS
330
26DC
102
}
330
26DC
100
AcDbVisualStyle
  2
OverhangOff
 70
    21
 71
     2
 72
     2
 73
     0
 90
        0
 40
-0.6
 41
-30.0
 62
     5
 63
     7
 74
     1
 91
        4
 64
     7
 65
   257
 75
     1
175
     1
 42
1.0
 92
        9
 66
     7
 43
1.0
 76
     1
 77
     6
 78
     2
 67
     7
 79
     5
170
     0
171
     0
290
     0
174
     0
 93
        1
 44
0.0
173
     0
291
     1
 45
0.0
1001
ACAD
1000
AcDbSavedByObjectVersion
1070
     0
  0
VISUALSTYLE
  5
26E6
102
{ACAD_XDICTIONARY
360
2741
102
}
102
{ACAD_REACTORS
330
26DC
102
}
330
26DC
100
AcDbVisualStyle
  2
Realistic
 70
     8
 71
     2
 72
     3
 73
     0
 90
        2
 40
-0.6
 41
30.0
 62
     5
 63
     7
 74
     0
 91
        0
 64
     7
 65
   257
 75
     1
175
     1
 42
1.0
 92
        8
 66
   257
 43
1.0
 76
     1
 77
     6
 78
     2
 67
     7
 79
     3
170
     0
171
     0
290
     0
174
     0
 93
       13
 44
0.0
173
     0
291
     0
 45
0.0
1001
ACAD
1000
AcDbSavedByObjectVersion
1070
     0
  0
VISUALSTYLE
  5
26F1
102
{ACAD_XDICTIONARY
360
2757
102
}
102
{ACAD_REACTORS
330
26DC
102
}
330
26DC
100
AcDbVisualStyle
  2
Shaded
 70
    27
 71
     2
 72
     2
 73
     1
 90
        2
 40
-0.6
 41
30.0
 62
     5
 63
     7
 74
     0
 91
        4
 64
     7
 65
   257
 75
     1
175
     1
 42
1.0
 92
        8
 66
   257
 43
1.0
 76
     1
 77
     6
 78
     2
 67
     8
 79
     3
170
     0
171
     0
290
     0
174
     0
 93
        5
 44
0.0
173
     0
291
     0
 45
0.0
1001
ACAD
1000
AcDbSavedByObjectVersion
1070
     0
  0
VISUALSTYLE
  5
26F0
102
{ACAD_XDICTIONARY
360
2755
102
}
102
{ACAD_REACTORS
330
26DC
102
}
330
26DC
100
AcDbVisualStyle
  2
Shaded with edges
 70
    26
 71
     2
 72
     2
 73
     1
 90
        2
 40
-0.6
 41
30.0
 62
     5
 63
     7
 74
     1
 91
       10
 64
     7
 65
   257
 75
     2
175
     1
 42
1.0
 92
        8
 66
   257
 43
1.0
 76
     1
 77
     6
 78
     2
 67
     7
 79
     3
170
     0
171
     0
290
     0
174
     0
 93
        5
 44
0.0
173
     0
291
     0
 45
0.0
1001
ACAD
1000
AcDbSavedByObjectVersion
1070
     0
  0
VISUALSTYLE
  5
26ED
102
{ACAD_XDICTIONARY
360
274F
102
}
102
{ACAD_REACTORS
330
26DC
102
}
330
26DC
100
AcDbVisualStyle
  2
Shades of Gray
 70
    23
 71
     2
 72
     2
 73
     3
 90
        0
 40
-0.6
 41
-30.0
 62
     5
 63
     7
 74
     2
 91
        2
 64
     7
 65
     7
 75
     1
175
     1
 42
40.0
 92
        8
 66
     7
 43
1.0
 76
     1
 77
     6
 78
     2
 67
     7
 79
     3
170
     0
171
     0
290
     0
174
     0
 93
        1
 44
0.0
173
     0
291
     0
 45
0.0
1001
ACAD
1000
AcDbSavedByObjectVersion
1070
     0
  0
VISUALSTYLE
  5
26EE
102
{ACAD_XDICTIONARY
360
2751
102
}
102
{ACAD_REACTORS
330
26DC
102
}
330
26DC
100
AcDbVisualStyle
  2
Sketchy
 70
    24
 71
     1
 72
     2
 73
     2
 90
        0
 40
-0.6
 41
-30.0
 62
     5
 63
     7
 74
     2
 91
        2
 64
     7
 65
     7
 75
     1
175
     1
 42
40.0
 92
       11
 66
     7
 43
1.0
 76
     1
 77
     6
 78
     2
 67
     7
 79
     6
170
     0
171
     0
290
     0
174
     0
 93
        1
 44
0.0
173
     0
291
     0
 45
0.0
1001
ACAD
1000
AcDbSavedByObjectVersion
1070
     0
  0
VISUALSTYLE
  5
26E9
102
{ACAD_XDICTIONARY
360
2747
102
}
102
{ACAD_REACTORS
330
26DC
102
}
330
26DC
100
AcDbVisualStyle
  2
Thicken
 70
    13
 71
     2
 72
     2
 73
     0
 90
        0
 40
-0.6
 41
-30.0
 62
     5
 63
     7
 74
     1
 91
        4
 64
     7
 65
   257
 75
     1
175
     1
 42
1.0
 92
       12
 66
     7
 43
1.0
 76
     1
 77
     6
 78
     2
 67
     7
 79
     5
170
     0
171
     0
290
     0
174
     0
 93
        1
 44
0.0
173
     0
291
     1
 45
0.0
1001
ACAD
1000
AcDbSavedByObjectVersion
1070
     0
  0
VISUALSTYLE
  5
26E3
102
{ACAD_XDICTIONARY
360
273B
102
}
102
{ACAD_REACTORS
330
26DC
102
}
330
26DC
100
AcDbVisualStyle
  2
Wireframe
 70
     5
 71
     0
 72
     2
 73
     0
 90
        0
 40
-0.6
 41
-30.0
 62
     5
 63
     7
 74
     1
 91
        4
 64
     7
 65
   257
 75
     1
175
     1
 42
1.0
 92
        0
 66
   257
 43
1.0
 76
     1
 77
     6
 78
     2
 67
     7
 79
     3
170
     0
171
     0
290
     0
174
     0
 93
        1
 44
0.0
173
     0
291
     0
 45
0.0
1001
ACAD
1000
AcDbSavedByObjectVersion
1070
     0
  0
VISUALSTYLE
  5
26EF
102
{ACAD_XDICTIONARY
360
2753
102
}
102
{ACAD_REACTORS
330
26DC
102
}
330
26DC
100
AcDbVisualStyle
  2
X-Ray
 70
    25
 71
     2
 72
     2
 73
     1
 90
        1
 40
0.5
 41
-30.0
 62
     5
 63
     7
 74
     1
 91
        0
 64
     7
 65
   257
 75
     1
175
     1
 42
1.0
 92
        8
 66
     7
 43
1.0
 76
     1
 77
     6
 78
     2
 67
     7
 79
     3
170
     0
171
     0
290
     0
174
     0
 93
       13
 44
0.0
173
     0
291
     0
 45
0.0
1001
ACAD
1000
AcDbSavedByObjectVersion
1070
     0
  0
DICTIONARYVAR
  5
271C
102
{ACAD_REACTORS
330
2719
102
}
330
2719
100
DictionaryVariables
280
     0
  1
1:1
  0
DICTIONARYVAR
  5
271B
102
{ACAD_REACTORS
330
2719
102
}
330
2719
100
DictionaryVariables
280
     0
  1
STANDARD
  0
DICTIONARYVAR
  5
271A
102
{ACAD_REACTORS
330
2719
102
}
330
2719
100
DictionaryVariables
280
     0
  1
STANDARD
  0
DICTIONARYVAR
  5
2720
102
{ACAD_REACTORS
330
2719
102
}
330
2719
100
DictionaryVariables
280
     0
  1
1
  0
DICTIONARYVAR
  5
271E
102
{ACAD_REACTORS
330
2719
102
}
330
2719
100
DictionaryVariables
280
     0
  1
0
  0
DICTIONARYVAR
  5
271D
102
{ACAD_REACTORS
330
2719
102
}
330
2719
100
DictionaryVariables
280
     0
  1
127
  0
DICTIONARYVAR
  5
271F
102
{ACAD_REACTORS
330
2719
102
}
330
2719
100
DictionaryVariables
280
     0
  1
0
  0
DICTIONARY
  5
2726
330
1E
100
AcDbDictionary
280
     1
281
     1
  3
ACAD_XREC_ROUNDTRIP
360
2727
  0
DICTIONARY
  5
272A
330
26
100
AcDbDictionary
280
     1
281
     1
  3
ACAD_XREC_ROUNDTRIP
360
272B
  0
DICTIONARY
  5
2728
330
22
100
AcDbDictionary
280
     1
281
     1
  3
ACAD_XREC_ROUNDTRIP
360
2729
  0
DICTIONARY
  5
26CD
330
26CC
100
AcDbDictionary
280
     1
281
     1
  3
ACAD_XREC_ROUNDTRIP
360
272D
  3
BUMPTILE
360
26CF
  3
DIFFUSETILE
360
26CE
  3
OPACITYTILE
360
26D2
  3
REFLECTIONTILE
360
26D1
  3
REFRACTIONTILE
360
26D3
  3
SPECULARTILE
360
26D0
  0
DICTIONARY
  5
26C5
330
26C4
100
AcDbDictionary
280
     1
281
     1
  3
ACAD_XREC_ROUNDTRIP
360
272C
  3
BUMPTILE
360
26C7
  3
DIFFUSETILE
360
26C6
  3
OPACITYTILE
360
26CA
  3
REFLECTIONTILE
360
26C9
  3
REFRACTIONTILE
360
26CB
  3
SPECULARTILE
360
26C8
  0
DICTIONARY
  5
26D5
330
26D4
100
AcDbDictionary
280
     1
281
     1
  3
ACAD_XREC_ROUNDTRIP
360
272E
  3
BUMPTILE
360
26D7
  3
DIFFUSETILE
360
26D6
  3
OPACITYTILE
360
26DA
  3
REFLECTIONTILE
360
26D9
  3
REFRACTIONTILE
360
26DB
  3
SPECULARTILE
360
26D8
  0
DICTIONARY
  5
2722
330
26F6
100
AcDbDictionary
280
     1
281
     1
  3
ACAD_ROUNDTRIP_2008_TABLESTYLE_CELLSTYLEMAP
360
2723
  3
ACAD_XREC_ROUNDTRIP
360
275F
  0
DICTIONARY
  5
2739
330
26E2
100
AcDbDictionary
280
     1
281
     1
  3
ACAD_XREC_ROUNDTRIP
360
273A
  0
DICTIONARY
  5
2737
330
26E1
100
AcDbDictionary
280
     1
281
     1
  3
ACAD_XREC_ROUNDTRIP
360
2738
  0
DICTIONARY
  5
2745
330
26E8
100
AcDbDictionary
280
     1
281
     1
  3
ACAD_XREC_ROUNDTRIP
360
2746
  0
DICTIONARY
  5
274D
330
26EC
100
AcDbDictionary
280
     1
281
     1
  3
ACAD_XREC_ROUNDTRIP
360
274E
  0
DICTIONARY
  5
273F
330
26E5
100
AcDbDictionary
280
     1
281
     1
  3
ACAD_XREC_ROUNDTRIP
360
2740
  0
DICTIONARY
  5
2743
330
26E7
100
AcDbDictionary
280
     1
281
     1
  3
ACAD_XREC_ROUNDTRIP
360
2744
  0
DICTIONARY
  5
275D
330
26F4
100
AcDbDictionary
280
     1
281
     1
  3
ACAD_XREC_ROUNDTRIP
360
275E
  0
DICTIONARY
  5
274B
330
26EB
100
AcDbDictionary
280
     1
281
     1
  3
ACAD_XREC_ROUNDTRIP
360
274C
  0
DICTIONARY
  5
272F
330
26DD
100
AcDbDictionary
280
     1
281
     1
  3
ACAD_XREC_ROUNDTRIP
360
2730
  0
DICTIONARY
  5
2731
330
26DE
100
AcDbDictionary
280
     1
281
     1
  3
ACAD_XREC_ROUNDTRIP
360
2732
  0
DICTIONARY
  5
2733
330
26DF
100
AcDbDictionary
280
     1
281
     1
  3
ACAD_XREC_ROUNDTRIP
360
2734
  0
DICTIONARY
  5
2735
330
26E0
100
AcDbDictionary
280
     1
281
     1
  3
ACAD_XREC_ROUNDTRIP
360
2736
  0
DICTIONARY
  5
273D
330
26E4
100
AcDbDictionary
280
     1
281
     1
  3
ACAD_XREC_ROUNDTRIP
360
273E
  0
DICTIONARY
  5
2759
330
26F2
100
AcDbDictionary
280
     1
281
     1
  3
ACAD_XREC_ROUNDTRIP
360
275A
  0
DICTIONARY
  5
2749
330
26EA
100
AcDbDictionary
280
     1
281
     1
  3
ACAD_XREC_ROUNDTRIP
360
274A
  0
DICTIONARY
  5
275B
330
26F3
100
AcDbDictionary
280
     1
281
     1
  3
ACAD_XREC_ROUNDTRIP
360
275C
  0
DICTIONARY
  5
2741
330
26E6
100
AcDbDictionary
280
     1
281
     1
  3
ACAD_XREC_ROUNDTRIP
360
2742
  0
DICTIONARY
  5
2757
330
26F1
100
AcDbDictionary
280
     1
281
     1
  3
ACAD_XREC_ROUNDTRIP
360
2758
  0
DICTIONARY
  5
2755
330
26F0
100
AcDbDictionary
280
     1
281
     1
  3
ACAD_XREC_ROUNDTRIP
360
2756
  0
DICTIONARY
  5
274F
330
26ED
100
AcDbDictionary
280
     1
281
     1
  3
ACAD_XREC_ROUNDTRIP
360
2750
  0
DICTIONARY
  5
2751
330
26EE
100
AcDbDictionary
280
     1
281
     1
  3
ACAD_XREC_ROUNDTRIP
360
2752
  0
DICTIONARY
  5
2747
330
26E9
100
AcDbDictionary
280
     1
281
     1
  3
ACAD_XREC_ROUNDTRIP
360
2748
  0
DICTIONARY
  5
273B
330
26E3
100
AcDbDictionary
280
     1
281
     1
  3
ACAD_XREC_ROUNDTRIP
360
273C
  0
DICTIONARY
  5
2753
330
26EF
100
AcDbDictionary
280
     1
281
     1
  3
ACAD_XREC_ROUNDTRIP
360
2754
  0
XRECORD
  5
2727
102
{ACAD_REACTORS
330
2726
102
}
330
2726
100
AcDbXrecord
280
     1
102
SHADEPLOT
 70
     0
102
SHADEPLOTRESLEVEL
 70
     2
102
SHADEPLOTCUSTOMDPI
 70
   300
  0
XRECORD
  5
272B
102
{ACAD_REACTORS
330
272A
102
}
330
272A
100
AcDbXrecord
280
     1
102
SHADEPLOT
 70
     0
102
SHADEPLOTRESLEVEL
 70
     2
102
SHADEPLOTCUSTOMDPI
 70
   300
  0
XRECORD
  5
2729
102
{ACAD_REACTORS
330
2728
102
}
330
2728
100
AcDbXrecord
280
     1
102
SHADEPLOT
 70
     0
102
SHADEPLOTRESLEVEL
 70
     2
102
SHADEPLOTCUSTOMDPI
 70
   300
  0
XRECORD
  5
272D
102
{ACAD_REACTORS
330
26CD
102
}
330
26CD
100
AcDbXrecord
280
     1
102
MATERIAL
148
0.0
149
0.0
149
0.0
 93
        0
 94
      127
282
     0
 72
     0
 77
     0
171
     0
175
     0
179
     0
273
     0
  0
XRECORD
  5
26CF
102
{ACAD_REACTORS
330
26CD
102
}
330
26CD
100
AcDbXrecord
280
     1
270
     1
271
     1
  0
XRECORD
  5
26CE
102
{ACAD_REACTORS
330
26CD
102
}
330
26CD
100
AcDbXrecord
280
     1
270
     1
271
     1
  0
XRECORD
  5
26D2
102
{ACAD_REACTORS
330
26CD
102
}
330
26CD
100
AcDbXrecord
280
     1
270
     1
271
     1
  0
XRECORD
  5
26D1
102
{ACAD_REACTORS
330
26CD
102
}
330
26CD
100
AcDbXrecord
280
     1
270
     1
271
     1
  0
XRECORD
  5
26D3
102
{ACAD_REACTORS
330
26CD
102
}
330
26CD
100
AcDbXrecord
280
     1
270
     1
271
     1
  0
XRECORD
  5
26D0
102
{ACAD_REACTORS
330
26CD
102
}
330
26CD
100
AcDbXrecord
280
     1
270
     1
271
     1
  0
XRECORD
  5
272C
102
{ACAD_REACTORS
330
26C5
102
}
330
26C5
100
AcDbXrecord
280
     1
102
MATERIAL
148
0.0
149
0.0
149
0.0
 93
        0
 94
      127
282
     0
 72
     0
 77
     0
171
     0
175
     0
179
     0
273
     0
  0
XRECORD
  5
26C7
102
{ACAD_REACTORS
330
26C5
102
}
330
26C5
100
AcDbXrecord
280
     1
270
     1
271
     1
  0
XRECORD
  5
26C6
102
{ACAD_REACTORS
330
26C5
102
}
330
26C5
100
AcDbXrecord
280
     1
270
     1
271
     1
  0
XRECORD
  5
26CA
102
{ACAD_REACTORS
330
26C5
102
}
330
26C5
100
AcDbXrecord
280
     1
270
     1
271
     1
  0
XRECORD
  5
26C9
102
{ACAD_REACTORS
330
26C5
102
}
330
26C5
100
AcDbXrecord
280
     1
270
     1
271
     1
  0
XRECORD
  5
26CB
102
{ACAD_REACTORS
330
26C5
102
}
330
26C5
100
AcDbXrecord
280
     1
270
     1
271
     1
  0
XRECORD
  5
26C8
102
{ACAD_REACTORS
330
26C5
102
}
330
26C5
100
AcDbXrecord
280
     1
270
     1
271
     1
  0
XRECORD
  5
272E
102
{ACAD_REACTORS
330
26D5
102
}
330
26D5
100
AcDbXrecord
280
     1
102
MATERIAL
148
0.0
149
0.0
149
0.0
 93
        0
 94
      127
282
     0
 72
     0
 77
     0
171
     0
175
     0
179
     0
273
     0
  0
XRECORD
  5
26D7
102
{ACAD_REACTORS
330
26D5
102
}
330
26D5
100
AcDbXrecord
280
     1
270
     1
271
     1
  0
XRECORD
  5
26D6
102
{ACAD_REACTORS
330
26D5
102
}
330
26D5
100
AcDbXrecord
280
     1
270
     1
271
     1
  0
XRECORD
  5
26DA
102
{ACAD_REACTORS
330
26D5
102
}
330
26D5
100
AcDbXrecord
280
     1
270
     1
271
     1
  0
XRECORD
  5
26D9
102
{ACAD_REACTORS
330
26D5
102
}
330
26D5
100
AcDbXrecord
280
     1
270
     1
271
     1
  0
XRECORD
  5
26DB
102
{ACAD_REACTORS
330
26D5
102
}
330
26D5
100
AcDbXrecord
280
     1
270
     1
271
     1
  0
XRECORD
  5
26D8
102
{ACAD_REACTORS
330
26D5
102
}
330
26D5
100
AcDbXrecord
280
     1
270
     1
271
     1
  0
CELLSTYLEMAP
  5
2723
102
{ACAD_REACTORS
330
2722
102
}
330
2722
100
AcDbCellStyleMap
 90
        3
300
CELLSTYLE
  1
TABLEFORMAT_BEGIN
 90
        5
170
     1
 91
        0
 92
    32768
 62
   257
 93
        1
300
CONTENTFORMAT
  1
CONTENTFORMAT_BEGIN
 90
        0
 91
        0
 92
      512
 93
        0
300

 40
0.0
140
1.0
 94
        5
 62
     0
340
11
144
6.0
309
CONTENTFORMAT_END
171
     1
301
MARGIN
  1
CELLMARGIN_BEGIN
 40
1.5
 40
1.5
 40
1.5
 40
1.5
 40
4.5
 40
4.5
309
CELLMARGIN_END
 94
        6
 95
        1
302
GRIDFORMAT
  1
GRIDFORMAT_BEGIN
 90
        0
 91
        1
 62
     0
 92
       -2
340
0
 93
        0
 40
1.125
309
GRIDFORMAT_END
 95
        2
302
GRIDFORMAT
  1
GRIDFORMAT_BEGIN
 90
        0
 91
        1
 62
     0
 92
       -2
340
0
 93
        0
 40
1.125
309
GRIDFORMAT_END
 95
        4
302
GRIDFORMAT
  1
GRIDFORMAT_BEGIN
 90
        0
 91
        1
 62
     0
 92
       -2
340
0
 93
        0
 40
1.125
309
GRIDFORMAT_END
 95
        8
302
GRIDFORMAT
  1
GRIDFORMAT_BEGIN
 90
        0
 91
        1
 62
     0
 92
       -2
340
0
 93
        0
 40
1.125
309
GRIDFORMAT_END
 95
       16
302
GRIDFORMAT
  1
GRIDFORMAT_BEGIN
 90
        0
 91
        1
 62
     0
 92
       -2
340
0
 93
        0
 40
1.125
309
GRIDFORMAT_END
 95
       32
302
GRIDFORMAT
  1
GRIDFORMAT_BEGIN
 90
        0
 91
        1
 62
     0
 92
       -2
340
0
 93
        0
 40
1.125
309
GRIDFORMAT_END
309
TABLEFORMAT_END
  1
CELLSTYLE_BEGIN
 90
        1
 91
        1
300
_TITLE
309
CELLSTYLE_END
300
CELLSTYLE
  1
TABLEFORMAT_BEGIN
 90
        5
170
     1
 91
        0
 92
        0
 62
   257
 93
        1
300
CONTENTFORMAT
  1
CONTENTFORMAT_BEGIN
 90
        0
 91
        0
 92
      512
 93
        0
300

 40
0.0
140
1.0
 94
        5
 62
     0
340
11
144
4.5
309
CONTENTFORMAT_END
171
     1
301
MARGIN
  1
CELLMARGIN_BEGIN
 40
1.5
 40
1.5
 40
1.5
 40
1.5
 40
4.5
 40
4.5
309
CELLMARGIN_END
 94
        6
 95
        1
302
GRIDFORMAT
  1
GRIDFORMAT_BEGIN
 90
        0
 91
        1
 62
     0
 92
       -2
340
0
 93
        0
 40
1.125
309
GRIDFORMAT_END
 95
        2
302
GRIDFORMAT
  1
GRIDFORMAT_BEGIN
 90
        0
 91
        1
 62
     0
 92
       -2
340
0
 93
        0
 40
1.125
309
GRIDFORMAT_END
 95
        4
302
GRIDFORMAT
  1
GRIDFORMAT_BEGIN
 90
        0
 91
        1
 62
     0
 92
       -2
340
0
 93
        0
 40
1.125
309
GRIDFORMAT_END
 95
        8
302
GRIDFORMAT
  1
GRIDFORMAT_BEGIN
 90
        0
 91
        1
 62
     0
 92
       -2
340
0
 93
        0
 40
1.125
309
GRIDFORMAT_END
 95
       16
302
GRIDFORMAT
  1
GRIDFORMAT_BEGIN
 90
        0
 91
        1
 62
     0
 92
       -2
340
0
 93
        0
 40
1.125
309
GRIDFORMAT_END
 95
       32
302
GRIDFORMAT
  1
GRIDFORMAT_BEGIN
 90
        0
 91
        1
 62
     0
 92
       -2
340
0
 93
        0
 40
1.125
309
GRIDFORMAT_END
309
TABLEFORMAT_END
  1
CELLSTYLE_BEGIN
 90
        2
 91
        1
300
_HEADER
309
CELLSTYLE_END
300
CELLSTYLE
  1
TABLEFORMAT_BEGIN
 90
        5
170
     1
 91
        0
 92
        0
 62
   257
 93
        1
300
CONTENTFORMAT
  1
CONTENTFORMAT_BEGIN
 90
        0
 91
        0
 92
      512
 93
        0
300

 40
0.0
140
1.0
 94
        2
 62
     0
340
11
144
4.5
309
CONTENTFORMAT_END
171
     1
301
MARGIN
  1
CELLMARGIN_BEGIN
 40
1.5
 40
1.5
 40
1.5
 40
1.5
 40
4.5
 40
4.5
309
CELLMARGIN_END
 94
        6
 95
        1
302
GRIDFORMAT
  1
GRIDFORMAT_BEGIN
 90
        0
 91
        1
 62
     0
 92
       -2
340
0
 93
        0
 40
1.125
309
GRIDFORMAT_END
 95
        2
302
GRIDFORMAT
  1
GRIDFORMAT_BEGIN
 90
        0
 91
        1
 62
     0
 92
       -2
340
0
 93
        0
 40
1.125
309
GRIDFORMAT_END
 95
        4
302
GRIDFORMAT
  1
GRIDFORMAT_BEGIN
 90
        0
 91
        1
 62
     0
 92
       -2
340
0
 93
        0
 40
1.125
309
GRIDFORMAT_END
 95
        8
302
GRIDFORMAT
  1
GRIDFORMAT_BEGIN
 90
        0
 91
        1
 62
     0
 92
       -2
340
0
 93
        0
 40
1.125
309
GRIDFORMAT_END
 95
       16
302
GRIDFORMAT
  1
GRIDFORMAT_BEGIN
 90
        0
 91
        1
 62
     0
 92
       -2
340
0
 93
        0
 40
1.125
309
GRIDFORMAT_END
 95
       32
302
GRIDFORMAT
  1
GRIDFORMAT_BEGIN
 90
        0
 91
        1
 62
     0
 92
       -2
340
0
 93
        0
 40
1.125
309
GRIDFORMAT_END
309
TABLEFORMAT_END
  1
CELLSTYLE_BEGIN
 90
        3
 91
        2
300
_DATA
309
CELLSTYLE_END
  0
XRECORD
  5
275F
102
{ACAD_REACTORS
330
2722
102
}
330
2722
100
AcDbXrecord
280
     1
102
ACAD_ROUNDTRIP_PRE2007_TABLESTYLE
 90
      512
 91
        0
  1

 92
      512
 93
        0
  2

 94
      512
 95
        0
  3

  0
XRECORD
  5
273A
102
{ACAD_REACTORS
330
2739
102
}
330
2739
100
AcDbXrecord
280
     1
102
RTVSPropertyOp0
 70
     1
102
RTVSPropertyOp1
 70
     1
102
RTVSPropertyOp2
 70
     1
102
RTVSPropertyOp3
 70
     1
102
RTVSPropertyOp4
 70
     1
102
RTVSPropertyOp5
 70
     1
102
RTVSPropertyOp6
 70
     1
102
RTVSPropertyOp7
 70
     1
102
RTVSPropertyOp8
 70
     1
102
RTVSPropertyOp9
 70
     1
102
RTVSPropertyOp10
 70
     1
102
RTVSPropertyOp11
 70
     1
102
RTVSPropertyOp12
 70
     1
102
RTVSPropertyOp13
 70
     1
102
RTVSPropertyOp14
 70
     1
102
RTVSPropertyOp15
 70
     1
102
RTVSPropertyOp16
 70
     1
102
RTVSPropertyOp17
 70
     1
102
RTVSPropertyOp18
 70
     1
102
RTVSPropertyOp19
 70
     1
102
RTVSPropertyOp20
 70
     1
102
RTVSPropertyOp21
 70
     1
102
RTVSPropertyOp22
 70
     1
102
RTVSPropertyOp23
 70
     1
102
RTVSPropertyOp24
 70
     1
102
RTVSPropertyOp25
 70
     1
102
RTVSPropertyOp26
 70
     1
102
RTVSPropertyOp27
 70
     1
102
RTVSPropertyOp28
 70
     1
102
RTVSPropertyOp29
 70
     1
102
RTVSPropertyOp30
 70
     1
102
RTVSPropertyOp31
 70
     1
102
RTVSPropertyOp32
 70
     1
  0
XRECORD
  5
2738
102
{ACAD_REACTORS
330
2737
102
}
330
2737
100
AcDbXrecord
280
     1
102
RTVSPropertyOp0
 70
     1
102
RTVSPropertyOp1
 70
     1
102
RTVSPropertyOp2
 70
     1
102
RTVSPropertyOp3
 70
     1
102
RTVSPropertyOp4
 70
     1
102
RTVSPropertyOp5
 70
     1
102
RTVSPropertyOp6
 70
     1
102
RTVSPropertyOp7
 70
     1
102
RTVSPropertyOp8
 70
     1
102
RTVSPropertyOp9
 70
     1
102
RTVSPropertyOp10
 70
     1
102
RTVSPropertyOp11
 70
     1
102
RTVSPropertyOp12
 70
     1
102
RTVSPropertyOp13
 70
     1
102
RTVSPropertyOp14
 70
     1
102
RTVSPropertyOp15
 70
     1
102
RTVSPropertyOp16
 70
     1
102
RTVSPropertyOp17
 70
     1
102
RTVSPropertyOp18
 70
     1
102
RTVSPropertyOp19
 70
     1
102
RTVSPropertyOp20
 70
     1
102
RTVSPropertyOp21
 70
     1
102
RTVSPropertyOp22
 70
     1
102
RTVSPropertyOp23
 70
     1
102
RTVSPropertyOp24
 70
     1
102
RTVSPropertyOp25
 70
     1
102
RTVSPropertyOp26
 70
     1
102
RTVSPropertyOp27
 70
     1
102
RTVSPropertyOp28
 70
     1
102
RTVSPropertyOp29
 70
     1
102
RTVSPropertyOp30
 70
     1
102
RTVSPropertyOp31
 70
     1
102
RTVSPropertyOp32
 70
     1
  0
XRECORD
  5
2746
102
{ACAD_REACTORS
330
2745
102
}
330
2745
100
AcDbXrecord
280
     1
102
RTVSPropertyOp0
 70
     1
102
RTVSPropertyOp1
 70
     1
102
RTVSPropertyOp2
 70
     1
102
RTVSPropertyOp3
 70
     1
102
RTVSPropertyOp4
 70
     1
102
RTVSPropertyOp5
 70
     1
102
RTVSPropertyOp6
 70
     1
102
RTVSPropertyOp7
 70
     1
102
RTVSPropertyOp8
 70
     1
102
RTVSPropertyOp9
 70
     1
102
RTVSPropertyOp10
 70
     1
102
RTVSPropertyOp11
 70
     1
102
RTVSPropertyOp12
 70
     1
102
RTVSPropertyOp13
 70
     1
102
RTVSPropertyOp14
 70
     1
102
RTVSPropertyOp15
 70
     1
102
RTVSPropertyOp16
 70
     1
102
RTVSPropertyOp17
 70
     1
102
RTVSPropertyOp18
 70
     1
102
RTVSPropertyOp19
 70
     1
102
RTVSPropertyOp20
 70
     1
102
RTVSPropertyOp21
 70
     1
102
RTVSPropertyOp22
 70
     1
102
RTVSPropertyOp23
 70
     1
102
RTVSPropertyOp24
 70
     1
102
RTVSPropertyOp25
 70
     1
102
RTVSPropertyOp26
 70
     1
102
RTVSPropertyOp27
 70
     1
102
RTVSPropertyOp28
 70
     1
102
RTVSPropertyOp29
 70
     1
102
RTVSPropertyOp30
 70
     1
102
RTVSPropertyOp31
 70
     1
102
RTVSPropertyOp32
 70
     1
  0
XRECORD
  5
274E
102
{ACAD_REACTORS
330
274D
102
}
330
274D
100
AcDbXrecord
280
     1
102
RTVSPropertyOp0
 70
     1
102
RTVSPropertyOp1
 70
     1
102
RTVSPropertyOp2
 70
     1
102
RTVSPropertyOp3
 70
     1
102
RTVSPropertyOp4
 70
     1
102
RTVSPropertyOp5
 70
     1
102
RTVSPropertyOp6
 70
     1
102
RTVSPropertyOp7
 70
     1
102
RTVSPropertyOp8
 70
     1
102
RTVSPropertyOp9
 70
     1
102
RTVSPropertyOp10
 70
     1
102
RTVSPropertyOp11
 70
     1
102
RTVSPropertyOp12
 70
     1
102
RTVSPropertyOp13
 70
     1
102
RTVSPropertyOp14
 70
     1
102
RTVSPropertyOp15
 70
     1
102
RTVSPropertyOp16
 70
     1
102
RTVSPropertyOp17
 70
     1
102
RTVSPropertyOp18
 70
     1
102
RTVSPropertyOp19
 70
     1
102
RTVSPropertyOp20
 70
     1
102
RTVSPropertyOp21
 70
     1
102
RTVSPropertyOp22
 70
     1
102
RTVSPropertyOp23
 70
     1
102
RTVSPropertyOp24
 70
     1
102
RTVSPropertyOp25
 70
     1
102
RTVSPropertyOp26
 70
     1
102
RTVSPropertyOp27
 70
     1
102
RTVSPropertyOp28
 70
     1
102
RTVSPropertyOp29
 70
     1
102
RTVSPropertyOp30
 70
     1
102
RTVSPropertyOp31
 70
     1
102
RTVSPropertyOp32
 70
     1
  0
XRECORD
  5
2740
102
{ACAD_REACTORS
330
273F
102
}
330
273F
100
AcDbXrecord
280
     1
102
RTVSPropertyOp0
 70
     1
102
RTVSPropertyOp1
 70
     1
102
RTVSPropertyOp2
 70
     1
102
RTVSPropertyOp3
 70
     1
102
RTVSPropertyOp4
 70
     1
102
RTVSPropertyOp5
 70
     1
102
RTVSPropertyOp6
 70
     1
102
RTVSPropertyOp7
 70
     1
102
RTVSPropertyOp8
 70
     1
102
RTVSPropertyOp9
 70
     1
102
RTVSPropertyOp10
 70
     1
102
RTVSPropertyOp11
 70
     1
102
RTVSPropertyOp12
 70
     1
102
RTVSPropertyOp13
 70
     1
102
RTVSPropertyOp14
 70
     1
102
RTVSPropertyOp15
 70
     1
102
RTVSPropertyOp16
 70
     1
102
RTVSPropertyOp17
 70
     1
102
RTVSPropertyOp18
 70
     1
102
RTVSPropertyOp19
 70
     1
102
RTVSPropertyOp20
 70
     1
102
RTVSPropertyOp21
 70
     1
102
RTVSPropertyOp22
 70
     1
102
RTVSPropertyOp23
 70
     1
102
RTVSPropertyOp24
 70
     1
102
RTVSPropertyOp25
 70
     1
102
RTVSPropertyOp26
 70
     1
102
RTVSPropertyOp27
 70
     1
102
RTVSPropertyOp28
 70
     1
102
RTVSPropertyOp29
 70
     1
102
RTVSPropertyOp30
 70
     1
102
RTVSPropertyOp31
 70
     1
102
RTVSPropertyOp32
 70
     1
  0
XRECORD
  5
2744
102
{ACAD_REACTORS
330
2743
102
}
330
2743
100
AcDbXrecord
280
     1
102
RTVSPropertyOp0
 70
     1
102
RTVSPropertyOp1
 70
     1
102
RTVSPropertyOp2
 70
     1
102
RTVSPropertyOp3
 70
     1
102
RTVSPropertyOp4
 70
     1
102
RTVSPropertyOp5
 70
     1
102
RTVSPropertyOp6
 70
     1
102
RTVSPropertyOp7
 70
     1
102
RTVSPropertyOp8
 70
     1
102
RTVSPropertyOp9
 70
     1
102
RTVSPropertyOp10
 70
     1
102
RTVSPropertyOp11
 70
     1
102
RTVSPropertyOp12
 70
     1
102
RTVSPropertyOp13
 70
     1
102
RTVSPropertyOp14
 70
     1
102
RTVSPropertyOp15
 70
     1
102
RTVSPropertyOp16
 70
     1
102
RTVSPropertyOp17
 70
     1
102
RTVSPropertyOp18
 70
     1
102
RTVSPropertyOp19
 70
     1
102
RTVSPropertyOp20
 70
     1
102
RTVSPropertyOp21
 70
     1
102
RTVSPropertyOp22
 70
     1
102
RTVSPropertyOp23
 70
     1
102
RTVSPropertyOp24
 70
     1
102
RTVSPropertyOp25
 70
     1
102
RTVSPropertyOp26
 70
     1
102
RTVSPropertyOp27
 70
     1
102
RTVSPropertyOp28
 70
     1
102
RTVSPropertyOp29
 70
     1
102
RTVSPropertyOp30
 70
     1
102
RTVSPropertyOp31
 70
     1
102
RTVSPropertyOp32
 70
     1
  0
XRECORD
  5
275E
102
{ACAD_REACTORS
330
275D
102
}
330
275D
100
AcDbXrecord
280
     1
102
RTVSPropertyOp0
 70
     0
102
RTVSPropertyOp1
 70
     0
102
RTVSPropertyOp2
 70
     0
102
RTVSPropertyOp3
 70
     0
102
RTVSPropertyOp4
 70
     0
102
RTVSPropertyOp5
 70
     0
102
RTVSPropertyOp6
 70
     0
102
RTVSPropertyOp7
 70
     0
102
RTVSPropertyOp8
 70
     0
102
RTVSPropertyOp9
 70
     0
102
RTVSPropertyOp10
 70
     0
102
RTVSPropertyOp11
 70
     0
102
RTVSPropertyOp12
 70
     0
102
RTVSPropertyOp13
 70
     0
102
RTVSPropertyOp14
 70
     2
102
RTVSPropertyOp15
 70
     0
102
RTVSPropertyOp16
 70
     0
102
RTVSPropertyOp17
 70
     0
102
RTVSPropertyOp18
 70
     0
102
RTVSPropertyOp19
 70
     0
102
RTVSPropertyOp20
 70
     0
102
RTVSPropertyOp21
 70
     0
102
RTVSPropertyOp22
 70
     0
102
RTVSPropertyOp23
 70
     0
102
RTVSPropertyOp24
 70
     0
102
RTVSPropertyOp25
 70
     0
102
RTVSPropertyOp26
 70
     0
102
RTVSPropertyOp27
 70
     0
102
RTVSPropertyOp28
 70
     0
102
RTVSPropertyOp29
 70
     0
102
RTVSPropertyOp30
 70
     0
102
RTVSPropertyOp31
 70
     0
102
RTVSPropertyOp32
 70
     0
  0
XRECORD
  5
274C
102
{ACAD_REACTORS
330
274B
102
}
330
274B
100
AcDbXrecord
280
     1
102
RTVSPropertyOp0
 70
     1
102
RTVSPropertyOp1
 70
     1
102
RTVSPropertyOp2
 70
     1
102
RTVSPropertyOp3
 70
     1
102
RTVSPropertyOp4
 70
     1
102
RTVSPropertyOp5
 70
     1
102
RTVSPropertyOp6
 70
     1
102
RTVSPropertyOp7
 70
     1
102
RTVSPropertyOp8
 70
     1
102
RTVSPropertyOp9
 70
     1
102
RTVSPropertyOp10
 70
     1
102
RTVSPropertyOp11
 70
     1
102
RTVSPropertyOp12
 70
     1
102
RTVSPropertyOp13
 70
     1
102
RTVSPropertyOp14
 70
     1
102
RTVSPropertyOp15
 70
     1
102
RTVSPropertyOp16
 70
     1
102
RTVSPropertyOp17
 70
     1
102
RTVSPropertyOp18
 70
     1
102
RTVSPropertyOp19
 70
     1
102
RTVSPropertyOp20
 70
     1
102
RTVSPropertyOp21
 70
     1
102
RTVSPropertyOp22
 70
     1
102
RTVSPropertyOp23
 70
     1
102
RTVSPropertyOp24
 70
     1
102
RTVSPropertyOp25
 70
     1
102
RTVSPropertyOp26
 70
     1
102
RTVSPropertyOp27
 70
     1
102
RTVSPropertyOp28
 70
     1
102
RTVSPropertyOp29
 70
     1
102
RTVSPropertyOp30
 70
     1
102
RTVSPropertyOp31
 70
     1
102
RTVSPropertyOp32
 70
     1
  0
XRECORD
  5
2730
102
{ACAD_REACTORS
330
272F
102
}
330
272F
100
AcDbXrecord
280
     1
102
RTVSPropertyOp0
 70
     1
102
RTVSPropertyOp1
 70
     1
102
RTVSPropertyOp2
 70
     1
102
RTVSPropertyOp3
 70
     1
102
RTVSPropertyOp4
 70
     1
102
RTVSPropertyOp5
 70
     1
102
RTVSPropertyOp6
 70
     1
102
RTVSPropertyOp7
 70
     1
102
RTVSPropertyOp8
 70
     1
102
RTVSPropertyOp9
 70
     1
102
RTVSPropertyOp10
 70
     1
102
RTVSPropertyOp11
 70
     1
102
RTVSPropertyOp12
 70
     1
102
RTVSPropertyOp13
 70
     1
102
RTVSPropertyOp14
 70
     1
102
RTVSPropertyOp15
 70
     1
102
RTVSPropertyOp16
 70
     1
102
RTVSPropertyOp17
 70
     1
102
RTVSPropertyOp18
 70
     1
102
RTVSPropertyOp19
 70
     1
102
RTVSPropertyOp20
 70
     1
102
RTVSPropertyOp21
 70
     1
102
RTVSPropertyOp22
 70
     1
102
RTVSPropertyOp23
 70
     1
102
RTVSPropertyOp24
 70
     1
102
RTVSPropertyOp25
 70
     1
102
RTVSPropertyOp26
 70
     1
102
RTVSPropertyOp27
 70
     1
102
RTVSPropertyOp28
 70
     1
102
RTVSPropertyOp29
 70
     1
102
RTVSPropertyOp30
 70
     1
102
RTVSPropertyOp31
 70
     1
102
RTVSPropertyOp32
 70
     1
  0
XRECORD
  5
2732
102
{ACAD_REACTORS
330
2731
102
}
330
2731
100
AcDbXrecord
280
     1
102
RTVSPropertyOp0
 70
     1
102
RTVSPropertyOp1
 70
     1
102
RTVSPropertyOp2
 70
     1
102
RTVSPropertyOp3
 70
     1
102
RTVSPropertyOp4
 70
     1
102
RTVSPropertyOp5
 70
     1
102
RTVSPropertyOp6
 70
     1
102
RTVSPropertyOp7
 70
     1
102
RTVSPropertyOp8
 70
     1
102
RTVSPropertyOp9
 70
     1
102
RTVSPropertyOp10
 70
     1
102
RTVSPropertyOp11
 70
     1
102
RTVSPropertyOp12
 70
     1
102
RTVSPropertyOp13
 70
     1
102
RTVSPropertyOp14
 70
     1
102
RTVSPropertyOp15
 70
     1
102
RTVSPropertyOp16
 70
     1
102
RTVSPropertyOp17
 70
     1
102
RTVSPropertyOp18
 70
     1
102
RTVSPropertyOp19
 70
     1
102
RTVSPropertyOp20
 70
     1
102
RTVSPropertyOp21
 70
     1
102
RTVSPropertyOp22
 70
     1
102
RTVSPropertyOp23
 70
     1
102
RTVSPropertyOp24
 70
     1
102
RTVSPropertyOp25
 70
     1
102
RTVSPropertyOp26
 70
     1
102
RTVSPropertyOp27
 70
     1
102
RTVSPropertyOp28
 70
     1
102
RTVSPropertyOp29
 70
     1
102
RTVSPropertyOp30
 70
     1
102
RTVSPropertyOp31
 70
     1
102
RTVSPropertyOp32
 70
     1
  0
XRECORD
  5
2734
102
{ACAD_REACTORS
330
2733
102
}
330
2733
100
AcDbXrecord
280
     1
102
RTVSPropertyOp0
 70
     1
102
RTVSPropertyOp1
 70
     1
102
RTVSPropertyOp2
 70
     1
102
RTVSPropertyOp3
 70
     1
102
RTVSPropertyOp4
 70
     1
102
RTVSPropertyOp5
 70
     1
102
RTVSPropertyOp6
 70
     1
102
RTVSPropertyOp7
 70
     1
102
RTVSPropertyOp8
 70
     1
102
RTVSPropertyOp9
 70
     1
102
RTVSPropertyOp10
 70
     1
102
RTVSPropertyOp11
 70
     1
102
RTVSPropertyOp12
 70
     1
102
RTVSPropertyOp13
 70
     1
102
RTVSPropertyOp14
 70
     1
102
RTVSPropertyOp15
 70
     1
102
RTVSPropertyOp16
 70
     1
102
RTVSPropertyOp17
 70
     1
102
RTVSPropertyOp18
 70
     1
102
RTVSPropertyOp19
 70
     1
102
RTVSPropertyOp20
 70
     1
102
RTVSPropertyOp21
 70
     1
102
RTVSPropertyOp22
 70
     1
102
RTVSPropertyOp23
 70
     1
102
RTVSPropertyOp24
 70
     1
102
RTVSPropertyOp25
 70
     1
102
RTVSPropertyOp26
 70
     1
102
RTVSPropertyOp27
 70
     1
102
RTVSPropertyOp28
 70
     1
102
RTVSPropertyOp29
 70
     1
102
RTVSPropertyOp30
 70
     1
102
RTVSPropertyOp31
 70
     1
102
RTVSPropertyOp32
 70
     1
  0
XRECORD
  5
2736
102
{ACAD_REACTORS
330
2735
102
}
330
2735
100
AcDbXrecord
280
     1
102
RTVSPropertyOp0
 70
     1
102
RTVSPropertyOp1
 70
     1
102
RTVSPropertyOp2
 70
     1
102
RTVSPropertyOp3
 70
     1
102
RTVSPropertyOp4
 70
     1
102
RTVSPropertyOp5
 70
     1
102
RTVSPropertyOp6
 70
     1
102
RTVSPropertyOp7
 70
     1
102
RTVSPropertyOp8
 70
     1
102
RTVSPropertyOp9
 70
     1
102
RTVSPropertyOp10
 70
     1
102
RTVSPropertyOp11
 70
     1
102
RTVSPropertyOp12
 70
     1
102
RTVSPropertyOp13
 70
     1
102
RTVSPropertyOp14
 70
     1
102
RTVSPropertyOp15
 70
     1
102
RTVSPropertyOp16
 70
     1
102
RTVSPropertyOp17
 70
     1
102
RTVSPropertyOp18
 70
     1
102
RTVSPropertyOp19
 70
     1
102
RTVSPropertyOp20
 70
     1
102
RTVSPropertyOp21
 70
     1
102
RTVSPropertyOp22
 70
     1
102
RTVSPropertyOp23
 70
     1
102
RTVSPropertyOp24
 70
     1
102
RTVSPropertyOp25
 70
     1
102
RTVSPropertyOp26
 70
     1
102
RTVSPropertyOp27
 70
     1
102
RTVSPropertyOp28
 70
     1
102
RTVSPropertyOp29
 70
     1
102
RTVSPropertyOp30
 70
     1
102
RTVSPropertyOp31
 70
     1
102
RTVSPropertyOp32
 70
     1
  0
XRECORD
  5
273E
102
{ACAD_REACTORS
330
273D
102
}
330
273D
100
AcDbXrecord
280
     1
102
RTVSPropertyOp0
 70
     1
102
RTVSPropertyOp1
 70
     1
102
RTVSPropertyOp2
 70
     1
102
RTVSPropertyOp3
 70
     1
102
RTVSPropertyOp4
 70
     1
102
RTVSPropertyOp5
 70
     1
102
RTVSPropertyOp6
 70
     1
102
RTVSPropertyOp7
 70
     1
102
RTVSPropertyOp8
 70
     1
102
RTVSPropertyOp9
 70
     1
102
RTVSPropertyOp10
 70
     1
102
RTVSPropertyOp11
 70
     1
102
RTVSPropertyOp12
 70
     1
102
RTVSPropertyOp13
 70
     1
102
RTVSPropertyOp14
 70
     1
102
RTVSPropertyOp15
 70
     1
102
RTVSPropertyOp16
 70
     1
102
RTVSPropertyOp17
 70
     1
102
RTVSPropertyOp18
 70
     1
102
RTVSPropertyOp19
 70
     1
102
RTVSPropertyOp20
 70
     1
102
RTVSPropertyOp21
 70
     1
102
RTVSPropertyOp22
 70
     1
102
RTVSPropertyOp23
 70
     1
102
RTVSPropertyOp24
 70
     1
102
RTVSPropertyOp25
 70
     1
102
RTVSPropertyOp26
 70
     1
102
RTVSPropertyOp27
 70
     1
102
RTVSPropertyOp28
 70
     1
102
RTVSPropertyOp29
 70
     1
102
RTVSPropertyOp30
 70
     1
102
RTVSPropertyOp31
 70
     1
102
RTVSPropertyOp32
 70
     1
  0
XRECORD
  5
275A
102
{ACAD_REACTORS
330
2759
102
}
330
2759
100
AcDbXrecord
280
     1
102
RTVSPropertyOp0
 70
     0
102
RTVSPropertyOp1
 70
     0
102
RTVSPropertyOp2
 70
     0
102
RTVSPropertyOp3
 70
     0
102
RTVSPropertyOp4
 70
     0
102
RTVSPropertyOp5
 70
     0
102
RTVSPropertyOp6
 70
     0
102
RTVSPropertyOp7
 70
     0
102
RTVSPropertyOp8
 70
     0
102
RTVSPropertyOp9
 70
     0
102
RTVSPropertyOp10
 70
     0
102
RTVSPropertyOp11
 70
     0
102
RTVSPropertyOp12
 70
     0
102
RTVSPropertyOp13
 70
     0
102
RTVSPropertyOp14
 70
     2
102
RTVSPropertyOp15
 70
     0
102
RTVSPropertyOp16
 70
     0
102
RTVSPropertyOp17
 70
     0
102
RTVSPropertyOp18
 70
     0
102
RTVSPropertyOp19
 70
     0
102
RTVSPropertyOp20
 70
     0
102
RTVSPropertyOp21
 70
     0
102
RTVSPropertyOp22
 70
     0
102
RTVSPropertyOp23
 70
     0
102
RTVSPropertyOp24
 70
     0
102
RTVSPropertyOp25
 70
     0
102
RTVSPropertyOp26
 70
     0
102
RTVSPropertyOp27
 70
     0
102
RTVSPropertyOp28
 70
     0
102
RTVSPropertyOp29
 70
     0
102
RTVSPropertyOp30
 70
     0
102
RTVSPropertyOp31
 70
     0
102
RTVSPropertyOp32
 70
     0
  0
XRECORD
  5
274A
102
{ACAD_REACTORS
330
2749
102
}
330
2749
100
AcDbXrecord
280
     1
102
RTVSPropertyOp0
 70
     1
102
RTVSPropertyOp1
 70
     1
102
RTVSPropertyOp2
 70
     1
102
RTVSPropertyOp3
 70
     1
102
RTVSPropertyOp4
 70
     1
102
RTVSPropertyOp5
 70
     1
102
RTVSPropertyOp6
 70
     1
102
RTVSPropertyOp7
 70
     1
102
RTVSPropertyOp8
 70
     1
102
RTVSPropertyOp9
 70
     1
102
RTVSPropertyOp10
 70
     1
102
RTVSPropertyOp11
 70
     1
102
RTVSPropertyOp12
 70
     1
102
RTVSPropertyOp13
 70
     1
102
RTVSPropertyOp14
 70
     1
102
RTVSPropertyOp15
 70
     1
102
RTVSPropertyOp16
 70
     1
102
RTVSPropertyOp17
 70
     1
102
RTVSPropertyOp18
 70
     1
102
RTVSPropertyOp19
 70
     1
102
RTVSPropertyOp20
 70
     1
102
RTVSPropertyOp21
 70
     1
102
RTVSPropertyOp22
 70
     1
102
RTVSPropertyOp23
 70
     1
102
RTVSPropertyOp24
 70
     1
102
RTVSPropertyOp25
 70
     1
102
RTVSPropertyOp26
 70
     1
102
RTVSPropertyOp27
 70
     1
102
RTVSPropertyOp28
 70
     1
102
RTVSPropertyOp29
 70
     1
102
RTVSPropertyOp30
 70
     1
102
RTVSPropertyOp31
 70
     1
102
RTVSPropertyOp32
 70
     1
  0
XRECORD
  5
275C
102
{ACAD_REACTORS
330
275B
102
}
330
275B
100
AcDbXrecord
280
     1
102
RTVSPropertyOp0
 70
     0
102
RTVSPropertyOp1
 70
     0
102
RTVSPropertyOp2
 70
     0
102
RTVSPropertyOp3
 70
     0
102
RTVSPropertyOp4
 70
     0
102
RTVSPropertyOp5
 70
     0
102
RTVSPropertyOp6
 70
     0
102
RTVSPropertyOp7
 70
     0
102
RTVSPropertyOp8
 70
     0
102
RTVSPropertyOp9
 70
     0
102
RTVSPropertyOp10
 70
     0
102
RTVSPropertyOp11
 70
     0
102
RTVSPropertyOp12
 70
     0
102
RTVSPropertyOp13
 70
     0
102
RTVSPropertyOp14
 70
     2
102
RTVSPropertyOp15
 70
     0
102
RTVSPropertyOp16
 70
     0
102
RTVSPropertyOp17
 70
     0
102
RTVSPropertyOp18
 70
     0
102
RTVSPropertyOp19
 70
     0
102
RTVSPropertyOp20
 70
     0
102
RTVSPropertyOp21
 70
     0
102
RTVSPropertyOp22
 70
     0
102
RTVSPropertyOp23
 70
     0
102
RTVSPropertyOp24
 70
     0
102
RTVSPropertyOp25
 70
     0
102
RTVSPropertyOp26
 70
     0
102
RTVSPropertyOp27
 70
     0
102
RTVSPropertyOp28
 70
     0
102
RTVSPropertyOp29
 70
     0
102
RTVSPropertyOp30
 70
     0
102
RTVSPropertyOp31
 70
     0
102
RTVSPropertyOp32
 70
     0
  0
XRECORD
  5
2742
102
{ACAD_REACTORS
330
2741
102
}
330
2741
100
AcDbXrecord
280
     1
102
RTVSPropertyOp0
 70
     1
102
RTVSPropertyOp1
 70
     1
102
RTVSPropertyOp2
 70
     1
102
RTVSPropertyOp3
 70
     1
102
RTVSPropertyOp4
 70
     1
102
RTVSPropertyOp5
 70
     1
102
RTVSPropertyOp6
 70
     1
102
RTVSPropertyOp7
 70
     1
102
RTVSPropertyOp8
 70
     1
102
RTVSPropertyOp9
 70
     1
102
RTVSPropertyOp10
 70
     1
102
RTVSPropertyOp11
 70
     1
102
RTVSPropertyOp12
 70
     1
102
RTVSPropertyOp13
 70
     1
102
RTVSPropertyOp14
 70
     1
102
RTVSPropertyOp15
 70
     1
102
RTVSPropertyOp16
 70
     1
102
RTVSPropertyOp17
 70
     1
102
RTVSPropertyOp18
 70
     1
102
RTVSPropertyOp19
 70
     1
102
RTVSPropertyOp20
 70
     1
102
RTVSPropertyOp21
 70
     1
102
RTVSPropertyOp22
 70
     1
102
RTVSPropertyOp23
 70
     1
102
RTVSPropertyOp24
 70
     1
102
RTVSPropertyOp25
 70
     1
102
RTVSPropertyOp26
 70
     1
102
RTVSPropertyOp27
 70
     1
102
RTVSPropertyOp28
 70
     1
102
RTVSPropertyOp29
 70
     1
102
RTVSPropertyOp30
 70
     1
102
RTVSPropertyOp31
 70
     1
102
RTVSPropertyOp32
 70
     1
  0
XRECORD
  5
2758
102
{ACAD_REACTORS
330
2757
102
}
330
2757
100
AcDbXrecord
280
     1
102
RTVSPropertyOp0
 70
     1
102
RTVSPropertyOp1
 70
     1
102
RTVSPropertyOp2
 70
     1
102
RTVSPropertyOp3
 70
     1
102
RTVSPropertyOp4
 70
     1
102
RTVSPropertyOp5
 70
     1
102
RTVSPropertyOp6
 70
     1
102
RTVSPropertyOp7
 70
     1
102
RTVSPropertyOp8
 70
     1
102
RTVSPropertyOp9
 70
     1
102
RTVSPropertyOp10
 70
     1
102
RTVSPropertyOp11
 70
     1
102
RTVSPropertyOp12
 70
     1
102
RTVSPropertyOp13
 70
     1
102
RTVSPropertyOp14
 70
     1
102
RTVSPropertyOp15
 70
     1
102
RTVSPropertyOp16
 70
     1
102
RTVSPropertyOp17
 70
     1
102
RTVSPropertyOp18
 70
     1
102
RTVSPropertyOp19
 70
     1
102
RTVSPropertyOp20
 70
     1
102
RTVSPropertyOp21
 70
     1
102
RTVSPropertyOp22
 70
     1
102
RTVSPropertyOp23
 70
     1
102
RTVSPropertyOp24
 70
     1
102
RTVSPropertyOp25
 70
     1
102
RTVSPropertyOp26
 70
     1
102
RTVSPropertyOp27
 70
     1
102
RTVSPropertyOp28
 70
     1
102
RTVSPropertyOp29
 70
     1
102
RTVSPropertyOp30
 70
     1
102
RTVSPropertyOp31
 70
     1
102
RTVSPropertyOp32
 70
     1
  0
XRECORD
  5
2756
102
{ACAD_REACTORS
330
2755
102
}
330
2755
100
AcDbXrecord
280
     1
102
RTVSPropertyOp0
 70
     1
102
RTVSPropertyOp1
 70
     1
102
RTVSPropertyOp2
 70
     1
102
RTVSPropertyOp3
 70
     1
102
RTVSPropertyOp4
 70
     1
102
RTVSPropertyOp5
 70
     1
102
RTVSPropertyOp6
 70
     1
102
RTVSPropertyOp7
 70
     1
102
RTVSPropertyOp8
 70
     1
102
RTVSPropertyOp9
 70
     1
102
RTVSPropertyOp10
 70
     1
102
RTVSPropertyOp11
 70
     1
102
RTVSPropertyOp12
 70
     1
102
RTVSPropertyOp13
 70
     1
102
RTVSPropertyOp14
 70
     1
102
RTVSPropertyOp15
 70
     1
102
RTVSPropertyOp16
 70
     1
102
RTVSPropertyOp17
 70
     1
102
RTVSPropertyOp18
 70
     1
102
RTVSPropertyOp19
 70
     1
102
RTVSPropertyOp20
 70
     1
102
RTVSPropertyOp21
 70
     1
102
RTVSPropertyOp22
 70
     1
102
RTVSPropertyOp23
 70
     1
102
RTVSPropertyOp24
 70
     1
102
RTVSPropertyOp25
 70
     1
102
RTVSPropertyOp26
 70
     1
102
RTVSPropertyOp27
 70
     1
102
RTVSPropertyOp28
 70
     1
102
RTVSPropertyOp29
 70
     1
102
RTVSPropertyOp30
 70
     1
102
RTVSPropertyOp31
 70
     1
102
RTVSPropertyOp32
 70
     1
  0
XRECORD
  5
2750
102
{ACAD_REACTORS
330
274F
102
}
330
274F
100
AcDbXrecord
280
     1
102
RTVSPropertyOp0
 70
     1
102
RTVSPropertyOp1
 70
     1
102
RTVSPropertyOp2
 70
     1
102
RTVSPropertyOp3
 70
     1
102
RTVSPropertyOp4
 70
     1
102
RTVSPropertyOp5
 70
     1
102
RTVSPropertyOp6
 70
     1
102
RTVSPropertyOp7
 70
     1
102
RTVSPropertyOp8
 70
     1
102
RTVSPropertyOp9
 70
     1
102
RTVSPropertyOp10
 70
     1
102
RTVSPropertyOp11
 70
     1
102
RTVSPropertyOp12
 70
     1
102
RTVSPropertyOp13
 70
     1
102
RTVSPropertyOp14
 70
     1
102
RTVSPropertyOp15
 70
     1
102
RTVSPropertyOp16
 70
     1
102
RTVSPropertyOp17
 70
     1
102
RTVSPropertyOp18
 70
     1
102
RTVSPropertyOp19
 70
     1
102
RTVSPropertyOp20
 70
     1
102
RTVSPropertyOp21
 70
     1
102
RTVSPropertyOp22
 70
     1
102
RTVSPropertyOp23
 70
     1
102
RTVSPropertyOp24
 70
     1
102
RTVSPropertyOp25
 70
     1
102
RTVSPropertyOp26
 70
     1
102
RTVSPropertyOp27
 70
     1
102
RTVSPropertyOp28
 70
     1
102
RTVSPropertyOp29
 70
     1
102
RTVSPropertyOp30
 70
     1
102
RTVSPropertyOp31
 70
     1
102
RTVSPropertyOp32
 70
     1
  0
XRECORD
  5
2752
102
{ACAD_REACTORS
330
2751
102
}
330
2751
100
AcDbXrecord
280
     1
102
RTVSPropertyOp0
 70
     1
102
RTVSPropertyOp1
 70
     1
102
RTVSPropertyOp2
 70
     1
102
RTVSPropertyOp3
 70
     1
102
RTVSPropertyOp4
 70
     1
102
RTVSPropertyOp5
 70
     1
102
RTVSPropertyOp6
 70
     1
102
RTVSPropertyOp7
 70
     1
102
RTVSPropertyOp8
 70
     1
102
RTVSPropertyOp9
 70
     1
102
RTVSPropertyOp10
 70
     1
102
RTVSPropertyOp11
 70
     1
102
RTVSPropertyOp12
 70
     1
102
RTVSPropertyOp13
 70
     1
102
RTVSPropertyOp14
 70
     1
102
RTVSPropertyOp15
 70
     1
102
RTVSPropertyOp16
 70
     1
102
RTVSPropertyOp17
 70
     1
102
RTVSPropertyOp18
 70
     1
102
RTVSPropertyOp19
 70
     1
102
RTVSPropertyOp20
 70
     1
102
RTVSPropertyOp21
 70
     1
102
RTVSPropertyOp22
 70
     1
102
RTVSPropertyOp23
 70
     1
102
RTVSPropertyOp24
 70
     1
102
RTVSPropertyOp25
 70
     1
102
RTVSPropertyOp26
 70
     1
102
RTVSPropertyOp27
 70
     1
102
RTVSPropertyOp28
 70
     1
102
RTVSPropertyOp29
 70
     1
102
RTVSPropertyOp30
 70
     1
102
RTVSPropertyOp31
 70
     1
102
RTVSPropertyOp32
 70
     1
  0
XRECORD
  5
2748
102
{ACAD_REACTORS
330
2747
102
}
330
2747
100
AcDbXrecord
280
     1
102
RTVSPropertyOp0
 70
     1
102
RTVSPropertyOp1
 70
     1
102
RTVSPropertyOp2
 70
     1
102
RTVSPropertyOp3
 70
     1
102
RTVSPropertyOp4
 70
     1
102
RTVSPropertyOp5
 70
     1
102
RTVSPropertyOp6
 70
     1
102
RTVSPropertyOp7
 70
     1
102
RTVSPropertyOp8
 70
     1
102
RTVSPropertyOp9
 70
     1
102
RTVSPropertyOp10
 70
     1
102
RTVSPropertyOp11
 70
     1
102
RTVSPropertyOp12
 70
     1
102
RTVSPropertyOp13
 70
     1
102
RTVSPropertyOp14
 70
     1
102
RTVSPropertyOp15
 70
     1
102
RTVSPropertyOp16
 70
     1
102
RTVSPropertyOp17
 70
     1
102
RTVSPropertyOp18
 70
     1
102
RTVSPropertyOp19
 70
     1
102
RTVSPropertyOp20
 70
     1
102
RTVSPropertyOp21
 70
     1
102
RTVSPropertyOp22
 70
     1
102
RTVSPropertyOp23
 70
     1
102
RTVSPropertyOp24
 70
     1
102
RTVSPropertyOp25
 70
     1
102
RTVSPropertyOp26
 70
     1
102
RTVSPropertyOp27
 70
     1
102
RTVSPropertyOp28
 70
     1
102
RTVSPropertyOp29
 70
     1
102
RTVSPropertyOp30
 70
     1
102
RTVSPropertyOp31
 70
     1
102
RTVSPropertyOp32
 70
     1
  0
XRECORD
  5
273C
102
{ACAD_REACTORS
330
273B
102
}
330
273B
100
AcDbXrecord
280
     1
102
RTVSPropertyOp0
 70
     1
102
RTVSPropertyOp1
 70
     1
102
RTVSPropertyOp2
 70
     1
102
RTVSPropertyOp3
 70
     1
102
RTVSPropertyOp4
 70
     1
102
RTVSPropertyOp5
 70
     1
102
RTVSPropertyOp6
 70
     1
102
RTVSPropertyOp7
 70
     1
102
RTVSPropertyOp8
 70
     1
102
RTVSPropertyOp9
 70
     1
102
RTVSPropertyOp10
 70
     1
102
RTVSPropertyOp11
 70
     1
102
RTVSPropertyOp12
 70
     1
102
RTVSPropertyOp13
 70
     1
102
RTVSPropertyOp14
 70
     1
102
RTVSPropertyOp15
 70
     1
102
RTVSPropertyOp16
 70
     1
102
RTVSPropertyOp17
 70
     1
102
RTVSPropertyOp18
 70
     1
102
RTVSPropertyOp19
 70
     1
102
RTVSPropertyOp20
 70
     1
102
RTVSPropertyOp21
 70
     1
102
RTVSPropertyOp22
 70
     1
102
RTVSPropertyOp23
 70
     1
102
RTVSPropertyOp24
 70
     1
102
RTVSPropertyOp25
 70
     1
102
RTVSPropertyOp26
 70
     1
102
RTVSPropertyOp27
 70
     1
102
RTVSPropertyOp28
 70
     1
102
RTVSPropertyOp29
 70
     1
102
RTVSPropertyOp30
 70
     1
102
RTVSPropertyOp31
 70
     1
102
RTVSPropertyOp32
 70
     1
  0
XRECORD
  5
2754
102
{ACAD_REACTORS
330
2753
102
}
330
2753
100
AcDbXrecord
280
     1
102
RTVSPropertyOp0
 70
     1
102
RTVSPropertyOp1
 70
     1
102
RTVSPropertyOp2
 70
     1
102
RTVSPropertyOp3
 70
     1
102
RTVSPropertyOp4
 70
     1
102
RTVSPropertyOp5
 70
     1
102
RTVSPropertyOp6
 70
     1
102
RTVSPropertyOp7
 70
     1
102
RTVSPropertyOp8
 70
     1
102
RTVSPropertyOp9
 70
     1
102
RTVSPropertyOp10
 70
     1
102
RTVSPropertyOp11
 70
     1
102
RTVSPropertyOp12
 70
     1
102
RTVSPropertyOp13
 70
     1
102
RTVSPropertyOp14
 70
     1
102
RTVSPropertyOp15
 70
     1
102
RTVSPropertyOp16
 70
     1
102
RTVSPropertyOp17
 70
     1
102
RTVSPropertyOp18
 70
     1
102
RTVSPropertyOp19
 70
     1
102
RTVSPropertyOp20
 70
     1
102
RTVSPropertyOp21
 70
     1
102
RTVSPropertyOp22
 70
     1
102
RTVSPropertyOp23
 70
     1
102
RTVSPropertyOp24
 70
     1
102
RTVSPropertyOp25
 70
     1
102
RTVSPropertyOp26
 70
     1
102
RTVSPropertyOp27
 70
     1
102
RTVSPropertyOp28
 70
     1
102
RTVSPropertyOp29
 70
     1
102
RTVSPropertyOp30
 70
     1
102
RTVSPropertyOp31
 70
     1
102
RTVSPropertyOp32
 70
     1
  0
ENDSEC
  0
EOF
