  0
SECTION
  2
HEADER
  9
$ACADVER
  1
AC1015
  9
$ACADMAINTVER
 70
    20
  9
$DWGCODEPAGE
  3
ANSI_932
  9
$INSBASE
 10
0.0
 20
0.0
 30
0.0
  9
$EXTMIN
 10
-733.2451836710951
 20
-243.3788275603745
 30
0.0
  9
$EXTMAX
 10
716.1069376624155
 20
259.2400767892711
 30
0.0
  9
$LIMMIN
 10
0.0
 20
0.0
  9
$LIMMAX
 10
12.0
 20
9.0
  9
$ORTHOMODE
 70
     0
  9
$REGENMODE
 70
     1
  9
$FILLMODE
 70
     1
  9
$QTEXTMODE
 70
     0
  9
$MIRRTEXT
 70
     1
  9
$LTSCALE
 40
1.0
  9
$ATTMODE
 70
     1
  9
$TEXTSIZE
 40
0.2
  9
$TRACEWID
 40
0.05
  9
$TEXTSTYLE
  7
CONVERTER_3
  9
$CLAYER
  8
0
  9
$CELTYPE
  6
ByLayer
  9
$CECOLOR
 62
     4
  9
$CELTSCALE
 40
1.0
  9
$DISPSILH
 70
     0
  9
$DIMSCALE
 40
1.0
  9
$DIMASZ
 40
0.18
  9
$DIMEXO
 40
0.0625
  9
$DIMDLI
 40
0.38
  9
$DIMRND
 40
0.0
  9
$DIMDLE
 40
0.0
  9
$DIMEXE
 40
0.18
  9
$DIMTP
 40
0.0
  9
$DIMTM
 40
0.0
  9
$DIMTXT
 40
0.18
  9
$DIMCEN
 40
0.09
  9
$DIMTSZ
 40
0.0
  9
$DIMTOL
 70
     0
  9
$DIMLIM
 70
     0
  9
$DIMTIH
 70
     1
  9
$DIMTOH
 70
     1
  9
$DIMSE1
 70
     0
  9
$DIMSE2
 70
     0
  9
$DIMTAD
 70
     0
  9
$DIMZIN
 70
     0
  9
$DIMBLK
  1

  9
$DIMASO
 70
     1
  9
$DIMSHO
 70
     1
  9
$DIMPOST
  1

  9
$DIMAPOST
  1

  9
$DIMALT
 70
     0
  9
$DIMALTD
 70
     2
  9
$DIMALTF
 40
25.4
  9
$DIMLFAC
 40
1.0
  9
$DIMTOFL
 70
     0
  9
$DIMTVP
 40
0.0
  9
$DIMTIX
 70
     0
  9
$DIMSOXD
 70
     0
  9
$DIMSAH
 70
     0
  9
$DIMBLK1
  1

  9
$DIMBLK2
  1

  9
$DIMSTYLE
  2
Standard
  9
$DIMCLRD
 70
     0
  9
$DIMCLRE
 70
     0
  9
$DIMCLRT
 70
     0
  9
$DIMTFAC
 40
1.0
  9
$DIMGAP
 40
0.09
  9
$DIMJUST
 70
     0
  9
$DIMSD1
 70
     0
  9
$DIMSD2
 70
     0
  9
$DIMTOLJ
 70
     1
  9
$DIMTZIN
 70
     0
  9
$DIMALTZ
 70
     0
  9
$DIMALTTZ
 70
     0
  9
$DIMUPT
 70
     0
  9
$DIMDEC
 70
     4
  9
$DIMTDEC
 70
     4
  9
$DIMALTU
 70
     2
  9
$DIMALTTD
 70
     2
  9
$DIMTXSTY
  7
Standard
  9
$DIMAUNIT
 70
     0
  9
$DIMADEC
 70
     0
  9
$DIMALTRND
 40
0.0
  9
$DIMAZIN
 70
     0
  9
$DIMDSEP
 70
    46
  9
$DIMATFIT
 70
     3
  9
$DIMFRAC
 70
     0
  9
$DIMLDRBLK
  1

  9
$DIMLUNIT
 70
     2
  9
$DIMLWD
 70
    -2
  9
$DIMLWE
 70
    -2
  9
$DIMTMOVE
 70
     0
  9
$LUNITS
 70
     2
  9
$LUPREC
 70
     4
  9
$SKETCHINC
 40
0.1
  9
$FILLETRAD
 40
3.0
  9
$AUNITS
 70
     0
  9
$AUPREC
 70
     0
  9
$MENU
  1
.
  9
$ELEVATION
 40
0.0
  9
$PELEVATION
 40
0.0
  9
$THICKNESS
 40
0.0
  9
$LIMCHECK
 70
     0
  9
$CHAMFERA
 40
0.5
  9
$CHAMFERB
 40
0.5
  9
$CHAMFERC
 40
1.0
  9
$CHAMFERD
 40
0.0
  9
$SKPOLY
 70
     0
  9
$TDCREATE
 40
2455106.662517535
  9
$TDUCREATE
 40
2455106.287517535
  9
$TDUPDATE
 40
2458818.414380370
  9
$TDUUPDATE
 40
2458818.039380370
  9
$TDINDWG
 40
0.6584462384
  9
$TDUSRTIMER
 40
0.6584428009
  9
$USRTIMER
 70
     1
  9
$ANGBASE
 50
0.0
  9
$ANGDIR
 70
     0
  9
$PDMODE
 70
     0
  9
$PDSIZE
 40
0.0
  9
$PLINEWID
 40
0.0
  9
$SPLFRAME
 70
     0
  9
$SPLINETYPE
 70
     6
  9
$SPLINESEGS
 70
     8
  9
$HANDSEED
  5
24AB
  9
$SURFTAB1
 70
     6
  9
$SURFTAB2
 70
     6
  9
$SURFTYPE
 70
     6
  9
$SURFU
 70
     6
  9
$SURFV
 70
     6
  9
$UCSBASE
  2

  9
$UCSNAME
  2

  9
$UCSORG
 10
0.0
 20
0.0
 30
0.0
  9
$UCSXDIR
 10
1.0
 20
0.0
 30
0.0
  9
$UCSYDIR
 10
0.0
 20
1.0
 30
0.0
  9
$UCSORTHOREF
  2

  9
$UCSORTHOVIEW
 70
     0
  9
$UCSORGTOP
 10
0.0
 20
0.0
 30
0.0
  9
$UCSORGBOTTOM
 10
0.0
 20
0.0
 30
0.0
  9
$UCSORGLEFT
 10
0.0
 20
0.0
 30
0.0
  9
$UCSORGRIGHT
 10
0.0
 20
0.0
 30
0.0
  9
$UCSORGFRONT
 10
0.0
 20
0.0
 30
0.0
  9
$UCSORGBACK
 10
0.0
 20
0.0
 30
0.0
  9
$PUCSBASE
  2

  9
$PUCSNAME
  2

  9
$PUCSORG
 10
0.0
 20
0.0
 30
0.0
  9
$PUCSXDIR
 10
1.0
 20
0.0
 30
0.0
  9
$PUCSYDIR
 10
0.0
 20
1.0
 30
0.0
  9
$PUCSORTHOREF
  2

  9
$PUCSORTHOVIEW
 70
     0
  9
$PUCSORGTOP
 10
0.0
 20
0.0
 30
0.0
  9
$PUCSORGBOTTOM
 10
0.0
 20
0.0
 30
0.0
  9
$PUCSORGLEFT
 10
0.0
 20
0.0
 30
0.0
  9
$PUCSORGRIGHT
 10
0.0
 20
0.0
 30
0.0
  9
$PUCSORGFRONT
 10
0.0
 20
0.0
 30
0.0
  9
$PUCSORGBACK
 10
0.0
 20
0.0
 30
0.0
  9
$USERI1
 70
     0
  9
$USERI2
 70
     0
  9
$USERI3
 70
     0
  9
$USERI4
 70
     0
  9
$USERI5
 70
     0
  9
$USERR1
 40
14.0
  9
$USERR2
 40
0.0
  9
$USERR3
 40
0.0
  9
$USERR4
 40
0.0
  9
$USERR5
 40
0.0
  9
$WORLDVIEW
 70
     1
  9
$SHADEDGE
 70
     3
  9
$SHADEDIF
 70
    70
  9
$TILEMODE
 70
     1
  9
$MAXACTVP
 70
    64
  9
$PINSBASE
 10
0.0
 20
0.0
 30
0.0
  9
$PLIMCHECK
 70
     0
  9
$PEXTMIN
 10
1.000000000000000E+20
 20
1.000000000000000E+20
 30
1.000000000000000E+20
  9
$PEXTMAX
 10
-1.000000000000000E+20
 20
-1.000000000000000E+20
 30
-1.000000000000000E+20
  9
$PLIMMIN
 10
0.0
 20
0.0
  9
$PLIMMAX
 10
12.0
 20
9.0
  9
$UNITMODE
 70
     0
  9
$VISRETAIN
 70
     1
  9
$PLINEGEN
 70
     0
  9
$PSLTSCALE
 70
     1
  9
$TREEDEPTH
 70
  3020
  9
$CMLSTYLE
  2
Standard
  9
$CMLJUST
 70
     0
  9
$CMLSCALE
 40
1.0
  9
$PROXYGRAPHICS
 70
     1
  9
$MEASUREMENT
 70
     1
  9
$CELWEIGHT
370
    -1
  9
$ENDCAPS
280
     0
  9
$JOINSTYLE
280
     0
  9
$LWDISPLAY
290
     0
  9
$INSUNITS
 70
     1
  9
$HYPERLINKBASE
  1

  9
$STYLESHEET
  1
P社図面.CTB
  9
$XEDIT
290
     1
  9
$CEPSNTYPE
380
     0
  9
$PSTYLEMODE
290
     1
  9
$FINGERPRINTGUID
  2
{867DB418-29F9-41BA-A41B-A0A0AD1D7293}
  9
$VERSIONGUID
  2
{CF7FF390-C91E-4B21-AF9B-D2FC0C71A060}
  9
$EXTNAMES
290
     1
  9
$PSVPSCALE
 40
0.0
  9
$OLESTARTUP
290
     0
  0
ENDSEC
  0
SECTION
  2
CLASSES
  0
CLASS
  1
ACDBDICTIONARYWDFLT
  2
AcDbDictionaryWithDefault
  3
ObjectDBX Classes
 90
        0
280
     0
281
     0
  0
CLASS
  1

  2
exOdDbSpline
  3

 90
    32768
280
     0
281
     1
  0
CLASS
  1

  2
exOdDbPolyline
  3

 90
    32768
280
     0
281
     1
  0
CLASS
  1

  2
exOdDbCircle
  3

 90
    32768
280
     0
281
     1
  0
CLASS
  1
MATERIAL
  2
AcDbMaterial
  3
ObjectDBX Classes
 90
     1153
280
     0
281
     0
  0
CLASS
  1
VISUALSTYLE
  2
AcDbVisualStyle
  3
ObjectDBX Classes
 90
     4095
280
     0
281
     0
  0
CLASS
  1
TABLESTYLE
  2
AcDbTableStyle
  3
ObjectDBX Classes
 90
     4095
280
     0
281
     0
  0
CLASS
  1
SCALE
  2
AcDbScale
  3
ObjectDBX Classes
 90
     1153
280
     0
281
     0
  0
CLASS
  1
MLEADERSTYLE
  2
AcDbMLeaderStyle
  3
ACDB_MLEADERSTYLE_CLASS
 90
     4095
280
     0
281
     0
  0
CLASS
  1
DICTIONARYVAR
  2
AcDbDictionaryVar
  3
ObjectDBX Classes
 90
        0
280
     0
281
     0
  0
CLASS
  1
CELLSTYLEMAP
  2
AcDbCellStyleMap
  3
ObjectDBX Classes
 90
     1152
280
     0
281
     0
  0
CLASS
  1
ACDBPLACEHOLDER
  2
AcDbPlaceHolder
  3
ObjectDBX Classes
 90
        0
280
     0
281
     0
  0
CLASS
  1
LAYOUT
  2
AcDbLayout
  3
ObjectDBX Classes
 90
        0
280
     0
281
     0
  0
ENDSEC
  0
SECTION
  2
TABLES
  0
TABLE
  2
VPORT
  5
8
330
0
100
AcDbSymbolTable
 70
     1
  0
VPORT
  5
2408
330
8
100
AcDbSymbolTableRecord
100
AcDbViewportTableRecord
  2
*Active
 70
     0
 10
0.0
 20
0.0
 11
1.0
 21
1.0
 12
100.4691803891774
 22
7.941336909966366
 13
0.0
 23
0.0
 14
0.5
 24
0.5
 15
0.5
 25
0.5
 16
0.0
 26
0.0
 36
1.0
 17
0.0
 27
0.0
 37
0.0
 40
773.5522168106364
 41
1.803827751196172
 42
50.0
 43
0.0
 44
0.0
 50
0.0
 51
0.0
 71
     0
 72
   100
 73
     1
 74
     3
 75
     0
 76
     0
 77
     0
 78
     0
281
     0
 65
     1
110
0.0
120
0.0
130
0.0
111
1.0
121
0.0
131
0.0
112
0.0
122
1.0
132
0.0
 79
     0
146
0.0
1001
ACAD_NAV_VCDISPLAY
1070
     3
  0
ENDTAB
  0
TABLE
  2
LTYPE
  5
5
330
0
100
AcDbSymbolTable
 70
     9
  0
LTYPE
  5
14
330
5
100
AcDbSymbolTableRecord
100
AcDbLinetypeTableRecord
  2
ByBlock
 70
     0
  3

 72
    65
 73
     0
 40
0.0
  0
LTYPE
  5
15
330
5
100
AcDbSymbolTableRecord
100
AcDbLinetypeTableRecord
  2
ByLayer
 70
     0
  3

 72
    65
 73
     0
 40
0.0
  0
LTYPE
  5
16
330
5
100
AcDbSymbolTableRecord
100
AcDbLinetypeTableRecord
  2
Continuous
 70
     0
  3
Solid line
 72
    65
 73
     0
 40
0.0
  0
LTYPE
  5
2A
330
5
100
AcDbSymbolTableRecord
100
AcDbLinetypeTableRecord
  2
DASHED
 70
     0
  3
Dashed
 72
    65
 73
     2
 40
15.0
 49
7.0
 74
     0
 49
-8.0
 74
     0
  0
LTYPE
  5
2E
330
5
100
AcDbSymbolTableRecord
100
AcDbLinetypeTableRecord
  2
DASH_CENTER
 70
     0
  3
Dash_Center
 72
    65
 73
     4
 40
14.0
 49
11.0
 74
     0
 49
-1.0
 74
     0
 49
1.0
 74
     0
 49
-1.0
 74
     0
  0
ENDTAB
  0
TABLE
  2
LAYER
  5
2
330
0
100
AcDbSymbolTable
 70
    11
  0
LAYER
  5
10
102
{ACAD_XDICTIONARY
360
2457
102
}
330
2
100
AcDbSymbolTableRecord
100
AcDbLayerTableRecord
  2
0
 70
     0
 62
     7
  6
Continuous
370
    -3
390
F
  0
LAYER
  5
32
102
{ACAD_XDICTIONARY
360
2459
102
}
330
2
100
AcDbSymbolTableRecord
100
AcDbLayerTableRecord
  2
10
 70
     0
 62
     7
  6
Continuous
370
    -3
390
F
  0
LAYER
  5
33
102
{ACAD_XDICTIONARY
360
245B
102
}
330
2
100
AcDbSymbolTableRecord
100
AcDbLayerTableRecord
  2
100
 70
     0
 62
     7
  6
Continuous
370
    -3
390
F
  0
LAYER
  5
34
102
{ACAD_XDICTIONARY
360
245D
102
}
330
2
100
AcDbSymbolTableRecord
100
AcDbLayerTableRecord
  2
110
 70
     0
 62
     7
  6
Continuous
370
    -3
390
F
  0
LAYER
  5
35
102
{ACAD_XDICTIONARY
360
245F
102
}
330
2
100
AcDbSymbolTableRecord
100
AcDbLayerTableRecord
  2
115
 70
     0
 62
     7
  6
Continuous
370
    -3
390
F
  0
LAYER
  5
36
102
{ACAD_XDICTIONARY
360
2461
102
}
330
2
100
AcDbSymbolTableRecord
100
AcDbLayerTableRecord
  2
60
 70
     0
 62
     7
  6
Continuous
370
    -3
390
F
  0
LAYER
  5
10F7
330
2
100
AcDbSymbolTableRecord
100
AcDbLayerTableRecord
  2
Defpoints
 70
     0
 62
     7
  6
Continuous
290
     0
370
    -3
390
F
  0
ENDTAB
  0
TABLE
  2
STYLE
  5
3
330
0
100
AcDbSymbolTable
 70
    25
  0
STYLE
  5
11
330
3
100
AcDbSymbolTableRecord
100
AcDbTextStyleTableRecord
  2
Standard
 70
     0
 40
0.0
 41
1.0
 50
0.0
 71
     0
 42
0.2
  3
txt
  4

  0
STYLE
  5
2B1
330
3
100
AcDbSymbolTableRecord
100
AcDbTextStyleTableRecord
  2
CONVERTER_3
 70
     0
 40
0.0
 41
1.068
 50
0.0
 71
     0
 42
0.2
  3
simplex.shx
  4
bigfont.shx
  0
STYLE
  5
320
330
3
100
AcDbSymbolTableRecord
100
AcDbTextStyleTableRecord
  2
CONVERTER_4
 70
     0
 40
0.0
 41
0.8009999999999999
 50
0.0
 71
     0
 42
0.2
  3
simplex.shx
  4

  0
STYLE
  5
32B
330
3
100
AcDbSymbolTableRecord
100
AcDbTextStyleTableRecord
  2
CONVERTER_7
 70
     0
 40
0.0
 41
0.89
 50
0.0
 71
     0
 42
0.2
  3
simplex.shx
  4

  0
STYLE
  5
34A
330
3
100
AcDbSymbolTableRecord
100
AcDbTextStyleTableRecord
  2
CONVERTER_17
 70
     0
 40
0.0
 41
0.6230000000000002
 50
0.0
 71
     0
 42
0.2
  3
txt.shx
  4

  0
STYLE
  5
9C4
330
3
100
AcDbSymbolTableRecord
100
AcDbTextStyleTableRecord
  2
CONVERTER_20
 70
     0
 40
0.0
 41
0.7565
 50
0.0
 71
     0
 42
0.2
  3
simplex.shx
  4

  0
ENDTAB
  0
TABLE
  2
VIEW
  5
6
330
0
100
AcDbSymbolTable
 70
     0
  0
ENDTAB
  0
TABLE
  2
UCS
  5
7
330
0
100
AcDbSymbolTable
 70
     0
  0
ENDTAB
  0
TABLE
  2
APPID
  5
9
330
0
100
AcDbSymbolTable
 70
     3
  0
APPID
  5
12
330
9
100
AcDbSymbolTableRecord
100
AcDbRegAppTableRecord
  2
ACAD
 70
     0
  0
APPID
  5
246B
330
9
100
AcDbSymbolTableRecord
100
AcDbRegAppTableRecord
  2
ACAD_NAV_VCDISPLAY
 70
     0
  0
APPID
  5
24AA
330
9
100
AcDbSymbolTableRecord
100
AcDbRegAppTableRecord
  2
ACAD_MLEADERVER
 70
     0
  0
ENDTAB
  0
TABLE
  2
DIMSTYLE
  5
A
330
0
100
AcDbSymbolTable
 70
    37
100
AcDbDimStyleTable
 71
     1
340
27
  0
DIMSTYLE
105
27
330
A
100
AcDbSymbolTableRecord
100
AcDbDimStyleTableRecord
  2
Standard
 70
     0
340
11
  0
ENDTAB
  0
TABLE
  2
BLOCK_RECORD
  5
1
330
0
100
AcDbSymbolTable
 70
    87
  0
BLOCK_RECORD
  5
1F
330
1
100
AcDbSymbolTableRecord
100
AcDbBlockTableRecord
  2
*Model_Space
340
22
  0
BLOCK_RECORD
  5
1B
330
1
100
AcDbSymbolTableRecord
100
AcDbBlockTableRecord
  2
*Paper_Space
340
1E
  0
BLOCK_RECORD
  5
23
330
1
100
AcDbSymbolTableRecord
100
AcDbBlockTableRecord
  2
*Paper_Space0
340
26
  0
ENDTAB
  0
ENDSEC
  0
SECTION
  2
BLOCKS
  0
BLOCK
  5
20
330
1F
100
AcDbEntity
  8
0
100
AcDbBlockBegin
  2
*Model_Space
 70
     0
 10
0.0
 20
0.0
 30
0.0
  3
*Model_Space
  1

  0
ENDBLK
  5
21
330
1F
100
AcDbEntity
  8
0
100
AcDbBlockEnd
  0
BLOCK
  5
1C
330
1B
100
AcDbEntity
 67
     1
  8
0
100
AcDbBlockBegin
  2
*Paper_Space
 70
     0
 10
0.0
 20
0.0
 30
0.0
  3
*Paper_Space
  1

  0
ENDBLK
  5
1D
330
1B
100
AcDbEntity
 67
     1
  8
0
100
AcDbBlockEnd
  0
BLOCK
  5
24
330
23
100
AcDbEntity
 67
     1
  8
0
100
AcDbBlockBegin
  2
*Paper_Space0
 70
     0
 10
0.0
 20
0.0
 30
0.0
  3
*Paper_Space0
  1

  0
ENDBLK
  5
25
330
23
100
AcDbEntity
 67
     1
  8
0
100
AcDbBlockEnd
  0
ENDSEC
  0
SECTION
  2
ENTITIES
  0
TEXT
  5
B44
330
1F
100
AcDbEntity
  8
0
 62
     2
100
AcDbText
 10
-188.1546787128583
 20
-243.3788275603745
 30
0.0
 40
16.0
  1
ASEMDBT2P2.2K
 41
0.8009999999999999
  7
CONVERTER_4
100
AcDbText
  0
MTEXT
  5
B5F
330
1F
100
AcDbEntity
  8
0
 62
     2
100
AcDbMText
 10
411.0000000000011
 20
-510.9995720940504
 30
0.0
 40
8.0
 41
0.0
 71
     5
 72
     1
  1
 
  7
CONVERTER_17
 73
     1
 44
1.32052821128451
1001
ACAD
1000
MTEXTBEGIN
1070
    73
1070
     1
1070
    44
1040
1.32052821128451
1070
    74
1070
     0
1000
MTEXTEND
  0
MTEXT
  5
B67
330
1F
100
AcDbEntity
  8
0
 62
     2
100
AcDbMText
 10
263.0004
 20
-535.9993999999995
 30
0.0
 40
12.0
 41
0.0
 71
     5
 72
     1
  1
 
  7
CONVERTER_7
 73
     1
 44
1.32052821128451
1001
ACAD
1000
MTEXTBEGIN
1070
    73
1070
     1
1070
    44
1040
1.32052821128451
1070
    74
1070
     0
1000
MTEXTEND
  0
MTEXT
  5
B68
330
1F
100
AcDbEntity
  8
0
 62
     2
100
AcDbMText
 10
341.0004
 20
-535.9993999999995
 30
0.0
 40
12.0
 41
0.0
 71
     5
 72
     1
  1
 
  7
CONVERTER_7
 73
     1
 44
1.32052821128451
1001
ACAD
1000
MTEXTBEGIN
1070
    73
1070
     1
1070
    44
1040
1.32052821128451
1070
    74
1070
     0
1000
MTEXTEND
  0
MTEXT
  5
B69
330
1F
100
AcDbEntity
  8
0
 62
     2
100
AcDbMText
 10
185.0004
 20
-535.9993999999995
 30
0.0
 40
12.0
 41
0.0
 71
     5
 72
     1
  1
 
  7
CONVERTER_7
 73
     1
 44
1.32052821128451
1001
ACAD
1000
MTEXTBEGIN
1070
    73
1070
     1
1070
    44
1040
1.32052821128451
1070
    74
1070
     0
1000
MTEXTEND
  0
MTEXT
  5
B6A
330
1F
100
AcDbEntity
  8
0
 62
     2
100
AcDbMText
 10
411.0000000000011
 20
-559.9993999999996
 30
0.0
 40
8.0
 41
0.0
 71
     5
 72
     1
  1
 
  7
CONVERTER_17
 73
     1
 44
1.32052821128451
1001
ACAD
1000
MTEXTBEGIN
1070
    73
1070
     1
1070
    44
1040
1.32052821128451
1070
    74
1070
     0
1000
MTEXTEND
  0
MTEXT
  5
B6B
330
1F
100
AcDbEntity
  8
0
 62
     2
100
AcDbMText
 10
333.0004
 20
-559.9993999999996
 30
0.0
 40
8.0
 41
0.0
 71
     5
 72
     1
  1
 
  7
CONVERTER_17
 73
     1
 44
1.32052821128451
1001
ACAD
1000
MTEXTBEGIN
1070
    73
1070
     1
1070
    44
1040
1.32052821128451
1070
    74
1070
     0
1000
MTEXTEND
  0
MTEXT
  5
B6C
330
1F
100
AcDbEntity
  8
0
 62
     2
100
AcDbMText
 10
255.0004
 20
-559.9993999999996
 30
0.0
 40
8.0
 41
0.0
 71
     5
 72
     1
  1
 
  7
CONVERTER_17
 73
     1
 44
1.32052821128451
1001
ACAD
1000
MTEXTBEGIN
1070
    73
1070
     1
1070
    44
1040
1.32052821128451
1070
    74
1070
     0
1000
MTEXTEND
  0
MTEXT
  5
B6D
330
1F
100
AcDbEntity
  8
0
 62
     2
100
AcDbMText
 10
99.00040000000004
 20
-559.9993999999996
 30
0.0
 40
8.0
 41
0.0
 71
     5
 72
     1
  1
 
  7
CONVERTER_17
 73
     1
 44
1.32052821128451
1001
ACAD
1000
MTEXTBEGIN
1070
    73
1070
     1
1070
    44
1040
1.32052821128451
1070
    74
1070
     0
1000
MTEXTEND
  0
MTEXT
  5
B6E
330
1F
100
AcDbEntity
  8
0
 62
     2
100
AcDbMText
 10
177.0004
 20
-559.9993999999996
 30
0.0
 40
8.0
 41
0.0
 71
     5
 72
     1
  1
 
  7
CONVERTER_17
 73
     1
 44
1.32052821128451
1001
ACAD
1000
MTEXTBEGIN
1070
    73
1070
     1
1070
    44
1040
1.32052821128451
1070
    74
1070
     0
1000
MTEXTEND
  0
MTEXT
  5
B6F
330
1F
100
AcDbEntity
  8
0
 62
     2
100
AcDbMText
 10
419.0000000000011
 20
-535.9993999999995
 30
0.0
 40
12.0
 41
0.0
 71
     5
 72
     1
  1
 
  7
CONVERTER_7
 73
     1
 44
1.32052821128451
1001
ACAD
1000
MTEXTBEGIN
1070
    73
1070
     1
1070
    44
1040
1.32052821128451
1070
    74
1070
     0
1000
MTEXTEND
  0
MTEXT
  5
B70
330
1F
100
AcDbEntity
  8
0
 62
     2
100
AcDbMText
 10
411.0000000000011
 20
-481.9995154418491
 30
0.0
 40
12.0
 41
0.0
 71
     5
 72
     1
  1
 
  7
CONVERTER_7
 73
     1
 44
1.32052821128451
1001
ACAD
1000
MTEXTBEGIN
1070
    73
1070
     1
1070
    44
1040
1.32052821128451
1070
    74
1070
     0
1000
MTEXTEND
  0
POINT
  5
B79
330
1F
100
AcDbEntity
  8
115
 62
   171
100
AcDbPoint
 10
-591.8202970530387
 20
21.12429543207611
 30
0.0
  0
LINE
  5
B7D
330
1F
100
AcDbEntity
  8
110
  6
DASH_CENTER
 62
    30
100
AcDbLine
 10
-2.049724420882739
 20
44.81229044585999
 30
0.0
 11
716.1069376624155
 21
44.81229044585993
 31
0.0
  0
LINE
  5
B7E
330
1F
100
AcDbEntity
  8
0
  6
Continuous
 62
     7
100
AcDbLine
 10
52.64589937013283
 20
-121.6160087559525
 30
0.0
 11
54.64589937013283
 21
-120.0841651695832
 31
0.0
  0
LINE
  5
B7F
330
1F
100
AcDbEntity
  8
0
  6
Continuous
 62
     7
100
AcDbLine
 10
52.64589937013283
 20
-122.3587207978286
 30
0.0
 11
54.64589937013281
 21
-120.594779698373
 31
0.0
  0
LINE
  5
B80
330
1F
100
AcDbEntity
  8
0
  6
Continuous
 62
     7
100
AcDbLine
 10
52.64589937013283
 20
-114.0877095541402
 30
0.0
 11
48.84589937013283
 21
-114.0877095541401
 31
0.0
  0
LINE
  5
B81
330
1F
100
AcDbEntity
  8
0
  6
Continuous
 62
     7
100
AcDbLine
 10
52.64589937013283
 20
-117.6377095541401
 30
0.0
 11
48.84589937013283
 21
-117.6377095541401
 31
0.0
  0
LINE
  5
B82
330
1F
100
AcDbEntity
  8
0
  6
Continuous
 62
     7
100
AcDbLine
 10
52.64589937013283
 20
-124.7377095541401
 30
0.0
 11
48.84589937013283
 21
-124.7377095541401
 31
0.0
  0
LINE
  5
B83
330
1F
100
AcDbEntity
  8
0
  6
Continuous
 62
     7
100
AcDbLine
 10
52.64589937013283
 20
-128.2877095541401
 30
0.0
 11
48.84589937013283
 21
-128.2877095541401
 31
0.0
  0
LINE
  5
B84
330
1F
100
AcDbEntity
  8
0
  6
Continuous
 62
     7
100
AcDbLine
 10
52.64589937013283
 20
-128.8877095541401
 30
0.0
 11
54.64589937013283
 21
-128.8877095541401
 31
0.0
  0
LINE
  5
B85
330
1F
100
AcDbEntity
  8
0
  6
Continuous
 62
     7
100
AcDbLine
 10
52.64589937013283
 20
-113.4877095541401
 30
0.0
 11
52.64589937013283
 21
-128.8877095541401
 31
0.0
  0
LINE
  5
B86
330
1F
100
AcDbEntity
  8
0
  6
Continuous
 62
     7
100
AcDbLine
 10
54.64589937013283
 20
-113.4877095541401
 30
0.0
 11
52.64589937013283
 21
-113.4877095541401
 31
0.0
  0
LINE
  5
B87
330
1F
100
AcDbEntity
  8
0
  6
Continuous
 62
     7
100
AcDbLine
 10
47.34589937013281
 20
-115.9932897586193
 30
0.0
 11
47.34589937013281
 21
-121.1877095541401
 31
0.0
  0
LINE
  5
B88
330
1F
100
AcDbEntity
  8
0
  6
Continuous
 62
     7
100
AcDbLine
 10
47.34589937013281
 20
-126.614311711291
 30
0.0
 11
47.34589937013281
 21
-121.1877095541401
 31
0.0
  0
LINE
  5
B89
330
1F
100
AcDbEntity
  8
0
  6
DASHED
 62
     2
 48
0.33
100
AcDbLine
 10
36.64589937013282
 20
-165.1877095541381
 30
0.0
 11
36.64589937013282
 21
-175.1877095541381
 31
0.0
  0
LINE
  5
B8A
330
1F
100
AcDbEntity
  8
0
  6
DASHED
 62
     2
 48
0.33
100
AcDbLine
 10
48.64589937013281
 20
-165.1877095541381
 30
0.0
 11
48.64589937013281
 21
-175.1877095541381
 31
0.0
  0
LINE
  5
B8B
330
1F
100
AcDbEntity
  8
0
  6
DASH_CENTER
 62
    30
100
AcDbLine
 10
42.64589937013282
 20
-161.6464847953765
 30
0.0
 11
42.64589937013282
 21
-179.4730184964034
 31
0.0
  0
LINE
  5
B8C
330
1F
100
AcDbEntity
  8
0
  6
DASH_CENTER
 62
    30
100
AcDbLine
 10
40.4293527631095
 20
-121.1877095541401
 30
0.0
 11
83.51394246407789
 21
-121.1877095541401
 31
0.0
  0
LINE
  5
B8D
330
1F
100
AcDbEntity
  8
0
  6
Continuous
 62
     7
100
AcDbLine
 10
72.64589937013288
 20
-130.1877095541402
 30
0.0
 11
64.64589937013283
 21
-130.1877095541401
 31
0.0
  0
LINE
  5
B8E
330
1F
100
AcDbEntity
  8
0
  6
Continuous
 62
     7
100
AcDbLine
 10
64.64589937013283
 20
-112.1877095541401
 30
0.0
 11
72.64589937013288
 21
-112.1877095541401
 31
0.0
  0
LINE
  5
B8F
330
1F
100
AcDbEntity
  8
0
  6
Continuous
 62
     7
100
AcDbLine
 10
54.64589937013283
 20
-108.18770955414
 30
0.0
 11
54.64589937013275
 21
-163.1877095541381
 31
0.0
  0
LINE
  5
B90
330
1F
100
AcDbEntity
  8
0
  6
Continuous
 62
     7
100
AcDbLine
 10
64.64589937013283
 20
-108.18770955414
 30
0.0
 11
54.64589937013281
 21
-108.18770955414
 31
0.0
  0
LINE
  5
B91
330
1F
100
AcDbEntity
  8
0
  6
Continuous
 62
     7
100
AcDbLine
 10
64.64589937013283
 20
-175.1877095541381
 30
0.0
 11
64.64589937013283
 21
-108.18770955414
 31
0.0
  0
LINE
  5
B92
330
1F
100
AcDbEntity
  8
0
  6
Continuous
 62
     7
100
AcDbLine
 10
64.64589937013283
 20
-175.1877095541381
 30
0.0
 11
30.64589937013281
 21
-175.1877095541381
 31
0.0
  0
LINE
  5
B93
330
1F
100
AcDbEntity
  8
0
  6
Continuous
 62
     7
100
AcDbLine
 10
30.64589937013283
 20
-165.1877095541381
 30
0.0
 11
52.64589937013275
 21
-165.1877095541381
 31
0.0
  0
LINE
  5
B94
330
1F
100
AcDbEntity
  8
0
  6
Continuous
 62
     7
100
AcDbLine
 10
30.64589937013281
 20
-165.1877095541381
 30
0.0
 11
30.64589937013281
 21
-175.1877095541381
 31
0.0
  0
LINE
  5
BB0
330
1F
100
AcDbEntity
  8
0
  6
Continuous
 62
     7
100
AcDbLine
 10
48.6458994157312
 20
122.3122904458598
 30
0.0
 11
48.64589941573119
 21
44.81229044585996
 31
0.0
  0
LINE
  5
BB2
330
1F
100
AcDbEntity
  8
0
  6
Continuous
 62
     7
100
AcDbLine
 10
41.34599941573121
 20
47.55744361662155
 30
0.0
 11
41.34599941573121
 21
42.06713727509832
 31
0.0
  0
LINE
  5
BB3
330
1F
100
AcDbEntity
  8
0
  6
Continuous
 62
     7
100
AcDbLine
 10
546.3631857333721
 20
79.08559359127929
 30
0.0
 11
546.3631857333719
 21
105.9598074277573
 31
0.0
  0
LINE
  5
BB4
330
1F
100
AcDbEntity
  8
0
  6
Continuous
 62
     7
100
AcDbLine
 10
599.3547219730059
 20
81.08559359127928
 30
0.0
 11
546.3631857333719
 21
81.08559359127928
 31
0.0
  0
LINE
  5
BB5
330
1F
100
AcDbEntity
  8
0
  6
Continuous
 62
     7
100
AcDbLine
 10
599.354721973006
 20
105.9598074277573
 30
0.0
 11
599.3547219730057
 21
79.08559359127932
 31
0.0
  0
LINE
  5
BCD
330
1F
100
AcDbEntity
  8
0
  6
Continuous
 62
     7
100
AcDbLine
 10
665.6458993701333
 20
43.39033415964951
 30
0.0
 11
665.6458993701333
 21
144.7697619876963
 31
0.0
  0
LINE
  5
BCE
330
1F
100
AcDbEntity
  8
0
  6
Continuous
 62
     7
100
AcDbLine
 10
426.6464454157312
 20
155.7827904458601
 30
0.0
 11
426.6464454157312
 21
44.81229044585989
 31
0.0
  0
LINE
  5
BCF
330
1F
100
AcDbEntity
  8
0
  6
Continuous
 62
     7
100
AcDbLine
 10
380.0264454157313
 20
41.81244044585992
 30
0.0
 11
382.0264454157313
 21
41.81244044585992
 31
0.0
  0
LINE
  5
BD0
330
1F
100
AcDbEntity
  8
100
  6
Continuous
 62
    30
100
AcDbLine
 10
380.0264454157313
 20
42.31244044585992
 30
0.0
 11
382.5264454157313
 21
42.31244044585992
 31
0.0
  0
LINE
  5
BD1
330
1F
100
AcDbEntity
  8
100
  6
Continuous
 62
    30
100
AcDbLine
 10
380.0264454157313
 20
47.31214044585999
 30
0.0
 11
382.5264454157313
 21
47.31214044585999
 31
0.0
  0
LINE
  5
BD2
330
1F
100
AcDbEntity
  8
0
  6
Continuous
 62
     7
100
AcDbLine
 10
380.0264454157313
 20
47.81214044586
 30
0.0
 11
382.0264454157313
 21
47.81214044586
 31
0.0
  0
LINE
  5
BD3
330
1F
100
AcDbEntity
  8
0
  6
Continuous
 62
     7
100
AcDbLine
 10
361.4266454157313
 20
49.31327980601034
 30
0.0
 11
361.4266454157313
 21
40.21239044586002
 31
0.0
  0
LINE
  5
BD4
330
1F
100
AcDbEntity
  8
0
  6
Continuous
 62
     7
100
AcDbLine
 10
382.0264454157313
 20
47.81214044586
 30
0.0
 11
382.0264454157313
 21
41.81244044585992
 31
0.0
  0
LINE
  5
BD5
330
1F
100
AcDbEntity
  8
0
  6
Continuous
 62
     7
100
AcDbLine
 10
382.0264454157313
 20
47.81214044586
 30
0.0
 11
382.5264454157313
 21
47.31214044585999
 31
0.0
  0
LINE
  5
BD6
330
1F
100
AcDbEntity
  8
0
  6
Continuous
 62
     7
100
AcDbLine
 10
382.0264454157313
 20
41.81244044585992
 30
0.0
 11
382.5264454157313
 21
42.31244044585992
 31
0.0
  0
LINE
  5
BD7
330
1F
100
AcDbEntity
  8
0
  6
Continuous
 62
     7
100
AcDbLine
 10
382.5264454157313
 20
42.31244044585992
 30
0.0
 11
382.5264454157313
 21
47.31214044585999
 31
0.0
  0
LINE
  5
BD8
330
1F
100
AcDbEntity
  8
0
  6
Continuous
 62
     7
100
AcDbLine
 10
361.4266454157313
 20
40.3113010857096
 30
0.0
 11
359.5870454157313
 21
40.47250108570962
 31
0.0
  0
LINE
  5
BD9
330
1F
100
AcDbEntity
  8
0
  6
Continuous
 62
     7
100
AcDbLine
 10
362.7264454157312
 20
40.21239044586002
 30
0.0
 11
362.7264454157312
 21
44.81229044585996
 31
0.0
  0
LINE
  5
BDA
330
1F
100
AcDbEntity
  8
0
  6
Continuous
 62
     7
100
AcDbLine
 10
361.4266454157313
 20
40.21239044586002
 30
0.0
 11
361.4268454157312
 21
44.46389044585987
 31
0.0
  0
LINE
  5
BDB
330
1F
100
AcDbEntity
  8
0
  6
Continuous
 62
     7
100
AcDbLine
 10
361.4266454157313
 20
44.46389044585987
 30
0.0
 11
362.7264454157312
 21
44.11549044585975
 31
0.0
  0
LINE
  5
BDC
330
1F
100
AcDbEntity
  8
0
  6
Continuous
 62
     7
100
AcDbLine
 10
361.4266454157313
 20
40.21239044586002
 30
0.0
 11
362.7264454157312
 21
40.21239044586002
 31
0.0
  0
LINE
  5
BDD
330
1F
100
AcDbEntity
  8
0
  6
Continuous
 62
     7
100
AcDbLine
 10
358.1268454157312
 20
44.81229044586013
 30
0.0
 11
358.1268454157312
 21
42.06620108570972
 31
0.0
  0
LINE
  5
BDE
330
1F
100
AcDbEntity
  8
0
  6
Continuous
 62
     7
100
AcDbLine
 10
359.5870454157313
 20
49.15207980601024
 30
0.0
 11
361.4266454157313
 21
49.31327980601034
 31
0.0
  0
LINE
  5
BDF
330
1F
100
AcDbEntity
  8
0
  6
Continuous
 62
     7
100
AcDbLine
 10
362.7264454157312
 20
44.81229044585996
 30
0.0
 11
362.7264454157312
 21
49.41219044585984
 31
0.0
  0
LINE
  5
BE0
330
1F
100
AcDbEntity
  8
0
  6
Continuous
 62
     7
100
AcDbLine
 10
361.4268454157312
 20
45.16069044586004
 30
0.0
 11
361.4266454157313
 21
49.41219044585984
 31
0.0
  0
LINE
  5
BE1
330
1F
100
AcDbEntity
  8
0
  6
Continuous
 62
     7
100
AcDbLine
 10
361.4266454157313
 20
45.16069044586004
 30
0.0
 11
362.7264454157312
 21
44.81229044585996
 31
0.0
  0
LINE
  5
BE2
330
1F
100
AcDbEntity
  8
0
  6
Continuous
 62
     7
100
AcDbLine
 10
362.7264454157312
 20
49.41219044585984
 30
0.0
 11
361.4266454157313
 21
49.41219044585984
 31
0.0
  0
LINE
  5
BE3
330
1F
100
AcDbEntity
  8
0
  6
Continuous
 62
     7
100
AcDbLine
 10
358.1268454157312
 20
47.55837980601017
 30
0.0
 11
358.1268454157312
 21
44.81229044586013
 31
0.0
  0
LINE
  5
BE4
330
1F
100
AcDbEntity
  8
0
  6
Continuous
 62
     7
100
AcDbLine
 10
380.0264454157313
 20
224.9745812627231
 30
0.0
 11
382.0264454157313
 21
224.9745812627231
 31
0.0
  0
LINE
  5
BE5
330
1F
100
AcDbEntity
  8
100
  6
Continuous
 62
    30
100
AcDbLine
 10
380.0264454157313
 20
225.4745812627231
 30
0.0
 11
382.5264454157313
 21
225.4745812627231
 31
0.0
  0
LINE
  5
BE6
330
1F
100
AcDbEntity
  8
100
  6
Continuous
 62
    30
100
AcDbLine
 10
380.0264454157313
 20
230.4742812627232
 30
0.0
 11
382.5264454157313
 21
230.4742812627232
 31
0.0
  0
LINE
  5
BE7
330
1F
100
AcDbEntity
  8
0
  6
Continuous
 62
     7
100
AcDbLine
 10
380.0264454157313
 20
230.9742812627232
 30
0.0
 11
382.0264454157313
 21
230.9742812627232
 31
0.0
  0
LINE
  5
BE8
330
1F
100
AcDbEntity
  8
0
  6
Continuous
 62
     7
100
AcDbLine
 10
380.0264454157313
 20
234.9744312627232
 30
0.0
 11
362.8265454157312
 21
234.9744312627232
 31
0.0
  0
LINE
  5
BE9
330
1F
100
AcDbEntity
  8
0
  6
Continuous
 62
     7
100
AcDbLine
 10
380.0264454157313
 20
218.2537894590155
 30
0.0
 11
362.8265454157312
 21
218.2537894590155
 31
0.0
  0
LINE
  5
BEA
330
1F
100
AcDbEntity
  8
0
  6
Continuous
 62
     7
100
AcDbLine
 10
380.0264454157312
 20
243.31229044586
 30
0.0
 11
380.0264454157313
 21
44.81229044585996
 31
0.0
  0
LINE
  5
BEB
330
1F
100
AcDbEntity
  8
10
  6
Continuous
 62
     7
100
AcDbLine
 10
378.0898454157313
 20
244.8122904458598
 30
0.0
 11
370.0265454157313
 21
244.8122904458598
 31
0.0
  0
LINE
  5
BEC
330
1F
100
AcDbEntity
  8
10
  6
Continuous
 62
     7
100
AcDbLine
 10
370.0264454157312
 20
244.8122904458598
 30
0.0
 11
370.0264454157313
 21
44.81229044585989
 31
0.0
  0
LINE
  5
BED
330
1F
100
AcDbEntity
  8
10
  6
Continuous
 62
     7
100
AcDbLine
 10
362.7264454157313
 20
243.8122904446097
 30
0.0
 11
362.7264454157312
 21
44.81229044585996
 31
0.0
  0
LINE
  5
BEE
330
1F
100
AcDbEntity
  8
0
  6
Continuous
 62
     7
100
AcDbLine
 10
361.4266454157313
 20
232.4754206228736
 30
0.0
 11
361.4266454157313
 21
223.3745312627233
 31
0.0
  0
LINE
  5
BEF
330
1F
100
AcDbEntity
  8
0
  6
Continuous
 62
     7
100
AcDbLine
 10
382.0264454157313
 20
230.9742812627232
 30
0.0
 11
382.0264454157313
 21
224.9745812627231
 31
0.0
  0
LINE
  5
BF0
330
1F
100
AcDbEntity
  8
0
  6
Continuous
 62
     7
100
AcDbLine
 10
382.0264454157313
 20
230.9742812627232
 30
0.0
 11
382.5264454157313
 21
230.4742812627232
 31
0.0
  0
LINE
  5
BF1
330
1F
100
AcDbEntity
  8
0
  6
Continuous
 62
     7
100
AcDbLine
 10
382.0264454157313
 20
224.9745812627231
 30
0.0
 11
382.5264454157313
 21
225.4745812627231
 31
0.0
  0
LINE
  5
BF2
330
1F
100
AcDbEntity
  8
0
  6
Continuous
 62
     7
100
AcDbLine
 10
382.5264454157313
 20
225.4745812627231
 30
0.0
 11
382.5264454157313
 21
230.4742812627232
 31
0.0
  0
LINE
  5
BF3
330
1F
100
AcDbEntity
  8
0
  6
DASH_CENTER
 62
    30
100
AcDbLine
 10
383.9747277556262
 20
227.9744312627232
 30
0.0
 11
354.7261615096143
 21
227.9744312627232
 31
0.0
  0
LINE
  5
BF4
330
1F
100
AcDbEntity
  8
0
  6
Continuous
 62
     7
100
AcDbLine
 10
361.4266454157313
 20
223.4734419025728
 30
0.0
 11
359.5870454157313
 21
223.6346419025729
 31
0.0
  0
LINE
  5
BF5
330
1F
100
AcDbEntity
  8
0
  6
Continuous
 62
     7
100
AcDbLine
 10
362.7264454157312
 20
223.3745312627233
 30
0.0
 11
362.7264454157312
 21
227.9744312627232
 31
0.0
  0
LINE
  5
BF6
330
1F
100
AcDbEntity
  8
0
  6
Continuous
 62
     7
100
AcDbLine
 10
361.4266454157313
 20
223.3745312627233
 30
0.0
 11
361.4268454157312
 21
227.6260312627231
 31
0.0
  0
LINE
  5
BF7
330
1F
100
AcDbEntity
  8
0
  6
Continuous
 62
     7
100
AcDbLine
 10
361.4266454157313
 20
227.6260312627231
 30
0.0
 11
362.7264454157312
 21
227.277631262723
 31
0.0
  0
LINE
  5
BF8
330
1F
100
AcDbEntity
  8
0
  6
Continuous
 62
     7
100
AcDbLine
 10
361.4266454157313
 20
223.3745312627233
 30
0.0
 11
362.7264454157312
 21
223.3745312627233
 31
0.0
  0
LINE
  5
BF9
330
1F
100
AcDbEntity
  8
0
  6
Continuous
 62
     7
100
AcDbLine
 10
358.1268454157312
 20
227.9744312627234
 30
0.0
 11
358.1268454157312
 21
225.228341902573
 31
0.0
  0
LINE
  5
BFA
330
1F
100
AcDbEntity
  8
0
  6
Continuous
 62
     7
100
AcDbLine
 10
359.5870454157313
 20
232.3142206228735
 30
0.0
 11
361.4266454157313
 21
232.4754206228736
 31
0.0
  0
LINE
  5
BFB
330
1F
100
AcDbEntity
  8
0
  6
Continuous
 62
     7
100
AcDbLine
 10
362.7264454157312
 20
227.9744312627232
 30
0.0
 11
362.7264454157312
 21
232.5743312627231
 31
0.0
  0
LINE
  5
BFC
330
1F
100
AcDbEntity
  8
0
  6
Continuous
 62
     7
100
AcDbLine
 10
361.4268454157312
 20
228.3228312627233
 30
0.0
 11
361.4266454157313
 21
232.5743312627231
 31
0.0
  0
LINE
  5
BFD
330
1F
100
AcDbEntity
  8
0
  6
Continuous
 62
     7
100
AcDbLine
 10
361.4266454157313
 20
228.3228312627233
 30
0.0
 11
362.7264454157312
 21
227.9744312627232
 31
0.0
  0
LINE
  5
BFE
330
1F
100
AcDbEntity
  8
0
  6
Continuous
 62
     7
100
AcDbLine
 10
362.7264454157312
 20
232.5743312627231
 30
0.0
 11
361.4266454157313
 21
232.5743312627231
 31
0.0
  0
LINE
  5
BFF
330
1F
100
AcDbEntity
  8
0
  6
Continuous
 62
     7
100
AcDbLine
 10
358.1268454157312
 20
230.7205206228734
 30
0.0
 11
358.1268454157312
 21
227.9744312627234
 31
0.0
  0
LINE
  5
C00
330
1F
100
AcDbEntity
  8
10
  6
Continuous
 62
     7
100
AcDbLine
 10
362.7264454157312
 20
244.8122904458598
 30
0.0
 11
370.0264454157313
 21
244.8122904458598
 31
0.0
  0
LINE
  5
C01
330
1F
100
AcDbEntity
  8
10
  6
Continuous
 62
     7
100
AcDbLine
 10
362.7264454157312
 20
243.8122904458598
 30
0.0
 11
362.7264454157312
 21
244.8122904458598
 31
0.0
  0
LINE
  5
C02
330
1F
100
AcDbEntity
  8
0
  6
Continuous
 62
     7
100
AcDbLine
 10
288.8026454157314
 20
-133.8488610108531
 30
0.0
 11
288.8026454157314
 21
-142.9497503710034
 31
0.0
  0
LINE
  5
C03
330
1F
100
AcDbEntity
  8
0
  6
Continuous
 62
     7
100
AcDbLine
 10
304.9025454157314
 20
-141.3497003710035
 30
0.0
 11
309.4024454157314
 21
-141.3497003710035
 31
0.0
  0
LINE
  5
C04
330
1F
100
AcDbEntity
  8
100
  6
Continuous
 62
    30
100
AcDbLine
 10
304.9025454157314
 20
-140.8497003710035
 30
0.0
 11
309.9024454157314
 21
-140.8497003710035
 31
0.0
  0
LINE
  5
C05
330
1F
100
AcDbEntity
  8
100
  6
Continuous
 62
    30
100
AcDbLine
 10
304.9025454157314
 20
-135.8500003710035
 30
0.0
 11
309.9024454157314
 21
-135.8500003710035
 31
0.0
  0
LINE
  5
C06
330
1F
100
AcDbEntity
  8
0
  6
Continuous
 62
     7
100
AcDbLine
 10
304.9025454157314
 20
-135.3500003710035
 30
0.0
 11
309.4024454157314
 21
-135.3500003710035
 31
0.0
  0
LINE
  5
C07
330
1F
100
AcDbEntity
  8
0
  6
Continuous
 62
     7
100
AcDbLine
 10
309.4024454157314
 20
-135.3500003710035
 30
0.0
 11
309.4024454157314
 21
-141.3497003710035
 31
0.0
  0
LINE
  5
C08
330
1F
100
AcDbEntity
  8
0
  6
Continuous
 62
     7
100
AcDbLine
 10
309.4024454157314
 20
-135.3500003710035
 30
0.0
 11
309.9024454157314
 21
-135.8500003710035
 31
0.0
  0
LINE
  5
C09
330
1F
100
AcDbEntity
  8
0
  6
Continuous
 62
     7
100
AcDbLine
 10
309.4024454157314
 20
-141.3497003710035
 30
0.0
 11
309.9024454157314
 21
-140.8497003710035
 31
0.0
  0
LINE
  5
C0A
330
1F
100
AcDbEntity
  8
0
  6
Continuous
 62
     7
100
AcDbLine
 10
309.9024454157314
 20
-140.8497003710035
 30
0.0
 11
309.9024454157314
 21
-135.8500003710035
 31
0.0
  0
LINE
  5
C0B
330
1F
100
AcDbEntity
  8
0
  6
Continuous
 62
     7
100
AcDbLine
 10
288.8026454157314
 20
-142.8508397311538
 30
0.0
 11
286.9630454157312
 21
-142.6896397311538
 31
0.0
  0
LINE
  5
C0C
330
1F
100
AcDbEntity
  8
0
  6
Continuous
 62
     7
100
AcDbLine
 10
290.1024454157313
 20
-142.9497503710034
 30
0.0
 11
290.1024454157313
 21
-138.3498503710034
 31
0.0
  0
LINE
  5
C0D
330
1F
100
AcDbEntity
  8
0
  6
Continuous
 62
     7
100
AcDbLine
 10
288.8026454157314
 20
-142.9497503710034
 30
0.0
 11
288.8028454157312
 21
-138.6982503710035
 31
0.0
  0
LINE
  5
C0E
330
1F
100
AcDbEntity
  8
0
  6
Continuous
 62
     7
100
AcDbLine
 10
288.8026454157314
 20
-138.6982503710036
 30
0.0
 11
290.1024454157313
 21
-139.0466503710037
 31
0.0
  0
LINE
  5
C0F
330
1F
100
AcDbEntity
  8
0
  6
Continuous
 62
     7
100
AcDbLine
 10
288.8026454157314
 20
-142.9497503710034
 30
0.0
 11
290.1024454157313
 21
-142.9497503710034
 31
0.0
  0
LINE
  5
C10
330
1F
100
AcDbEntity
  8
0
  6
Continuous
 62
     7
100
AcDbLine
 10
285.5028454157313
 20
-138.3498503710036
 30
0.0
 11
285.5028454157313
 21
-141.0959397311537
 31
0.0
  0
LINE
  5
C11
330
1F
100
AcDbEntity
  8
0
  6
Continuous
 62
     7
100
AcDbLine
 10
286.9630454157312
 20
-134.0100610108531
 30
0.0
 11
288.8026454157314
 21
-133.8488610108531
 31
0.0
  0
LINE
  5
C12
330
1F
100
AcDbEntity
  8
0
  6
Continuous
 62
     7
100
AcDbLine
 10
290.1024454157313
 20
-138.3498503710034
 30
0.0
 11
290.1024454157313
 21
-133.7499503710036
 31
0.0
  0
LINE
  5
C13
330
1F
100
AcDbEntity
  8
0
  6
Continuous
 62
     7
100
AcDbLine
 10
288.8028454157312
 20
-138.0014503710034
 30
0.0
 11
288.8026454157314
 21
-133.7499503710036
 31
0.0
  0
LINE
  5
C14
330
1F
100
AcDbEntity
  8
0
  6
Continuous
 62
     7
100
AcDbLine
 10
288.8026454157314
 20
-138.0014503710034
 30
0.0
 11
290.1024454157313
 21
-138.3498503710034
 31
0.0
  0
LINE
  5
C15
330
1F
100
AcDbEntity
  8
0
  6
Continuous
 62
     7
100
AcDbLine
 10
290.1024454157313
 20
-133.7499503710036
 30
0.0
 11
288.8026454157314
 21
-133.7499503710036
 31
0.0
  0
LINE
  5
C16
330
1F
100
AcDbEntity
  8
0
  6
Continuous
 62
     7
100
AcDbLine
 10
285.5028454157313
 20
-135.6037610108532
 30
0.0
 11
285.5028454157313
 21
-138.3498503710036
 31
0.0
  0
LINE
  5
C17
330
1F
100
AcDbEntity
  8
0
  6
Continuous
 62
     7
100
AcDbLine
 10
288.8026454157314
 20
49.31327980601029
 30
0.0
 11
288.8026454157314
 21
40.21239044585995
 31
0.0
  0
LINE
  5
C18
330
1F
100
AcDbEntity
  8
0
  6
Continuous
 62
     7
100
AcDbLine
 10
304.9025454157314
 20
41.81244044585986
 30
0.0
 11
309.4024454157314
 21
41.81244044585986
 31
0.0
  0
LINE
  5
C19
330
1F
100
AcDbEntity
  8
100
  6
Continuous
 62
    30
100
AcDbLine
 10
304.9025454157314
 20
42.31244044585986
 30
0.0
 11
309.9024454157314
 21
42.31244044585986
 31
0.0
  0
LINE
  5
C1A
330
1F
100
AcDbEntity
  8
100
  6
Continuous
 62
    30
100
AcDbLine
 10
304.9025454157314
 20
47.31214044585994
 30
0.0
 11
309.9024454157314
 21
47.31214044585994
 31
0.0
  0
LINE
  5
C1B
330
1F
100
AcDbEntity
  8
0
  6
Continuous
 62
     7
100
AcDbLine
 10
304.9025454157314
 20
47.81214044585992
 30
0.0
 11
309.4024454157314
 21
47.81214044585992
 31
0.0
  0
LINE
  5
C1C
330
1F
100
AcDbEntity
  8
0
  6
Continuous
 62
     7
100
AcDbLine
 10
309.4024454157314
 20
47.81214044585992
 30
0.0
 11
309.4024454157314
 21
41.81244044585986
 31
0.0
  0
LINE
  5
C1D
330
1F
100
AcDbEntity
  8
0
  6
Continuous
 62
     7
100
AcDbLine
 10
309.4024454157314
 20
47.81214044585992
 30
0.0
 11
309.9024454157314
 21
47.31214044585994
 31
0.0
  0
LINE
  5
C1E
330
1F
100
AcDbEntity
  8
0
  6
Continuous
 62
     7
100
AcDbLine
 10
309.4024454157314
 20
41.81244044585986
 30
0.0
 11
309.9024454157314
 21
42.31244044585986
 31
0.0
  0
LINE
  5
C1F
330
1F
100
AcDbEntity
  8
0
  6
Continuous
 62
     7
100
AcDbLine
 10
309.9024454157314
 20
42.31244044585986
 30
0.0
 11
309.9024454157314
 21
47.31214044585994
 31
0.0
  0
LINE
  5
C20
330
1F
100
AcDbEntity
  8
0
  6
Continuous
 62
     7
100
AcDbLine
 10
288.8026454157314
 20
40.31130108570954
 30
0.0
 11
286.9630454157313
 21
40.47250108570957
 31
0.0
  0
LINE
  5
C21
330
1F
100
AcDbEntity
  8
0
  6
Continuous
 62
     7
100
AcDbLine
 10
290.1024454157313
 20
40.21239044585995
 30
0.0
 11
290.1024454157313
 21
44.81229044585996
 31
0.0
  0
LINE
  5
C22
330
1F
100
AcDbEntity
  8
0
  6
Continuous
 62
     7
100
AcDbLine
 10
288.8026454157314
 20
40.21239044585995
 30
0.0
 11
288.8028454157312
 21
44.46389044585987
 31
0.0
  0
LINE
  5
C23
330
1F
100
AcDbEntity
  8
0
  6
Continuous
 62
     7
100
AcDbLine
 10
288.8026454157314
 20
44.46389044585981
 30
0.0
 11
290.1024454157313
 21
44.1154904458597
 31
0.0
  0
LINE
  5
C24
330
1F
100
AcDbEntity
  8
0
  6
Continuous
 62
     7
100
AcDbLine
 10
288.8026454157314
 20
40.21239044585995
 30
0.0
 11
290.1024454157313
 21
40.21239044585995
 31
0.0
  0
LINE
  5
C25
330
1F
100
AcDbEntity
  8
0
  6
Continuous
 62
     7
100
AcDbLine
 10
285.5028454157314
 20
44.81229044585981
 30
0.0
 11
285.5028454157314
 21
42.06620108570968
 31
0.0
  0
LINE
  5
C26
330
1F
100
AcDbEntity
  8
0
  6
Continuous
 62
     7
100
AcDbLine
 10
286.9630454157313
 20
49.15207980601019
 30
0.0
 11
288.8026454157314
 21
49.31327980601029
 31
0.0
  0
LINE
  5
C27
330
1F
100
AcDbEntity
  8
0
  6
Continuous
 62
     7
100
AcDbLine
 10
290.1024454157313
 20
44.81229044585996
 30
0.0
 11
290.1024454157313
 21
49.41219044585977
 31
0.0
  0
LINE
  5
C28
330
1F
100
AcDbEntity
  8
0
  6
Continuous
 62
     7
100
AcDbLine
 10
288.8028454157312
 20
45.16069044585997
 30
0.0
 11
288.8026454157314
 21
49.41219044585977
 31
0.0
  0
LINE
  5
C29
330
1F
100
AcDbEntity
  8
0
  6
Continuous
 62
     7
100
AcDbLine
 10
288.8026454157314
 20
45.16069044585997
 30
0.0
 11
290.1024454157313
 21
44.81229044585996
 31
0.0
  0
LINE
  5
C2A
330
1F
100
AcDbEntity
  8
0
  6
Continuous
 62
     7
100
AcDbLine
 10
290.1024454157313
 20
49.41219044585977
 30
0.0
 11
288.8026454157314
 21
49.41219044585977
 31
0.0
  0
LINE
  5
C2B
330
1F
100
AcDbEntity
  8
0
  6
Continuous
 62
     7
100
AcDbLine
 10
285.5028454157314
 20
47.55837980601011
 30
0.0
 11
285.5028454157314
 21
44.81229044585981
 31
0.0
  0
LINE
  5
C2C
330
1F
100
AcDbEntity
  8
0
  6
Continuous
 62
     7
100
AcDbLine
 10
288.8026454157314
 20
232.4754206228736
 30
0.0
 11
288.8026454157314
 21
223.3745312627233
 31
0.0
  0
LINE
  5
C2D
330
1F
100
AcDbEntity
  8
0
  6
Continuous
 62
     7
100
AcDbLine
 10
304.9025454157314
 20
224.9745812627231
 30
0.0
 11
309.4024454157314
 21
224.9745812627231
 31
0.0
  0
LINE
  5
C2E
330
1F
100
AcDbEntity
  8
100
  6
Continuous
 62
    30
100
AcDbLine
 10
304.9025454157314
 20
225.4745812627231
 30
0.0
 11
309.9024454157314
 21
225.4745812627231
 31
0.0
  0
LINE
  5
C2F
330
1F
100
AcDbEntity
  8
100
  6
Continuous
 62
    30
100
AcDbLine
 10
304.9025454157314
 20
230.4742812627232
 30
0.0
 11
309.9024454157314
 21
230.4742812627232
 31
0.0
  0
LINE
  5
C30
330
1F
100
AcDbEntity
  8
0
  6
Continuous
 62
     7
100
AcDbLine
 10
304.9025454157314
 20
230.9742812627232
 30
0.0
 11
309.4024454157314
 21
230.9742812627232
 31
0.0
  0
LINE
  5
C31
330
1F
100
AcDbEntity
  8
0
  6
Continuous
 62
     7
100
AcDbLine
 10
309.4024454157314
 20
230.9742812627232
 30
0.0
 11
309.4024454157314
 21
224.9745812627231
 31
0.0
  0
LINE
  5
C32
330
1F
100
AcDbEntity
  8
0
  6
Continuous
 62
     7
100
AcDbLine
 10
309.4024454157314
 20
230.9742812627232
 30
0.0
 11
309.9024454157314
 21
230.4742812627232
 31
0.0
  0
LINE
  5
C33
330
1F
100
AcDbEntity
  8
0
  6
Continuous
 62
     7
100
AcDbLine
 10
309.4024454157314
 20
224.9745812627231
 30
0.0
 11
309.9024454157314
 21
225.4745812627231
 31
0.0
  0
LINE
  5
C34
330
1F
100
AcDbEntity
  8
0
  6
Continuous
 62
     7
100
AcDbLine
 10
309.9024454157314
 20
225.4745812627231
 30
0.0
 11
309.9024454157314
 21
230.4742812627232
 31
0.0
  0
LINE
  5
C35
330
1F
100
AcDbEntity
  8
0
  6
Continuous
 62
     7
100
AcDbLine
 10
232.2785454157311
 20
224.9745812627231
 30
0.0
 11
236.7784454157313
 21
224.9745812627231
 31
0.0
  0
LINE
  5
C36
330
1F
100
AcDbEntity
  8
100
  6
Continuous
 62
    30
100
AcDbLine
 10
232.2785454157312
 20
225.4745812627231
 30
0.0
 11
237.2784454157313
 21
225.4745812627231
 31
0.0
  0
LINE
  5
C37
330
1F
100
AcDbEntity
  8
100
  6
Continuous
 62
    30
100
AcDbLine
 10
232.2785454157312
 20
230.4742812627232
 30
0.0
 11
237.2784454157313
 21
230.4742812627232
 31
0.0
  0
LINE
  5
C38
330
1F
100
AcDbEntity
  8
0
  6
Continuous
 62
     7
100
AcDbLine
 10
232.2785454157312
 20
230.9742812627232
 30
0.0
 11
236.7784454157313
 21
230.9742812627232
 31
0.0
  0
LINE
  5
C39
330
1F
100
AcDbEntity
  8
0
  6
Continuous
 62
     7
100
AcDbLine
 10
215.9786454157314
 20
232.4754206228735
 30
0.0
 11
215.9786454157314
 21
223.3745312627233
 31
0.0
  0
LINE
  5
C3A
330
1F
100
AcDbEntity
  8
0
  6
Continuous
 62
     7
100
AcDbLine
 10
215.9786454157314
 20
223.4734419025728
 30
0.0
 11
214.1390454157313
 21
223.6346419025729
 31
0.0
  0
LINE
  5
C3B
330
1F
100
AcDbEntity
  8
0
  6
Continuous
 62
     7
100
AcDbLine
 10
215.9786454157314
 20
223.3745312627233
 30
0.0
 11
215.9788454157312
 21
227.6260312627232
 31
0.0
  0
LINE
  5
C3C
330
1F
100
AcDbEntity
  8
0
  6
Continuous
 62
     7
100
AcDbLine
 10
215.9786454157314
 20
223.3745312627233
 30
0.0
 11
217.2784454157314
 21
223.3745312627233
 31
0.0
  0
LINE
  5
C3D
330
1F
100
AcDbEntity
  8
0
  6
Continuous
 62
     7
100
AcDbLine
 10
215.9786454157314
 20
223.3745312627233
 30
0.0
 11
215.9788454157312
 21
227.6260312627232
 31
0.0
  0
LINE
  5
C3E
330
1F
100
AcDbEntity
  8
0
  6
Continuous
 62
     7
100
AcDbLine
 10
215.9786454157314
 20
223.3745312627233
 30
0.0
 11
217.2784454157314
 21
223.3745312627233
 31
0.0
  0
LINE
  5
C3F
330
1F
100
AcDbEntity
  8
0
  6
Continuous
 62
     7
100
AcDbLine
 10
214.1390454157313
 20
232.3142206228735
 30
0.0
 11
215.9786454157314
 21
232.4754206228735
 31
0.0
  0
LINE
  5
C40
330
1F
100
AcDbEntity
  8
0
  6
Continuous
 62
     7
100
AcDbLine
 10
217.2784454157314
 20
227.9744312627232
 30
0.0
 11
217.2784454157314
 21
232.5743312627231
 31
0.0
  0
LINE
  5
C41
330
1F
100
AcDbEntity
  8
0
  6
Continuous
 62
     7
100
AcDbLine
 10
215.9788454157312
 20
228.3228312627233
 30
0.0
 11
215.9786454157314
 21
232.5743312627231
 31
0.0
  0
LINE
  5
C42
330
1F
100
AcDbEntity
  8
0
  6
Continuous
 62
     7
100
AcDbLine
 10
217.2784454157314
 20
228.6712312627234
 30
0.0
 11
215.9786454157314
 21
228.3228312627233
 31
0.0
  0
LINE
  5
C43
330
1F
100
AcDbEntity
  8
0
  6
Continuous
 62
     7
100
AcDbLine
 10
217.2784454157314
 20
232.5743312627231
 30
0.0
 11
215.9786454157314
 21
232.5743312627231
 31
0.0
  0
LINE
  5
C44
330
1F
100
AcDbEntity
  8
0
  6
Continuous
 62
     7
100
AcDbLine
 10
212.6788454157313
 20
230.7205206228734
 30
0.0
 11
212.6788454157313
 21
227.974431262723
 31
0.0
  0
LINE
  5
C45
330
1F
100
AcDbEntity
  8
0
  6
Continuous
 62
     7
100
AcDbLine
 10
217.2784454157314
 20
227.9744312627232
 30
0.0
 11
215.9786454157314
 21
227.6260312627231
 31
0.0
  0
LINE
  5
C46
330
1F
100
AcDbEntity
  8
0
  6
Continuous
 62
     7
100
AcDbLine
 10
212.6788454157313
 20
227.974431262723
 30
0.0
 11
212.6788454157313
 21
225.228341902573
 31
0.0
  0
LINE
  5
C47
330
1F
100
AcDbEntity
  8
0
  6
Continuous
 62
     7
100
AcDbLine
 10
236.7784454157313
 20
230.9742812627232
 30
0.0
 11
236.7784454157313
 21
224.9745812627231
 31
0.0
  0
LINE
  5
C48
330
1F
100
AcDbEntity
  8
0
  6
Continuous
 62
     7
100
AcDbLine
 10
236.7784454157313
 20
230.9742812627232
 30
0.0
 11
237.2784454157313
 21
230.4742812627232
 31
0.0
  0
LINE
  5
C49
330
1F
100
AcDbEntity
  8
0
  6
Continuous
 62
     7
100
AcDbLine
 10
236.7784454157313
 20
224.9745812627231
 30
0.0
 11
237.2784454157313
 21
225.4745812627231
 31
0.0
  0
LINE
  5
C4A
330
1F
100
AcDbEntity
  8
0
  6
Continuous
 62
     7
100
AcDbLine
 10
237.2784454157313
 20
225.4745812627231
 30
0.0
 11
237.2784454157313
 21
230.4742812627232
 31
0.0
  0
LINE
  5
C4B
330
1F
100
AcDbEntity
  8
0
  6
DASH_CENTER
 62
    30
100
AcDbLine
 10
209.2781615096142
 20
227.9744312627232
 30
0.0
 11
238.7267277556262
 21
227.9744312627232
 31
0.0
  0
LINE
  5
C4C
330
1F
100
AcDbEntity
  8
0
  6
Continuous
 62
     7
100
AcDbLine
 10
232.2785454157311
 20
41.81244044585986
 30
0.0
 11
236.7784454157313
 21
41.81244044585986
 31
0.0
  0
LINE
  5
C4D
330
1F
100
AcDbEntity
  8
100
  6
Continuous
 62
    30
100
AcDbLine
 10
232.2785454157312
 20
42.31244044585986
 30
0.0
 11
237.2784454157313
 21
42.31244044585986
 31
0.0
  0
LINE
  5
C4E
330
1F
100
AcDbEntity
  8
100
  6
Continuous
 62
    30
100
AcDbLine
 10
232.2785454157312
 20
47.31214044585995
 30
0.0
 11
237.2784454157313
 21
47.31214044585995
 31
0.0
  0
LINE
  5
C4F
330
1F
100
AcDbEntity
  8
0
  6
Continuous
 62
     7
100
AcDbLine
 10
232.2785454157312
 20
47.81214044585996
 30
0.0
 11
236.7784454157313
 21
47.81214044585996
 31
0.0
  0
LINE
  5
C50
330
1F
100
AcDbEntity
  8
0
  6
Continuous
 62
     7
100
AcDbLine
 10
215.9786454157314
 20
49.31327980601024
 30
0.0
 11
215.9786454157314
 21
40.21239044586002
 31
0.0
  0
LINE
  5
C51
330
1F
100
AcDbEntity
  8
0
  6
Continuous
 62
     7
100
AcDbLine
 10
215.9786454157314
 20
40.31130108570954
 30
0.0
 11
214.1390454157313
 21
40.47250108570961
 31
0.0
  0
LINE
  5
C52
330
1F
100
AcDbEntity
  8
0
  6
Continuous
 62
     7
100
AcDbLine
 10
215.9786454157314
 20
40.21239044586002
 30
0.0
 11
215.9788454157312
 21
44.46389044585987
 31
0.0
  0
LINE
  5
C53
330
1F
100
AcDbEntity
  8
0
  6
Continuous
 62
     7
100
AcDbLine
 10
215.9786454157314
 20
40.21239044586002
 30
0.0
 11
217.2784454157314
 21
40.21239044586002
 31
0.0
  0
LINE
  5
C54
330
1F
100
AcDbEntity
  8
0
  6
Continuous
 62
     7
100
AcDbLine
 10
215.9786454157314
 20
40.21239044586002
 30
0.0
 11
215.9788454157312
 21
44.46389044585987
 31
0.0
  0
LINE
  5
C55
330
1F
100
AcDbEntity
  8
0
  6
Continuous
 62
     7
100
AcDbLine
 10
215.9786454157314
 20
40.21239044586002
 30
0.0
 11
217.2784454157314
 21
40.21239044586002
 31
0.0
  0
LINE
  5
C56
330
1F
100
AcDbEntity
  8
0
  6
Continuous
 62
     7
100
AcDbLine
 10
214.1390454157313
 20
49.15207980601024
 30
0.0
 11
215.9786454157314
 21
49.31327980601024
 31
0.0
  0
LINE
  5
C57
330
1F
100
AcDbEntity
  8
0
  6
Continuous
 62
     7
100
AcDbLine
 10
217.2784454157314
 20
44.81229044585996
 30
0.0
 11
217.2784454157314
 21
49.41219044585984
 31
0.0
  0
LINE
  5
C58
330
1F
100
AcDbEntity
  8
0
  6
Continuous
 62
     7
100
AcDbLine
 10
215.9788454157312
 20
45.16069044586
 30
0.0
 11
215.9786454157314
 21
49.41219044585984
 31
0.0
  0
LINE
  5
C59
330
1F
100
AcDbEntity
  8
0
  6
Continuous
 62
     7
100
AcDbLine
 10
217.2784454157314
 20
45.50909044586012
 30
0.0
 11
215.9786454157314
 21
45.16069044586
 31
0.0
  0
LINE
  5
C5A
330
1F
100
AcDbEntity
  8
0
  6
Continuous
 62
     7
100
AcDbLine
 10
217.2784454157314
 20
49.41219044585984
 30
0.0
 11
215.9786454157314
 21
49.41219044585984
 31
0.0
  0
LINE
  5
C5B
330
1F
100
AcDbEntity
  8
0
  6
Continuous
 62
     7
100
AcDbLine
 10
212.6788454157313
 20
47.55837980601011
 30
0.0
 11
212.6788454157313
 21
44.81229044585974
 31
0.0
  0
LINE
  5
C5C
330
1F
100
AcDbEntity
  8
0
  6
Continuous
 62
     7
100
AcDbLine
 10
217.2784454157314
 20
44.81229044585996
 30
0.0
 11
215.9786454157314
 21
44.46389044585981
 31
0.0
  0
LINE
  5
C5D
330
1F
100
AcDbEntity
  8
0
  6
Continuous
 62
     7
100
AcDbLine
 10
212.6788454157313
 20
44.81229044585974
 30
0.0
 11
212.6788454157313
 21
42.0662010857097
 31
0.0
  0
LINE
  5
C5E
330
1F
100
AcDbEntity
  8
0
  6
Continuous
 62
     7
100
AcDbLine
 10
236.7784454157313
 20
47.81214044585996
 30
0.0
 11
236.7784454157313
 21
41.81244044585986
 31
0.0
  0
LINE
  5
C5F
330
1F
100
AcDbEntity
  8
0
  6
Continuous
 62
     7
100
AcDbLine
 10
236.7784454157313
 20
47.81214044585996
 30
0.0
 11
237.2784454157313
 21
47.31214044585995
 31
0.0
  0
LINE
  5
C60
330
1F
100
AcDbEntity
  8
0
  6
Continuous
 62
     7
100
AcDbLine
 10
236.7784454157313
 20
41.81244044585986
 30
0.0
 11
237.2784454157313
 21
42.31244044585986
 31
0.0
  0
LINE
  5
C61
330
1F
100
AcDbEntity
  8
0
  6
Continuous
 62
     7
100
AcDbLine
 10
237.2784454157313
 20
42.31244044585986
 30
0.0
 11
237.2784454157313
 21
47.31214044585995
 31
0.0
  0
LINE
  5
C62
330
1F
100
AcDbEntity
  8
0
  6
DASH_CENTER
 62
    30
100
AcDbLine
 10
209.2781615096142
 20
44.81229044585989
 30
0.0
 11
238.7267277556262
 21
44.81229044585989
 31
0.0
  0
LINE
  5
C63
330
1F
100
AcDbEntity
  8
0
  6
Continuous
 62
     7
100
AcDbLine
 10
217.2784454157314
 20
38.46813593660336
 30
0.0
 11
232.2785454157314
 21
38.46813593660336
 31
0.0
  0
LINE
  5
C64
330
1F
100
AcDbEntity
  8
0
  6
Continuous
 62
     7
100
AcDbLine
 10
232.2785454157311
 20
-141.3497003710034
 30
0.0
 11
236.7784454157313
 21
-141.3497003710034
 31
0.0
  0
LINE
  5
C65
330
1F
100
AcDbEntity
  8
100
  6
Continuous
 62
    30
100
AcDbLine
 10
232.2785454157312
 20
-140.8497003710034
 30
0.0
 11
237.2784454157313
 21
-140.8497003710034
 31
0.0
  0
LINE
  5
C66
330
1F
100
AcDbEntity
  8
100
  6
Continuous
 62
    30
100
AcDbLine
 10
232.2785454157312
 20
-135.8500003710034
 30
0.0
 11
237.2784454157313
 21
-135.8500003710034
 31
0.0
  0
LINE
  5
C67
330
1F
100
AcDbEntity
  8
0
  6
Continuous
 62
     7
100
AcDbLine
 10
232.2785454157312
 20
-135.3500003710033
 30
0.0
 11
236.7784454157313
 21
-135.3500003710033
 31
0.0
  0
LINE
  5
C68
330
1F
100
AcDbEntity
  8
0
  6
Continuous
 62
     7
100
AcDbLine
 10
215.9786454157314
 20
-133.848861010853
 30
0.0
 11
215.9786454157314
 21
-142.9497503710033
 31
0.0
  0
LINE
  5
C69
330
1F
100
AcDbEntity
  8
0
  6
Continuous
 62
     7
100
AcDbLine
 10
142.6547454157313
 20
-142.9497503710033
 30
0.0
 11
142.6547454157313
 21
-133.848861010853
 31
0.0
  0
LINE
  5
C6A
330
1F
100
AcDbEntity
  8
0
  6
Continuous
 62
     7
100
AcDbLine
 10
215.9786454157314
 20
-142.8508397311538
 30
0.0
 11
214.1390454157313
 21
-142.6896397311536
 31
0.0
  0
LINE
  5
C6B
330
1F
100
AcDbEntity
  8
0
  6
Continuous
 62
     7
100
AcDbLine
 10
215.9786454157314
 20
-142.9497503710033
 30
0.0
 11
215.9788454157312
 21
-138.6982503710035
 31
0.0
  0
LINE
  5
C6C
330
1F
100
AcDbEntity
  8
0
  6
Continuous
 62
     7
100
AcDbLine
 10
215.9786454157314
 20
-142.9497503710033
 30
0.0
 11
217.2784454157313
 21
-142.9497503710033
 31
0.0
  0
LINE
  5
C6D
330
1F
100
AcDbEntity
  8
0
  6
Continuous
 62
     7
100
AcDbLine
 10
215.9786454157314
 20
-142.9497503710033
 30
0.0
 11
215.9788454157312
 21
-138.6982503710035
 31
0.0
  0
LINE
  5
C6E
330
1F
100
AcDbEntity
  8
0
  6
Continuous
 62
     7
100
AcDbLine
 10
215.9786454157314
 20
-142.9497503710033
 30
0.0
 11
217.2784454157313
 21
-142.9497503710033
 31
0.0
  0
LINE
  5
C6F
330
1F
100
AcDbEntity
  8
0
  6
Continuous
 62
     7
100
AcDbLine
 10
214.1390454157313
 20
-134.010061010853
 30
0.0
 11
215.9786454157314
 21
-133.848861010853
 31
0.0
  0
LINE
  5
C70
330
1F
100
AcDbEntity
  8
0
  6
Continuous
 62
     7
100
AcDbLine
 10
217.2784454157313
 20
-138.3498503710034
 30
0.0
 11
217.2784454157313
 21
-133.7499503710035
 31
0.0
  0
LINE
  5
C71
330
1F
100
AcDbEntity
  8
0
  6
Continuous
 62
     7
100
AcDbLine
 10
215.9788454157312
 20
-138.0014503710033
 30
0.0
 11
215.9786454157314
 21
-133.7499503710035
 31
0.0
  0
LINE
  5
C72
330
1F
100
AcDbEntity
  8
0
  6
Continuous
 62
     7
100
AcDbLine
 10
217.2784454157313
 20
-137.6530503710032
 30
0.0
 11
215.9786454157314
 21
-138.0014503710033
 31
0.0
  0
LINE
  5
C73
330
1F
100
AcDbEntity
  8
0
  6
Continuous
 62
     7
100
AcDbLine
 10
217.2784454157313
 20
-133.7499503710035
 30
0.0
 11
215.9786454157314
 21
-133.7499503710035
 31
0.0
  0
LINE
  5
C74
330
1F
100
AcDbEntity
  8
0
  6
Continuous
 62
     7
100
AcDbLine
 10
212.6788454157313
 20
-135.6037610108532
 30
0.0
 11
212.6788454157313
 21
-138.3498503710036
 31
0.0
  0
LINE
  5
C75
330
1F
100
AcDbEntity
  8
0
  6
Continuous
 62
     7
100
AcDbLine
 10
217.2784454157313
 20
-138.3498503710034
 30
0.0
 11
215.9786454157314
 21
-138.6982503710035
 31
0.0
  0
LINE
  5
C76
330
1F
100
AcDbEntity
  8
0
  6
Continuous
 62
     7
100
AcDbLine
 10
212.6788454157313
 20
-138.3498503710036
 30
0.0
 11
212.6788454157313
 21
-141.0959397311536
 31
0.0
  0
LINE
  5
C77
330
1F
100
AcDbEntity
  8
0
  6
Continuous
 62
     7
100
AcDbLine
 10
236.7784454157313
 20
-135.3500003710033
 30
0.0
 11
236.7784454157313
 21
-141.3497003710034
 31
0.0
  0
LINE
  5
C78
330
1F
100
AcDbEntity
  8
0
  6
Continuous
 62
     7
100
AcDbLine
 10
236.7784454157313
 20
-135.3500003710033
 30
0.0
 11
237.2784454157313
 21
-135.8500003710034
 31
0.0
  0
LINE
  5
C79
330
1F
100
AcDbEntity
  8
0
  6
Continuous
 62
     7
100
AcDbLine
 10
236.7784454157313
 20
-141.3497003710034
 30
0.0
 11
237.2784454157313
 21
-140.8497003710034
 31
0.0
  0
LINE
  5
C7A
330
1F
100
AcDbEntity
  8
0
  6
Continuous
 62
     7
100
AcDbLine
 10
237.2784454157313
 20
-140.8497003710034
 30
0.0
 11
237.2784454157313
 21
-135.8500003710034
 31
0.0
  0
LINE
  5
C7B
330
1F
100
AcDbEntity
  8
0
  6
Continuous
 62
     7
100
AcDbLine
 10
142.6547454157313
 20
49.31327980601024
 30
0.0
 11
142.6547454157313
 21
40.21239044585994
 31
0.0
  0
LINE
  5
C7C
330
1F
100
AcDbEntity
  8
0
  6
Continuous
 62
     7
100
AcDbLine
 10
142.6547454157313
 20
40.31130108570954
 30
0.0
 11
140.8151454157312
 21
40.47250108570954
 31
0.0
  0
LINE
  5
C7D
330
1F
100
AcDbEntity
  8
0
  6
Continuous
 62
     7
100
AcDbLine
 10
143.9545454157312
 20
40.21239044585997
 30
0.0
 11
143.9545454157312
 21
44.81229044585987
 31
0.0
  0
LINE
  5
C7E
330
1F
100
AcDbEntity
  8
0
  6
Continuous
 62
     7
100
AcDbLine
 10
142.6547454157313
 20
44.46389044585978
 30
0.0
 11
143.9545454157312
 21
44.11549044585966
 31
0.0
  0
LINE
  5
C7F
330
1F
100
AcDbEntity
  8
0
  6
Continuous
 62
     7
100
AcDbLine
 10
142.6547454157313
 20
40.21239044585994
 30
0.0
 11
143.9545454157312
 21
40.21239044585997
 31
0.0
  0
LINE
  5
C80
330
1F
100
AcDbEntity
  8
0
  6
Continuous
 62
     7
100
AcDbLine
 10
139.3549454157313
 20
44.81229044586004
 30
0.0
 11
139.3549454157313
 21
42.06620108570968
 31
0.0
  0
LINE
  5
C81
330
1F
100
AcDbEntity
  8
0
  6
Continuous
 62
     7
100
AcDbLine
 10
140.8151454157312
 20
49.15207980601019
 30
0.0
 11
142.6547454157313
 21
49.31327980601024
 31
0.0
  0
LINE
  5
C82
330
1F
100
AcDbEntity
  8
0
  6
Continuous
 62
     7
100
AcDbLine
 10
143.9545454157312
 20
44.81229044585987
 30
0.0
 11
143.9545454157312
 21
49.41219044585978
 31
0.0
  0
LINE
  5
C83
330
1F
100
AcDbEntity
  8
0
  6
Continuous
 62
     7
100
AcDbLine
 10
142.6547454157313
 20
45.16069044585996
 30
0.0
 11
143.9545454157312
 21
44.81229044585987
 31
0.0
  0
LINE
  5
C84
330
1F
100
AcDbEntity
  8
0
  6
Continuous
 62
     7
100
AcDbLine
 10
143.9545454157312
 20
49.41219044585978
 30
0.0
 11
142.6547454157313
 21
49.41219044585978
 31
0.0
  0
LINE
  5
C85
330
1F
100
AcDbEntity
  8
0
  6
Continuous
 62
     7
100
AcDbLine
 10
139.3549454157313
 20
47.55837980601009
 30
0.0
 11
139.3549454157313
 21
44.81229044586004
 31
0.0
  0
LINE
  5
C86
330
1F
100
AcDbEntity
  8
0
  6
Continuous
 62
     7
100
AcDbLine
 10
163.4545454157312
 20
41.81244044585986
 30
0.0
 11
158.4545454157312
 21
41.81244044585986
 31
0.0
  0
LINE
  5
C87
330
1F
100
AcDbEntity
  8
100
  6
Continuous
 62
    30
100
AcDbLine
 10
163.9545454157312
 20
42.31244044585986
 30
0.0
 11
158.4545454157313
 21
42.31244044585986
 31
0.0
  0
LINE
  5
C88
330
1F
100
AcDbEntity
  8
100
  6
Continuous
 62
    30
100
AcDbLine
 10
163.9545454157312
 20
47.31214044585994
 30
0.0
 11
158.4545454157312
 21
47.31214044585994
 31
0.0
  0
LINE
  5
C89
330
1F
100
AcDbEntity
  8
0
  6
Continuous
 62
     7
100
AcDbLine
 10
163.4545454157312
 20
47.81214044585992
 30
0.0
 11
158.4545454157312
 21
47.81214044585992
 31
0.0
  0
LINE
  5
C8A
330
1F
100
AcDbEntity
  8
0
  6
Continuous
 62
     7
100
AcDbLine
 10
163.4545454157312
 20
47.81214044585992
 30
0.0
 11
163.4545454157312
 21
41.81244044585986
 31
0.0
  0
LINE
  5
C8B
330
1F
100
AcDbEntity
  8
0
  6
Continuous
 62
     7
100
AcDbLine
 10
163.9545454157312
 20
42.31244044585986
 30
0.0
 11
163.4545454157312
 21
41.81244044585986
 31
0.0
  0
LINE
  5
C8C
330
1F
100
AcDbEntity
  8
0
  6
Continuous
 62
     7
100
AcDbLine
 10
163.9545454157312
 20
47.31214044585994
 30
0.0
 11
163.4545454157312
 21
47.81214044585992
 31
0.0
  0
LINE
  5
C8D
330
1F
100
AcDbEntity
  8
0
  6
Continuous
 62
     7
100
AcDbLine
 10
163.9545454157312
 20
42.31244044585986
 30
0.0
 11
163.9545454157312
 21
47.31214044585994
 31
0.0
  0
LINE
  5
C8E
330
1F
100
AcDbEntity
  8
0
  6
Continuous
 62
     7
100
AcDbLine
 10
142.6547454157313
 20
232.4754206228737
 30
0.0
 11
142.6547454157313
 21
223.3745312627234
 31
0.0
  0
LINE
  5
C8F
330
1F
100
AcDbEntity
  8
0
  6
Continuous
 62
     7
100
AcDbLine
 10
142.6547454157313
 20
223.473441902573
 30
0.0
 11
140.8151454157312
 21
223.634641902573
 31
0.0
  0
LINE
  5
C90
330
1F
100
AcDbEntity
  8
0
  6
Continuous
 62
     7
100
AcDbLine
 10
143.9545454157312
 20
223.3745312627234
 30
0.0
 11
143.9545454157312
 21
227.9744312627234
 31
0.0
  0
LINE
  5
C91
330
1F
100
AcDbEntity
  8
0
  6
Continuous
 62
     7
100
AcDbLine
 10
142.6547454157313
 20
227.6260312627232
 30
0.0
 11
143.9545454157312
 21
227.2776312627231
 31
0.0
  0
LINE
  5
C92
330
1F
100
AcDbEntity
  8
0
  6
Continuous
 62
     7
100
AcDbLine
 10
142.6547454157313
 20
223.3745312627234
 30
0.0
 11
143.9545454157312
 21
223.3745312627234
 31
0.0
  0
LINE
  5
C93
330
1F
100
AcDbEntity
  8
0
  6
Continuous
 62
     7
100
AcDbLine
 10
139.3549454157313
 20
227.9744312627235
 30
0.0
 11
139.3549454157313
 21
225.2283419025731
 31
0.0
  0
LINE
  5
C94
330
1F
100
AcDbEntity
  8
0
  6
Continuous
 62
     7
100
AcDbLine
 10
140.8151454157312
 20
232.3142206228736
 30
0.0
 11
142.6547454157313
 21
232.4754206228737
 31
0.0
  0
LINE
  5
C95
330
1F
100
AcDbEntity
  8
0
  6
Continuous
 62
     7
100
AcDbLine
 10
143.9545454157312
 20
227.9744312627234
 30
0.0
 11
143.9545454157312
 21
232.5743312627232
 31
0.0
  0
LINE
  5
C96
330
1F
100
AcDbEntity
  8
0
  6
Continuous
 62
     7
100
AcDbLine
 10
142.6547454157313
 20
228.3228312627234
 30
0.0
 11
143.9545454157312
 21
227.9744312627234
 31
0.0
  0
LINE
  5
C97
330
1F
100
AcDbEntity
  8
0
  6
Continuous
 62
     7
100
AcDbLine
 10
143.9545454157312
 20
232.5743312627232
 30
0.0
 11
142.6547454157313
 21
232.5743312627232
 31
0.0
  0
LINE
  5
C98
330
1F
100
AcDbEntity
  8
0
  6
Continuous
 62
     7
100
AcDbLine
 10
139.3549454157313
 20
230.7205206228735
 30
0.0
 11
139.3549454157313
 21
227.9744312627235
 31
0.0
  0
LINE
  5
C99
330
1F
100
AcDbEntity
  8
0
  6
Continuous
 62
     7
100
AcDbLine
 10
163.4545454157312
 20
224.9745812627233
 30
0.0
 11
158.4545454157312
 21
224.9745812627233
 31
0.0
  0
LINE
  5
C9A
330
1F
100
AcDbEntity
  8
100
  6
Continuous
 62
    30
100
AcDbLine
 10
163.9545454157312
 20
225.4745812627233
 30
0.0
 11
158.4545454157313
 21
225.4745812627233
 31
0.0
  0
LINE
  5
C9B
330
1F
100
AcDbEntity
  8
100
  6
Continuous
 62
    30
100
AcDbLine
 10
163.9545454157312
 20
230.4742812627234
 30
0.0
 11
158.4545454157312
 21
230.4742812627234
 31
0.0
  0
LINE
  5
C9C
330
1F
100
AcDbEntity
  8
0
  6
Continuous
 62
     7
100
AcDbLine
 10
163.4545454157312
 20
230.9742812627234
 30
0.0
 11
158.4545454157312
 21
230.9742812627234
 31
0.0
  0
LINE
  5
C9D
330
1F
100
AcDbEntity
  8
0
  6
Continuous
 62
     7
100
AcDbLine
 10
158.4545454157312
 20
218.2537894590156
 30
0.0
 11
143.9545454157312
 21
218.2537894590156
 31
0.0
  0
LINE
  5
C9E
330
1F
100
AcDbEntity
  8
0
  6
Continuous
 62
     7
100
AcDbLine
 10
158.4545454157312
 20
234.9744312627233
 30
0.0
 11
143.9545454157312
 21
234.9744312627233
 31
0.0
  0
LINE
  5
C9F
330
1F
100
AcDbEntity
  8
0
  6
Continuous
 62
     7
100
AcDbLine
 10
163.4545454157312
 20
230.9742812627234
 30
0.0
 11
163.4545454157312
 21
224.9745812627233
 31
0.0
  0
LINE
  5
CA0
330
1F
100
AcDbEntity
  8
0
  6
Continuous
 62
     7
100
AcDbLine
 10
163.9545454157312
 20
225.4745812627233
 30
0.0
 11
163.4545454157312
 21
224.9745812627233
 31
0.0
  0
LINE
  5
CA1
330
1F
100
AcDbEntity
  8
0
  6
Continuous
 62
     7
100
AcDbLine
 10
163.9545454157312
 20
230.4742812627234
 30
0.0
 11
163.4545454157312
 21
230.9742812627234
 31
0.0
  0
LINE
  5
CA2
330
1F
100
AcDbEntity
  8
0
  6
Continuous
 62
     7
100
AcDbLine
 10
163.9545454157312
 20
225.4745812627233
 30
0.0
 11
163.9545454157312
 21
230.4742812627234
 31
0.0
  0
LINE
  5
CA3
330
1F
100
AcDbEntity
  8
0
  6
DASH_CENTER
 62
    30
100
AcDbLine
 10
168.8636097638973
 20
227.9744312627234
 30
0.0
 11
134.8626062493495
 21
227.9744312627234
 31
0.0
  0
LINE
  5
CA4
330
1F
100
AcDbEntity
  8
0
  6
Continuous
 62
     7
100
AcDbLine
 10
140.8151454157312
 20
-134.0100610108531
 30
0.0
 11
142.6547454157313
 21
-133.848861010853
 31
0.0
  0
LINE
  5
CA5
330
1F
100
AcDbEntity
  8
0
  6
Continuous
 62
     7
100
AcDbLine
 10
143.954545415731
 20
-138.3498503710034
 30
0.0
 11
143.954545415731
 21
-133.7499503710035
 31
0.0
  0
LINE
  5
CA6
330
1F
100
AcDbEntity
  8
0
  6
Continuous
 62
     7
100
AcDbLine
 10
142.654945415731
 20
-138.0014503710033
 30
0.0
 11
142.6547454157313
 21
-133.7499503710035
 31
0.0
  0
LINE
  5
CA7
330
1F
100
AcDbEntity
  8
0
  6
Continuous
 62
     7
100
AcDbLine
 10
143.954545415731
 20
-137.6530503710032
 30
0.0
 11
142.6547454157313
 21
-138.0014503710033
 31
0.0
  0
LINE
  5
CA8
330
1F
100
AcDbEntity
  8
0
  6
Continuous
 62
     7
100
AcDbLine
 10
143.954545415731
 20
-133.7499503710035
 30
0.0
 11
142.6547454157313
 21
-133.7499503710035
 31
0.0
  0
LINE
  5
CA9
330
1F
100
AcDbEntity
  8
0
  6
Continuous
 62
     7
100
AcDbLine
 10
139.3549454157313
 20
-135.6037610108532
 30
0.0
 11
139.3549454157313
 21
-138.3498503710036
 31
0.0
  0
LINE
  5
CAA
330
1F
100
AcDbEntity
  8
0
  6
Continuous
 62
     7
100
AcDbLine
 10
142.6547454157313
 20
-142.8508397311538
 30
0.0
 11
140.8151454157312
 21
-142.6896397311536
 31
0.0
  0
LINE
  5
CAB
330
1F
100
AcDbEntity
  8
0
  6
Continuous
 62
     7
100
AcDbLine
 10
143.954545415731
 20
-142.9497503710033
 30
0.0
 11
143.954545415731
 21
-138.3498503710034
 31
0.0
  0
LINE
  5
CAC
330
1F
100
AcDbEntity
  8
0
  6
Continuous
 62
     7
100
AcDbLine
 10
142.6547454157313
 20
-142.9497503710033
 30
0.0
 11
142.654945415731
 21
-138.6982503710035
 31
0.0
  0
LINE
  5
CAD
330
1F
100
AcDbEntity
  8
0
  6
Continuous
 62
     7
100
AcDbLine
 10
143.954545415731
 20
-138.3498503710034
 30
0.0
 11
142.6547454157313
 21
-138.6982503710035
 31
0.0
  0
LINE
  5
CAE
330
1F
100
AcDbEntity
  8
0
  6
Continuous
 62
     7
100
AcDbLine
 10
142.6547454157313
 20
-142.9497503710033
 30
0.0
 11
143.954545415731
 21
-142.9497503710033
 31
0.0
  0
LINE
  5
CAF
330
1F
100
AcDbEntity
  8
0
  6
Continuous
 62
     7
100
AcDbLine
 10
139.3549454157313
 20
-138.3498503710036
 30
0.0
 11
139.3549454157313
 21
-141.0959397311536
 31
0.0
  0
LINE
  5
CB0
330
1F
100
AcDbEntity
  8
10
  6
Continuous
 62
     7
100
AcDbLine
 10
158.4545454157312
 20
-153.8887989627163
 30
0.0
 11
158.4545454157312
 21
44.81229044585989
 31
0.0
  0
LINE
  5
CB1
330
1F
100
AcDbEntity
  8
0
  6
Continuous
 62
     7
100
AcDbLine
 10
158.4545454157311
 20
-135.3500003710033
 30
0.0
 11
163.4545454157311
 21
-135.3500003710033
 31
0.0
  0
LINE
  5
CB2
330
1F
100
AcDbEntity
  8
100
  6
Continuous
 62
    30
100
AcDbLine
 10
158.4545454157313
 20
-135.8500003710034
 30
0.0
 11
163.9545454157311
 21
-135.8500003710034
 31
0.0
  0
LINE
  5
CB3
330
1F
100
AcDbEntity
  8
100
  6
Continuous
 62
    30
100
AcDbLine
 10
158.4545454157311
 20
-140.8497003710034
 30
0.0
 11
163.9545454157311
 21
-140.8497003710034
 31
0.0
  0
LINE
  5
CB4
330
1F
100
AcDbEntity
  8
0
  6
Continuous
 62
     7
100
AcDbLine
 10
158.4545454157311
 20
-141.3497003710034
 30
0.0
 11
163.4545454157311
 21
-141.3497003710034
 31
0.0
  0
LINE
  5
CB5
330
1F
100
AcDbEntity
  8
0
  6
Continuous
 62
     7
100
AcDbLine
 10
377.5265454157342
 20
38.46813593660336
 30
0.0
 11
362.7264454157313
 21
38.46813593660336
 31
0.0
  0
LINE
  5
CB6
330
1F
100
AcDbEntity
  8
0
  6
Continuous
 62
     7
100
AcDbLine
 10
362.7264454157313
 20
51.15644495511651
 30
0.0
 11
377.5265454157314
 21
51.15644495511651
 31
0.0
  0
LINE
  5
CB7
330
1F
100
AcDbEntity
  8
0
  6
Continuous
 62
     7
100
AcDbLine
 10
377.5265454157314
 20
38.46813593660336
 30
0.0
 11
362.7264454157313
 21
38.46813593660336
 31
0.0
  0
LINE
  5
CB8
330
1F
100
AcDbEntity
  8
0
  6
Continuous
 62
     7
100
AcDbLine
 10
304.9025454157341
 20
38.46813593660336
 30
0.0
 11
290.1024454157314
 21
38.46813593660336
 31
0.0
  0
LINE
  5
CB9
330
1F
100
AcDbEntity
  8
0
  6
Continuous
 62
     7
100
AcDbLine
 10
380.0264454157313
 20
55.02143790273715
 30
0.0
 11
362.7264454157312
 21
55.02143790273715
 31
0.0
  0
LINE
  5
CBA
330
1F
100
AcDbEntity
  8
0
  6
Continuous
 62
     7
100
AcDbLine
 10
380.0264454157313
 20
51.15644495511651
 30
0.0
 11
362.7264454157313
 21
51.15644495511651
 31
0.0
  0
LINE
  5
CBB
330
1F
100
AcDbEntity
  8
0
  6
Continuous
 62
     7
100
AcDbLine
 10
306.9025454157314
 20
241.8122904458598
 30
0.0
 11
360.7265454169656
 21
241.8122904458598
 31
0.0
  0
LINE
  5
CBC
330
1F
100
AcDbEntity
  8
0
  6
Continuous
 62
     7
100
AcDbLine
 10
290.1024454157313
 20
55.02143790273715
 30
0.0
 11
304.9025454157314
 21
55.02143790273715
 31
0.0
  0
LINE
  5
CBD
330
1F
100
AcDbEntity
  8
0
  6
Continuous
 62
     7
100
AcDbLine
 10
290.1024454157314
 20
51.15644495511651
 30
0.0
 11
304.9025454157314
 21
51.15644495511651
 31
0.0
  0
LINE
  5
CBE
330
1F
100
AcDbEntity
  8
0
  6
DASH_CENTER
 62
    30
100
AcDbLine
 10
311.3507277556262
 20
227.9744312627232
 30
0.0
 11
282.1021615096141
 21
227.9744312627232
 31
0.0
  0
LINE
  5
CBF
330
1F
100
AcDbEntity
  8
0
  6
Continuous
 62
     7
100
AcDbLine
 10
288.8026454157314
 20
223.4734419025728
 30
0.0
 11
286.9630454157313
 21
223.6346419025729
 31
0.0
  0
LINE
  5
CC0
330
1F
100
AcDbEntity
  8
0
  6
Continuous
 62
     7
100
AcDbLine
 10
290.1024454157313
 20
223.3745312627233
 30
0.0
 11
290.1024454157313
 21
227.9744312627232
 31
0.0
  0
LINE
  5
CC1
330
1F
100
AcDbEntity
  8
0
  6
Continuous
 62
     7
100
AcDbLine
 10
288.8026454157314
 20
223.3745312627233
 30
0.0
 11
288.8028454157312
 21
227.6260312627231
 31
0.0
  0
LINE
  5
CC2
330
1F
100
AcDbEntity
  8
0
  6
Continuous
 62
     7
100
AcDbLine
 10
288.8026454157314
 20
227.6260312627231
 30
0.0
 11
290.1024454157313
 21
227.277631262723
 31
0.0
  0
LINE
  5
CC3
330
1F
100
AcDbEntity
  8
0
  6
Continuous
 62
     7
100
AcDbLine
 10
288.8026454157314
 20
223.3745312627233
 30
0.0
 11
290.1024454157313
 21
223.3745312627233
 31
0.0
  0
LINE
  5
CC4
330
1F
100
AcDbEntity
  8
0
  6
Continuous
 62
     7
100
AcDbLine
 10
285.5028454157314
 20
227.9744312627234
 30
0.0
 11
285.5028454157314
 21
225.228341902573
 31
0.0
  0
LINE
  5
CC5
330
1F
100
AcDbEntity
  8
0
  6
Continuous
 62
     7
100
AcDbLine
 10
286.9630454157313
 20
232.3142206228735
 30
0.0
 11
288.8026454157314
 21
232.4754206228736
 31
0.0
  0
LINE
  5
CC6
330
1F
100
AcDbEntity
  8
0
  6
Continuous
 62
     7
100
AcDbLine
 10
290.1024454157313
 20
227.9744312627232
 30
0.0
 11
290.1024454157313
 21
232.5743312627231
 31
0.0
  0
LINE
  5
CC7
330
1F
100
AcDbEntity
  8
0
  6
Continuous
 62
     7
100
AcDbLine
 10
288.8028454157312
 20
228.3228312627233
 30
0.0
 11
288.8026454157314
 21
232.5743312627231
 31
0.0
  0
LINE
  5
CC8
330
1F
100
AcDbEntity
  8
0
  6
Continuous
 62
     7
100
AcDbLine
 10
288.8026454157314
 20
228.3228312627233
 30
0.0
 11
290.1024454157313
 21
227.9744312627232
 31
0.0
  0
LINE
  5
CC9
330
1F
100
AcDbEntity
  8
0
  6
Continuous
 62
     7
100
AcDbLine
 10
290.1024454157313
 20
232.5743312627231
 30
0.0
 11
288.8026454157314
 21
232.5743312627231
 31
0.0
  0
LINE
  5
CCA
330
1F
100
AcDbEntity
  8
0
  6
Continuous
 62
     7
100
AcDbLine
 10
285.5028454157314
 20
230.7205206228734
 30
0.0
 11
285.5028454157314
 21
227.9744312627234
 31
0.0
  0
LINE
  5
CCB
330
1F
100
AcDbEntity
  8
0
  6
Continuous
 62
     7
100
AcDbLine
 10
304.9025454157314
 20
234.9744312627232
 30
0.0
 11
290.2025454157314
 21
234.9744312627232
 31
0.0
  0
LINE
  5
CCC
330
1F
100
AcDbEntity
  8
0
  6
Continuous
 62
     7
100
AcDbLine
 10
304.9025454157314
 20
218.2537894590155
 30
0.0
 11
290.2025454157314
 21
218.2537894590155
 31
0.0
  0
LINE
  5
CCD
330
1F
100
AcDbEntity
  8
10
  6
Continuous
 62
     7
100
AcDbLine
 10
304.9025454157314
 20
44.81229044585989
 30
0.0
 11
304.9025454157312
 21
243.5133798544365
 31
0.0
  0
LINE
  5
CCE
330
1F
100
AcDbEntity
  8
10
  6
Continuous
 62
     7
100
AcDbLine
 10
303.0294454157314
 20
244.8122904458598
 30
0.0
 11
297.4025454157314
 21
244.8122904458598
 31
0.0
  0
LINE
  5
CCF
330
1F
100
AcDbEntity
  8
10
  6
Continuous
 62
     7
100
AcDbLine
 10
290.1024454157313
 20
244.8122904458598
 30
0.0
 11
297.4024454157312
 21
244.8122904458598
 31
0.0
  0
LINE
  5
CD0
330
1F
100
AcDbEntity
  8
0
  6
Continuous
 62
     7
100
AcDbLine
 10
297.4024454157312
 20
44.81229044585989
 30
0.0
 11
297.4024454157312
 21
244.8122904458598
 31
0.0
  0
LINE
  5
CD1
330
1F
100
AcDbEntity
  8
10
  6
Continuous
 62
     7
100
AcDbLine
 10
290.1024454157313
 20
44.81229044585996
 30
0.0
 11
290.1024454157313
 21
243.8122904446097
 31
0.0
  0
LINE
  5
CD2
330
1F
100
AcDbEntity
  8
10
  6
Continuous
 62
     7
100
AcDbLine
 10
297.4024454157312
 20
44.81229044585989
 30
0.0
 11
297.4024454157312
 21
114.4573210058975
 31
0.0
  0
LINE
  5
CD3
330
1F
100
AcDbEntity
  8
10
  6
Continuous
 62
     7
100
AcDbLine
 10
290.1024454157313
 20
243.8122904458598
 30
0.0
 11
290.1024454157313
 21
244.8122904458598
 31
0.0
  0
LINE
  5
CD4
330
1F
100
AcDbEntity
  8
0
  6
Continuous
 62
     7
100
AcDbLine
 10
217.2784454157314
 20
55.02143790273715
 30
0.0
 11
232.2785454157314
 21
55.02143790273715
 31
0.0
  0
LINE
  5
CD5
330
1F
100
AcDbEntity
  8
0
  6
Continuous
 62
     7
100
AcDbLine
 10
217.2784454157314
 20
51.15644495511651
 30
0.0
 11
232.2785454157314
 21
51.15644495511651
 31
0.0
  0
LINE
  5
CD6
330
1F
100
AcDbEntity
  8
0
  6
DASH_CENTER
 62
    30
100
AcDbLine
 10
238.7267277556262
 20
227.9744312627232
 30
0.0
 11
209.2781615096142
 21
227.9744312627232
 31
0.0
  0
LINE
  5
CD7
330
1F
100
AcDbEntity
  8
0
  6
Continuous
 62
     7
100
AcDbLine
 10
232.2785454157311
 20
234.9744312627232
 30
0.0
 11
217.3785454157314
 21
234.9744312627232
 31
0.0
  0
LINE
  5
CD8
330
1F
100
AcDbEntity
  8
0
  6
Continuous
 62
     7
100
AcDbLine
 10
232.2785454157311
 20
218.2537894590155
 30
0.0
 11
217.3785454157314
 21
218.2537894590155
 31
0.0
  0
LINE
  5
CD9
330
1F
100
AcDbEntity
  8
10
  6
Continuous
 62
     7
100
AcDbLine
 10
232.2785454157311
 20
44.81229044585989
 30
0.0
 11
232.2785454157312
 21
243.5133798544364
 31
0.0
  0
LINE
  5
CDA
330
1F
100
AcDbEntity
  8
10
  6
Continuous
 62
     7
100
AcDbLine
 10
230.4054454157313
 20
244.8122904458598
 30
0.0
 11
224.7785454157311
 21
244.8122904458598
 31
0.0
  0
LINE
  5
CDB
330
1F
100
AcDbEntity
  8
0
  6
Continuous
 62
     7
100
AcDbLine
 10
234.2785454157312
 20
241.8122904458598
 30
0.0
 11
288.102545415851
 21
241.8122904458598
 31
0.0
  0
LINE
  5
CDC
330
1F
100
AcDbEntity
  8
10
  6
Continuous
 62
     7
100
AcDbLine
 10
217.2784454157314
 20
244.8122904458598
 30
0.0
 11
224.7784454157313
 21
244.8122904458598
 31
0.0
  0
LINE
  5
CDD
330
1F
100
AcDbEntity
  8
0
  6
Continuous
 62
     7
100
AcDbLine
 10
224.7784454157313
 20
44.81229044585989
 30
0.0
 11
224.7784454157313
 21
244.8122904458598
 31
0.0
  0
LINE
  5
CDE
330
1F
100
AcDbEntity
  8
10
  6
Continuous
 62
     7
100
AcDbLine
 10
217.2784454157314
 20
44.81229044585996
 30
0.0
 11
217.2784454157314
 21
243.8122904446097
 31
0.0
  0
LINE
  5
CDF
330
1F
100
AcDbEntity
  8
10
  6
Continuous
 62
     7
100
AcDbLine
 10
224.7784454157313
 20
44.81229044585989
 30
0.0
 11
224.7784454157313
 21
114.4573210058975
 31
0.0
  0
LINE
  5
CE0
330
1F
100
AcDbEntity
  8
0
  6
Continuous
 62
     7
100
AcDbLine
 10
160.4545454157312
 20
241.8122904458598
 30
0.0
 11
215.2785454155001
 21
241.8122904458597
 31
0.0
  0
LINE
  5
CE1
330
1F
100
AcDbEntity
  8
10
  6
Continuous
 62
     7
100
AcDbLine
 10
217.2784454157314
 20
243.8122904458598
 30
0.0
 11
217.2784454157314
 21
244.8122904458598
 31
0.0
  0
LINE
  5
CE2
330
1F
100
AcDbEntity
  8
10
  6
Continuous
 62
     7
100
AcDbLine
 10
158.4545454157312
 20
44.81229044585989
 30
0.0
 11
158.4545454157312
 21
243.5133798544362
 31
0.0
  0
LINE
  5
CE3
330
1F
100
AcDbEntity
  8
10
  6
Continuous
 62
     7
100
AcDbLine
 10
151.1545454157312
 20
44.81229044585989
 30
0.0
 11
151.1545454157312
 21
244.8122904458598
 31
0.0
  0
LINE
  5
CE4
330
1F
100
AcDbEntity
  8
10
  6
Continuous
 62
     7
100
AcDbLine
 10
156.5814454157312
 20
244.8122904458598
 30
0.0
 11
151.1545454157312
 21
244.8122904458598
 31
0.0
  0
LINE
  5
CE5
330
1F
100
AcDbEntity
  8
0
  6
Continuous
 62
     7
100
AcDbLine
 10
69.64589937013285
 20
122.31229044586
 30
0.0
 11
48.64589941573119
 21
122.3122904458598
 31
0.0
  0
LINE
  5
CE6
330
1F
100
AcDbEntity
  8
0
  6
Continuous
 62
     7
100
AcDbLine
 10
82.64589937013289
 20
241.8122904458597
 30
0.0
 11
141.9545454157312
 21
241.8122904458599
 31
0.0
  0
LINE
  5
CE7
330
1F
100
AcDbEntity
  8
0
  6
Continuous
 62
     7
100
AcDbLine
 10
145.8275287619386
 20
244.8122904458597
 30
0.0
 11
151.1545454157312
 21
244.8122904458598
 31
0.0
  0
LINE
  5
CE8
330
1F
100
AcDbEntity
  8
0
  6
Continuous
 62
     7
100
AcDbLine
 10
143.9545454157312
 20
44.81229044585987
 30
0.0
 11
143.9545454157312
 21
243.513670075468
 31
0.0
  0
LINE
  5
CE9
330
1F
100
AcDbEntity
  8
0
  6
Continuous
 62
     7
100
AcDbLine
 10
72.64589937013285
 20
231.8122904458598
 30
0.0
 11
72.64589937013285
 21
44.81229044585996
 31
0.0
  0
LINE
  5
CEA
330
1F
100
AcDbEntity
  8
0
  6
Continuous
 62
     7
100
AcDbLine
 10
158.4545454157311
 20
55.02143790273714
 30
0.0
 11
143.9545454157312
 21
55.02143790273714
 31
0.0
  0
LINE
  5
CEB
330
1F
100
AcDbEntity
  8
0
  6
Continuous
 62
     7
100
AcDbLine
 10
158.4545454157312
 20
51.15644495511651
 30
0.0
 11
143.9545454157312
 21
51.15644495511651
 31
0.0
  0
LINE
  5
CEC
330
1F
100
AcDbEntity
  8
0
  6
Continuous
 62
     7
100
AcDbLine
 10
42.64589941573118
 20
108.3122904458599
 30
0.0
 11
12.14589941573119
 21
108.3122904458599
 31
0.0
  0
LINE
  5
CED
330
1F
100
AcDbEntity
  8
0
  6
Continuous
 62
     7
100
AcDbLine
 10
10.64589941573121
 20
44.81229044585996
 30
0.0
 11
10.64589941573119
 21
106.8122904458599
 31
0.0
  0
LINE
  5
CEE
330
1F
100
AcDbEntity
  8
0
  6
Continuous
 62
     7
100
AcDbLine
 10
48.64589941573119
 20
122.3122904458599
 30
0.0
 11
46.64589941573119
 21
122.3122904458599
 31
0.0
  0
LINE
  5
CEF
330
1F
100
AcDbEntity
  8
0
  6
Continuous
 62
     7
100
AcDbLine
 10
44.64589941573119
 20
117.81229044586
 30
0.0
 11
44.64589941573119
 21
44.81229044585996
 31
0.0
  0
LINE
  5
CF0
330
1F
100
AcDbEntity
  8
0
  6
Continuous
 62
     7
100
AcDbLine
 10
44.64589941573119
 20
120.8123436166218
 30
0.0
 11
44.64589941573119
 21
111.8123436166218
 31
0.0
  0
LINE
  5
CF1
330
1F
100
AcDbEntity
  8
0
  6
Continuous
 62
     7
100
AcDbLine
 10
41.3460994157312
 20
113.5672436166217
 30
0.0
 11
41.3460994157312
 21
119.0574436166217
 31
0.0
  0
LINE
  5
CF2
330
1F
100
AcDbEntity
  8
0
  6
Continuous
 62
     7
100
AcDbLine
 10
42.8062994157312
 20
111.9732436166215
 30
0.0
 11
44.64589941573119
 21
111.8123436166218
 31
0.0
  0
LINE
  5
CF3
330
1F
100
AcDbEntity
  8
0
  6
Continuous
 62
     7
100
AcDbLine
 10
42.80629941573117
 20
120.6511436166218
 30
0.0
 11
44.64589941573119
 21
120.8123436166218
 31
0.0
  0
LINE
  5
CF4
330
1F
100
AcDbEntity
  8
0
  6
DASH_CENTER
 62
    30
100
AcDbLine
 10
61.39761122533815
 20
116.31229044586
 30
0.0
 11
37.38497003677183
 21
116.31229044586
 31
0.0
  0
LINE
  5
CF5
330
1F
100
AcDbEntity
  8
0
  6
Continuous
 62
     7
100
AcDbLine
 10
42.80629941573117
 20
49.15114361662172
 30
0.0
 11
44.64589941573119
 21
49.31234361662172
 31
0.0
  0
LINE
  5
D77
330
1F
100
AcDbEntity
  8
0
  6
DASH_CENTER
 62
    30
100
AcDbLine
 10
-733.2451836710951
 20
44.81229044585996
 30
0.0
 11
-728.4800375208618
 21
44.81229044585996
 31
0.0
  0
LINE
  5
DB0
330
1F
100
AcDbEntity
  8
0
  6
DASH_CENTER
 62
    30
100
AcDbLine
 10
-516.4800375208616
 20
259.2400767892711
 30
0.0
 11
-516.4800375208616
 21
-192.039894833946
 31
0.0
  0
LINE
  5
DB1
330
1F
100
AcDbEntity
  8
0
  6
Continuous
 62
     7
100
AcDbLine
 10
-490.1551443586853
 20
47.81229044585995
 30
0.0
 11
-459.8113196109832
 21
47.81229044585995
 31
0.0
  0
LINE
  5
DB2
330
1F
100
AcDbEntity
  8
0
  6
Continuous
 62
     7
100
AcDbLine
 10
-490.1551443586853
 20
41.81229044585996
 30
0.0
 11
-459.8113196109832
 21
41.81229044585996
 31
0.0
  0
LINE
  5
DB3
330
1F
100
AcDbEntity
  8
0
  6
Continuous
 62
     7
100
AcDbLine
 10
-513.4800375208616
 20
18.4873972836836
 30
0.0
 11
-513.4800375208616
 21
-11.85642746401856
 31
0.0
  0
LINE
  5
DB4
330
1F
100
AcDbEntity
  8
0
  6
Continuous
 62
     7
100
AcDbLine
 10
-519.4800375208616
 20
18.4873972836836
 30
0.0
 11
-519.4800375208616
 21
-11.85642746401856
 31
0.0
  0
LINE
  5
DB5
330
1F
100
AcDbEntity
  8
0
  6
Continuous
 62
     7
100
AcDbLine
 10
-542.8049306830381
 20
41.81229044585996
 30
0.0
 11
-573.1487554307403
 21
41.81229044585996
 31
0.0
  0
LINE
  5
DB6
330
1F
100
AcDbEntity
  8
0
  6
Continuous
 62
     7
100
AcDbLine
 10
-542.8049306830381
 20
47.81229044585995
 30
0.0
 11
-573.1487554307403
 21
47.81229044585995
 31
0.0
  0
LINE
  5
DB7
330
1F
100
AcDbEntity
  8
0
  6
Continuous
 62
     7
100
AcDbLine
 10
-519.4800375208616
 20
71.13718360803638
 30
0.0
 11
-519.4800375208616
 21
101.5142077175996
 31
0.0
  0
LINE
  5
DB8
330
1F
100
AcDbEntity
  8
0
  6
Continuous
 62
     7
100
AcDbLine
 10
-513.4800375208616
 20
71.13718360803638
 30
0.0
 11
-513.4800375208616
 21
101.5142077175996
 31
0.0
  0
LINE
  5
DB9
330
1F
100
AcDbEntity
  8
0
  6
Continuous
 62
     7
100
AcDbLine
 10
-513.7129764818563
 20
188.0723783187354
 30
0.0
 11
-517.8897208068718
 21
183.0947282640506
 31
0.0
  0
LINE
  5
DBA
330
1F
100
AcDbEntity
  8
0
  6
Continuous
 62
     7
100
AcDbLine
 10
-532.3230521635308
 20
192.1340082921329
 30
0.0
 11
-531.1043587294796
 21
182.2085467757196
 31
0.0
  0
LINE
  5
DBB
330
1F
100
AcDbEntity
  8
0
  6
Continuous
 62
     7
100
AcDbLine
 10
-532.3230521635308
 20
192.1340082921329
 30
0.0
 11
-550.089121417617
 21
173.0822315239194
 31
0.0
  0
LINE
  5
DBC
330
1F
100
AcDbEntity
  8
0
  6
Continuous
 62
     7
100
AcDbLine
 10
-479.2779771180696
 20
182.4386977156952
 30
0.0
 11
-486.2986057443753
 21
174.0718383280257
 31
0.0
  0
LINE
  5
DBD
330
1F
100
AcDbEntity
  8
0
  6
Continuous
 62
     7
100
AcDbLine
 10
-446.3799375208613
 20
45.31229044585995
 30
0.0
 11
-444.9800375208616
 21
45.31229044585995
 31
0.0
  0
LINE
  5
DBE
330
1F
100
AcDbEntity
  8
0
  6
Continuous
 62
     7
100
AcDbLine
 10
-446.3799375208613
 20
44.31229044585996
 30
0.0
 11
-444.9800375208616
 21
44.31229044585996
 31
0.0
  0
LINE
  5
DBF
330
1F
100
AcDbEntity
  8
0
  6
Continuous
 62
     7
100
AcDbLine
 10
-444.4800375208616
 20
42.41239044585973
 30
0.0
 11
-444.4800375208616
 21
43.81229044585995
 31
0.0
  0
LINE
  5
DC0
330
1F
100
AcDbEntity
  8
0
  6
Continuous
 62
     7
100
AcDbLine
 10
-443.4800375208617
 20
42.41239044585973
 30
0.0
 11
-443.4800375208617
 21
43.81229044585995
 31
0.0
  0
LINE
  5
DC1
330
1F
100
AcDbEntity
  8
0
  6
Continuous
 62
     7
100
AcDbLine
 10
-442.9800375208617
 20
45.31229044585995
 30
0.0
 11
-441.5801375208613
 21
45.31229044585995
 31
0.0
  0
LINE
  5
DC2
330
1F
100
AcDbEntity
  8
0
  6
Continuous
 62
     7
100
AcDbLine
 10
-444.4800375208616
 20
45.81229044585995
 30
0.0
 11
-444.4800375208616
 21
47.21219044585972
 31
0.0
  0
LINE
  5
DC3
330
1F
100
AcDbEntity
  8
0
  6
Continuous
 62
     7
100
AcDbLine
 10
-443.4800375208617
 20
45.81229044585995
 30
0.0
 11
-443.4800375208617
 21
47.21219044585972
 31
0.0
  0
LINE
  5
DC4
330
1F
100
AcDbEntity
  8
0
  6
Continuous
 62
     7
100
AcDbLine
 10
-442.9800375208617
 20
44.31229044585996
 30
0.0
 11
-441.5801375208613
 21
44.31229044585996
 31
0.0
  0
LINE
  5
DC5
330
1F
100
AcDbEntity
  8
0
  6
Continuous
 62
     7
100
AcDbLine
 10
-444.4800375208616
 20
47.21219044585972
 30
0.0
 11
-443.4800375208617
 21
47.21219044585972
 31
0.0
  0
LINE
  5
DC6
330
1F
100
AcDbEntity
  8
0
  6
Continuous
 62
     7
100
AcDbLine
 10
-444.4800375208616
 20
42.41239044585973
 30
0.0
 11
-443.4800375208617
 21
42.41239044585973
 31
0.0
  0
LINE
  5
DC7
330
1F
100
AcDbEntity
  8
0
  6
Continuous
 62
     7
100
AcDbLine
 10
-446.3799375208613
 20
44.31229044585996
 30
0.0
 11
-446.3799375208613
 21
45.31229044585995
 31
0.0
  0
LINE
  5
DC8
330
1F
100
AcDbEntity
  8
0
  6
Continuous
 62
     7
100
AcDbLine
 10
-441.5801375208613
 20
44.31229044585996
 30
0.0
 11
-441.5801375208613
 21
45.31229044585995
 31
0.0
  0
LINE
  5
DC9
330
1F
100
AcDbEntity
  8
0
  6
Continuous
 62
     7
100
AcDbLine
 10
-515.9800375208616
 20
-25.28780955414017
 30
0.0
 11
-515.9800375208616
 21
-26.68770955414004
 31
0.0
  0
LINE
  5
DCA
330
1F
100
AcDbEntity
  8
0
  6
Continuous
 62
     7
100
AcDbLine
 10
-516.9800375208616
 20
-25.28780955414017
 30
0.0
 11
-516.9800375208616
 21
-26.68770955414004
 31
0.0
  0
LINE
  5
DCB
330
1F
100
AcDbEntity
  8
0
  6
Continuous
 62
     7
100
AcDbLine
 10
-518.8799375208618
 20
-27.18770955414004
 30
0.0
 11
-517.4800375208616
 21
-27.18770955414004
 31
0.0
  0
LINE
  5
DCC
330
1F
100
AcDbEntity
  8
0
  6
Continuous
 62
     7
100
AcDbLine
 10
-518.8799375208618
 20
-28.18770955414004
 30
0.0
 11
-517.4800375208616
 21
-28.18770955414004
 31
0.0
  0
LINE
  5
DCD
330
1F
100
AcDbEntity
  8
0
  6
Continuous
 62
     7
100
AcDbLine
 10
-515.9800375208616
 20
-28.68770955414004
 30
0.0
 11
-515.9800375208616
 21
-30.08760955414016
 31
0.0
  0
LINE
  5
DCE
330
1F
100
AcDbEntity
  8
0
  6
Continuous
 62
     7
100
AcDbLine
 10
-515.4800375208616
 20
-27.18770955414004
 30
0.0
 11
-514.0801375208618
 21
-27.18770955414004
 31
0.0
  0
LINE
  5
DCF
330
1F
100
AcDbEntity
  8
0
  6
Continuous
 62
     7
100
AcDbLine
 10
-515.4800375208616
 20
-28.18770955414004
 30
0.0
 11
-514.0801375208618
 21
-28.18770955414004
 31
0.0
  0
LINE
  5
DD0
330
1F
100
AcDbEntity
  8
0
  6
Continuous
 62
     7
100
AcDbLine
 10
-516.9800375208616
 20
-28.68770955414004
 30
0.0
 11
-516.9800375208616
 21
-30.08760955414016
 31
0.0
  0
LINE
  5
DD1
330
1F
100
AcDbEntity
  8
0
  6
Continuous
 62
     7
100
AcDbLine
 10
-514.0801375208618
 20
-27.18770955414004
 30
0.0
 11
-514.0801375208618
 21
-28.18770955414004
 31
0.0
  0
LINE
  5
DD2
330
1F
100
AcDbEntity
  8
0
  6
Continuous
 62
     7
100
AcDbLine
 10
-518.8799375208618
 20
-27.18770955414004
 30
0.0
 11
-518.8799375208618
 21
-28.18770955414004
 31
0.0
  0
LINE
  5
DD3
330
1F
100
AcDbEntity
  8
0
  6
Continuous
 62
     7
100
AcDbLine
 10
-516.9800375208616
 20
-25.28780955414017
 30
0.0
 11
-515.9800375208616
 21
-25.28780955414017
 31
0.0
  0
LINE
  5
DD4
330
1F
100
AcDbEntity
  8
0
  6
Continuous
 62
     7
100
AcDbLine
 10
-516.9800375208616
 20
-30.08760955414016
 30
0.0
 11
-515.9800375208616
 21
-30.08760955414016
 31
0.0
  0
LINE
  5
DD5
330
1F
100
AcDbEntity
  8
0
  6
Continuous
 62
     7
100
AcDbLine
 10
-586.5801375208617
 20
44.31229044586
 30
0.0
 11
-587.9800375208617
 21
44.31229044586
 31
0.0
  0
LINE
  5
DD6
330
1F
100
AcDbEntity
  8
0
  6
Continuous
 62
     7
100
AcDbLine
 10
-586.5801375208617
 20
45.31229044586001
 30
0.0
 11
-587.9800375208617
 21
45.31229044586001
 31
0.0
  0
LINE
  5
DD7
330
1F
100
AcDbEntity
  8
0
  6
Continuous
 62
     7
100
AcDbLine
 10
-588.4800375208617
 20
47.21219044586017
 30
0.0
 11
-588.4800375208617
 21
45.81229044586001
 31
0.0
  0
LINE
  5
DD8
330
1F
100
AcDbEntity
  8
0
  6
Continuous
 62
     7
100
AcDbLine
 10
-589.4800375208617
 20
47.21219044586017
 30
0.0
 11
-589.4800375208617
 21
45.81229044586001
 31
0.0
  0
LINE
  5
DD9
330
1F
100
AcDbEntity
  8
0
  6
Continuous
 62
     7
100
AcDbLine
 10
-589.9800375208617
 20
44.31229044586
 30
0.0
 11
-591.3799375208617
 21
44.31229044586
 31
0.0
  0
LINE
  5
DDA
330
1F
100
AcDbEntity
  8
0
  6
Continuous
 62
     7
100
AcDbLine
 10
-588.4800375208617
 20
43.81229044586
 30
0.0
 11
-588.4800375208617
 21
42.41239044586018
 31
0.0
  0
LINE
  5
DDB
330
1F
100
AcDbEntity
  8
0
  6
Continuous
 62
     7
100
AcDbLine
 10
-589.4800375208617
 20
43.81229044586
 30
0.0
 11
-589.4800375208617
 21
42.41239044586018
 31
0.0
  0
LINE
  5
DDC
330
1F
100
AcDbEntity
  8
0
  6
Continuous
 62
     7
100
AcDbLine
 10
-589.9800375208617
 20
45.31229044586001
 30
0.0
 11
-591.3799375208617
 21
45.31229044586001
 31
0.0
  0
LINE
  5
DDD
330
1F
100
AcDbEntity
  8
0
  6
Continuous
 62
     7
100
AcDbLine
 10
-588.4800375208617
 20
42.41239044586018
 30
0.0
 11
-589.4800375208617
 21
42.41239044586018
 31
0.0
  0
LINE
  5
DDE
330
1F
100
AcDbEntity
  8
0
  6
Continuous
 62
     7
100
AcDbLine
 10
-588.4800375208617
 20
47.21219044586017
 30
0.0
 11
-589.4800375208617
 21
47.21219044586017
 31
0.0
  0
LINE
  5
DDF
330
1F
100
AcDbEntity
  8
0
  6
Continuous
 62
     7
100
AcDbLine
 10
-586.5801375208617
 20
45.31229044586001
 30
0.0
 11
-586.5801375208617
 21
44.31229044586
 31
0.0
  0
LINE
  5
DE0
330
1F
100
AcDbEntity
  8
0
  6
Continuous
 62
     7
100
AcDbLine
 10
-591.3799375208617
 20
45.31229044586001
 30
0.0
 11
-591.3799375208617
 21
44.31229044586
 31
0.0
  0
LINE
  5
DE1
330
1F
100
AcDbEntity
  8
0
  6
Continuous
 62
     7
100
AcDbLine
 10
-516.9800375208616
 20
114.9123904458602
 30
0.0
 11
-516.9800375208616
 21
116.3122904458599
 31
0.0
  0
LINE
  5
DE2
330
1F
100
AcDbEntity
  8
0
  6
Continuous
 62
     7
100
AcDbLine
 10
-515.9800375208616
 20
114.9123904458602
 30
0.0
 11
-515.9800375208616
 21
116.3122904458599
 31
0.0
  0
LINE
  5
DE3
330
1F
100
AcDbEntity
  8
0
  6
Continuous
 62
     7
100
AcDbLine
 10
-514.0801375208614
 20
116.8122904458599
 30
0.0
 11
-515.4800375208616
 21
116.8122904458599
 31
0.0
  0
LINE
  5
DE4
330
1F
100
AcDbEntity
  8
0
  6
Continuous
 62
     7
100
AcDbLine
 10
-514.0801375208614
 20
117.8122904458599
 30
0.0
 11
-515.4800375208616
 21
117.8122904458599
 31
0.0
  0
LINE
  5
DE5
330
1F
100
AcDbEntity
  8
0
  6
Continuous
 62
     7
100
AcDbLine
 10
-516.9800375208616
 20
118.3122904458599
 30
0.0
 11
-516.9800375208616
 21
119.7121904458602
 31
0.0
  0
LINE
  5
DE6
330
1F
100
AcDbEntity
  8
0
  6
Continuous
 62
     7
100
AcDbLine
 10
-517.4800375208616
 20
116.8122904458599
 30
0.0
 11
-518.8799375208613
 21
116.8122904458599
 31
0.0
  0
LINE
  5
DE7
330
1F
100
AcDbEntity
  8
0
  6
Continuous
 62
     7
100
AcDbLine
 10
-517.4800375208616
 20
117.8122904458599
 30
0.0
 11
-518.8799375208613
 21
117.8122904458599
 31
0.0
  0
LINE
  5
DE8
330
1F
100
AcDbEntity
  8
0
  6
Continuous
 62
     7
100
AcDbLine
 10
-515.9800375208616
 20
118.3122904458599
 30
0.0
 11
-515.9800375208616
 21
119.7121904458602
 31
0.0
  0
LINE
  5
DE9
330
1F
100
AcDbEntity
  8
0
  6
Continuous
 62
     7
100
AcDbLine
 10
-518.8799375208613
 20
116.8122904458599
 30
0.0
 11
-518.8799375208613
 21
117.8122904458599
 31
0.0
  0
LINE
  5
DEA
330
1F
100
AcDbEntity
  8
0
  6
Continuous
 62
     7
100
AcDbLine
 10
-514.0801375208614
 20
116.8122904458599
 30
0.0
 11
-514.0801375208614
 21
117.8122904458599
 31
0.0
  0
LINE
  5
DEB
330
1F
100
AcDbEntity
  8
0
  6
Continuous
 62
     7
100
AcDbLine
 10
-515.9800375208616
 20
114.9123904458602
 30
0.0
 11
-516.9800375208616
 21
114.9123904458602
 31
0.0
  0
LINE
  5
DEC
330
1F
100
AcDbEntity
  8
0
  6
Continuous
 62
     7
100
AcDbLine
 10
-515.9800375208616
 20
119.7121904458602
 30
0.0
 11
-516.9800375208616
 21
119.7121904458602
 31
0.0
  0
LINE
  5
DED
330
1F
100
AcDbEntity
  8
0
  6
DASH_CENTER
 62
    30
100
AcDbLine
 10
-612.6872133962552
 20
-121.8234262230383
 30
0.0
 11
-625.6489264651303
 21
-144.2737718114591
 31
0.0
  0
LINE
  5
DEE
330
1F
100
AcDbEntity
  8
0
  6
DASH_CENTER
 62
    30
100
AcDbLine
 10
-407.3111485765926
 20
-144.2737718114591
 30
0.0
 11
-420.2728616454676
 21
-121.8234262230382
 31
0.0
  0
LINE
  5
DEF
330
1F
100
AcDbEntity
  8
0
  6
DASH_CENTER
 62
    30
100
AcDbLine
 10
-625.6489264651308
 20
233.898352703179
 30
0.0
 11
-612.6872133962557
 21
211.448007114758
 31
0.0
  0
LINE
  5
DF0
330
1F
100
AcDbEntity
  8
0
  6
DASH_CENTER
 62
    30
100
AcDbLine
 10
-420.2728616454676
 20
211.4480071147581
 30
0.0
 11
-407.3111485765926
 21
233.8983527031792
 31
0.0
  0
LINE
  5
DF1
330
1F
100
AcDbEntity
  8
0
  6
Continuous
 62
     7
100
AcDbLine
 10
-423.08508294686
 20
224.5174988999745
 30
0.0
 11
-417.9950725753192
 21
228.0815625316929
 31
0.0
  0
LINE
  5
DF2
330
1F
100
AcDbEntity
  8
0
  6
Continuous
 62
     7
100
AcDbLine
 10
-416.7744138888418
 20
-133.6433154851393
 30
0.0
 11
-415.3194912104838
 21
-132.8033154851392
 31
0.0
  0
LINE
  5
DF3
330
1F
100
AcDbEntity
  8
0
  6
Continuous
 62
     7
100
AcDbLine
 10
-416.1744638888421
 20
-134.68245936714
 30
0.0
 11
-414.7195412104841
 21
-133.84245936714
 31
0.0
  0
LINE
  5
DF4
330
1F
100
AcDbEntity
  8
0
  6
Continuous
 62
     7
100
AcDbLine
 10
-413.059939365673
 20
-135.5167740826878
 30
0.0
 11
-413.8997893656729
 21
-134.0621112119511
 31
0.0
  0
LINE
  5
DF5
330
1F
100
AcDbEntity
  8
0
  6
Continuous
 62
     7
100
AcDbLine
 10
-412.020795483672
 20
-134.9168240826877
 30
0.0
 11
-412.8606454836721
 21
-133.4621612119511
 31
0.0
  0
LINE
  5
DF6
330
1F
100
AcDbEntity
  8
0
  6
Continuous
 62
     7
100
AcDbLine
 10
-413.2409436388608
 20
-131.6032654851392
 30
0.0
 11
-411.7861075630435
 21
-130.7633154851393
 31
0.0
  0
LINE
  5
DF7
330
1F
100
AcDbEntity
  8
0
  6
Continuous
 62
     7
100
AcDbLine
 10
-415.0998393656728
 20
-131.9835636403281
 30
0.0
 11
-415.939689365673
 21
-130.5289007695913
 31
0.0
  0
LINE
  5
DF8
330
1F
100
AcDbEntity
  8
0
  6
Continuous
 62
     7
100
AcDbLine
 10
-414.060695483672
 20
-131.3836136403281
 30
0.0
 11
-414.900545483672
 21
-129.9289507695914
 31
0.0
  0
LINE
  5
DF9
330
1F
100
AcDbEntity
  8
0
  6
Continuous
 62
     7
100
AcDbLine
 10
-412.6409936388611
 20
-132.64240936714
 30
0.0
 11
-411.1861575630436
 21
-131.8024593671401
 31
0.0
  0
LINE
  5
DFA
330
1F
100
AcDbEntity
  8
0
  6
Continuous
 62
     7
100
AcDbLine
 10
-415.939689365673
 20
-130.5289007695913
 30
0.0
 11
-414.900545483672
 21
-129.9289507695914
 31
0.0
  0
LINE
  5
DFB
330
1F
100
AcDbEntity
  8
0
  6
Continuous
 62
     7
100
AcDbLine
 10
-413.059939365673
 20
-135.5167740826878
 30
0.0
 11
-412.020795483672
 21
-134.9168240826877
 31
0.0
  0
LINE
  5
DFC
330
1F
100
AcDbEntity
  8
0
  6
Continuous
 62
     7
100
AcDbLine
 10
-416.1744638888421
 20
-134.68245936714
 30
0.0
 11
-416.7744138888418
 21
-133.6433154851393
 31
0.0
  0
LINE
  5
DFD
330
1F
100
AcDbEntity
  8
0
  6
Continuous
 62
     7
100
AcDbLine
 10
-411.1861575630436
 20
-131.8024593671401
 30
0.0
 11
-411.7861075630435
 21
-130.7633154851393
 31
0.0
  0
LINE
  5
DFE
330
1F
100
AcDbEntity
  8
0
  6
Continuous
 62
     7
100
AcDbLine
 10
-417.9950725753193
 20
-138.4569816399731
 30
0.0
 11
-423.0850829468598
 21
-134.8929180082546
 31
0.0
  0
LINE
  5
DFF
330
1F
100
AcDbEntity
  8
0
  6
Continuous
 62
     7
100
AcDbLine
 10
-407.5482390942217
 20
-125.9227170275767
 30
0.0
 11
-407.0066746342196
 21
-132.1128271307166
 31
0.0
  0
LINE
  5
E00
330
1F
100
AcDbEntity
  8
0
  6
Continuous
 62
     7
100
AcDbLine
 10
-621.1743138888414
 20
-130.7631154851392
 30
0.0
 11
-619.7193912104836
 21
-131.6031154851392
 31
0.0
  0
LINE
  5
E01
330
1F
100
AcDbEntity
  8
0
  6
Continuous
 62
     7
100
AcDbLine
 10
-621.7742638888412
 20
-131.80225936714
 30
0.0
 11
-620.3193412104832
 21
-132.64225936714
 31
0.0
  0
LINE
  5
E02
330
1F
100
AcDbEntity
  8
0
  6
Continuous
 62
     7
100
AcDbLine
 10
-620.9395393656722
 20
-134.9166740826878
 30
0.0
 11
-620.0996893656722
 21
-133.4620112119511
 31
0.0
  0
LINE
  5
E03
330
1F
100
AcDbEntity
  8
0
  6
Continuous
 62
     7
100
AcDbLine
 10
-619.9003954836712
 20
-135.5166240826877
 30
0.0
 11
-619.0605454836717
 21
-134.061961211951
 31
0.0
  0
LINE
  5
E04
330
1F
100
AcDbEntity
  8
0
  6
Continuous
 62
     7
100
AcDbLine
 10
-617.6408436388602
 20
-132.8031654851393
 30
0.0
 11
-616.1860075630427
 21
-133.6431154851392
 31
0.0
  0
LINE
  5
E05
330
1F
100
AcDbEntity
  8
0
  6
Continuous
 62
     7
100
AcDbLine
 10
-618.8996393656722
 20
-131.3834636403281
 30
0.0
 11
-618.0597893656721
 21
-129.9288007695914
 31
0.0
  0
LINE
  5
E06
330
1F
100
AcDbEntity
  8
0
  6
Continuous
 62
     7
100
AcDbLine
 10
-617.8604954836712
 20
-131.9834136403281
 30
0.0
 11
-617.0206454836714
 21
-130.5287507695913
 31
0.0
  0
LINE
  5
E07
330
1F
100
AcDbEntity
  8
0
  6
Continuous
 62
     7
100
AcDbLine
 10
-618.2407936388604
 20
-133.84230936714
 30
0.0
 11
-616.785957563043
 21
-134.68225936714
 31
0.0
  0
LINE
  5
E08
330
1F
100
AcDbEntity
  8
0
  6
Continuous
 62
     7
100
AcDbLine
 10
-618.0597893656721
 20
-129.9288007695914
 30
0.0
 11
-617.0206454836714
 21
-130.5287507695913
 31
0.0
  0
LINE
  5
E09
330
1F
100
AcDbEntity
  8
0
  6
Continuous
 62
     7
100
AcDbLine
 10
-620.9395393656722
 20
-134.9166740826878
 30
0.0
 11
-619.9003954836712
 21
-135.5166240826877
 31
0.0
  0
LINE
  5
E0A
330
1F
100
AcDbEntity
  8
0
  6
Continuous
 62
     7
100
AcDbLine
 10
-621.7742638888412
 20
-131.80225936714
 30
0.0
 11
-621.1743138888414
 21
-130.7631154851392
 31
0.0
  0
LINE
  5
E0B
330
1F
100
AcDbEntity
  8
0
  6
Continuous
 62
     7
100
AcDbLine
 10
-616.785957563043
 20
-134.68225936714
 30
0.0
 11
-616.1860075630427
 21
-133.6431154851392
 31
0.0
  0
LINE
  5
E0C
330
1F
100
AcDbEntity
  8
0
  6
Continuous
 62
     7
100
AcDbLine
 10
-625.9534004075036
 20
-132.1128271307165
 30
0.0
 11
-625.4118359475016
 21
-125.9227170275767
 31
0.0
  0
LINE
  5
E0D
330
1F
100
AcDbEntity
  8
0
  6
Continuous
 62
     7
100
AcDbLine
 10
-609.8749920948629
 20
-134.8929180082546
 30
0.0
 11
-614.9650024664041
 21
-138.4569816399731
 31
0.0
  0
LINE
  5
E0E
330
1F
100
AcDbEntity
  8
0
  6
Continuous
 62
     7
100
AcDbLine
 10
-720.8799375208618
 20
47.69249044586013
 30
0.0
 11
-720.8799375208618
 21
46.01249044586007
 31
0.0
  0
LINE
  5
E0F
330
1F
100
AcDbEntity
  8
0
  6
Continuous
 62
     7
100
AcDbLine
 10
-722.0798375208617
 20
47.69249044586013
 30
0.0
 11
-722.0798375208617
 21
46.01249044586007
 31
0.0
  0
LINE
  5
E10
330
1F
100
AcDbEntity
  8
0
  6
Continuous
 62
     7
100
AcDbLine
 10
-724.3596375208618
 20
45.41239044585995
 30
0.0
 11
-722.6799375208616
 21
45.41239044585995
 31
0.0
  0
LINE
  5
E11
330
1F
100
AcDbEntity
  8
0
  6
Continuous
 62
     7
100
AcDbLine
 10
-724.3596375208618
 20
44.21249044586011
 30
0.0
 11
-722.6799375208616
 21
44.21249044586011
 31
0.0
  0
LINE
  5
E12
330
1F
100
AcDbEntity
  8
0
  6
Continuous
 62
     7
100
AcDbLine
 10
-720.8799375208618
 20
43.61239044585993
 30
0.0
 11
-720.8799375208618
 21
41.93249044586013
 31
0.0
  0
LINE
  5
E13
330
1F
100
AcDbEntity
  8
0
  6
Continuous
 62
     7
100
AcDbLine
 10
-720.2798375208618
 20
45.41239044585995
 30
0.0
 11
-718.6001375208616
 21
45.41239044585995
 31
0.0
  0
LINE
  5
E14
330
1F
100
AcDbEntity
  8
0
  6
Continuous
 62
     7
100
AcDbLine
 10
-720.2798375208618
 20
44.21249044586011
 30
0.0
 11
-718.6001375208616
 21
44.21249044586011
 31
0.0
  0
LINE
  5
E15
330
1F
100
AcDbEntity
  8
0
  6
Continuous
 62
     7
100
AcDbLine
 10
-722.0798375208617
 20
43.61239044585999
 30
0.0
 11
-722.0798375208617
 21
41.93249044586013
 31
0.0
  0
LINE
  5
E16
330
1F
100
AcDbEntity
  8
0
  6
Continuous
 62
     7
100
AcDbLine
 10
-718.6001375208616
 20
45.41239044585995
 30
0.0
 11
-718.6001375208616
 21
44.21249044586011
 31
0.0
  0
LINE
  5
E17
330
1F
100
AcDbEntity
  8
0
  6
Continuous
 62
     7
100
AcDbLine
 10
-724.3596375208618
 20
45.41239044585995
 30
0.0
 11
-724.3596375208618
 21
44.21249044586011
 31
0.0
  0
LINE
  5
E18
330
1F
100
AcDbEntity
  8
0
  6
Continuous
 62
     7
100
AcDbLine
 10
-722.0798375208617
 20
47.69249044586013
 30
0.0
 11
-720.8799375208618
 21
47.69249044586013
 31
0.0
  0
LINE
  5
E19
330
1F
100
AcDbEntity
  8
0
  6
Continuous
 62
     7
100
AcDbLine
 10
-722.0798375208617
 20
41.93249044586013
 30
0.0
 11
-720.8799375208618
 21
41.93249044586013
 31
0.0
  0
LINE
  5
E1A
330
1F
100
AcDbEntity
  8
0
  6
Continuous
 62
     7
100
AcDbLine
 10
-724.4383653530467
 20
51.15644495511663
 30
0.0
 11
-718.8067905215035
 21
53.78249142653793
 31
0.0
  0
LINE
  5
E1B
330
1F
100
AcDbEntity
  8
0
  6
Continuous
 62
     7
100
AcDbLine
 10
-718.8067905215035
 20
35.8420894651822
 30
0.0
 11
-724.4383653530467
 21
38.46813593660352
 31
0.0
  0
LINE
  5
E1C
330
1F
100
AcDbEntity
  8
0
  6
Continuous
 62
     7
100
AcDbLine
 10
-616.1856611528815
 20
223.2678963768591
 30
0.0
 11
-617.6405838312392
 21
222.4278963768589
 31
0.0
  0
LINE
  5
E1D
330
1F
100
AcDbEntity
  8
0
  6
Continuous
 62
     7
100
AcDbLine
 10
-616.7856111528817
 20
224.3070402588598
 30
0.0
 11
-618.2405338312394
 21
223.4670402588598
 31
0.0
  0
LINE
  5
E1E
330
1F
100
AcDbEntity
  8
0
  6
Continuous
 62
     7
100
AcDbLine
 10
-619.9001356760504
 20
225.1413549744075
 30
0.0
 11
-619.0602856760507
 21
223.6866921036708
 31
0.0
  0
LINE
  5
E1F
330
1F
100
AcDbEntity
  8
0
  6
Continuous
 62
     7
100
AcDbLine
 10
-620.9392795580515
 20
224.5414049744076
 30
0.0
 11
-620.0994295580515
 21
223.0867421036709
 31
0.0
  0
LINE
  5
E20
330
1F
100
AcDbEntity
  8
0
  6
Continuous
 62
     7
100
AcDbLine
 10
-619.7191314028624
 20
221.2278463768589
 30
0.0
 11
-621.1739674786796
 21
220.3878963768591
 31
0.0
  0
LINE
  5
E21
330
1F
100
AcDbEntity
  8
0
  6
Continuous
 62
     7
100
AcDbLine
 10
-617.8602356760506
 20
221.608144532048
 30
0.0
 11
-617.0203856760507
 21
220.1534816613111
 31
0.0
  0
LINE
  5
E22
330
1F
100
AcDbEntity
  8
0
  6
Continuous
 62
     7
100
AcDbLine
 10
-618.8993795580512
 20
221.0081945320479
 30
0.0
 11
-618.0595295580511
 21
219.5535316613111
 31
0.0
  0
LINE
  5
E23
330
1F
100
AcDbEntity
  8
0
  6
Continuous
 62
     7
100
AcDbLine
 10
-620.3190814028626
 20
222.2669902588596
 30
0.0
 11
-621.7739174786799
 21
221.4270402588598
 31
0.0
  0
LINE
  5
E24
330
1F
100
AcDbEntity
  8
0
  6
Continuous
 62
     7
100
AcDbLine
 10
-617.0203856760507
 20
220.1534816613111
 30
0.0
 11
-618.0595295580511
 21
219.5535316613111
 31
0.0
  0
LINE
  5
E25
330
1F
100
AcDbEntity
  8
0
  6
Continuous
 62
     7
100
AcDbLine
 10
-619.9001356760504
 20
225.1413549744075
 30
0.0
 11
-620.9392795580515
 21
224.5414049744076
 31
0.0
  0
LINE
  5
E26
330
1F
100
AcDbEntity
  8
0
  6
Continuous
 62
     7
100
AcDbLine
 10
-616.7856111528817
 20
224.3070402588598
 30
0.0
 11
-616.1856611528815
 21
223.2678963768591
 31
0.0
  0
LINE
  5
E27
330
1F
100
AcDbEntity
  8
0
  6
Continuous
 62
     7
100
AcDbLine
 10
-621.7739174786799
 20
221.4270402588598
 30
0.0
 11
-621.1739674786796
 21
220.3878963768591
 31
0.0
  0
LINE
  5
E28
330
1F
100
AcDbEntity
  8
0
  6
Continuous
 62
     7
100
AcDbLine
 10
-614.9650024664041
 20
228.0815625316928
 30
0.0
 11
-609.8749920948634
 21
224.5174988999745
 31
0.0
  0
LINE
  5
E29
330
1F
100
AcDbEntity
  8
0
  6
Continuous
 62
     7
100
AcDbLine
 10
-625.4118359475016
 20
215.5472979192964
 30
0.0
 11
-625.9534004075036
 21
221.7374080224363
 31
0.0
  0
LINE
  5
E2A
330
1F
100
AcDbEntity
  8
0
  6
Continuous
 62
     7
100
AcDbLine
 10
-411.7857611528818
 20
220.3876963768591
 30
0.0
 11
-413.2406838312398
 21
221.2276963768591
 31
0.0
  0
LINE
  5
E2B
330
1F
100
AcDbEntity
  8
0
  6
Continuous
 62
     7
100
AcDbLine
 10
-411.1858111528821
 20
221.4268402588598
 30
0.0
 11
-412.6407338312398
 21
222.2668402588599
 31
0.0
  0
LINE
  5
E2C
330
1F
100
AcDbEntity
  8
0
  6
Continuous
 62
     7
100
AcDbLine
 10
-412.020535676051
 20
224.5412549744077
 30
0.0
 11
-412.8603856760511
 21
223.086592103671
 31
0.0
  0
LINE
  5
E2D
330
1F
100
AcDbEntity
  8
0
  6
Continuous
 62
     7
100
AcDbLine
 10
-413.059679558052
 20
225.1412049744076
 30
0.0
 11
-413.8995295580519
 21
223.6865421036709
 31
0.0
  0
LINE
  5
E2E
330
1F
100
AcDbEntity
  8
0
  6
Continuous
 62
     7
100
AcDbLine
 10
-415.3192314028627
 20
222.4277463768591
 30
0.0
 11
-416.7740674786801
 21
223.2676963768591
 31
0.0
  0
LINE
  5
E2F
330
1F
100
AcDbEntity
  8
0
  6
Continuous
 62
     7
100
AcDbLine
 10
-414.060435676051
 20
221.0080445320481
 30
0.0
 11
-414.9002856760509
 21
219.5533816613113
 31
0.0
  0
LINE
  5
E30
330
1F
100
AcDbEntity
  8
0
  6
Continuous
 62
     7
100
AcDbLine
 10
-415.0995795580517
 20
221.607994532048
 30
0.0
 11
-415.9394295580517
 21
220.1533316613112
 31
0.0
  0
LINE
  5
E31
330
1F
100
AcDbEntity
  8
0
  6
Continuous
 62
     7
100
AcDbLine
 10
-414.7192814028631
 20
223.4668902588599
 30
0.0
 11
-416.1741174786802
 21
224.3068402588598
 31
0.0
  0
LINE
  5
E32
330
1F
100
AcDbEntity
  8
0
  6
Continuous
 62
     7
100
AcDbLine
 10
-414.9002856760509
 20
219.5533816613113
 30
0.0
 11
-415.9394295580517
 21
220.1533316613112
 31
0.0
  0
LINE
  5
E33
330
1F
100
AcDbEntity
  8
0
  6
Continuous
 62
     7
100
AcDbLine
 10
-412.020535676051
 20
224.5412549744077
 30
0.0
 11
-413.059679558052
 21
225.1412049744076
 31
0.0
  0
LINE
  5
E34
330
1F
100
AcDbEntity
  8
0
  6
Continuous
 62
     7
100
AcDbLine
 10
-411.1858111528821
 20
221.4268402588598
 30
0.0
 11
-411.7857611528818
 21
220.3876963768591
 31
0.0
  0
LINE
  5
E35
330
1F
100
AcDbEntity
  8
0
  6
Continuous
 62
     7
100
AcDbLine
 10
-416.1741174786802
 20
224.3068402588598
 30
0.0
 11
-416.7740674786801
 21
223.2676963768591
 31
0.0
  0
LINE
  5
E36
330
1F
100
AcDbEntity
  8
0
  6
Continuous
 62
     7
100
AcDbLine
 10
-407.0066746342196
 20
221.7374080224364
 30
0.0
 11
-407.5482390942217
 21
215.5472979192966
 31
0.0
  0
LINE
  5
E37
330
1F
100
AcDbEntity
  8
0
  6
Continuous
 62
     7
100
AcDbLine
 10
-312.0801375208615
 20
41.9320904458599
 30
0.0
 11
-312.0801375208615
 21
43.61209044585995
 31
0.0
  0
LINE
  5
E38
330
1F
100
AcDbEntity
  8
0
  6
Continuous
 62
     7
100
AcDbLine
 10
-310.8802375208619
 20
41.9320904458599
 30
0.0
 11
-310.8802375208619
 21
43.61209044585995
 31
0.0
  0
LINE
  5
E39
330
1F
100
AcDbEntity
  8
0
  6
Continuous
 62
     7
100
AcDbLine
 10
-308.6004375208618
 20
44.21219044586007
 30
0.0
 11
-310.2801375208616
 21
44.21219044586007
 31
0.0
  0
LINE
  5
E3A
330
1F
100
AcDbEntity
  8
0
  6
Continuous
 62
     7
100
AcDbLine
 10
-308.6004375208618
 20
45.41209044585992
 30
0.0
 11
-310.2801375208616
 21
45.41209044585992
 31
0.0
  0
LINE
  5
E3B
330
1F
100
AcDbEntity
  8
0
  6
Continuous
 62
     7
100
AcDbLine
 10
-312.0801375208615
 20
46.01219044586001
 30
0.0
 11
-312.0801375208615
 21
47.69209044585989
 31
0.0
  0
LINE
  5
E3C
330
1F
100
AcDbEntity
  8
0
  6
Continuous
 62
     7
100
AcDbLine
 10
-312.6802375208617
 20
44.21219044586007
 30
0.0
 11
-314.3599375208617
 21
44.21219044586007
 31
0.0
  0
LINE
  5
E3D
330
1F
100
AcDbEntity
  8
0
  6
Continuous
 62
     7
100
AcDbLine
 10
-312.6802375208617
 20
45.41209044585992
 30
0.0
 11
-314.3599375208617
 21
45.41209044585992
 31
0.0
  0
LINE
  5
E3E
330
1F
100
AcDbEntity
  8
0
  6
Continuous
 62
     7
100
AcDbLine
 10
-310.8802375208619
 20
46.01219044586001
 30
0.0
 11
-310.8802375208619
 21
47.69209044585989
 31
0.0
  0
LINE
  5
E3F
330
1F
100
AcDbEntity
  8
0
  6
Continuous
 62
     7
100
AcDbLine
 10
-314.3599375208617
 20
44.21219044586007
 30
0.0
 11
-314.3599375208617
 21
45.41209044585992
 31
0.0
  0
LINE
  5
E40
330
1F
100
AcDbEntity
  8
0
  6
Continuous
 62
     7
100
AcDbLine
 10
-308.6004375208618
 20
44.21219044586007
 30
0.0
 11
-308.6004375208618
 21
45.41209044585992
 31
0.0
  0
LINE
  5
E41
330
1F
100
AcDbEntity
  8
0
  6
Continuous
 62
     7
100
AcDbLine
 10
-310.8802375208619
 20
41.9320904458599
 30
0.0
 11
-312.0801375208615
 21
41.9320904458599
 31
0.0
  0
LINE
  5
E42
330
1F
100
AcDbEntity
  8
0
  6
Continuous
 62
     7
100
AcDbLine
 10
-310.8802375208619
 20
47.69209044585989
 30
0.0
 11
-312.0801375208615
 21
47.69209044585989
 31
0.0
  0
LINE
  5
E43
330
1F
100
AcDbEntity
  8
0
  6
Continuous
 62
     7
100
AcDbLine
 10
-308.5217096886768
 20
38.46813593660341
 30
0.0
 11
-314.1532845202197
 21
35.84208946518208
 31
0.0
  0
LINE
  5
E44
330
1F
100
AcDbEntity
  8
0
  6
Continuous
 62
     7
100
AcDbLine
 10
-314.1532845202197
 20
53.78249142653789
 30
0.0
 11
-308.5217096886768
 21
51.15644495511651
 31
0.0
  0
LINE
  5
E57
330
1F
100
AcDbEntity
  8
10
  6
Continuous
 62
     7
100
AcDbLine
 10
-276.4800375208618
 20
-170.1877095541401
 30
0.0
 11
-276.4800375208618
 21
-48.18770955414004
 31
0.0
  0
LINE
  5
E58
330
1F
100
AcDbEntity
  8
10
  6
Continuous
 62
     7
100
AcDbLine
 10
-346.3137535354347
 20
-68.18760955414006
 30
0.0
 11
-291.4802375208619
 21
-68.18760955414006
 31
0.0
  0
LINE
  5
E59
330
1F
100
AcDbEntity
  8
10
  6
Continuous
 62
     7
100
AcDbLine
 10
-408.5633625208616
 20
-150.18780955414
 30
0.0
 11
-291.4802375208619
 21
-150.18780955414
 31
0.0
  0
LINE
  5
E5A
330
1F
100
AcDbEntity
  8
10
  6
Continuous
 62
     7
100
AcDbLine
 10
-288.4802375208619
 20
-168.222349414303
 30
0.0
 11
-288.4802375208619
 21
-50.15306983706114
 31
0.0
  0
LINE
  5
E5B
330
1F
100
AcDbEntity
  8
0
  6
Continuous
 62
     7
100
AcDbLine
 10
-241.4800375208618
 20
-149.18770955414
 30
0.0
 11
-241.4800375208618
 21
-69.18770955414007
 31
0.0
  0
LINE
  5
E5C
330
1F
100
AcDbEntity
  8
0
  6
Continuous
 62
     7
100
AcDbLine
 10
-242.4800375208618
 20
-68.18770955414007
 30
0.0
 11
-268.4800375208618
 21
-68.18770955414007
 31
0.0
  0
LINE
  5
E5D
330
1F
100
AcDbEntity
  8
0
  6
Continuous
 62
     7
100
AcDbLine
 10
-268.4800375208618
 20
-150.1877095541401
 30
0.0
 11
-242.4800375208618
 21
-150.18770955414
 31
0.0
  0
LINE
  5
E5E
330
1F
100
AcDbEntity
  8
10
  6
Continuous
 62
     7
100
AcDbLine
 10
-272.4800375208618
 20
-170.1877095541401
 30
0.0
 11
-286.4805375208618
 21
-170.1877095541401
 31
0.0
  0
LINE
  5
E5F
330
1F
100
AcDbEntity
  8
10
  6
Continuous
 62
     7
100
AcDbLine
 10
-272.4800375208618
 20
-48.18770955414004
 30
0.0
 11
-286.4805375208618
 21
-48.18770955414004
 31
0.0
  0
LINE
  5
E60
330
1F
100
AcDbEntity
  8
0
  6
Continuous
 62
     7
100
AcDbLine
 10
-270.4800375208618
 20
-168.1877095541401
 30
0.0
 11
-270.4800375208618
 21
-50.18770955414004
 31
0.0
  0
LINE
  5
E61
330
1F
100
AcDbEntity
  8
0
  6
Continuous
 62
     7
100
AcDbLine
 10
-270.4800375208618
 20
-79.7457055345098
 30
0.0
 11
-270.4800375208618
 21
-70.74570553450981
 31
0.0
  0
LINE
  5
E62
330
1F
100
AcDbEntity
  8
0
  6
Continuous
 62
     7
100
AcDbLine
 10
-267.1802375208617
 20
-72.50060553450996
 30
0.0
 11
-267.1802375208617
 21
-77.99080553450996
 31
0.0
  0
LINE
  5
E63
330
1F
100
AcDbEntity
  8
0
  6
Continuous
 62
     7
100
AcDbLine
 10
-270.4800375208618
 20
-79.7457055345098
 30
0.0
 11
-268.6404375208617
 21
-79.58480553451003
 31
0.0
  0
LINE
  5
E64
330
1F
100
AcDbEntity
  8
0
  6
Continuous
 62
     7
100
AcDbLine
 10
-270.4801375208617
 20
-70.74570553450981
 30
0.0
 11
-268.6405375208616
 21
-70.90690553450983
 31
0.0
  0
LINE
  5
E65
330
1F
100
AcDbEntity
  8
100
  6
DASH_CENTER
 62
    30
100
AcDbLine
 10
-284.1051575256546
 20
-75.242163212896
 30
0.0
 11
-261.0357686979445
 21
-75.24812703140963
 31
0.0
  0
LINE
  5
E66
330
1F
100
AcDbEntity
  8
0
  6
Continuous
 62
     7
100
AcDbLine
 10
-270.4800375208618
 20
-147.6297135737703
 30
0.0
 11
-270.4800375208618
 21
-138.6297135737703
 31
0.0
  0
LINE
  5
E67
330
1F
100
AcDbEntity
  8
0
  6
Continuous
 62
     7
100
AcDbLine
 10
-267.1802375208617
 20
-140.38461357377
 30
0.0
 11
-267.1802375208617
 21
-145.8748135737702
 31
0.0
  0
LINE
  5
E68
330
1F
100
AcDbEntity
  8
0
  6
Continuous
 62
     7
100
AcDbLine
 10
-268.6404375208617
 20
-138.7906135737701
 30
0.0
 11
-270.4800375208618
 21
-138.6297135737703
 31
0.0
  0
LINE
  5
E69
330
1F
100
AcDbEntity
  8
0
  6
Continuous
 62
     7
100
AcDbLine
 10
-268.6404375208617
 20
-147.4685135737703
 30
0.0
 11
-270.4800375208618
 21
-147.6297135737703
 31
0.0
  0
LINE
  5
E6A
330
1F
100
AcDbEntity
  8
100
  6
DASH_CENTER
 62
    30
100
AcDbLine
 10
-261.0357686979445
 20
-143.1272920768705
 30
0.0
 11
-284.1051575256546
 21
-143.1332558953841
 31
0.0
  0
LINE
  5
E6B
330
1F
100
AcDbEntity
  8
110
  6
DASH_CENTER
 62
    30
100
AcDbLine
 10
-208.397536160022
 20
-109.18770955414
 30
0.0
 11
-359.1221090006275
 21
-109.18770955414
 31
0.0
  0
LINE
  5
EAA
330
1F
100
AcDbEntity
  8
0
  6
Continuous
 62
     7
100
AcDbLine
 10
690.645899370133
 20
136.2265178550976
 30
0.0
 11
690.645899370133
 21
44.81219044586011
 31
0.0
  0
LINE
  5
EB3
330
1F
100
AcDbEntity
  8
0
  6
Continuous
 62
     7
100
AcDbLine
 10
665.6458993701333
 20
44.81219044586008
 30
0.0
 11
665.6458993701333
 21
-55.14518109597641
 31
0.0
  0
LINE
  5
EB8
330
1F
100
AcDbEntity
  8
0
  6
Continuous
 62
     7
100
AcDbLine
 10
690.645899370133
 20
44.81219044586011
 30
0.0
 11
690.645899370133
 21
-46.60193696337815
 31
0.0
  0
LINE
  5
EB9
330
1F
100
AcDbEntity
  8
0
  6
Continuous
 62
     7
100
AcDbLine
 10
686.5407896627482
 20
-51.52120229106512
 30
0.0
 11
666.2027302602303
 21
-55.03909378187977
 31
0.0
  0
LINE
  5
EBD
330
1F
100
AcDbEntity
  8
0
  6
Continuous
 62
     7
100
AcDbLine
 10
666.20273026023
 20
144.6636746735997
 30
0.0
 11
686.5407896627484
 21
141.1457831827846
 31
0.0
  0
LINE
  5
EC3
330
1F
100
AcDbEntity
  8
10
  6
Continuous
 62
     7
100
AcDbLine
 10
362.7264454157315
 20
-63.06403233733502
 30
0.0
 11
362.7264454157312
 21
44.81229044585996
 31
0.0
  0
LINE
  5
EC5
330
1F
100
AcDbEntity
  8
0
  6
Continuous
 62
     7
100
AcDbLine
 10
359.3798301101634
 20
-152.18770955414
 30
0.0
 11
306.9025454157314
 21
-152.18770955414
 31
0.0
  0
LINE
  5
EC6
330
1F
100
AcDbEntity
  8
0
  6
Continuous
 62
     7
100
AcDbLine
 10
304.9025454157314
 20
34.60314298898274
 30
0.0
 11
290.1024454157313
 21
34.60314298898274
 31
0.0
  0
LINE
  5
EC7
330
1F
100
AcDbEntity
  8
0
  6
Continuous
 62
     7
100
AcDbLine
 10
304.9025454157314
 20
38.46813593660336
 30
0.0
 11
290.1024454157314
 21
38.46813593660336
 31
0.0
  0
LINE
  5
EC8
330
1F
100
AcDbEntity
  8
0
  6
DASH_CENTER
 62
    30
100
AcDbLine
 10
282.1021615096141
 20
-138.3498503710034
 30
0.0
 11
311.3507277556262
 21
-138.3498503710034
 31
0.0
  0
LINE
  5
EC9
330
1F
100
AcDbEntity
  8
0
  6
Continuous
 62
     7
100
AcDbLine
 10
290.2025454157313
 20
-145.3498503710034
 30
0.0
 11
304.9025454157314
 21
-145.3498503710034
 31
0.0
  0
LINE
  5
ECA
330
1F
100
AcDbEntity
  8
0
  6
Continuous
 62
     7
100
AcDbLine
 10
290.2025454157313
 20
-128.6292085672957
 30
0.0
 11
304.9025454157314
 21
-128.6292085672957
 31
0.0
  0
LINE
  5
ECB
330
1F
100
AcDbEntity
  8
10
  6
Continuous
 62
     7
100
AcDbLine
 10
304.9025454157312
 20
-153.8887989627168
 30
0.0
 11
304.9025454157314
 21
44.81229044585989
 31
0.0
  0
LINE
  5
ECC
330
1F
100
AcDbEntity
  8
10
  6
Continuous
 62
     7
100
AcDbLine
 10
297.4025454157314
 20
-155.18770955414
 30
0.0
 11
303.0294454157314
 21
-155.18770955414
 31
0.0
  0
LINE
  5
ECD
330
1F
100
AcDbEntity
  8
10
  6
Continuous
 62
     7
100
AcDbLine
 10
297.4024454157312
 20
-155.18770955414
 30
0.0
 11
290.1024454157313
 21
-155.18770955414
 31
0.0
  0
LINE
  5
ECE
330
1F
100
AcDbEntity
  8
0
  6
Continuous
 62
     7
100
AcDbLine
 10
297.4024454157312
 20
-155.18770955414
 30
0.0
 11
297.4024454157312
 21
44.81229044585989
 31
0.0
  0
LINE
  5
ECF
330
1F
100
AcDbEntity
  8
10
  6
Continuous
 62
     7
100
AcDbLine
 10
290.1024454157313
 20
-154.1877095528899
 30
0.0
 11
290.1024454157313
 21
44.81229044585996
 31
0.0
  0
LINE
  5
ED0
330
1F
100
AcDbEntity
  8
10
  6
Continuous
 62
     7
100
AcDbLine
 10
297.4024454157312
 20
-24.83274011417768
 30
0.0
 11
297.4024454157312
 21
44.81229044585989
 31
0.0
  0
LINE
  5
ED1
330
1F
100
AcDbEntity
  8
10
  6
Continuous
 62
     7
100
AcDbLine
 10
290.1024454157313
 20
-155.18770955414
 30
0.0
 11
290.1024454157313
 21
-154.18770955414
 31
0.0
  0
LINE
  5
ED2
330
1F
100
AcDbEntity
  8
0
  6
Continuous
 62
     7
100
AcDbLine
 10
232.2785454157314
 20
34.60314298898274
 30
0.0
 11
217.2784454157314
 21
34.60314298898274
 31
0.0
  0
LINE
  5
ED3
330
1F
100
AcDbEntity
  8
0
  6
DASH_CENTER
 62
    30
100
AcDbLine
 10
209.2781615096142
 20
-138.3498503710034
 30
0.0
 11
238.7267277556262
 21
-138.3498503710034
 31
0.0
  0
LINE
  5
ED4
330
1F
100
AcDbEntity
  8
0
  6
Continuous
 62
     7
100
AcDbLine
 10
217.3785454157313
 20
-145.3498503710034
 30
0.0
 11
232.2785454157311
 21
-145.3498503710034
 31
0.0
  0
LINE
  5
ED5
330
1F
100
AcDbEntity
  8
0
  6
Continuous
 62
     7
100
AcDbLine
 10
217.3785454157313
 20
-128.6292085672957
 30
0.0
 11
232.2785454157311
 21
-128.6292085672957
 31
0.0
  0
LINE
  5
ED6
330
1F
100
AcDbEntity
  8
10
  6
Continuous
 62
     7
100
AcDbLine
 10
232.2785454157312
 20
-153.8887989627164
 30
0.0
 11
232.2785454157311
 21
44.81229044585989
 31
0.0
  0
LINE
  5
ED7
330
1F
100
AcDbEntity
  8
10
  6
Continuous
 62
     7
100
AcDbLine
 10
224.7785454157311
 20
-155.18770955414
 30
0.0
 11
230.4054454157313
 21
-155.18770955414
 31
0.0
  0
LINE
  5
ED8
330
1F
100
AcDbEntity
  8
0
  6
Continuous
 62
     7
100
AcDbLine
 10
288.1025454161641
 20
-152.18770955414
 30
0.0
 11
234.2785454157312
 21
-152.18770955414
 31
0.0
  0
LINE
  5
EDB
330
1F
100
AcDbEntity
  8
10
  6
Continuous
 62
     7
100
AcDbLine
 10
370.0264454157314
 20
-57.64223836607143
 30
0.0
 11
370.0264454157313
 21
44.81229044585989
 31
0.0
  0
LINE
  5
EDC
330
1F
100
AcDbEntity
  8
0
  6
Continuous
 62
     7
100
AcDbLine
 10
362.7264454157312
 20
34.60314298898274
 30
0.0
 11
380.0264454157313
 21
34.60314298898274
 31
0.0
  0
LINE
  5
EDD
330
1F
100
AcDbEntity
  8
0
  6
Continuous
 62
     7
100
AcDbLine
 10
362.7264454157313
 20
38.46813593660336
 30
0.0
 11
380.0264454157313
 21
38.46813593660336
 31
0.0
  0
LINE
  5
EDE
330
1F
100
AcDbEntity
  8
10
  6
Continuous
 62
     7
100
AcDbLine
 10
224.7784454157313
 20
-155.18770955414
 30
0.0
 11
217.2784454157313
 21
-155.18770955414
 31
0.0
  0
LINE
  5
EDF
330
1F
100
AcDbEntity
  8
0
  6
Continuous
 62
     7
100
AcDbLine
 10
224.7784454157313
 20
-155.18770955414
 30
0.0
 11
224.7784454157313
 21
44.81229044585989
 31
0.0
  0
LINE
  5
EE0
330
1F
100
AcDbEntity
  8
10
  6
Continuous
 62
     7
100
AcDbLine
 10
217.2784454157314
 20
-154.1877095528899
 30
0.0
 11
217.2784454157314
 21
44.81229044585996
 31
0.0
  0
LINE
  5
EE1
330
1F
100
AcDbEntity
  8
100
  6
DASH_CENTER
 62
    30
100
AcDbLine
 10
467.9997489461073
 20
-109.18770955414
 30
0.0
 11
335.293141885355
 21
-109.18770955414
 31
0.0
  0
LINE
  5
EE2
330
1F
100
AcDbEntity
  8
100
  6
DASH_CENTER
 62
    30
100
AcDbLine
 10
401.6464454157311
 20
-175.5410130845163
 30
0.0
 11
401.6464454157311
 21
-42.83440602376384
 31
0.0
  0
LINE
  5
EE3
330
1F
100
AcDbEntity
  8
0
  6
Continuous
 62
     7
100
AcDbLine
 10
380.0264454157312
 20
-52.53671132815996
 30
0.0
 11
380.0264454157313
 21
44.81229044585996
 31
0.0
  0
LINE
  5
EE4
330
1F
100
AcDbEntity
  8
0
  6
Continuous
 62
     7
100
AcDbLine
 10
426.6464454157312
 20
-53.10740998290032
 30
0.0
 11
426.6464454157312
 21
44.81229044585989
 31
0.0
  0
LINE
  5
EE5
330
1F
100
AcDbEntity
  8
0
  6
Continuous
 62
     7
100
AcDbLine
 10
411.6464454157312
 20
241.8122904458597
 30
0.0
 11
381.9629402114155
 21
241.8122904458597
 31
0.0
  0
LINE
  5
EE6
330
1F
100
AcDbEntity
  8
0
  6
Continuous
 62
     7
100
AcDbLine
 10
426.6464454157311
 20
226.8122904458597
 30
0.0
 11
426.6464454157312
 21
123.8123904458598
 31
0.0
  0
LINE
  5
EE7
330
1F
100
AcDbEntity
  8
100
  6
DASH_CENTER
 62
    30
100
AcDbLine
 10
358.5626498233295
 20
-66.10361396173829
 30
0.0
 11
370.0928498233294
 21
-77.63391396173819
 31
0.0
  0
LINE
  5
EE8
330
1F
100
AcDbEntity
  8
10
  6
Continuous
 62
     7
100
AcDbLine
 10
224.7784454157313
 20
-24.83274011417768
 30
0.0
 11
224.7784454157313
 21
44.81229044585989
 31
0.0
  0
LINE
  5
EE9
330
1F
100
AcDbEntity
  8
0
  6
Continuous
 62
     7
100
AcDbLine
 10
215.278545416919
 20
-152.18770955414
 30
0.0
 11
160.454545415731
 21
-152.18770955414
 31
0.0
  0
LINE
  5
EEA
330
1F
100
AcDbEntity
  8
10
  6
Continuous
 62
     7
100
AcDbLine
 10
217.2784454157313
 20
-155.18770955414
 30
0.0
 11
217.2784454157313
 21
-154.18770955414
 31
0.0
  0
LINE
  5
EEB
330
1F
100
AcDbEntity
  8
10
  6
Continuous
 62
     7
100
AcDbLine
 10
151.1545454157312
 20
-155.18770955414
 30
0.0
 11
151.1545454157312
 21
44.81229044585989
 31
0.0
  0
LINE
  5
EEC
330
1F
100
AcDbEntity
  8
10
  6
Continuous
 62
     7
100
AcDbLine
 10
151.1545454157312
 20
-155.18770955414
 30
0.0
 11
156.5814454157312
 21
-155.18770955414
 31
0.0
  0
LINE
  5
EED
330
1F
100
AcDbEntity
  8
0
  6
Continuous
 62
     7
100
AcDbLine
 10
48.64589941573119
 20
-32.6877095541401
 30
0.0
 11
69.64589937013285
 21
-32.6877095541401
 31
0.0
  0
LINE
  5
EEE
330
1F
100
AcDbEntity
  8
0
  6
Continuous
 62
     7
100
AcDbLine
 10
141.9545454157312
 20
-152.1877095541401
 30
0.0
 11
82.64589937013282
 21
-152.18770955414
 31
0.0
  0
LINE
  5
EEF
330
1F
100
AcDbEntity
  8
0
  6
Continuous
 62
     7
100
AcDbLine
 10
151.1545454157312
 20
-155.18770955414
 30
0.0
 11
145.8275287619385
 21
-155.18770955414
 31
0.0
  0
LINE
  5
EF0
330
1F
100
AcDbEntity
  8
0
  6
Continuous
 62
     7
100
AcDbLine
 10
143.9545454157312
 20
-153.8890891837489
 30
0.0
 11
143.9545454157312
 21
44.81229044585987
 31
0.0
  0
LINE
  5
EF1
330
1F
100
AcDbEntity
  8
0
  6
Continuous
 62
     7
100
AcDbLine
 10
72.64589937013285
 20
44.81229044585996
 30
0.0
 11
72.64589937013285
 21
-142.18770955414
 31
0.0
  0
LINE
  5
EF2
330
1F
100
AcDbEntity
  8
0
  6
Continuous
 62
     7
100
AcDbLine
 10
48.64589941573119
 20
44.81229044585996
 30
0.0
 11
48.64589941573119
 21
-32.6877095541401
 31
0.0
  0
LINE
  5
EF3
330
1F
100
AcDbEntity
  8
0
  6
Continuous
 62
     7
100
AcDbLine
 10
143.9545454157312
 20
34.60314298898274
 30
0.0
 11
158.4545454157311
 21
34.60314298898274
 31
0.0
  0
LINE
  5
EF4
330
1F
100
AcDbEntity
  8
0
  6
Continuous
 62
     7
100
AcDbLine
 10
143.9545454157312
 20
38.46813593660336
 30
0.0
 11
158.4545454157312
 21
38.46813593660336
 31
0.0
  0
LINE
  5
EF5
330
1F
100
AcDbEntity
  8
0
  6
Continuous
 62
     7
100
AcDbLine
 10
143.954545415731
 20
-128.6292085672957
 30
0.0
 11
158.4545454157311
 21
-128.6292085672957
 31
0.0
  0
LINE
  5
EF6
330
1F
100
AcDbEntity
  8
0
  6
Continuous
 62
     7
100
AcDbLine
 10
143.954545415731
 20
-145.3498503710034
 30
0.0
 11
158.4545454157311
 21
-145.3498503710034
 31
0.0
  0
LINE
  5
EF7
330
1F
100
AcDbEntity
  8
0
  6
Continuous
 62
     7
100
AcDbLine
 10
12.14589941573121
 20
-18.68770955414004
 30
0.0
 11
42.64589941573118
 21
-18.68770955414004
 31
0.0
  0
LINE
  5
EF8
330
1F
100
AcDbEntity
  8
0
  6
Continuous
 62
     7
100
AcDbLine
 10
10.64589941573121
 20
-17.18770955414004
 30
0.0
 11
10.64589941573121
 21
44.81229044585996
 31
0.0
  0
LINE
  5
EF9
330
1F
100
AcDbEntity
  8
0
  6
Continuous
 62
     7
100
AcDbLine
 10
46.64589941573119
 20
-32.6877095541401
 30
0.0
 11
53.76125337013284
 21
-32.6877095541401
 31
0.0
  0
LINE
  5
EFA
330
1F
100
AcDbEntity
  8
0
  6
Continuous
 62
     7
100
AcDbLine
 10
44.64589941573119
 20
44.81229044585996
 30
0.0
 11
44.64589941573119
 21
-28.1877095541401
 31
0.0
  0
LINE
  5
EFB
330
1F
100
AcDbEntity
  8
0
  6
Continuous
 62
     7
100
AcDbLine
 10
42.64589941573118
 20
108.3122904458599
 30
0.0
 11
12.14589941573119
 21
108.3122904458599
 31
0.0
  0
LINE
  5
EFC
330
1F
100
AcDbEntity
  8
0
  6
Continuous
 62
     7
100
AcDbLine
 10
10.64589941573121
 20
105.31229044586
 30
0.0
 11
10.64589941573119
 21
106.8122904458599
 31
0.0
  0
LINE
  5
EFD
330
1F
100
AcDbEntity
  8
0
  6
Continuous
 62
     7
100
AcDbLine
 10
44.64589941573119
 20
-22.18776272490192
 30
0.0
 11
44.64589941573119
 21
-31.18776272490193
 31
0.0
  0
LINE
  5
EFE
330
1F
100
AcDbEntity
  8
0
  6
Continuous
 62
     7
100
AcDbLine
 10
41.3460994157312
 20
-29.43286272490178
 30
0.0
 11
41.3460994157312
 21
-23.94266272490182
 31
0.0
  0
LINE
  5
EFF
330
1F
100
AcDbEntity
  8
0
  6
Continuous
 62
     7
100
AcDbLine
 10
44.64589941573119
 20
-22.18776272490192
 30
0.0
 11
42.8062994157312
 21
-22.34866272490177
 31
0.0
  0
LINE
  5
F00
330
1F
100
AcDbEntity
  8
0
  6
Continuous
 62
     7
100
AcDbLine
 10
44.64589941573119
 20
-31.18776272490193
 30
0.0
 11
42.80629941573117
 21
-31.02656272490191
 31
0.0
  0
LINE
  5
F01
330
1F
100
AcDbEntity
  8
0
  6
DASH_CENTER
 62
    30
100
AcDbLine
 10
39.57487696902442
 20
-26.68770955414011
 30
0.0
 11
63.58751815759071
 21
-26.68770955414011
 31
0.0
  0
LINE
  5
F02
330
1F
100
AcDbEntity
  8
0
  6
Continuous
 62
     7
100
AcDbLine
 10
163.4545454157311
 20
-135.3500003710033
 30
0.0
 11
163.4545454157311
 21
-141.3497003710034
 31
0.0
  0
LINE
  5
F03
330
1F
100
AcDbEntity
  8
0
  6
Continuous
 62
     7
100
AcDbLine
 10
163.4545454157311
 20
-135.3500003710033
 30
0.0
 11
163.9545454157311
 21
-135.8500003710034
 31
0.0
  0
LINE
  5
F04
330
1F
100
AcDbEntity
  8
0
  6
Continuous
 62
     7
100
AcDbLine
 10
163.4545454157311
 20
-141.3497003710034
 30
0.0
 11
163.9545454157311
 21
-140.8497003710034
 31
0.0
  0
LINE
  5
F05
330
1F
100
AcDbEntity
  8
0
  6
Continuous
 62
     7
100
AcDbLine
 10
163.9545454157311
 20
-140.8497003710034
 30
0.0
 11
163.9545454157311
 21
-135.8500003710034
 31
0.0
  0
LINE
  5
F06
330
1F
100
AcDbEntity
  8
0
  6
DASH_CENTER
 62
    30
100
AcDbLine
 10
134.8626062493495
 20
-138.3498503710034
 30
0.0
 11
168.8636097638973
 21
-138.3498503710034
 31
0.0
  0
LINE
  5
F07
330
1F
100
AcDbEntity
  8
0
  6
Continuous
 62
     7
100
AcDbLine
 10
364.0233635525567
 20
-74.46427939274276
 30
0.0
 11
364.0233635525567
 21
-73.06437939274286
 31
0.0
  0
LINE
  5
F08
330
1F
100
AcDbEntity
  8
0
  6
Continuous
 62
     7
100
AcDbLine
 10
365.0233635525567
 20
-74.46427939274276
 30
0.0
 11
365.0233635525567
 21
-73.06437939274286
 31
0.0
  0
LINE
  5
F09
330
1F
100
AcDbEntity
  8
0
  6
Continuous
 62
     7
100
AcDbLine
 10
366.9232635525568
 20
-72.56437939274286
 30
0.0
 11
365.5233635525567
 21
-72.56437939274286
 31
0.0
  0
LINE
  5
F0A
330
1F
100
AcDbEntity
  8
0
  6
Continuous
 62
     7
100
AcDbLine
 10
366.9232635525568
 20
-71.56437939274288
 30
0.0
 11
365.5233635525567
 21
-71.56437939274288
 31
0.0
  0
LINE
  5
F0B
330
1F
100
AcDbEntity
  8
0
  6
Continuous
 62
     7
100
AcDbLine
 10
364.0233635525567
 20
-71.06437939274286
 30
0.0
 11
364.0233635525567
 21
-69.66447939274273
 31
0.0
  0
LINE
  5
F0C
330
1F
100
AcDbEntity
  8
0
  6
Continuous
 62
     7
100
AcDbLine
 10
363.5233635525567
 20
-72.56437939274286
 30
0.0
 11
362.1234635525567
 21
-72.56437939274286
 31
0.0
  0
LINE
  5
F0D
330
1F
100
AcDbEntity
  8
0
  6
Continuous
 62
     7
100
AcDbLine
 10
363.5233635525567
 20
-71.56437939274288
 30
0.0
 11
362.1234635525567
 21
-71.56437939274288
 31
0.0
  0
LINE
  5
F0E
330
1F
100
AcDbEntity
  8
0
  6
Continuous
 62
     7
100
AcDbLine
 10
365.0233635525567
 20
-71.06437939274286
 30
0.0
 11
365.0233635525567
 21
-69.66447939274273
 31
0.0
  0
LINE
  5
F0F
330
1F
100
AcDbEntity
  8
0
  6
Continuous
 62
     7
100
AcDbLine
 10
362.1234635525567
 20
-72.56437939274286
 30
0.0
 11
362.1234635525567
 21
-71.56437939274288
 31
0.0
  0
LINE
  5
F10
330
1F
100
AcDbEntity
  8
0
  6
Continuous
 62
     7
100
AcDbLine
 10
366.9232635525568
 20
-72.56437939274286
 30
0.0
 11
366.9232635525568
 21
-71.56437939274288
 31
0.0
  0
LINE
  5
F11
330
1F
100
AcDbEntity
  8
0
  6
Continuous
 62
     7
100
AcDbLine
 10
365.0233635525567
 20
-74.46427939274276
 30
0.0
 11
364.0233635525567
 21
-74.46427939274276
 31
0.0
  0
LINE
  5
F12
330
1F
100
AcDbEntity
  8
0
  6
Continuous
 62
     7
100
AcDbLine
 10
365.0233635525567
 20
-69.66447939274273
 30
0.0
 11
364.0233635525567
 21
-69.66447939274273
 31
0.0
  0
LINE
  5
F13
330
1F
100
AcDbEntity
  8
100
  6
DASH_CENTER
 62
    30
100
AcDbLine
 10
358.5623511020195
 20
-152.2714762710474
 30
0.0
 11
370.0926511020195
 21
-140.7412762710475
 31
0.0
  0
LINE
  5
F14
330
1F
100
AcDbEntity
  8
0
  6
Continuous
 62
     7
100
AcDbLine
 10
366.9230165330242
 20
-146.8107625418204
 30
0.0
 11
365.5231165330242
 21
-146.8107625418204
 31
0.0
  0
LINE
  5
F15
330
1F
100
AcDbEntity
  8
0
  6
Continuous
 62
     7
100
AcDbLine
 10
366.9230165330242
 20
-145.8107625418204
 30
0.0
 11
365.5231165330242
 21
-145.8107625418204
 31
0.0
  0
LINE
  5
F16
330
1F
100
AcDbEntity
  8
0
  6
Continuous
 62
     7
100
AcDbLine
 10
365.023116533024
 20
-143.9108625418201
 30
0.0
 11
365.023116533024
 21
-145.3107625418204
 31
0.0
  0
LINE
  5
F17
330
1F
100
AcDbEntity
  8
0
  6
Continuous
 62
     7
100
AcDbLine
 10
364.0231165330242
 20
-143.9108625418201
 30
0.0
 11
364.0231165330242
 21
-145.3107625418204
 31
0.0
  0
LINE
  5
F18
330
1F
100
AcDbEntity
  8
0
  6
Continuous
 62
     7
100
AcDbLine
 10
363.5231165330242
 20
-146.8107625418204
 30
0.0
 11
362.1232165330241
 21
-146.8107625418204
 31
0.0
  0
LINE
  5
F19
330
1F
100
AcDbEntity
  8
0
  6
Continuous
 62
     7
100
AcDbLine
 10
365.023116533024
 20
-147.3107625418204
 30
0.0
 11
365.023116533024
 21
-148.7106625418201
 31
0.0
  0
LINE
  5
F1A
330
1F
100
AcDbEntity
  8
0
  6
Continuous
 62
     7
100
AcDbLine
 10
364.0231165330242
 20
-147.3107625418204
 30
0.0
 11
364.0231165330242
 21
-148.7106625418201
 31
0.0
  0
LINE
  5
F1B
330
1F
100
AcDbEntity
  8
0
  6
Continuous
 62
     7
100
AcDbLine
 10
363.5231165330242
 20
-145.8107625418204
 30
0.0
 11
362.1232165330241
 21
-145.8107625418204
 31
0.0
  0
LINE
  5
F1C
330
1F
100
AcDbEntity
  8
0
  6
Continuous
 62
     7
100
AcDbLine
 10
365.023116533024
 20
-148.7106625418201
 30
0.0
 11
364.0231165330242
 21
-148.7106625418201
 31
0.0
  0
LINE
  5
F1D
330
1F
100
AcDbEntity
  8
0
  6
Continuous
 62
     7
100
AcDbLine
 10
365.023116533024
 20
-143.9108625418201
 30
0.0
 11
364.0231165330242
 21
-143.9108625418201
 31
0.0
  0
LINE
  5
F1E
330
1F
100
AcDbEntity
  8
0
  6
Continuous
 62
     7
100
AcDbLine
 10
366.9230165330242
 20
-145.8107625418204
 30
0.0
 11
366.9230165330242
 21
-146.8107625418204
 31
0.0
  0
LINE
  5
F1F
330
1F
100
AcDbEntity
  8
0
  6
Continuous
 62
     7
100
AcDbLine
 10
362.1232165330241
 20
-145.8107625418204
 30
0.0
 11
362.1232165330241
 21
-146.8107625418204
 31
0.0
  0
LINE
  5
F20
330
1F
100
AcDbEntity
  8
100
  6
DASH_CENTER
 62
    30
100
AcDbLine
 10
444.7302259310704
 20
-152.2717900694795
 30
0.0
 11
433.2000259310706
 21
-140.7414900694796
 31
0.0
  0
LINE
  5
F21
330
1F
100
AcDbEntity
  8
0
  6
Continuous
 62
     7
100
AcDbLine
 10
439.2695122018433
 20
-143.9111246384751
 30
0.0
 11
439.2695122018433
 21
-145.311024638475
 31
0.0
  0
LINE
  5
F22
330
1F
100
AcDbEntity
  8
0
  6
Continuous
 62
     7
100
AcDbLine
 10
438.2695122018433
 20
-143.9111246384751
 30
0.0
 11
438.2695122018433
 21
-145.311024638475
 31
0.0
  0
LINE
  5
F23
330
1F
100
AcDbEntity
  8
0
  6
Continuous
 62
     7
100
AcDbLine
 10
436.3696122018433
 20
-145.811024638475
 30
0.0
 11
437.7695122018433
 21
-145.811024638475
 31
0.0
  0
LINE
  5
F24
330
1F
100
AcDbEntity
  8
0
  6
Continuous
 62
     7
100
AcDbLine
 10
436.3696122018433
 20
-146.811024638475
 30
0.0
 11
437.7695122018433
 21
-146.811024638475
 31
0.0
  0
LINE
  5
F25
330
1F
100
AcDbEntity
  8
0
  6
Continuous
 62
     7
100
AcDbLine
 10
439.2695122018433
 20
-147.311024638475
 30
0.0
 11
439.2695122018433
 21
-148.7109246384751
 31
0.0
  0
LINE
  5
F26
330
1F
100
AcDbEntity
  8
0
  6
Continuous
 62
     7
100
AcDbLine
 10
439.7695122018433
 20
-145.811024638475
 30
0.0
 11
441.1694122018433
 21
-145.811024638475
 31
0.0
  0
LINE
  5
F27
330
1F
100
AcDbEntity
  8
0
  6
Continuous
 62
     7
100
AcDbLine
 10
439.7695122018433
 20
-146.811024638475
 30
0.0
 11
441.1694122018433
 21
-146.811024638475
 31
0.0
  0
LINE
  5
F28
330
1F
100
AcDbEntity
  8
0
  6
Continuous
 62
     7
100
AcDbLine
 10
438.2695122018433
 20
-147.311024638475
 30
0.0
 11
438.2695122018433
 21
-148.7109246384751
 31
0.0
  0
LINE
  5
F29
330
1F
100
AcDbEntity
  8
0
  6
Continuous
 62
     7
100
AcDbLine
 10
441.1694122018433
 20
-145.811024638475
 30
0.0
 11
441.1694122018433
 21
-146.811024638475
 31
0.0
  0
LINE
  5
F2A
330
1F
100
AcDbEntity
  8
0
  6
Continuous
 62
     7
100
AcDbLine
 10
436.3696122018433
 20
-145.811024638475
 30
0.0
 11
436.3696122018433
 21
-146.811024638475
 31
0.0
  0
LINE
  5
F2B
330
1F
100
AcDbEntity
  8
0
  6
Continuous
 62
     7
100
AcDbLine
 10
438.2695122018433
 20
-143.9111246384751
 30
0.0
 11
439.2695122018433
 21
-143.9111246384751
 31
0.0
  0
LINE
  5
F2C
330
1F
100
AcDbEntity
  8
0
  6
Continuous
 62
     7
100
AcDbLine
 10
438.2695122018433
 20
-148.7109246384751
 30
0.0
 11
439.2695122018433
 21
-148.7109246384751
 31
0.0
  0
LINE
  5
F2D
330
1F
100
AcDbEntity
  8
100
  6
DASH_CENTER
 62
    30
100
AcDbLine
 10
444.7305259310707
 20
-66.10392903880074
 30
0.0
 11
433.2002259310707
 21
-77.63412903880061
 31
0.0
  0
LINE
  5
F2E
330
1F
100
AcDbEntity
  8
0
  6
Continuous
 62
     7
100
AcDbLine
 10
436.3698605000662
 20
-71.56464276802783
 30
0.0
 11
437.7697605000662
 21
-71.56464276802783
 31
0.0
  0
LINE
  5
F2F
330
1F
100
AcDbEntity
  8
0
  6
Continuous
 62
     7
100
AcDbLine
 10
436.3698605000662
 20
-72.56464276802784
 30
0.0
 11
437.7697605000662
 21
-72.56464276802784
 31
0.0
  0
LINE
  5
F30
330
1F
100
AcDbEntity
  8
0
  6
Continuous
 62
     7
100
AcDbLine
 10
438.2697605000662
 20
-74.46454276802795
 30
0.0
 11
438.2697605000662
 21
-73.06464276802784
 31
0.0
  0
LINE
  5
F31
330
1F
100
AcDbEntity
  8
0
  6
Continuous
 62
     7
100
AcDbLine
 10
439.2697605000662
 20
-74.46454276802795
 30
0.0
 11
439.2697605000662
 21
-73.06464276802784
 31
0.0
  0
LINE
  5
F32
330
1F
100
AcDbEntity
  8
0
  6
Continuous
 62
     7
100
AcDbLine
 10
439.7697605000662
 20
-71.56464276802783
 30
0.0
 11
441.1696605000662
 21
-71.56464276802783
 31
0.0
  0
LINE
  5
F33
330
1F
100
AcDbEntity
  8
0
  6
Continuous
 62
     7
100
AcDbLine
 10
438.2697605000662
 20
-71.06464276802784
 30
0.0
 11
438.2697605000662
 21
-69.66474276802796
 31
0.0
  0
LINE
  5
F34
330
1F
100
AcDbEntity
  8
0
  6
Continuous
 62
     7
100
AcDbLine
 10
439.2697605000662
 20
-71.06464276802784
 30
0.0
 11
439.2697605000662
 21
-69.66474276802796
 31
0.0
  0
LINE
  5
F35
330
1F
100
AcDbEntity
  8
0
  6
Continuous
 62
     7
100
AcDbLine
 10
439.7697605000662
 20
-72.56464276802784
 30
0.0
 11
441.1696605000662
 21
-72.56464276802784
 31
0.0
  0
LINE
  5
F36
330
1F
100
AcDbEntity
  8
0
  6
Continuous
 62
     7
100
AcDbLine
 10
438.2697605000662
 20
-69.66474276802796
 30
0.0
 11
439.2697605000662
 21
-69.66474276802796
 31
0.0
  0
LINE
  5
F37
330
1F
100
AcDbEntity
  8
0
  6
Continuous
 62
     7
100
AcDbLine
 10
438.2697605000662
 20
-74.46454276802795
 30
0.0
 11
439.2697605000662
 21
-74.46454276802795
 31
0.0
  0
LINE
  5
F38
330
1F
100
AcDbEntity
  8
0
  6
Continuous
 62
     7
100
AcDbLine
 10
436.3698605000662
 20
-72.56464276802784
 30
0.0
 11
436.3698605000662
 21
-71.56464276802783
 31
0.0
  0
LINE
  5
F39
330
1F
100
AcDbEntity
  8
0
  6
Continuous
 62
     7
100
AcDbLine
 10
441.1696605000662
 20
-72.56464276802784
 30
0.0
 11
441.1696605000662
 21
-71.56464276802783
 31
0.0
  0
LINE
  5
F3A
330
1F
100
AcDbEntity
  8
60
  6
Continuous
 62
     7
100
AcDbLine
 10
414.6466454157311
 20
-73.48070955413994
 30
0.0
 11
414.6466454157311
 21
-85.72130955414001
 31
0.0
  0
LINE
  5
F3B
330
1F
100
AcDbEntity
  8
60
  6
Continuous
 62
     7
100
AcDbLine
 10
374.646645415731
 20
-135.9275095541401
 30
0.0
 11
374.646645415731
 21
-84.59100955413999
 31
0.0
  0
LINE
  5
F3C
330
1F
100
AcDbEntity
  8
0
  6
Continuous
 62
     7
100
AcDbLine
 10
44.64589941573119
 20
40.31223727509817
 30
0.0
 11
42.80629941573117
 21
40.47343727509818
 31
0.0
  0
LINE
  5
F44
330
1F
100
AcDbEntity
  8
0
  6
DASH_CENTER
 62
    30
100
AcDbLine
 10
-728.4800375208618
 20
44.81229044585996
 30
0.0
 11
-302.3955681617617
 21
44.81229044585996
 31
0.0
  0
ARC
  5
F53
330
1F
100
AcDbEntity
  8
0
  6
Continuous
 62
     7
100
AcDbCircle
 10
49.14042397353219
 20
-115.8627095541401
 30
0.0
 40
1.7992692244374
100
AcDbArc
 50
99.42121415175645
 51
260.5787858482435
  0
ARC
  5
F54
330
1F
100
AcDbEntity
  8
0
  6
Continuous
 62
     7
100
AcDbCircle
 10
49.14042397353219
 20
-115.8627095541401
 30
0.0
 40
1.799269224437388
100
AcDbArc
 50
260.5787858482435
 51
273.3606764323617
  0
ARC
  5
F55
330
1F
100
AcDbEntity
  8
0
  6
Continuous
 62
     7
100
AcDbCircle
 10
52.29673270346617
 20
-121.1877095541401
 30
0.0
 40
4.950833333333331
100
AcDbArc
 50
134.1884606831657
 51
225.8115393168342
  0
ARC
  5
F56
330
1F
100
AcDbEntity
  8
0
  6
Continuous
 62
     7
100
AcDbCircle
 10
49.12272974378851
 20
-126.5127095541402
 30
0.0
 40
1.796457640964119
100
AcDbArc
 50
98.86448193601488
 51
261.1355180639851
  0
ARC
  5
F57
330
1F
100
AcDbEntity
  8
0
  6
Continuous
 62
     7
100
AcDbCircle
 10
49.12272974378851
 20
-126.5127095541402
 30
0.0
 40
1.796457640964123
100
AcDbArc
 50
86.06857387389158
 51
98.86448193601488
  0
ARC
  5
F5E
330
1F
100
AcDbEntity
  8
0
  6
Continuous
 62
     7
100
AcDbCircle
 10
359.7267418938392
 20
42.06620492928638
 30
0.0
 40
1.599996478112713
100
AcDbArc
 50
180.0001376382529
 51
264.9982890533556
  0
ARC
  5
F5F
330
1F
100
AcDbEntity
  8
0
  6
Continuous
 62
     7
100
AcDbCircle
 10
359.7267418938392
 20
47.55837596243353
 30
0.0
 40
1.59999647811275
100
AcDbArc
 50
95.00171094664636
 51
179.9998623617474
  0
ARC
  5
F60
330
1F
100
AcDbEntity
  8
0
  6
Continuous
 62
     7
100
AcDbCircle
 10
359.7267418938392
 20
225.2283457461496
 30
0.0
 40
1.599996478112769
100
AcDbArc
 50
180.0001376382521
 51
264.9982890533537
  0
ARC
  5
F61
330
1F
100
AcDbEntity
  8
0
  6
Continuous
 62
     7
100
AcDbCircle
 10
359.7267418938392
 20
230.7205167792968
 30
0.0
 40
1.599996478112758
100
AcDbArc
 50
95.00171094664636
 51
179.9998623617479
  0
ARC
  5
F62
330
1F
100
AcDbEntity
  8
10
  6
Continuous
 62
     7
100
AcDbCircle
 10
378.0898506200472
 20
242.8122864146314
 30
0.0
 40
2.000004031235095
100
AcDbArc
 50
14.47760164093207
 51
90.00014909236346
  0
ARC
  5
F63
330
1F
100
AcDbEntity
  8
10
  6
Continuous
 62
     7
100
AcDbCircle
 10
381.9629402114155
 20
243.8122944770881
 30
0.0
 40
2.000004031235087
100
AcDbArc
 50
194.4776016409313
 51
270.0001490923635
  0
ARC
  5
F64
330
1F
100
AcDbEntity
  8
10
  6
Continuous
 62
     7
100
AcDbCircle
 10
360.7264454144813
 20
243.8122904446097
 30
0.0
 40
2.000000001250019
100
AcDbArc
 50
270.0028648247855
 51
0.00000003581111
  0
ARC
  5
F65
330
1F
100
AcDbEntity
  8
0
  6
Continuous
 62
     7
100
AcDbCircle
 10
287.1027418938393
 20
-141.0959358875771
 30
0.0
 40
1.599996478112713
100
AcDbArc
 50
180.0001376382516
 51
264.9982890533515
  0
ARC
  5
F66
330
1F
100
AcDbEntity
  8
0
  6
Continuous
 62
     7
100
AcDbCircle
 10
287.1027418938393
 20
-135.6037648544298
 30
0.0
 40
1.599996478112693
100
AcDbArc
 50
95.00171094664862
 51
179.9998623617494
  0
ARC
  5
F67
330
1F
100
AcDbEntity
  8
0
  6
Continuous
 62
     7
100
AcDbCircle
 10
287.1027418938393
 20
42.0662049292863
 30
0.0
 40
1.599996478112713
100
AcDbArc
 50
180.0001376382521
 51
264.9982890533514
  0
ARC
  5
F68
330
1F
100
AcDbEntity
  8
0
  6
Continuous
 62
     7
100
AcDbCircle
 10
287.1027418938393
 20
47.55837596243355
 30
0.0
 40
1.599996478112686
100
AcDbArc
 50
95.00171094664862
 51
179.9998623617496
  0
ARC
  5
F69
330
1F
100
AcDbEntity
  8
0
  6
Continuous
 62
     7
100
AcDbCircle
 10
214.2787418938393
 20
225.2283457461496
 30
0.0
 40
1.599996478112741
100
AcDbArc
 50
180.000137638251
 51
264.9982890533546
  0
ARC
  5
F6A
330
1F
100
AcDbEntity
  8
0
  6
Continuous
 62
     7
100
AcDbCircle
 10
214.2787418938393
 20
230.7205167792968
 30
0.0
 40
1.599996478112754
100
AcDbArc
 50
95.00171094664535
 51
179.9998623617479
  0
ARC
  5
F6B
330
1F
100
AcDbEntity
  8
0
  6
Continuous
 62
     7
100
AcDbCircle
 10
214.2787418938393
 20
42.06620492928633
 30
0.0
 40
1.599996478112713
100
AcDbArc
 50
180.0001376382521
 51
264.9982890533556
  0
ARC
  5
F6C
330
1F
100
AcDbEntity
  8
0
  6
Continuous
 62
     7
100
AcDbCircle
 10
214.2787418938393
 20
47.5583759624335
 30
0.0
 40
1.599996478112718
100
AcDbArc
 50
95.00171094664446
 51
179.9998623617474
  0
ARC
  5
F6D
330
1F
100
AcDbEntity
  8
0
  6
Continuous
 62
     7
100
AcDbCircle
 10
214.2787418938393
 20
-141.095935887577
 30
0.0
 40
1.599996478112713
100
AcDbArc
 50
180.0001376382521
 51
264.9982890533556
  0
ARC
  5
F6E
330
1F
100
AcDbEntity
  8
0
  6
Continuous
 62
     7
100
AcDbCircle
 10
214.2787418938393
 20
-135.6037648544298
 30
0.0
 40
1.599996478112709
100
AcDbArc
 50
95.00171094664446
 51
179.9998623617479
  0
ARC
  5
F6F
330
1F
100
AcDbEntity
  8
0
  6
Continuous
 62
     7
100
AcDbCircle
 10
140.9548418938392
 20
42.06620492928623
 30
0.0
 40
1.599996478112655
100
AcDbArc
 50
180.0001376382503
 51
264.9982890533533
  0
ARC
  5
F70
330
1F
100
AcDbEntity
  8
0
  6
Continuous
 62
     7
100
AcDbCircle
 10
140.9548418938392
 20
47.55837596243347
 30
0.0
 40
1.599996478112629
100
AcDbArc
 50
95.00171094664578
 51
179.9998623617481
  0
ARC
  5
F71
330
1F
100
AcDbEntity
  8
0
  6
Continuous
 62
     7
100
AcDbCircle
 10
140.9548418938392
 20
225.2283457461497
 30
0.0
 40
1.599996478112628
100
AcDbArc
 50
180.000137638251
 51
264.9982890533542
  0
ARC
  5
F72
330
1F
100
AcDbEntity
  8
0
  6
Continuous
 62
     7
100
AcDbCircle
 10
140.9548418938393
 20
230.720516779297
 30
0.0
 40
1.599996478112676
100
AcDbArc
 50
95.00171094664766
 51
179.9998623617509
  0
ARC
  5
F73
330
1F
100
AcDbEntity
  8
0
  6
Continuous
 62
     7
100
AcDbCircle
 10
140.9548418938392
 20
-135.6037648544297
 30
0.0
 40
1.59999647811266
100
AcDbArc
 50
95.0017109466467
 51
179.9998623617499
  0
ARC
  5
F74
330
1F
100
AcDbEntity
  8
0
  6
Continuous
 62
     7
100
AcDbCircle
 10
140.9548418938392
 20
-141.095935887577
 30
0.0
 40
1.599996478112655
100
AcDbArc
 50
180.0001376382501
 51
264.9982890533534
  0
ARC
  5
F75
330
1F
100
AcDbEntity
  8
0
  6
Continuous
 62
     7
100
AcDbCircle
 10
287.1027418938393
 20
225.2283457461495
 30
0.0
 40
1.599996478112713
100
AcDbArc
 50
180.0001376382491
 51
264.9982890533513
  0
ARC
  5
F76
330
1F
100
AcDbEntity
  8
0
  6
Continuous
 62
     7
100
AcDbCircle
 10
287.1027418938393
 20
230.7205167792968
 30
0.0
 40
1.599996478112705
100
AcDbArc
 50
95.0017109466486
 51
179.9998623617499
  0
ARC
  5
F77
330
1F
100
AcDbEntity
  8
10
  6
Continuous
 62
     7
100
AcDbCircle
 10
303.0294506200472
 20
242.8122864146314
 30
0.0
 40
2.000004031235095
100
AcDbArc
 50
14.47760164093207
 51
90.00014909236346
  0
ARC
  5
F78
330
1F
100
AcDbEntity
  8
10
  6
Continuous
 62
     7
100
AcDbCircle
 10
306.9025402114155
 20
243.8122944770881
 30
0.0
 40
2.000004031235087
100
AcDbArc
 50
194.4776016409313
 51
270.0001490923635
  0
ARC
  5
F79
330
1F
100
AcDbEntity
  8
10
  6
Continuous
 62
     7
100
AcDbCircle
 10
288.1024454144813
 20
243.8122904446097
 30
0.0
 40
2.000000001249989
100
AcDbArc
 50
270.0028648247789
 51
0.00000003581193
  0
ARC
  5
F7A
330
1F
100
AcDbEntity
  8
10
  6
Continuous
 62
     7
100
AcDbCircle
 10
230.405450620047
 20
242.8122864146314
 30
0.0
 40
2.000004031235123
100
AcDbArc
 50
14.47760164093186
 51
90.00014909236105
  0
ARC
  5
F7B
330
1F
100
AcDbEntity
  8
10
  6
Continuous
 62
     7
100
AcDbCircle
 10
234.2785402114155
 20
243.812294477088
 30
0.0
 40
2.000004031235012
100
AcDbArc
 50
194.4776016409293
 51
270.0001490923635
  0
ARC
  5
F7C
330
1F
100
AcDbEntity
  8
10
  6
Continuous
 62
     7
100
AcDbCircle
 10
215.2784454144812
 20
243.8122904446097
 30
0.0
 40
2.000000001250045
100
AcDbArc
 50
270.0028648247862
 51
0.00000003581274
  0
ARC
  5
F7D
330
1F
100
AcDbEntity
  8
10
  6
Continuous
 62
     7
100
AcDbCircle
 10
156.5814506200469
 20
242.8122864146314
 30
0.0
 40
2.000004031235155
100
AcDbArc
 50
14.47760164093245
 51
90.00014909236268
  0
ARC
  5
F7E
330
1F
100
AcDbEntity
  8
10
  6
Continuous
 62
     7
100
AcDbCircle
 10
160.4545402114154
 20
243.8122944770881
 30
0.0
 40
2.000004031235047
100
AcDbArc
 50
194.4776016409333
 51
270.0001490923659
  0
ARC
  5
F7F
330
1F
100
AcDbEntity
  8
0
  6
Continuous
 62
     7
100
AcDbCircle
 10
42.94599589383921
 20
119.0574397730452
 30
0.0
 40
1.599996478112584
100
AcDbArc
 50
95.00171094664484
 51
179.9998623617504
  0
ARC
  5
F80
330
1F
100
AcDbEntity
  8
0
  6
Continuous
 62
     7
100
AcDbCircle
 10
42.94604570345446
 20
113.5671931010433
 30
0.0
 40
1.600046288488436
100
AcDbArc
 50
180.0017719790555
 51
264.9966547125468
  0
ARC
  5
F81
330
1F
100
AcDbEntity
  8
0
  6
Continuous
 62
     7
100
AcDbCircle
 10
42.94599589383924
 20
47.55743977304503
 30
0.0
 40
1.599996478112638
100
AcDbArc
 50
95.00171094664652
 51
179.9998623617522
  0
ARC
  5
F9E
330
1F
100
AcDbEntity
  8
0
  6
DASHED
 62
   171
 48
0.5
100
AcDbCircle
 10
-516.4800375208588
 20
44.81229044586076
 30
0.0
 40
100.000000000003
100
AcDbArc
 50
180.5285015335384
 51
199.4714984664619
  0
ARC
  5
FA0
330
1F
100
AcDbEntity
  8
0
  6
DASHED
 62
   171
 48
0.5
100
AcDbCircle
 10
-516.480037520862
 20
44.81229044585993
 30
0.0
 40
100.0000000000001
100
AcDbArc
 50
325.4043722677932
 51
180.528501533538
  0
ARC
  5
FA6
330
1F
100
AcDbEntity
  8
0
  6
Continuous
 62
    54
100
AcDbCircle
 10
-474.4800375208618
 20
44.81229044585996
 30
0.0
 40
163.0
100
AcDbArc
 50
345.5338062225705
 51
355.1918189615607
  0
ARC
  5
FA8
330
1F
100
AcDbEntity
  8
0
  6
Continuous
 62
     7
100
AcDbCircle
 10
-516.4800375208616
 20
44.81229044585996
 30
0.0
 40
200.0
100
AcDbArc
 50
63.47696073872858
 51
90.0
  0
ARC
  5
FA9
330
1F
100
AcDbEntity
  8
0
  6
Continuous
 62
     7
100
AcDbCircle
 10
-516.4800375208616
 20
63.10300857876097
 30
0.0
 40
115.0
100
AcDbArc
 50
74.78467803001795
 51
106.9928823084461
  0
ARC
  5
FAA
330
1F
100
AcDbEntity
  8
0
  6
Continuous
 62
     7
100
AcDbCircle
 10
-516.4800375208616
 20
63.10300857876097
 30
0.0
 40
125.0
100
AcDbArc
 50
72.68550031586716
 51
88.7315690384662
  0
ARC
  5
FAB
330
1F
100
AcDbEntity
  8
0
  6
Continuous
 62
     7
100
AcDbCircle
 10
-516.4800375208616
 20
63.10300857876097
 30
0.0
 40
120.0
100
AcDbArc
 50
90.6730896712097
 51
97.00000000000002
  0
ARC
  5
FAC
330
1F
100
AcDbEntity
  8
0
  6
DASHED
 62
   171
 48
0.5
100
AcDbCircle
 10
-516.4800375208616
 20
44.81229044585996
 30
0.0
 40
100.0
100
AcDbArc
 50
199.471498466462
 51
255.9302326328497
  0
ARC
  5
FAD
330
1F
100
AcDbEntity
  8
0
  6
DASH_CENTER
 62
    30
100
AcDbCircle
 10
-516.4800375208616
 20
44.81229044585996
 30
0.0
 40
72.5
100
AcDbArc
 50
330.8128734487734
 51
8.880785353275667
  0
ARC
  5
FAE
330
1F
100
AcDbEntity
  8
0
  6
Continuous
 62
     7
100
AcDbCircle
 10
-444.9800375208616
 20
45.81229044585995
 30
0.0
 40
0.5
100
AcDbArc
 50
270.0
 51
0.0
  0
ARC
  5
FAF
330
1F
100
AcDbEntity
  8
0
  6
Continuous
 62
     7
100
AcDbCircle
 10
-444.9800375208616
 20
43.81229044585995
 30
0.0
 40
0.5
100
AcDbArc
 50
0.0
 51
90.0
  0
ARC
  5
FB0
330
1F
100
AcDbEntity
  8
0
  6
Continuous
 62
     7
100
AcDbCircle
 10
-442.9800375208617
 20
43.81229044585995
 30
0.0
 40
0.5
100
AcDbArc
 50
90.0
 51
180.0
  0
ARC
  5
FB1
330
1F
100
AcDbEntity
  8
0
  6
Continuous
 62
     7
100
AcDbCircle
 10
-442.9800375208617
 20
45.81229044585995
 30
0.0
 40
0.5
100
AcDbArc
 50
180.0
 51
270.0
  0
ARC
  5
FB2
330
1F
100
AcDbEntity
  8
0
  6
DASH_CENTER
 62
    30
100
AcDbCircle
 10
-516.4800375208616
 20
44.81229044585996
 30
0.0
 40
72.5
100
AcDbArc
 50
261.1192146467244
 51
278.8807853532758
  0
ARC
  5
FB3
330
1F
100
AcDbEntity
  8
0
  6
Continuous
 62
     7
100
AcDbCircle
 10
-515.4800375208616
 20
-26.68770955414004
 30
0.0
 40
0.5
100
AcDbArc
 50
180.0
 51
270.0
  0
ARC
  5
FB4
330
1F
100
AcDbEntity
  8
0
  6
Continuous
 62
     7
100
AcDbCircle
 10
-517.4800375208616
 20
-26.68770955414004
 30
0.0
 40
0.5
100
AcDbArc
 50
270.0
 51
0.0
  0
ARC
  5
FB5
330
1F
100
AcDbEntity
  8
0
  6
Continuous
 62
     7
100
AcDbCircle
 10
-517.4800375208616
 20
-28.68770955414004
 30
0.0
 40
0.5
100
AcDbArc
 50
0.0
 51
90.0
  0
ARC
  5
FB6
330
1F
100
AcDbEntity
  8
0
  6
Continuous
 62
     7
100
AcDbCircle
 10
-515.4800375208616
 20
-28.68770955414004
 30
0.0
 40
0.5
100
AcDbArc
 50
90.0
 51
180.0
  0
ARC
  5
FB7
330
1F
100
AcDbEntity
  8
0
  6
DASH_CENTER
 62
    30
100
AcDbCircle
 10
-516.4800375208616
 20
44.81229044585996
 30
0.0
 40
72.5
100
AcDbArc
 50
150.8128734487734
 51
188.8807853532756
  0
ARC
  5
FB8
330
1F
100
AcDbEntity
  8
0
  6
Continuous
 62
     7
100
AcDbCircle
 10
-587.9800375208617
 20
43.81229044586
 30
0.0
 40
0.5
100
AcDbArc
 50
90.0
 51
180.0
  0
ARC
  5
FB9
330
1F
100
AcDbEntity
  8
0
  6
Continuous
 62
     7
100
AcDbCircle
 10
-587.9800375208617
 20
45.81229044586001
 30
0.0
 40
0.5
100
AcDbArc
 50
180.0
 51
270.0
  0
ARC
  5
FBA
330
1F
100
AcDbEntity
  8
0
  6
Continuous
 62
     7
100
AcDbCircle
 10
-589.9800375208617
 20
45.81229044586001
 30
0.0
 40
0.5
100
AcDbArc
 50
270.0
 51
0.0
  0
ARC
  5
FBB
330
1F
100
AcDbEntity
  8
0
  6
Continuous
 62
     7
100
AcDbCircle
 10
-589.9800375208617
 20
43.81229044586
 30
0.0
 40
0.5
100
AcDbArc
 50
0.0
 51
90.0
  0
ARC
  5
FBC
330
1F
100
AcDbEntity
  8
0
  6
DASH_CENTER
 62
    30
100
AcDbCircle
 10
-516.4800375208616
 20
44.81229044585996
 30
0.0
 40
72.5
100
AcDbArc
 50
81.11921464672422
 51
98.88078535327558
  0
ARC
  5
FBD
330
1F
100
AcDbEntity
  8
0
  6
Continuous
 62
     7
100
AcDbCircle
 10
-517.4800375208616
 20
116.3122904458599
 30
0.0
 40
0.5
100
AcDbArc
 50
0.0
 51
90.0
  0
ARC
  5
FBE
330
1F
100
AcDbEntity
  8
0
  6
Continuous
 62
     7
100
AcDbCircle
 10
-515.4800375208616
 20
116.3122904458599
 30
0.0
 40
0.5
100
AcDbArc
 50
90.0
 51
180.0
  0
ARC
  5
FBF
330
1F
100
AcDbEntity
  8
0
  6
Continuous
 62
     7
100
AcDbCircle
 10
-515.4800375208616
 20
118.3122904458599
 30
0.0
 40
0.5
100
AcDbArc
 50
180.0
 51
270.0
  0
ARC
  5
FC0
330
1F
100
AcDbEntity
  8
0
  6
Continuous
 62
     7
100
AcDbCircle
 10
-517.4800375208616
 20
118.3122904458599
 30
0.0
 40
0.5
100
AcDbArc
 50
270.0
 51
0.0
  0
ARC
  5
FC1
330
1F
100
AcDbEntity
  8
0
  6
DASH_CENTER
 62
    30
100
AcDbCircle
 10
-495.4800375208621
 20
8.439223486913418
 30
0.0
 40
163.0
100
AcDbArc
 50
295.6048415793063
 51
304.3951584206935
  0
ARC
  5
FC2
330
1F
100
AcDbEntity
  8
0
  6
DASH_CENTER
 62
    30
100
AcDbCircle
 10
-537.4800375208613
 20
8.439223486913306
 30
0.0
 40
163.0
100
AcDbArc
 50
235.6048415793065
 51
244.3951584206935
  0
ARC
  5
FC3
330
1F
100
AcDbEntity
  8
0
  6
DASH_CENTER
 62
    30
100
AcDbCircle
 10
-558.4800375208616
 20
44.81229044585996
 30
0.0
 40
163.0
100
AcDbArc
 50
175.6048415793065
 51
184.3951584206935
  0
ARC
  5
FC4
330
1F
100
AcDbEntity
  8
0
  6
DASH_CENTER
 62
    30
100
AcDbCircle
 10
-537.4800375208616
 20
81.18535740480643
 30
0.0
 40
163.0
100
AcDbArc
 50
115.6048415793065
 51
124.3951584206934
  0
ARC
  5
FC5
330
1F
100
AcDbEntity
  8
0
  6
DASH_CENTER
 62
    30
100
AcDbCircle
 10
-495.4800375208621
 20
81.18535740480661
 30
0.0
 40
162.9999999999999
100
AcDbArc
 50
55.60484157930645
 51
64.39515842069339
  0
ARC
  5
FC6
330
1F
100
AcDbEntity
  8
0
  6
DASH_CENTER
 62
    30
100
AcDbCircle
 10
-474.4800375208618
 20
44.81229044585996
 30
0.0
 40
162.9999999999999
100
AcDbArc
 50
355.6048415793065
 51
4.395158420693508
  0
ARC
  5
FC7
330
1F
100
AcDbEntity
  8
0
  6
Continuous
 62
     7
100
AcDbCircle
 10
-516.4800375208616
 20
44.81229044585996
 30
0.0
 40
200.0
100
AcDbArc
 50
123.4769607387283
 51
176.5230392612715
  0
ARC
  5
FC8
330
1F
100
AcDbEntity
  8
0
  6
Continuous
 62
     7
100
AcDbCircle
 10
-516.4800375208616
 20
44.81229044585996
 30
0.0
 40
200.0
100
AcDbArc
 50
90.0
 51
116.5230392612714
  0
ARC
  5
FC9
330
1F
100
AcDbEntity
  8
0
  6
Continuous
 62
     7
100
AcDbCircle
 10
-516.4800375208616
 20
44.81229044585996
 30
0.0
 40
200.0
100
AcDbArc
 50
3.476960738728285
 51
56.52303926127157
  0
ARC
  5
FCA
330
1F
100
AcDbEntity
  8
0
  6
Continuous
 62
     7
100
AcDbCircle
 10
-516.4800375208616
 20
44.81229044585996
 30
0.0
 40
200.0
100
AcDbArc
 50
183.4769607387284
 51
236.5230392612719
  0
ARC
  5
FCB
330
1F
100
AcDbEntity
  8
0
  6
Continuous
 62
     7
100
AcDbCircle
 10
-415.6195412104841
 20
-132.2836136403281
 30
0.0
 40
0.5999999999999419
100
AcDbArc
 50
300.0000000000044
 51
29.99999999999842
  0
ARC
  5
FCC
330
1F
100
AcDbEntity
  8
0
  6
Continuous
 62
     7
100
AcDbCircle
 10
-414.4194912104842
 20
-134.3621612119511
 30
0.0
 40
0.5999999999999166
100
AcDbArc
 50
29.99999999999488
 51
119.9999999999944
  0
ARC
  5
FCD
330
1F
100
AcDbEntity
  8
0
  6
Continuous
 62
     7
100
AcDbCircle
 10
-412.3409436388612
 20
-133.162111211951
 30
0.0
 40
0.6000000000000032
100
AcDbArc
 50
120.0000000000011
 51
210.0000000000101
  0
ARC
  5
FCE
330
1F
100
AcDbEntity
  8
0
  6
Continuous
 62
     7
100
AcDbCircle
 10
-413.5409936388608
 20
-131.083563640328
 30
0.0
 40
0.6000000000002409
100
AcDbArc
 50
209.9999999999942
 51
299.9999999999951
  0
ARC
  5
FCF
330
1F
100
AcDbEntity
  8
0
  6
Continuous
 62
     7
100
AcDbCircle
 10
-413.9800375208619
 20
-132.7229173299502
 30
0.0
 40
7.000000000000017
100
AcDbArc
 50
235.0000000000003
 51
5.000000000000207
  0
ARC
  5
FD0
330
1F
100
AcDbEntity
  8
0
  6
Continuous
 62
     7
100
AcDbCircle
 10
-619.4193412104834
 20
-131.0834136403281
 30
0.0
 40
0.5999999999999703
100
AcDbArc
 50
239.9999999999907
 51
330.0000000000043
  0
ARC
  5
FD1
330
1F
100
AcDbEntity
  8
0
  6
Continuous
 62
     7
100
AcDbCircle
 10
-620.6193912104834
 20
-133.1619612119511
 30
0.0
 40
0.5999999999998602
100
AcDbArc
 50
330.0000000000036
 51
60.00000000000702
  0
ARC
  5
FD2
330
1F
100
AcDbEntity
  8
0
  6
Continuous
 62
     7
100
AcDbCircle
 10
-618.5408436388602
 20
-134.3620112119511
 30
0.0
 40
0.5999999999999549
100
AcDbArc
 50
60.00000000001507
 51
150.0000000000034
  0
ARC
  5
FD3
330
1F
100
AcDbEntity
  8
0
  6
Continuous
 62
     7
100
AcDbCircle
 10
-617.3407936388604
 20
-132.2834636403282
 30
0.0
 40
0.6000000000002409
100
AcDbArc
 50
150.0000000000058
 51
239.9999999999995
  0
ARC
  5
FD4
330
1F
100
AcDbEntity
  8
0
  6
Continuous
 62
     7
100
AcDbCircle
 10
-618.9800375208612
 20
-132.7229173299502
 30
0.0
 40
7.000000000000132
100
AcDbArc
 50
174.9999999999999
 51
304.9999999999986
  0
ARC
  5
FD5
330
1F
100
AcDbEntity
  8
0
  6
Continuous
 62
     7
100
AcDbCircle
 10
-720.2798375208618
 20
46.01249044586007
 30
0.0
 40
0.5999999999997954
100
AcDbArc
 50
180.0
 51
270.0
  0
ARC
  5
FD6
330
1F
100
AcDbEntity
  8
0
  6
Continuous
 62
     7
100
AcDbCircle
 10
-722.6799375208616
 20
46.01249044586007
 30
0.0
 40
0.5999999999999091
100
AcDbArc
 50
270.0
 51
0.0
  0
ARC
  5
FD7
330
1F
100
AcDbEntity
  8
0
  6
Continuous
 62
     7
100
AcDbCircle
 10
-722.6799375208616
 20
43.61239044585999
 30
0.0
 40
0.6000000000002501
100
AcDbArc
 50
0.0
 51
90.0
  0
ARC
  5
FD8
330
1F
100
AcDbEntity
  8
0
  6
Continuous
 62
     7
100
AcDbCircle
 10
-720.2798375208618
 20
43.61239044585993
 30
0.0
 40
0.6000000000001366
100
AcDbArc
 50
90.0
 51
180.0
  0
ARC
  5
FD9
330
1F
100
AcDbEntity
  8
0
  6
Continuous
 62
     7
100
AcDbCircle
 10
-721.480037520862
 20
44.81229044586007
 30
0.0
 40
6.999999999999922
100
AcDbArc
 50
114.9999999999989
 51
245.0000000000011
  0
ARC
  5
FDA
330
1F
100
AcDbEntity
  8
0
  6
Continuous
 62
     7
100
AcDbCircle
 10
-617.3405338312394
 20
221.9081945320479
 30
0.0
 40
0.5999999999998811
100
AcDbArc
 50
119.999999999989
 51
210.0000000000089
  0
ARC
  5
FDB
330
1F
100
AcDbEntity
  8
0
  6
Continuous
 62
     7
100
AcDbCircle
 10
-618.5405838312393
 20
223.9867421036708
 30
0.0
 40
0.599999999999903
100
AcDbArc
 50
210.0000000000035
 51
300.0000000000131
  0
ARC
  5
FDC
330
1F
100
AcDbEntity
  8
0
  6
Continuous
 62
     7
100
AcDbCircle
 10
-620.6191314028624
 20
222.7866921036708
 30
0.0
 40
0.599999999999938
100
AcDbArc
 50
299.9999999999984
 51
29.99999999999659
  0
ARC
  5
FDD
330
1F
100
AcDbEntity
  8
0
  6
Continuous
 62
     7
100
AcDbCircle
 10
-619.4190814028623
 20
220.7081445320479
 30
0.0
 40
0.5999999999998187
100
AcDbArc
 50
30.00000000001126
 51
119.9999999999984
  0
ARC
  5
FDE
330
1F
100
AcDbEntity
  8
0
  6
Continuous
 62
     7
100
AcDbCircle
 10
-618.9800375208614
 20
222.34749822167
 30
0.0
 40
6.999999999999917
100
AcDbArc
 50
55.00000000000018
 51
185.0000000000006
  0
ARC
  5
FDF
330
1F
100
AcDbEntity
  8
0
  6
Continuous
 62
     7
100
AcDbCircle
 10
-413.5407338312398
 20
220.707994532048
 30
0.0
 40
0.5999999999999665
100
AcDbArc
 50
59.99999999999689
 51
150.0000000000009
  0
ARC
  5
FE0
330
1F
100
AcDbEntity
  8
0
  6
Continuous
 62
     7
100
AcDbCircle
 10
-412.34068383124
 20
222.786542103671
 30
0.0
 40
0.5999999999998679
100
AcDbArc
 50
149.9999999999915
 51
239.9999999999955
  0
ARC
  5
FE1
330
1F
100
AcDbEntity
  8
0
  6
Continuous
 62
     7
100
AcDbCircle
 10
-414.419231402863
 20
223.986592103671
 30
0.0
 40
0.6000000000000402
100
AcDbArc
 50
240.0000000000009
 51
329.999999999998
  0
ARC
  5
FE2
330
1F
100
AcDbEntity
  8
0
  6
Continuous
 62
     7
100
AcDbCircle
 10
-415.6192814028628
 20
221.908044532048
 30
0.0
 40
0.6000000000001075
100
AcDbArc
 50
329.9999999999952
 51
59.99999999999553
  0
ARC
  5
FE3
330
1F
100
AcDbEntity
  8
0
  6
Continuous
 62
     7
100
AcDbCircle
 10
-413.9800375208621
 20
222.34749822167
 30
0.0
 40
7.000000000000072
100
AcDbArc
 50
355.0
 51
124.9999999999991
  0
ARC
  5
FE4
330
1F
100
AcDbEntity
  8
0
  6
Continuous
 62
     7
100
AcDbCircle
 10
-312.6802375208617
 20
43.61209044585995
 30
0.0
 40
0.5999999999999659
100
AcDbArc
 50
0.0
 51
90.0
  0
ARC
  5
FE5
330
1F
100
AcDbEntity
  8
0
  6
Continuous
 62
     7
100
AcDbCircle
 10
-310.2801375208616
 20
43.61209044585995
 30
0.0
 40
0.5999999999999091
100
AcDbArc
 50
90.0
 51
180.0
  0
ARC
  5
FE6
330
1F
100
AcDbEntity
  8
0
  6
Continuous
 62
     7
100
AcDbCircle
 10
-310.2801375208616
 20
46.01219044586001
 30
0.0
 40
0.6000000000000796
100
AcDbArc
 50
180.0
 51
270.0
  0
ARC
  5
FE7
330
1F
100
AcDbEntity
  8
0
  6
Continuous
 62
     7
100
AcDbCircle
 10
-312.6802375208617
 20
46.01219044586001
 30
0.0
 40
0.6000000000001366
100
AcDbArc
 50
270.0
 51
0.0
  0
ARC
  5
FE8
330
1F
100
AcDbEntity
  8
0
  6
Continuous
 62
     7
100
AcDbCircle
 10
-516.4800375208616
 20
44.81229044585996
 30
0.0
 40
200.0
100
AcDbArc
 50
303.4769607387283
 51
356.5230392612715
  0
ARC
  5
FE9
330
1F
100
AcDbEntity
  8
0
  6
Continuous
 62
     7
100
AcDbCircle
 10
-311.4800375208618
 20
44.81229044585996
 30
0.0
 40
7.000000000000049
100
AcDbArc
 50
295.0000000000009
 51
64.99999999999897
  0
ARC
  5
FEE
330
1F
100
AcDbEntity
  8
0
  6
DASHED
 62
   171
 48
0.5
100
AcDbCircle
 10
-516.4798206364897
 20
44.81209749086423
 30
0.0
 40
99.99972111131553
100
AcDbArc
 50
284.0695845513528
 51
334.4554419244215
  0
ARC
  5
FF4
330
1F
100
AcDbEntity
  8
10
  6
Continuous
 62
     7
100
AcDbCircle
 10
-286.4805375208618
 20
-50.18770955414004
 30
0.0
 40
2.000000000000002
100
AcDbArc
 50
90.0
 51
180.0
  0
ARC
  5
FF5
330
1F
100
AcDbEntity
  8
10
  6
Continuous
 62
     7
100
AcDbCircle
 10
-291.4802375208619
 20
-65.18760955414006
 30
0.0
 40
3.0
100
AcDbArc
 50
270.0
 51
0.0
  0
ARC
  5
FF6
330
1F
100
AcDbEntity
  8
10
  6
Continuous
 62
     7
100
AcDbCircle
 10
-291.4802375208619
 20
-153.18780955414
 30
0.0
 40
3.0
100
AcDbArc
 50
0.0
 51
90.0
  0
ARC
  5
FF7
330
1F
100
AcDbEntity
  8
10
  6
Continuous
 62
     7
100
AcDbCircle
 10
-286.4805375221118
 20
-168.1877095528901
 30
0.0
 40
2.000000001250019
100
AcDbArc
 50
180.0028648247821
 51
270.0000000358111
  0
ARC
  5
FF8
330
1F
100
AcDbEntity
  8
10
  6
Continuous
 62
     7
100
AcDbCircle
 10
-346.2821309169421
 20
-63.18770955414004
 30
0.0
 40
5.000000000000051
100
AcDbArc
 50
218.6004240928907
 51
270.0
  0
ARC
  5
FF9
330
1F
100
AcDbEntity
  8
0
  6
Continuous
 62
     7
100
AcDbCircle
 10
-268.7802339989697
 20
-72.50060937808648
 30
0.0
 40
1.599996478112599
100
AcDbArc
 50
0.00013763824983
 51
84.99828905335512
  0
ARC
  5
FFA
330
1F
100
AcDbEntity
  8
0
  6
Continuous
 62
     7
100
AcDbCircle
 10
-268.780183808585
 20
-77.99085605008833
 30
0.0
 40
1.600046288488431
100
AcDbArc
 50
275.0033452874528
 51
359.9982280209437
  0
ARC
  5
FFB
330
1F
100
AcDbEntity
  8
0
  6
Continuous
 62
     7
100
AcDbCircle
 10
-268.7801339989698
 20
-145.8748097301936
 30
0.0
 40
1.599996478112598
100
AcDbArc
 50
275.0017109466448
 51
359.9998623617499
  0
ARC
  5
FFC
330
1F
100
AcDbEntity
  8
0
  6
Continuous
 62
     7
100
AcDbCircle
 10
-268.780183808585
 20
-140.3845630581917
 30
0.0
 40
1.600046288488416
100
AcDbArc
 50
0.00177197905657
 51
84.99665471254719
  0
ARC
  5
1003
330
1F
100
AcDbEntity
  8
10
  6
Continuous
 62
     7
100
AcDbCircle
 10
303.0294506200472
 20
-153.1877055229116
 30
0.0
 40
2.000004031235099
100
AcDbArc
 50
269.9998509076365
 51
345.5223983590684
  0
ARC
  5
1004
330
1F
100
AcDbEntity
  8
10
  6
Continuous
 62
     7
100
AcDbCircle
 10
306.9025402114154
 20
-154.1877135853683
 30
0.0
 40
2.000004031235071
100
AcDbArc
 50
89.99985090763651
 51
165.5223983590691
  0
ARC
  5
1005
330
1F
100
AcDbEntity
  8
10
  6
Continuous
 62
     7
100
AcDbCircle
 10
288.1024454144813
 20
-154.1877095528899
 30
0.0
 40
2.000000001249985
100
AcDbArc
 50
359.9999999641881
 51
89.99713517522106
  0
ARC
  5
1006
330
1F
100
AcDbEntity
  8
10
  6
Continuous
 62
     7
100
AcDbCircle
 10
230.405450620047
 20
-153.1877055229116
 30
0.0
 40
2.000004031235058
100
AcDbArc
 50
269.9998509076373
 51
345.5223983590693
  0
ARC
  5
1007
330
1F
100
AcDbEntity
  8
10
  6
Continuous
 62
     7
100
AcDbCircle
 10
234.2785402114155
 20
-154.1877135853683
 30
0.0
 40
2.000004031235058
100
AcDbArc
 50
89.99985090763731
 51
165.5223983590693
  0
ARC
  5
1009
330
1F
100
AcDbEntity
  8
0
  6
Continuous
 62
     7
100
AcDbCircle
 10
411.6464454157312
 20
226.8122904458597
 30
0.0
 40
15.0
100
AcDbArc
 50
0.0
 51
90.0
  0
ARC
  5
100A
330
1F
100
AcDbEntity
  8
100
  6
DASH_CENTER
 62
    30
100
AcDbCircle
 10
401.6463796830553
 20
-109.1876177829697
 30
0.0
 40
52.50002983269759
100
AcDbArc
 50
124.7059464210458
 51
145.4956730652209
  0
ARC
  5
100B
330
1F
100
AcDbEntity
  8
10
  6
Continuous
 62
     7
100
AcDbCircle
 10
215.2784454144813
 20
-154.1877095528899
 30
0.0
 40
2.000000001250014
100
AcDbArc
 50
359.9999999641881
 51
89.99713517521454
  0
ARC
  5
100C
330
1F
100
AcDbEntity
  8
10
  6
Continuous
 62
     7
100
AcDbCircle
 10
156.581450620047
 20
-153.1877055229116
 30
0.0
 40
2.000004031235099
100
AcDbArc
 50
269.9998509076365
 51
345.5223983590685
  0
ARC
  5
100D
330
1F
100
AcDbEntity
  8
10
  6
Continuous
 62
     7
100
AcDbCircle
 10
160.4545402114154
 20
-154.1877135853683
 30
0.0
 40
2.000004031235115
100
AcDbArc
 50
89.99985090763569
 51
165.5223983590679
  0
ARC
  5
100E
330
1F
100
AcDbEntity
  8
0
  6
Continuous
 62
     7
100
AcDbCircle
 10
42.94599589383924
 20
-29.43285888132527
 30
0.0
 40
1.599996478112634
100
AcDbArc
 50
180.000137638248
 51
264.9982890533537
  0
ARC
  5
100F
330
1F
100
AcDbEntity
  8
0
  6
Continuous
 62
     7
100
AcDbCircle
 10
42.94604570345444
 20
-23.94261220932344
 30
0.0
 40
1.600046288488416
100
AcDbArc
 50
95.00334528745256
 51
179.998228020945
  0
ARC
  5
1010
330
1F
100
AcDbEntity
  8
0
  6
Continuous
 62
     7
100
AcDbCircle
 10
363.5233635525567
 20
-73.06437939274286
 30
0.0
 40
0.5
100
AcDbArc
 50
0.0
 51
90.0
  0
ARC
  5
1011
330
1F
100
AcDbEntity
  8
0
  6
Continuous
 62
     7
100
AcDbCircle
 10
365.5233635525567
 20
-73.06437939274286
 30
0.0
 40
0.5
100
AcDbArc
 50
90.0
 51
180.0
  0
ARC
  5
1012
330
1F
100
AcDbEntity
  8
0
  6
Continuous
 62
     7
100
AcDbCircle
 10
365.5233635525567
 20
-71.06437939274286
 30
0.0
 40
0.5
100
AcDbArc
 50
180.0
 51
270.0
  0
ARC
  5
1013
330
1F
100
AcDbEntity
  8
0
  6
Continuous
 62
     7
100
AcDbCircle
 10
363.5233635525567
 20
-71.06437939274286
 30
0.0
 40
0.5
100
AcDbArc
 50
270.0
 51
0.0
  0
ARC
  5
1014
330
1F
100
AcDbEntity
  8
100
  6
DASH_CENTER
 62
    30
100
AcDbCircle
 10
401.6464454157311
 20
-109.1879095541401
 30
0.0
 40
52.5
100
AcDbArc
 50
202.2054303520531
 51
235.4954914442264
  0
ARC
  5
1015
330
1F
100
AcDbEntity
  8
0
  6
Continuous
 62
     7
100
AcDbCircle
 10
365.5231165330242
 20
-147.3107625418204
 30
0.0
 40
0.5
100
AcDbArc
 50
90.0
 51
180.0
  0
ARC
  5
1016
330
1F
100
AcDbEntity
  8
0
  6
Continuous
 62
     7
100
AcDbCircle
 10
365.5231165330242
 20
-145.3107625418204
 30
0.0
 40
0.5
100
AcDbArc
 50
180.0
 51
270.0
  0
ARC
  5
1017
330
1F
100
AcDbEntity
  8
0
  6
Continuous
 62
     7
100
AcDbCircle
 10
363.5231165330242
 20
-145.3107625418204
 30
0.0
 40
0.5
100
AcDbArc
 50
270.0
 51
0.0
  0
ARC
  5
1018
330
1F
100
AcDbEntity
  8
0
  6
Continuous
 62
     7
100
AcDbCircle
 10
363.5231165330242
 20
-147.3107625418204
 30
0.0
 40
0.5
100
AcDbArc
 50
0.0
 51
90.0
  0
ARC
  5
1019
330
1F
100
AcDbEntity
  8
100
  6
DASH_CENTER
 62
    30
100
AcDbCircle
 10
401.6465326330053
 20
-109.1878227344396
 30
0.0
 40
52.5
100
AcDbArc
 50
304.7059404485781
 51
325.49567903769
  0
ARC
  5
101A
330
1F
100
AcDbEntity
  8
0
  6
Continuous
 62
     7
100
AcDbCircle
 10
439.7695122018433
 20
-145.311024638475
 30
0.0
 40
0.5
100
AcDbArc
 50
180.0
 51
270.0
  0
ARC
  5
101B
330
1F
100
AcDbEntity
  8
0
  6
Continuous
 62
     7
100
AcDbCircle
 10
437.7695122018433
 20
-145.311024638475
 30
0.0
 40
0.5
100
AcDbArc
 50
270.0
 51
0.0
  0
ARC
  5
101C
330
1F
100
AcDbEntity
  8
0
  6
Continuous
 62
     7
100
AcDbCircle
 10
437.7695122018433
 20
-147.311024638475
 30
0.0
 40
0.5
100
AcDbArc
 50
0.0
 51
90.0
  0
ARC
  5
101D
330
1F
100
AcDbEntity
  8
0
  6
Continuous
 62
     7
100
AcDbCircle
 10
439.7695122018433
 20
-147.311024638475
 30
0.0
 40
0.5
100
AcDbArc
 50
90.0
 51
180.0
  0
ARC
  5
101E
330
1F
100
AcDbEntity
  8
100
  6
DASH_CENTER
 62
    30
100
AcDbCircle
 10
401.6464454157311
 20
-109.1875095541401
 30
0.0
 40
52.5
100
AcDbArc
 50
22.20524990337944
 51
55.49549144422619
  0
ARC
  5
101F
330
1F
100
AcDbEntity
  8
0
  6
Continuous
 62
     7
100
AcDbCircle
 10
437.7697605000662
 20
-71.06464276802784
 30
0.0
 40
0.5
100
AcDbArc
 50
270.0
 51
0.0
  0
ARC
  5
1020
330
1F
100
AcDbEntity
  8
0
  6
Continuous
 62
     7
100
AcDbCircle
 10
437.7697605000662
 20
-73.06464276802784
 30
0.0
 40
0.5
100
AcDbArc
 50
0.0
 51
90.0
  0
ARC
  5
1021
330
1F
100
AcDbEntity
  8
0
  6
Continuous
 62
     7
100
AcDbCircle
 10
439.7697605000662
 20
-73.06464276802784
 30
0.0
 40
0.5
100
AcDbArc
 50
90.0
 51
180.0
  0
ARC
  5
1022
330
1F
100
AcDbEntity
  8
0
  6
Continuous
 62
     7
100
AcDbCircle
 10
439.7697605000662
 20
-71.06464276802784
 30
0.0
 40
0.5
100
AcDbArc
 50
180.0
 51
270.0
  0
ARC
  5
1023
330
1F
100
AcDbEntity
  8
60
  6
Continuous
 62
     7
100
AcDbCircle
 10
380.6466417722149
 20
-84.59101770117035
 30
0.0
 40
4.999996356490646
100
AcDbArc
 50
131.8097837566016
 51
179.9999066418416
  0
ARC
  5
1024
330
1F
100
AcDbEntity
  8
60
  6
Continuous
 62
     7
100
AcDbCircle
 10
424.6466144616171
 20
-85.72125775869492
 30
0.0
 40
9.999969046020099
100
AcDbArc
 50
180.0002967669588
 51
241.7266662850581
  0
ARC
  5
1025
330
1F
100
AcDbEntity
  8
60
  6
Continuous
 62
     7
100
AcDbCircle
 10
406.6466672800001
 20
-119.1877923378997
 30
0.0
 40
28.00003545395387
100
AcDbArc
 50
327.8631838874893
 51
61.7262783595675
  0
ARC
  5
1026
330
1F
100
AcDbEntity
  8
0
  6
Continuous
 62
     7
100
AcDbCircle
 10
42.94599589383924
 20
42.06714111867484
 30
0.0
 40
1.599996478112634
100
AcDbArc
 50
180.000137638248
 51
264.9982890533537
  0
ARC
  5
1029
330
1F
100
AcDbEntity
  8
0
  6
Continuous
 62
     7
100
AcDbCircle
 10
-516.4800375208616
 20
44.81229044585996
 30
0.0
 40
200.0
100
AcDbArc
 50
281.7108402510296
 51
296.5230392612717
  0
ARC
  5
102A
330
1F
100
AcDbEntity
  8
0
  6
DASHED
 62
     2
 48
0.5
100
AcDbCircle
 10
-516.4800375208618
 20
44.81229044586007
 30
0.0
 40
196.5000000000001
100
AcDbArc
 50
258.1685170595778
 51
281.8314829404222
  0
ARC
  5
102B
330
1F
100
AcDbEntity
  8
0
  6
Continuous
 62
     7
100
AcDbCircle
 10
-516.4800375208616
 20
44.81229044585996
 30
0.0
 40
196.5
100
AcDbArc
 50
281.8314829404222
 51
180.0
  0
ARC
  5
102C
330
1F
100
AcDbEntity
  8
0
  6
DASHED
 62
     2
 48
0.5
100
AcDbCircle
 10
-516.4800375208618
 20
44.81229044585865
 30
0.0
 40
199.9999999999985
100
AcDbArc
 50
258.2891597489703
 51
281.7108402510296
  0
ARC
  5
102D
330
1F
100
AcDbEntity
  8
0
  6
Continuous
 62
     7
100
AcDbCircle
 10
-516.4800375208616
 20
44.81229044585996
 30
0.0
 40
196.5
100
AcDbArc
 50
180.0
 51
258.1685170595778
  0
ARC
  5
102E
330
1F
100
AcDbEntity
  8
0
  6
Continuous
 62
     7
100
AcDbCircle
 10
-516.4800375208616
 20
44.81229044585996
 30
0.0
 40
200.0
100
AcDbArc
 50
243.4769607387285
 51
258.2891597489704
  0
CIRCLE
  5
1036
102
{ACAD_REACTORS
330
10F5
330
10F6
102
}
330
1F
100
AcDbEntity
  8
0
  6
Continuous
 62
     7
100
AcDbCircle
 10
-516.4800375208616
 20
44.81229044585996
 30
0.0
 40
24.0
  0
CIRCLE
  5
1037
102
{ACAD_REACTORS
330
10F5
102
}
330
1F
100
AcDbEntity
  8
0
  6
Continuous
 62
     7
100
AcDbCircle
 10
-516.4800375208616
 20
44.81229044585996
 30
0.0
 40
60.0
  0
CIRCLE
  5
1038
330
1F
100
AcDbEntity
  8
0
  6
Continuous
 62
     7
100
AcDbCircle
 10
-443.9800375208617
 20
44.81229044585996
 30
0.0
 40
4.5
  0
CIRCLE
  5
1039
330
1F
100
AcDbEntity
  8
0
  6
Continuous
 62
     7
100
AcDbCircle
 10
-516.4800375208616
 20
-27.68770955414004
 30
0.0
 40
4.5
  0
CIRCLE
  5
103A
330
1F
100
AcDbEntity
  8
0
  6
Continuous
 62
     7
100
AcDbCircle
 10
-588.9800375208617
 20
44.81229044586
 30
0.0
 40
4.5
  0
CIRCLE
  5
103B
330
1F
100
AcDbEntity
  8
0
  6
Continuous
 62
     7
100
AcDbCircle
 10
-516.4800375208616
 20
117.3122904458599
 30
0.0
 40
4.5
  0
CIRCLE
  5
103C
330
1F
100
AcDbEntity
  8
0
  6
Continuous
 62
     7
100
AcDbCircle
 10
-516.4800375208616
 20
44.81229044585996
 30
0.0
 40
63.49999999999999
  0
CIRCLE
  5
103D
330
1F
100
AcDbEntity
  8
0
  6
Continuous
 62
     7
100
AcDbCircle
 10
-516.4800375208616
 20
44.81229044585996
 30
0.0
 40
77.5
  0
CIRCLE
  5
103E
330
1F
100
AcDbEntity
  8
0
  6
Continuous
 62
     7
100
AcDbCircle
 10
-413.9800375208619
 20
-132.7229173299502
 30
0.0
 40
5.250000000000061
  0
CIRCLE
  5
103F
330
1F
100
AcDbEntity
  8
0
  6
Continuous
 62
     7
100
AcDbCircle
 10
-618.9800375208612
 20
-132.7229173299502
 30
0.0
 40
5.249999999999988
  0
CIRCLE
  5
1040
330
1F
100
AcDbEntity
  8
0
  6
Continuous
 62
     7
100
AcDbCircle
 10
-721.4800375208618
 20
44.81229044586007
 30
0.0
 40
5.249999999999886
  0
CIRCLE
  5
1041
330
1F
100
AcDbEntity
  8
0
  6
Continuous
 62
     7
100
AcDbCircle
 10
-618.9800375208614
 20
222.34749822167
 30
0.0
 40
5.249999999999988
  0
CIRCLE
  5
1042
330
1F
100
AcDbEntity
  8
0
  6
Continuous
 62
     7
100
AcDbCircle
 10
-413.9800375208621
 20
222.34749822167
 30
0.0
 40
5.249999999999988
  0
CIRCLE
  5
1043
330
1F
100
AcDbEntity
  8
0
  6
Continuous
 62
     7
100
AcDbCircle
 10
-311.4800375208618
 20
44.81229044585996
 30
0.0
 40
5.25
  0
CIRCLE
  5
1048
330
1F
100
AcDbEntity
  8
0
  6
Continuous
 62
     7
100
AcDbCircle
 10
401.6464454157311
 20
-109.18770955414
 30
0.0
 40
40.99996654157149
  0
CIRCLE
  5
1049
330
1F
100
AcDbEntity
  8
0
  6
Continuous
 62
     7
100
AcDbCircle
 10
401.6464454157311
 20
-109.18770955414
 30
0.0
 40
61.0
  0
CIRCLE
  5
104A
330
1F
100
AcDbEntity
  8
0
  6
Continuous
 62
     7
100
AcDbCircle
 10
364.5233635525567
 20
-72.06437939274286
 30
0.0
 40
4.5
  0
CIRCLE
  5
104B
330
1F
100
AcDbEntity
  8
0
  6
Continuous
 62
     7
100
AcDbCircle
 10
364.523116533024
 20
-146.3107625418204
 30
0.0
 40
4.500000000000028
  0
CIRCLE
  5
104C
330
1F
100
AcDbEntity
  8
0
  6
Continuous
 62
     7
100
AcDbCircle
 10
438.7695122018433
 20
-146.311024638475
 30
0.0
 40
4.5
  0
CIRCLE
  5
104D
330
1F
100
AcDbEntity
  8
0
  6
Continuous
 62
     7
100
AcDbCircle
 10
438.7697605000662
 20
-72.06464276802783
 30
0.0
 40
4.5
  0
CIRCLE
  5
104E
330
1F
100
AcDbEntity
  8
60
  6
Continuous
 62
     7
100
AcDbCircle
 10
401.6464454157311
 20
-109.18770955414
 30
0.0
 40
38.00000000000011
  0
ARC
  5
1059
330
1F
100
AcDbEntity
  8
0
  6
Continuous
 62
     7
100
AcDbCircle
 10
69.64589937013285
 20
125.3122904458599
 30
0.0
 40
2.999999999999901
100
AcDbArc
 50
270.0
 51
0.0
  0
ARC
  5
105A
330
1F
100
AcDbEntity
  8
0
  6
Continuous
 62
     7
100
AcDbCircle
 10
82.64589937013289
 20
231.8122904458598
 30
0.0
 40
9.999999999999916
100
AcDbArc
 50
90.0
 51
180.0
  0
ARC
  5
105B
330
1F
100
AcDbEntity
  8
0
  6
Continuous
 62
     7
100
AcDbCircle
 10
141.9545454157312
 20
243.8122904458599
 30
0.0
 40
2.0
100
AcDbArc
 50
270.0
 51
345.5224878140662
  0
ARC
  5
105C
330
1F
100
AcDbEntity
  8
0
  6
Continuous
 62
     7
100
AcDbCircle
 10
145.8275287619386
 20
242.8122904458598
 30
0.0
 40
1.999999999999914
100
AcDbArc
 50
90.0
 51
165.5224878140708
  0
ARC
  5
105D
330
1F
100
AcDbEntity
  8
0
  6
Continuous
 62
     7
100
AcDbCircle
 10
46.64589941573119
 20
120.31229044586
 30
0.0
 40
1.999999999999899
100
AcDbArc
 50
90.0000000000006
 51
180.0
  0
ARC
  5
105E
330
1F
100
AcDbEntity
  8
0
  6
Continuous
 62
     7
100
AcDbCircle
 10
42.64589941573118
 20
110.3122904458599
 30
0.0
 40
2.0
100
AcDbArc
 50
270.0000000000004
 51
0.0
  0
ARC
  5
105F
330
1F
100
AcDbEntity
  8
0
  6
Continuous
 62
     7
100
AcDbCircle
 10
12.14589941573121
 20
106.8122904458599
 30
0.0
 40
1.5
100
AcDbArc
 50
90.00000000000026
 51
180.0
  0
ARC
  5
1070
330
1F
100
AcDbEntity
  8
0
  6
Continuous
 62
     7
100
AcDbCircle
 10
-459.8113196109832
 20
50.81229044585995
 30
0.0
 40
3.0
100
AcDbArc
 50
270.0
 51
6.32060418323963
  0
ARC
  5
1071
330
1F
100
AcDbEntity
  8
0
  6
Continuous
 62
     7
100
AcDbCircle
 10
-490.1551443586853
 20
50.81229044585995
 30
0.0
 40
3.000000000000075
100
AcDbArc
 50
192.839588406904
 51
270.0
  0
ARC
  5
1072
330
1F
100
AcDbEntity
  8
0
  6
Continuous
 62
     7
100
AcDbCircle
 10
-490.1551443586853
 20
38.81229044585996
 30
0.0
 40
3.0
100
AcDbArc
 50
90.0
 51
167.1604115930957
  0
ARC
  5
1073
330
1F
100
AcDbEntity
  8
0
  6
Continuous
 62
     7
100
AcDbCircle
 10
-459.8113196109832
 20
38.81229044585996
 30
0.0
 40
3.000000000000003
100
AcDbArc
 50
353.6793958167603
 51
90.0
  0
ARC
  5
1074
330
1F
100
AcDbEntity
  8
0
  6
Continuous
 62
     7
100
AcDbCircle
 10
-510.4800375208617
 20
-11.85642746401856
 30
0.0
 40
3.0
100
AcDbArc
 50
180.0
 51
276.3206041832396
  0
ARC
  5
1075
330
1F
100
AcDbEntity
  8
0
  6
Continuous
 62
     7
100
AcDbCircle
 10
-510.4800375208617
 20
18.4873972836836
 30
0.0
 40
3.000000000000031
100
AcDbArc
 50
102.8395884069066
 51
180.0
  0
ARC
  5
1076
330
1F
100
AcDbEntity
  8
0
  6
Continuous
 62
     7
100
AcDbCircle
 10
-522.4800375208616
 20
18.4873972836836
 30
0.0
 40
3.0
100
AcDbArc
 50
0.0
 51
77.16041159309654
  0
ARC
  5
1077
330
1F
100
AcDbEntity
  8
0
  6
Continuous
 62
     7
100
AcDbCircle
 10
-522.4800375208616
 20
-11.85642746401856
 30
0.0
 40
3.000000000000008
100
AcDbArc
 50
263.6793958167593
 51
0.0
  0
ARC
  5
1078
330
1F
100
AcDbEntity
  8
0
  6
Continuous
 62
     7
100
AcDbCircle
 10
-573.1487554307403
 20
38.81229044585996
 30
0.0
 40
3.0
100
AcDbArc
 50
90.0
 51
186.3206041832398
  0
ARC
  5
1079
330
1F
100
AcDbEntity
  8
0
  6
Continuous
 62
     7
100
AcDbCircle
 10
-542.8049306830381
 20
38.81229044585996
 30
0.0
 40
2.999999999999912
100
AcDbArc
 50
12.83958840690504
 51
90.0
  0
ARC
  5
107A
330
1F
100
AcDbEntity
  8
0
  6
Continuous
 62
     7
100
AcDbCircle
 10
-542.8049306830381
 20
50.81229044585995
 30
0.0
 40
3.0
100
AcDbArc
 50
270.0
 51
347.1604115930952
  0
ARC
  5
107B
330
1F
100
AcDbEntity
  8
0
  6
Continuous
 62
     7
100
AcDbCircle
 10
-573.1487554307403
 20
50.81229044585995
 30
0.0
 40
2.999999999999836
100
AcDbArc
 50
173.6793958167599
 51
270.0
  0
ARC
  5
107C
330
1F
100
AcDbEntity
  8
0
  6
Continuous
 62
     7
100
AcDbCircle
 10
-522.4800375208616
 20
101.5142077175996
 30
0.0
 40
3.0
100
AcDbArc
 50
0.0
 51
95.06252734749113
  0
ARC
  5
107D
330
1F
100
AcDbEntity
  8
0
  6
Continuous
 62
     7
100
AcDbCircle
 10
-522.4800375208616
 20
71.13718360803638
 30
0.0
 40
2.999999999999993
100
AcDbArc
 50
282.8395884069034
 51
0.0
  0
ARC
  5
107E
330
1F
100
AcDbEntity
  8
0
  6
Continuous
 62
     7
100
AcDbCircle
 10
-510.4800375208617
 20
71.13718360803638
 30
0.0
 40
3.0
100
AcDbArc
 50
180.0
 51
257.1604115930934
  0
ARC
  5
107F
330
1F
100
AcDbEntity
  8
0
  6
Continuous
 62
     7
100
AcDbCircle
 10
-510.4800375208617
 20
101.5142077175996
 30
0.0
 40
2.999999999999991
100
AcDbArc
 50
84.93747265249362
 51
180.0
  0
ARC
  5
1080
330
1F
100
AcDbEntity
  8
0
  6
Continuous
 62
     7
100
AcDbCircle
 10
-425.9529651286153
 20
228.6132591214196
 30
0.0
 40
5.000000000000018
100
AcDbArc
 50
255.9298980528878
 51
305.0000000000003
  0
ARC
  5
1081
330
1F
100
AcDbEntity
  8
0
  6
Continuous
 62
     7
100
AcDbCircle
 10
-630.3928094379606
 20
215.1115192055581
 30
0.0
 40
4.999999999999952
100
AcDbArc
 50
315.9298980528962
 51
4.9999999999999
  0
ARC
  5
1082
330
1F
100
AcDbEntity
  8
0
  6
Continuous
 62
     7
100
AcDbCircle
 10
-607.0071099131082
 20
228.6132591214193
 30
0.0
 40
4.999999999999978
100
AcDbArc
 50
234.9999999999996
 51
284.0701019471076
  0
ARC
  5
1083
330
1F
100
AcDbEntity
  8
0
  6
Continuous
 62
     7
100
AcDbCircle
 10
-402.5672656037631
 20
215.1115192055584
 30
0.0
 40
4.999999999999881
100
AcDbArc
 50
174.9999999999998
 51
224.0701019471123
  0
ARC
  5
1084
330
1F
100
AcDbEntity
  8
0
  6
Continuous
 62
     7
100
AcDbCircle
 10
-630.3928094379602
 20
-125.4869383138385
 30
0.0
 40
5.000000000000111
100
AcDbArc
 50
354.9999999999998
 51
44.07010194710028
  0
ARC
  5
1085
330
1F
100
AcDbEntity
  8
0
  6
Continuous
 62
     7
100
AcDbCircle
 10
-720.9198818302072
 20
58.31403036172122
 30
0.0
 40
4.999999999999941
100
AcDbArc
 50
294.9999999999985
 51
344.0701019471047
  0
ARC
  5
1086
330
1F
100
AcDbEntity
  8
0
  6
Continuous
 62
     7
100
AcDbCircle
 10
-720.9198818302072
 20
31.31055052999892
 30
0.0
 40
4.999999999999893
100
AcDbArc
 50
15.92989805288792
 51
64.99999999999909
  0
ARC
  5
1087
330
1F
100
AcDbEntity
  8
0
  6
Continuous
 62
     7
100
AcDbCircle
 10
-607.0071099131078
 20
-138.9886782296996
 30
0.0
 40
4.999999999999893
100
AcDbArc
 50
75.92989805289088
 51
125.0000000000004
  0
ARC
  5
1088
330
1F
100
AcDbEntity
  8
0
  6
Continuous
 62
     7
100
AcDbCircle
 10
-425.9529651286153
 20
-138.9886782296996
 30
0.0
 40
5.00000000000012
100
AcDbArc
 50
54.99999999999753
 51
104.0701019471025
  0
ARC
  5
1089
330
1F
100
AcDbEntity
  8
0
  6
Continuous
 62
     7
100
AcDbCircle
 10
-402.5672656037631
 20
-125.4869383138384
 30
0.0
 40
5.000000000000012
100
AcDbArc
 50
135.9298980528925
 51
185.0000000000004
  0
ARC
  5
108A
330
1F
100
AcDbEntity
  8
0
  6
Continuous
 62
     7
100
AcDbCircle
 10
-312.0401932115161
 20
31.31055052999881
 30
0.0
 40
5.000000000000058
100
AcDbArc
 50
115.0000000000008
 51
164.0701019471097
  0
ARC
  5
108B
330
1F
100
AcDbEntity
  8
0
  6
Continuous
 62
     7
100
AcDbCircle
 10
-312.0401932115161
 20
58.31403036172115
 30
0.0
 40
5.000000000000174
100
AcDbArc
 50
195.9298980528962
 51
244.9999999999991
  0
ARC
  5
1096
330
1F
100
AcDbEntity
  8
0
  6
Continuous
 62
     7
100
AcDbCircle
 10
-272.4800375208618
 20
-50.18770955414004
 30
0.0
 40
2.0
100
AcDbArc
 50
0.0
 51
90.0
  0
ARC
  5
1097
330
1F
100
AcDbEntity
  8
0
  6
Continuous
 62
     7
100
AcDbCircle
 10
-268.4800375208618
 20
-66.18770955414007
 30
0.0
 40
2.0
100
AcDbArc
 50
180.0
 51
270.0
  0
ARC
  5
1098
330
1F
100
AcDbEntity
  8
0
  6
Continuous
 62
     7
100
AcDbCircle
 10
-268.4800375208618
 20
-152.1877095541401
 30
0.0
 40
2.0
100
AcDbArc
 50
90.0
 51
180.0
  0
ARC
  5
1099
330
1F
100
AcDbEntity
  8
0
  6
Continuous
 62
     7
100
AcDbCircle
 10
-272.4800375208618
 20
-168.1877095541401
 30
0.0
 40
2.0
100
AcDbArc
 50
270.0
 51
0.0
  0
ARC
  5
109A
330
1F
100
AcDbEntity
  8
0
  6
Continuous
 62
     7
100
AcDbCircle
 10
-242.4800375208618
 20
-69.18770955414007
 30
0.0
 40
1.0
100
AcDbArc
 50
0.0
 51
90.0
  0
ARC
  5
109B
330
1F
100
AcDbEntity
  8
0
  6
Continuous
 62
     7
100
AcDbCircle
 10
-242.4800375208618
 20
-149.18770955414
 30
0.0
 40
1.0
100
AcDbArc
 50
270.0
 51
0.0
  0
ARC
  5
10A4
330
1F
100
AcDbEntity
  8
0
  6
Continuous
 62
     7
100
AcDbCircle
 10
664.9900521350481
 20
-50.1883812811531
 30
0.0
 40
5.000000000000162
100
AcDbArc
 50
270.9391909457417
 51
284.0362434679322
  0
ARC
  5
10A5
330
1F
100
AcDbEntity
  8
0
  6
Continuous
 62
     7
100
AcDbCircle
 10
664.9900521350481
 20
139.8129621728727
 30
0.0
 40
5.00000000000042
100
AcDbArc
 50
75.96375653207029
 51
89.06080905425827
  0
ARC
  5
10A9
330
1F
100
AcDbEntity
  8
0
  6
Continuous
 62
     7
100
AcDbCircle
 10
69.64589937013285
 20
-35.6877095541401
 30
0.0
 40
3.0
100
AcDbArc
 50
0.0
 51
90.0
  0
ARC
  5
10AA
330
1F
100
AcDbEntity
  8
0
  6
Continuous
 62
     7
100
AcDbCircle
 10
82.64589937013285
 20
-142.18770955414
 30
0.0
 40
10.00000000000003
100
AcDbArc
 50
180.0
 51
269.9999999999999
  0
ARC
  5
10AB
330
1F
100
AcDbEntity
  8
0
  6
Continuous
 62
     7
100
AcDbCircle
 10
141.9545454157312
 20
-154.1877095541401
 30
0.0
 40
1.999999999999898
100
AcDbArc
 50
14.47751218593068
 51
90.0
  0
ARC
  5
10AC
330
1F
100
AcDbEntity
  8
0
  6
Continuous
 62
     7
100
AcDbCircle
 10
145.8275287619385
 20
-153.18770955414
 30
0.0
 40
2.000000000000115
100
AcDbArc
 50
194.477512185932
 51
270.0
  0
ARC
  5
10AD
330
1F
100
AcDbEntity
  8
0
  6
Continuous
 62
     7
100
AcDbCircle
 10
46.64589941573119
 20
-30.6877095541401
 30
0.0
 40
2.000000000000014
100
AcDbArc
 50
180.0
 51
269.9999999999994
  0
ARC
  5
10AE
330
1F
100
AcDbEntity
  8
0
  6
Continuous
 62
     7
100
AcDbCircle
 10
42.64589941573118
 20
-20.68770955414004
 30
0.0
 40
2.000000000000014
100
AcDbArc
 50
0.0
 51
89.9999999999996
  0
ARC
  5
10AF
330
1F
100
AcDbEntity
  8
0
  6
Continuous
 62
     7
100
AcDbCircle
 10
12.14589941573119
 20
-17.18770955414004
 30
0.0
 40
1.499999999999993
100
AcDbArc
 50
180.0
 51
270.0000000000002
  0
ARC
  5
10B0
330
1F
100
AcDbEntity
  8
0
  6
Continuous
 62
     7
100
AcDbCircle
 10
12.14589941573121
 20
106.8122904458599
 30
0.0
 40
1.5
100
AcDbArc
 50
90.00000000000026
 51
180.0
  0
HATCH
  5
10F5
330
1F
100
AcDbEntity
  8
0
  6
Continuous
 62
    54
100
AcDbHatch
 10
0.0
 20
0.0
 30
0.0
210
0.0
220
0.0
230
1.0
  2
CUSTOM10
 70
     0
 71
     1
 91
        2
 92
        1
 93
        1
 72
     2
 10
-516.4800375208616
 20
44.81229044585996
 40
60.0
 50
0.0
 51
360.0
 73
     1
 97
        1
330
1037
 92
       16
 93
        1
 72
     2
 10
-516.4800375208616
 20
44.81229044585996
 40
24.0
 50
0.0
 51
360.0
 73
     1
 97
        1
330
1036
 75
     1
 76
     2
 52
0.0
 41
2.5
 77
     0
 78
     2
 53
0.0
 43
-44.81528471229649
 44
0.0
 45
-2.5
 46
2.5
 79
     0
 53
90.0
 43
-44.81528471229649
 44
0.0
 45
-2.499999999999999
 46
-2.5
 79
     0
 98
        1
 10
-44.81528471229649
 20
0.0
  0
HATCH
  5
10F6
330
1F
100
AcDbEntity
  8
0
  6
Continuous
 62
    54
100
AcDbHatch
 10
0.0
 20
0.0
 30
0.0
210
0.0
220
0.0
230
1.0
  2
CUSTOM11
 70
     0
 71
     1
 91
        1
 92
        1
 93
        1
 72
     2
 10
-516.4800375208616
 20
44.81229044585996
 40
24.0
 50
0.0
 51
360.0
 73
     1
 97
        1
330
1036
 75
     1
 76
     2
 52
90.00000000000005
 41
2.5
 77
     0
 78
     2
 53
90.0
 43
-44.81528471229649
 44
0.0
 45
-2.499999999999999
 46
-2.5
 79
     0
 53
180.0000000000001
 43
-44.81528471229649
 44
0.0
 45
2.500000000000002
 46
-2.499999999999996
 79
     0
 98
        1
 10
-44.81528471229649
 20
0.0
  0
LINE
  5
148F
330
1F
100
AcDbEntity
  8
0
  6
DASHED
 62
     2
 48
0.5
100
AcDbLine
 10
-602.4803027358895
 20
-55.18774618245013
 30
0.0
 11
-602.4803027358895
 21
-43.18775214521521
 31
0.0
  0
LINE
  5
1490
330
1F
100
AcDbEntity
  8
0
  6
DASHED
 62
     2
 48
0.5
100
AcDbLine
 10
-576.4803027358896
 20
-55.18775214521521
 30
0.0
 11
-616.4803027358896
 21
-55.18775214521521
 31
0.0
  0
LINE
  5
1491
330
1F
100
AcDbEntity
  8
0
  6
DASHED
 62
     2
 48
0.5
100
AcDbLine
 10
-615.4803027358894
 20
-55.18775214521521
 30
0.0
 11
-615.4803027358894
 21
-46.18775214521519
 31
0.0
  0
LINE
  5
1493
330
1F
100
AcDbEntity
  8
0
  6
DASHED
 62
     2
 48
0.5
100
AcDbLine
 10
-616.4803027358893
 20
-55.18775214521521
 30
0.0
 11
-616.4803027358896
 21
-45.3313456846642
 31
0.0
  0
ARC
  5
1494
330
1F
100
AcDbEntity
  8
0
  6
DASHED
 62
     2
 48
0.5
100
AcDbCircle
 10
-612.4803027358896
 20
-46.18775214521519
 30
0.0
 40
3.0
100
AcDbArc
 50
90.0
 51
180.0
  0
ARC
  5
1495
330
1F
100
AcDbEntity
  8
0
  6
DASHED
 62
     2
 48
0.5
100
AcDbCircle
 10
-613.4803027358896
 20
-46.18775214521519
 30
0.0
 40
3.0
100
AcDbArc
 50
90.0
 51
180.0
  0
ARC
  5
1496
330
1F
100
AcDbEntity
  8
0
  6
DASHED
 62
     2
 48
0.5
100
AcDbCircle
 10
-608.4803027358896
 20
-45.3313456846642
 30
0.0
 40
8.000000000000014
100
AcDbArc
 50
149.9999999999998
 51
180.0
  0
LINE
  5
1497
330
1F
100
AcDbEntity
  8
0
  6
DASHED
 62
     2
 48
0.5
100
AcDbLine
 10
-612.4803027358896
 20
-43.18775214521521
 30
0.0
 11
-582.6802525773238
 21
-43.18775214521521
 31
0.0
  0
LINE
  5
1498
330
1F
100
AcDbEntity
  8
0
  6
DASHED
 62
     2
 48
0.5
100
AcDbLine
 10
-590.4803027358894
 20
-43.18775214521521
 30
0.0
 11
-590.4803027358894
 21
-55.18775214521521
 31
0.0
  0
LINE
  5
1499
330
1F
100
AcDbEntity
  8
100
  6
DASH_CENTER
 62
    30
100
AcDbLine
 10
-596.4803027358896
 20
-72.21646088163658
 30
0.0
 11
-596.4803027358896
 21
-33.45684362697938
 31
0.0
  0
LINE
  5
149D
330
1F
100
AcDbEntity
  8
0
  6
DASHED
 62
     2
 48
0.5
100
AcDbLine
 10
-576.4803027358896
 20
-49.07450970239136
 30
0.0
 11
-576.4800375208618
 21
-62.18770955413811
 31
0.0
  0
LINE
  5
149F
330
1F
100
AcDbEntity
  8
0
  6
DASHED
 62
     2
 48
0.5
100
AcDbLine
 10
-574.7759146838462
 20
-44.53265907897895
 30
0.0
 11
-576.4803027358896
 21
-48.18773105181964
 31
0.0
  0
LINE
  5
14A0
330
1F
100
AcDbEntity
  8
0
  6
DASHED
 62
     2
 48
0.5
100
AcDbLine
 10
-598.9269031935577
 20
-12.78437229233964
 30
0.0
 11
-615.4085059661651
 21
-41.33134568466418
 31
0.0
  0
LINE
  5
14A1
330
1F
100
AcDbEntity
  8
0
  6
DASHED
 62
     2
 48
0.5
100
AcDbLine
 10
-576.8516254963956
 20
-34.78682578255224
 30
0.0
 11
-579.9613292162139
 21
-41.45560693043728
 31
0.0
  0
ARC
  5
14A3
330
1F
100
AcDbEntity
  8
0
  6
DASHED
 62
     2
 48
0.5
100
AcDbCircle
 10
-582.6802525773238
 20
-40.1877521452152
 30
0.0
 40
3.0
100
AcDbArc
 50
270.0
 51
335.0000000000014
  0
ARC
  5
14A4
330
1F
100
AcDbEntity
  8
0
  6
DASHED
 62
     2
 48
0.5
100
AcDbCircle
 10
-569.3380679616264
 20
-47.06836864942316
 30
0.0
 40
6.000000000000021
100
AcDbArc
 50
60.08867325862605
 51
154.9999999999999
  0
LINE
  5
14AA
330
1F
100
AcDbEntity
  8
0
  6
DASHED
 62
   171
 48
0.5
100
AcDbLine
 10
-492.1698763148998
 20
-52.18775214521546
 30
0.0
 11
-540.7909291568803
 21
-52.18775214521546
 31
0.0
  0
ARC
  5
14B0
330
1F
100
AcDbEntity
  8
0
  6
DASH_CENTER
 62
     7
100
AcDbCircle
 10
-599.7929285973421
 20
-12.28437229233964
 30
0.0
 40
1.000000000000057
100
AcDbArc
 50
330.0000000000007
 51
34.4240283173818
  0
LINE
  5
14B2
330
1F
100
AcDbEntity
  8
0
  6
DASHED
 62
     2
 48
0.5
100
AcDbLine
 10
-434.0331718481659
 20
-12.7843722923397
 30
0.0
 11
-417.5515690755584
 21
-41.33134568466426
 31
0.0
  0
LINE
  5
14B3
330
1F
100
AcDbEntity
  8
0
  6
DASHED
 62
     2
 48
0.5
100
AcDbLine
 10
-420.4797723058338
 20
-43.18775214521525
 30
0.0
 11
-450.2798224643997
 21
-43.18775214521525
 31
0.0
  0
ARC
  5
14B4
330
1F
100
AcDbEntity
  8
0
  6
DASHED
 62
     2
 48
0.5
100
AcDbCircle
 10
-424.4797723058338
 20
-45.33134568466425
 30
0.0
 40
8.000000000000014
100
AcDbArc
 50
360.0
 51
30.00000000000017
  0
ARC
  5
14B5
330
1F
100
AcDbEntity
  8
0
  6
DASHED
 62
     2
 48
0.5
100
AcDbCircle
 10
-419.4797723058338
 20
-46.18775214521528
 30
0.0
 40
3.0
100
AcDbArc
 50
360.0
 51
89.99999999999998
  0
ARC
  5
14B6
330
1F
100
AcDbEntity
  8
0
  6
DASHED
 62
     2
 48
0.5
100
AcDbCircle
 10
-420.4797723058338
 20
-46.18775214521528
 30
0.0
 40
3.0
100
AcDbArc
 50
360.0
 51
89.99999999999998
  0
LINE
  5
14B7
330
1F
100
AcDbEntity
  8
0
  6
DASHED
 62
     2
 48
0.5
100
AcDbLine
 10
-416.4797723058341
 20
-55.18775214521525
 30
0.0
 11
-416.479772305834
 21
-45.33134568466425
 31
0.0
  0
LINE
  5
14B9
330
1F
100
AcDbEntity
  8
0
  6
DASHED
 62
     2
 48
0.5
100
AcDbLine
 10
-417.479772305834
 20
-55.18775214521525
 30
0.0
 11
-417.479772305834
 21
-46.18775214521528
 31
0.0
  0
LINE
  5
14BA
330
1F
100
AcDbEntity
  8
0
  6
DASHED
 62
     2
 48
0.5
100
AcDbLine
 10
-456.4797723058338
 20
-55.18775214521525
 30
0.0
 11
-416.479772305834
 21
-55.18775214521525
 31
0.0
  0
LINE
  5
14BB
330
1F
100
AcDbEntity
  8
0
  6
DASHED
 62
     2
 48
0.5
100
AcDbLine
 10
-430.479772305834
 20
-55.18774618245018
 30
0.0
 11
-430.479772305834
 21
-43.18775214521525
 31
0.0
  0
ARC
  5
14BC
330
1F
100
AcDbEntity
  8
0
  6
DASHED
 62
     2
 48
0.5
100
AcDbCircle
 10
-450.2798224643997
 20
-40.18775214521524
 30
0.0
 40
3.0
100
AcDbArc
 50
204.9999999999986
 51
270.0
  0
LINE
  5
14BD
330
1F
100
AcDbEntity
  8
0
  6
DASHED
 62
     2
 48
0.5
100
AcDbLine
 10
-456.1084495453279
 20
-34.78682578255229
 30
0.0
 11
-452.9987458255097
 21
-41.45560693043734
 31
0.0
  0
LINE
  5
14BE
330
1F
100
AcDbEntity
  8
0
  6
DASHED
 62
     2
 48
0.5
100
AcDbLine
 10
-458.1841603578773
 20
-44.532659078979
 30
0.0
 11
-456.4797723058338
 21
-48.18773105181969
 31
0.0
  0
LINE
  5
14C0
330
1F
100
AcDbEntity
  8
0
  6
DASHED
 62
     2
 48
0.5
100
AcDbLine
 10
-456.4797723058338
 20
-49.07450970239143
 30
0.0
 11
-456.4800375208617
 21
-62.18770955413822
 31
0.0
  0
LINE
  5
14C4
330
1F
100
AcDbEntity
  8
100
  6
DASH_CENTER
 62
    30
100
AcDbLine
 10
-436.4797723058338
 20
-72.21646088163663
 30
0.0
 11
-436.4797723058338
 21
-33.45684362697944
 31
0.0
  0
LINE
  5
14C5
330
1F
100
AcDbEntity
  8
0
  6
DASHED
 62
     2
 48
0.5
100
AcDbLine
 10
-442.479772305834
 20
-43.18775214521525
 30
0.0
 11
-442.479772305834
 21
-55.18775214521525
 31
0.0
  0
ARC
  5
14C6
330
1F
100
AcDbEntity
  8
0
  6
DASHED
 62
     2
 48
0.5
100
AcDbCircle
 10
-463.6220070800971
 20
-47.0683686494232
 30
0.0
 40
6.000000000000021
100
AcDbArc
 50
25.00000000000007
 51
119.9113267413739
  0
ARC
  5
14C7
330
1F
100
AcDbEntity
  8
0
  6
DASH_CENTER
 62
     7
100
AcDbCircle
 10
-433.1671464443815
 20
-12.2843722923397
 30
0.0
 40
1.000000000000057
100
AcDbArc
 50
145.5759716826181
 51
209.9999999999993
  0
LINE
  5
1599
330
1F
100
AcDbEntity
  8
0
  6
DASH_CENTER
 62
    30
100
AcDbLine
 10
-436.4800375208615
 20
-79.16726700870379
 30
0.0
 11
-436.4800375208621
 21
-29.62569165553816
 31
0.0
  0
LINE
  5
159A
330
1F
100
AcDbEntity
  8
0
  6
DASHED
 62
     2
 48
0.5
100
AcDbLine
 10
-592.2800375208622
 20
-34.18770955413857
 30
0.0
 11
-591.4800375208622
 21
-34.98770955413852
 31
0.0
  0
LINE
  5
159B
330
1F
100
AcDbEntity
  8
0
  6
DASHED
 62
     2
 48
0.5
100
AcDbLine
 10
-601.4800375208623
 20
-34.98770955413875
 30
0.0
 11
-600.6800375208622
 21
-34.18770955413857
 31
0.0
  0
LINE
  5
159C
330
1F
100
AcDbEntity
  8
0
  6
DASHED
 62
     2
 48
0.5
100
AcDbLine
 10
-600.6800375208622
 20
-34.18770955413857
 30
0.0
 11
-592.2800375208622
 21
-34.18770955413857
 31
0.0
  0
LINE
  5
159D
330
1F
100
AcDbEntity
  8
0
  6
DASHED
 62
     2
 48
0.5
100
AcDbLine
 10
-591.4800375208626
 20
-34.98770955413818
 30
0.0
 11
-591.4800375208626
 21
-38.18770955413857
 31
0.0
  0
LINE
  5
159E
330
1F
100
AcDbEntity
  8
0
  6
DASHED
 62
     2
 48
0.5
100
AcDbLine
 10
-604.6300375208621
 20
-43.18770955413866
 30
0.0
 11
-588.3300375208619
 21
-43.18770955413856
 31
0.0
  0
LINE
  5
159F
330
1F
100
AcDbEntity
  8
0
  6
DASHED
 62
     2
 48
0.5
100
AcDbLine
 10
-588.3300375208619
 20
-43.18770955413856
 30
0.0
 11
-588.3300375208622
 21
-38.18770955413857
 31
0.0
  0
LINE
  5
15A0
330
1F
100
AcDbEntity
  8
0
  6
DASHED
 62
     2
 48
0.5
100
AcDbLine
 10
-604.6300375208622
 20
-38.18770955413868
 30
0.0
 11
-604.6300375208621
 21
-43.18770955413866
 31
0.0
  0
LINE
  5
15A1
330
1F
100
AcDbEntity
  8
0
  6
DASHED
 62
     2
 48
0.5
100
AcDbLine
 10
-604.6300375208622
 20
-38.18770955413868
 30
0.0
 11
-588.3300375208619
 21
-38.18770955413857
 31
0.0
  0
LINE
  5
15A2
330
1F
100
AcDbEntity
  8
0
  6
DASHED
 62
     2
 48
0.5
100
AcDbLine
 10
-601.4800375208623
 20
-38.18770955413879
 30
0.0
 11
-601.4800375208623
 21
-34.98770955413863
 31
0.0
  0
LINE
  5
15A3
330
1F
100
AcDbEntity
  8
0
  6
DASHED
 62
     2
 48
0.5
100
AcDbLine
 10
-601.4800375208618
 20
-67.18770955413856
 30
0.0
 11
-601.4800375208623
 21
-43.18770955413878
 31
0.0
  0
LINE
  5
15A4
330
1F
100
AcDbEntity
  8
0
  6
DASHED
 62
     2
 48
0.5
100
AcDbLine
 10
-591.4800375208622
 20
-43.18770955413856
 30
0.0
 11
-591.480037520862
 21
-67.18770955413856
 31
0.0
  0
LINE
  5
15A5
330
1F
100
AcDbEntity
  8
0
  6
DASHED
 62
     2
 48
0.5
100
AcDbLine
 10
-588.3300375208619
 20
-74.18770955413845
 30
0.0
 11
-588.3300375208619
 21
-67.18770955413845
 31
0.0
  0
LINE
  5
15A6
330
1F
100
AcDbEntity
  8
0
  6
DASHED
 62
     2
 48
0.5
100
AcDbLine
 10
-604.6300375208621
 20
-67.18770955413856
 30
0.0
 11
-604.6300375208621
 21
-74.18770955413856
 31
0.0
  0
LINE
  5
15A7
330
1F
100
AcDbEntity
  8
0
  6
DASHED
 62
     2
 48
0.5
100
AcDbLine
 10
-604.6300375208617
 20
-74.18770955413856
 30
0.0
 11
-588.3300375208619
 21
-74.18770955413845
 31
0.0
  0
LINE
  5
15A8
330
1F
100
AcDbEntity
  8
0
  6
DASHED
 62
     2
 48
0.5
100
AcDbLine
 10
-431.4800375208617
 20
-38.18770955413811
 30
0.0
 11
-431.4800375208617
 21
-34.98770955413795
 31
0.0
  0
LINE
  5
15A9
330
1F
100
AcDbEntity
  8
0
  6
DASHED
 62
     2
 48
0.5
100
AcDbLine
 10
-441.4800375208613
 20
-43.18770955413787
 30
0.0
 11
-441.4800375208618
 21
-67.18770955413788
 31
0.0
  0
LINE
  5
15AA
330
1F
100
AcDbEntity
  8
0
  6
DASHED
 62
     2
 48
0.5
100
AcDbLine
 10
-428.3300375208618
 20
-38.187709554138
 30
0.0
 11
-444.6300375208618
 21
-38.187709554138
 31
0.0
  0
LINE
  5
15AB
330
1F
100
AcDbEntity
  8
0
  6
DASHED
 62
     2
 48
0.5
100
AcDbLine
 10
-428.3300375208616
 20
-38.187709554138
 30
0.0
 11
-428.3300375208618
 21
-43.18770955413799
 31
0.0
  0
LINE
  5
15AC
330
1F
100
AcDbEntity
  8
0
  6
DASHED
 62
     2
 48
0.5
100
AcDbLine
 10
-444.6300375208618
 20
-43.18770955413799
 30
0.0
 11
-444.6300375208616
 21
-38.187709554138
 31
0.0
  0
LINE
  5
15AD
330
1F
100
AcDbEntity
  8
0
  6
DASHED
 62
     2
 48
0.5
100
AcDbLine
 10
-428.3300375208618
 20
-43.18770955413799
 30
0.0
 11
-444.6300375208618
 21
-43.18770955413799
 31
0.0
  0
LINE
  5
15AF
330
1F
100
AcDbEntity
  8
0
  6
DASHED
 62
     2
 48
0.5
100
AcDbLine
 10
-428.3300375208618
 20
-74.18770955413788
 30
0.0
 11
-444.6300375208618
 21
-74.18770955413788
 31
0.0
  0
LINE
  5
15B0
330
1F
100
AcDbEntity
  8
0
  6
DASHED
 62
     2
 48
0.5
100
AcDbLine
 10
-428.3300375208618
 20
-67.18770955413788
 30
0.0
 11
-428.3300375208616
 21
-74.18770955413788
 31
0.0
  0
LINE
  5
15B1
330
1F
100
AcDbEntity
  8
0
  6
DASHED
 62
     2
 48
0.5
100
AcDbLine
 10
-441.4800375208613
 20
-34.9877095541375
 30
0.0
 11
-441.4800375208613
 21
-38.18770955413788
 31
0.0
  0
LINE
  5
15B2
330
1F
100
AcDbEntity
  8
0
  6
DASHED
 62
     2
 48
0.5
100
AcDbLine
 10
-431.4800375208617
 20
-67.18770955413788
 30
0.0
 11
-431.4800375208617
 21
-43.1877095541381
 31
0.0
  0
LINE
  5
15B3
330
1F
100
AcDbEntity
  8
0
  6
DASHED
 62
     2
 48
0.5
100
AcDbLine
 10
-432.2800375208616
 20
-34.18770955413787
 30
0.0
 11
-440.6800375208616
 21
-34.18770955413787
 31
0.0
  0
LINE
  5
15B4
330
1F
100
AcDbEntity
  8
0
  6
DASHED
 62
     2
 48
0.5
100
AcDbLine
 10
-431.4800375208617
 20
-34.98770955413807
 30
0.0
 11
-432.2800375208616
 21
-34.18770955413787
 31
0.0
  0
LINE
  5
15B5
330
1F
100
AcDbEntity
  8
0
  6
DASHED
 62
     2
 48
0.5
100
AcDbLine
 10
-440.6800375208616
 20
-34.18770955413787
 30
0.0
 11
-441.4800375208618
 21
-34.98770955413784
 31
0.0
  0
LINE
  5
15B6
330
1F
100
AcDbEntity
  8
0
  6
DASHED
 62
     2
 48
0.5
100
AcDbLine
 10
-444.6300375208616
 20
-74.18770955413788
 30
0.0
 11
-444.6300375208618
 21
-67.18770955413788
 31
0.0
  0
ARC
  5
15B7
330
1F
100
AcDbEntity
  8
0
100
AcDbCircle
 10
-541.4800375208616
 20
-125.1877095541401
 30
0.0
 40
4.999999999999995
100
AcDbArc
 50
207.2097968970176
 51
332.7902031029861
  0
LINE
  5
15B8
330
1F
100
AcDbEntity
  8
0
  6
Continuous
 62
     7
100
AcDbLine
 10
-535.4178596943709
 20
-124.6877095541401
 30
0.0
 11
-541.480037520862
 21
-128.1877095541401
 31
0.0
  0
LINE
  5
15B9
330
1F
100
AcDbEntity
  8
0
  6
Continuous
 62
     7
100
AcDbLine
 10
-547.5422153473529
 20
-117.6877095541401
 30
0.0
 11
-541.480037520862
 21
-114.1877095541401
 31
0.0
  0
LINE
  5
15BA
330
1F
100
AcDbEntity
  8
0
  6
Continuous
 62
     7
100
AcDbLine
 10
-541.480037520862
 20
-114.1877095541401
 30
0.0
 11
-535.4178596943709
 21
-117.6877095541401
 31
0.0
  0
LINE
  5
15BB
330
1F
100
AcDbEntity
  8
0
  6
Continuous
 62
     7
100
AcDbLine
 10
-535.4178596943709
 20
-117.6877095541401
 30
0.0
 11
-535.4178596943709
 21
-124.6877095541401
 31
0.0
  0
CIRCLE
  5
15BC
330
1F
100
AcDbEntity
  8
0
  6
Continuous
 62
     7
100
AcDbCircle
 10
-541.480037520862
 20
-121.1877095541401
 30
0.0
 40
6.062177826491107
  0
CIRCLE
  5
15BD
330
1F
100
AcDbEntity
  8
0
  6
Continuous
 62
     7
100
AcDbCircle
 10
-541.480037520862
 20
-121.1877095541401
 30
0.0
 40
7.699999999999986
  0
LINE
  5
15BE
330
1F
100
AcDbEntity
  8
0
  6
Continuous
 62
     7
100
AcDbLine
 10
-547.5422153473529
 20
-124.6877095541401
 30
0.0
 11
-547.5422153473529
 21
-117.6877095541401
 31
0.0
  0
LINE
  5
15BF
330
1F
100
AcDbEntity
  8
0
  6
Continuous
 62
     7
100
AcDbLine
 10
-541.480037520862
 20
-128.1877095541401
 30
0.0
 11
-547.5422153473529
 21
-124.6877095541401
 31
0.0
  0
ARC
  5
15C0
330
1F
100
AcDbEntity
  8
0
100
AcDbCircle
 10
-491.4800375208618
 20
-117.18770955414
 30
0.0
 40
5.0
100
AcDbArc
 50
27.20979689701139
 51
152.7902031029886
  0
ARC
  5
15C1
330
1F
100
AcDbEntity
  8
0
100
AcDbCircle
 10
-491.4800375208618
 20
-125.18770955414
 30
0.0
 40
5.0
100
AcDbArc
 50
207.2097968970157
 51
332.7902031029843
  0
LINE
  5
15C2
330
1F
100
AcDbEntity
  8
0
  6
Continuous
 62
     7
100
AcDbLine
 10
-485.4178596943706
 20
-117.6877095541401
 30
0.0
 11
-491.4800375208618
 21
-114.1877095541401
 31
0.0
  0
LINE
  5
15C3
330
1F
100
AcDbEntity
  8
0
  6
Continuous
 62
     7
100
AcDbLine
 10
-491.4800375208618
 20
-114.1877095541401
 30
0.0
 11
-497.5422153473529
 21
-117.6877095541401
 31
0.0
  0
LINE
  5
15C4
330
1F
100
AcDbEntity
  8
0
  6
Continuous
 62
     7
100
AcDbLine
 10
-497.5422153473529
 20
-124.6877095541401
 30
0.0
 11
-491.4800375208618
 21
-128.1877095541401
 31
0.0
  0
LINE
  5
15C5
330
1F
100
AcDbEntity
  8
0
  6
Continuous
 62
     7
100
AcDbLine
 10
-497.5422153473529
 20
-117.6877095541401
 30
0.0
 11
-497.5422153473529
 21
-124.6877095541401
 31
0.0
  0
LINE
  5
15C6
330
1F
100
AcDbEntity
  8
0
  6
Continuous
 62
     7
100
AcDbLine
 10
-491.4800375208618
 20
-128.1877095541401
 30
0.0
 11
-485.4178596943706
 21
-124.6877095541401
 31
0.0
  0
LINE
  5
15C7
330
1F
100
AcDbEntity
  8
0
  6
Continuous
 62
     7
100
AcDbLine
 10
-485.4178596943706
 20
-124.6877095541401
 30
0.0
 11
-485.4178596943706
 21
-117.6877095541401
 31
0.0
  0
CIRCLE
  5
15C8
330
1F
100
AcDbEntity
  8
0
  6
Continuous
 62
     7
100
AcDbCircle
 10
-491.4800375208618
 20
-121.1877095541401
 30
0.0
 40
7.699999999999986
  0
CIRCLE
  5
15C9
330
1F
100
AcDbEntity
  8
0
  6
Continuous
 62
     7
100
AcDbCircle
 10
-491.4800375208618
 20
-121.1877095541401
 30
0.0
 40
6.062177826491107
  0
LINE
  5
15CA
330
1F
100
AcDbEntity
  8
0
  6
DASH_CENTER
 62
    30
100
AcDbLine
 10
-502.4800375208616
 20
-121.1877095541401
 30
0.0
 11
-480.4800375208618
 21
-121.1877095541401
 31
0.0
  0
LINE
  5
15CB
330
1F
100
AcDbEntity
  8
0
100
AcDbLine
 10
-474.4800375208618
 20
-172.1877095541388
 30
0.0
 11
-415.4800375208617
 21
-172.1877095541382
 31
0.0
  0
LINE
  5
15CC
330
1F
100
AcDbEntity
  8
0
100
AcDbLine
 10
-474.4800375208618
 20
-167.1877095541401
 30
0.0
 11
-474.4800375208618
 21
-175.18770955414
 31
0.0
  0
LINE
  5
15CD
330
1F
100
AcDbEntity
  8
0
  6
DASH_CENTER
 62
    30
100
AcDbLine
 10
-486.4800375208616
 20
-157.2002344364828
 30
0.0
 11
-486.4800375208617
 21
-182.4882255218409
 31
0.0
  0
LINE
  5
15CE
330
1F
100
AcDbEntity
  8
0
  6
DASHED
 62
     2
 48
0.3
100
AcDbLine
 10
-492.4800375208618
 20
-165.1877095541401
 30
0.0
 11
-492.4800375208618
 21
-175.18770955414
 31
0.0
  0
LINE
  5
15CF
330
1F
100
AcDbEntity
  8
0
  6
DASHED
 62
     2
 48
0.3
100
AcDbLine
 10
-480.4800375208619
 20
-165.1877095541401
 30
0.0
 11
-480.4800375208619
 21
-175.18770955414
 31
0.0
  0
ARC
  5
15D0
330
1F
100
AcDbEntity
  8
0
100
AcDbCircle
 10
-476.4800375208618
 20
-167.1877095541401
 30
0.0
 40
2.0
100
AcDbArc
 50
360.0
 51
89.99999999999998
  0
LINE
  5
15D1
330
1F
100
AcDbEntity
  8
0
100
AcDbLine
 10
-478.4800375208616
 20
-121.18770955414
 30
0.0
 11
-474.4800375208618
 21
-167.1877095541401
 31
0.0
  0
ARC
  5
15D2
330
1F
100
AcDbEntity
  8
0
100
AcDbCircle
 10
-491.4800375208618
 20
-121.18770955414
 30
0.0
 40
13.0
100
AcDbArc
 50
360.0
 51
89.99999999999998
  0
LINE
  5
15D3
330
1F
100
AcDbEntity
  8
0
  6
DASH_CENTER
 62
    30
100
AcDbLine
 10
-491.4800375208618
 20
-108.18770955414
 30
0.0
 11
-491.4800375208618
 21
-134.4194112925567
 31
0.0
  0
LINE
  5
15D4
330
1F
100
AcDbEntity
  8
0
100
AcDbLine
 10
-554.4800375208616
 20
-121.18770955414
 30
0.0
 11
-558.4800375208616
 21
-167.1877095541401
 31
0.0
  0
ARC
  5
15D5
330
1F
100
AcDbEntity
  8
0
100
AcDbCircle
 10
-541.4800375208616
 20
-121.18770955414
 30
0.0
 40
13.0
100
AcDbArc
 50
90.0
 51
180.0
  0
ARC
  5
15D6
330
1F
100
AcDbEntity
  8
0
100
AcDbCircle
 10
-541.4800375208616
 20
-117.18770955414
 30
0.0
 40
5.000000000000013
100
AcDbArc
 50
27.20979689700949
 51
152.7902031029876
  0
LINE
  5
15D7
330
1F
100
AcDbEntity
  8
0
  6
DASH_CENTER
 62
    30
100
AcDbLine
 10
-552.4800375208616
 20
-121.18770955414
 30
0.0
 11
-530.4800375208619
 21
-121.1877095541401
 31
0.0
  0
LINE
  5
15D8
330
1F
100
AcDbEntity
  8
0
  6
DASH_CENTER
 62
    30
100
AcDbLine
 10
-541.4800375208616
 20
-108.18770955414
 30
0.0
 11
-541.4800375208616
 21
-134.4194112925567
 31
0.0
  0
LINE
  5
15D9
330
1F
100
AcDbEntity
  8
0
  6
DASHED
 62
     2
 48
0.3
100
AcDbLine
 10
-540.4800375208616
 20
-165.1877095541401
 30
0.0
 11
-540.4800375208616
 21
-175.18770955414
 31
0.0
  0
LINE
  5
15DA
330
1F
100
AcDbEntity
  8
0
  6
DASHED
 62
     2
 48
0.3
100
AcDbLine
 10
-552.4800375208616
 20
-165.1877095541401
 30
0.0
 11
-552.4800375208616
 21
-175.18770955414
 31
0.0
  0
LINE
  5
15DB
330
1F
100
AcDbEntity
  8
0
  6
DASH_CENTER
 62
    30
100
AcDbLine
 10
-546.4800375208616
 20
-157.2002344364828
 30
0.0
 11
-546.4800375208616
 21
-182.4882255218409
 31
0.0
  0
ARC
  5
15DC
330
1F
100
AcDbEntity
  8
0
100
AcDbCircle
 10
-556.4800375208616
 20
-167.1877095541401
 30
0.0
 40
2.0
100
AcDbArc
 50
90.0
 51
180.0
  0
LINE
  5
15DD
330
1F
100
AcDbEntity
  8
0
100
AcDbLine
 10
-558.4800375208616
 20
-167.1877095541401
 30
0.0
 11
-558.4800375208616
 21
-175.18770955414
 31
0.0
  0
ARC
  5
15DE
330
1F
100
AcDbEntity
  8
0
 62
   250
100
AcDbCircle
 10
-499.4800375208618
 20
-175.1877095541399
 30
0.0
 40
1.0
100
AcDbArc
 50
0.0
 51
90.0
  0
ARC
  5
15DF
330
1F
100
AcDbEntity
  8
0
 62
   250
100
AcDbCircle
 10
-533.4800375208616
 20
-175.18770955414
 30
0.0
 40
1.0
100
AcDbArc
 50
90.0
 51
180.0
  0
LINE
  5
15E0
330
1F
100
AcDbEntity
  8
0
100
AcDbLine
 10
-498.4800375208616
 20
-175.1877095541399
 30
0.0
 11
-498.4800375208616
 21
-175.18770955414
 31
0.0
  0
LINE
  5
15E1
330
1F
100
AcDbEntity
  8
0
100
AcDbLine
 10
-534.4800375208616
 20
-175.18770955414
 30
0.0
 11
-534.4800375208616
 21
-175.18770955414
 31
0.0
  0
LINE
  5
15E3
330
1F
100
AcDbEntity
  8
0
 62
   250
100
AcDbLine
 10
-533.4800375208616
 20
-174.18770955414
 30
0.0
 11
-499.4800375208618
 21
-174.1877095541399
 31
0.0
  0
LINE
  5
15E4
330
1F
100
AcDbEntity
  8
0
100
AcDbLine
 10
-556.4800375208616
 20
-165.1877095541401
 30
0.0
 11
-476.4800375208618
 21
-165.1877095541401
 31
0.0
  0
LINE
  5
15E5
330
1F
100
AcDbEntity
  8
0
100
AcDbLine
 10
-541.4800375208616
 20
-108.1877095541399
 30
0.0
 11
-491.4800375208618
 21
-108.18770955414
 31
0.0
  0
LINE
  5
15E6
330
1F
100
AcDbEntity
  8
0
100
AcDbLine
 10
-558.4800375208616
 20
-175.18770955414
 30
0.0
 11
-474.4800375208618
 21
-175.18770955414
 31
0.0
  0
LINE
  5
15E7
330
1F
100
AcDbEntity
  8
0
100
AcDbLine
 10
-620.480037520862
 20
-175.1877095541396
 30
0.0
 11
-412.4800375208618
 21
-175.1877095541404
 31
0.0
  0
ARC
  5
15E8
330
1F
100
AcDbEntity
  8
0
  6
DASHED
 62
     2
 48
0.5
100
AcDbCircle
 10
-574.4800375208618
 20
-62.18770955413811
 30
0.0
 40
2.0
100
AcDbArc
 50
180.0
 51
270.0
  0
ARC
  5
15E9
330
1F
100
AcDbEntity
  8
0
  6
DASHED
 62
     2
 48
0.5
100
AcDbCircle
 10
-458.4800375208619
 20
-62.18770955413811
 30
0.0
 40
2.0
100
AcDbArc
 50
269.9999999999999
 51
359.9999999999968
  0
LINE
  5
15EA
330
1F
100
AcDbEntity
  8
0
  6
DASHED
 62
     2
 48
0.5
100
AcDbLine
 10
-456.4800375208617
 20
-55.18770955413799
 30
0.0
 11
-456.4800375208617
 21
-55.18770955413811
 31
0.0
  0
LINE
  5
15EB
330
1F
100
AcDbEntity
  8
0
  6
DASHED
 62
     2
 48
0.5
100
AcDbLine
 10
-576.4800375208618
 20
-55.18770955413788
 30
0.0
 11
-576.4800375208618
 21
-55.18770955413799
 31
0.0
  0
LINE
  5
15EC
330
1F
100
AcDbEntity
  8
0
  6
DASHED
 62
     2
 48
0.5
100
AcDbLine
 10
-421.4800375208621
 20
-67.18770955413788
 30
0.0
 11
-456.4800375208617
 21
-67.18770955413788
 31
0.0
  0
LINE
  5
15ED
330
1F
100
AcDbEntity
  8
0
  6
DASHED
 62
     2
 48
0.5
100
AcDbLine
 10
-430.4800375208618
 20
-67.18770955413835
 30
0.0
 11
-430.4800375208618
 21
-55.18770955413778
 31
0.0
  0
LINE
  5
15EE
330
1F
100
AcDbEntity
  8
0
  6
DASHED
 62
     2
 48
0.5
100
AcDbLine
 10
-442.4800375208617
 20
-67.18770955413835
 30
0.0
 11
-442.4800375208618
 21
-55.18770955413778
 31
0.0
  0
LINE
  5
15EF
330
1F
100
AcDbEntity
  8
0
  6
DASHED
 62
     2
 48
0.5
100
AcDbLine
 10
-574.4800375208621
 20
-64.18770955413811
 30
0.0
 11
-458.4800375208619
 21
-64.18770955413811
 31
0.0
  0
LINE
  5
15F0
330
1F
100
AcDbEntity
  8
0
  6
DASHED
 62
     2
 48
0.5
100
AcDbLine
 10
-611.4800375208617
 20
-67.18770955413788
 30
0.0
 11
-576.4800375208618
 21
-67.18770955413788
 31
0.0
  0
LINE
  5
15F1
330
1F
100
AcDbEntity
  8
0
  6
DASHED
 62
     2
 48
0.5
100
AcDbLine
 10
-590.4800375208623
 20
-67.18770955413835
 30
0.0
 11
-590.4800375208618
 21
-55.18770955413778
 31
0.0
  0
LINE
  5
15F2
330
1F
100
AcDbEntity
  8
0
  6
DASHED
 62
     2
 48
0.5
100
AcDbLine
 10
-602.4800375208618
 20
-67.18770955413835
 30
0.0
 11
-602.4800375208618
 21
-55.18770955413778
 31
0.0
  0
LINE
  5
15F3
330
1F
100
AcDbEntity
  8
0
  6
DASH_CENTER
 62
    30
100
AcDbLine
 10
-596.480037520862
 20
-79.1672670087046
 30
0.0
 11
-596.480037520862
 21
-29.62569165553896
 31
0.0
  0
LINE
  5
15F4
330
1F
100
AcDbEntity
  8
0
  6
DASHED
 62
     2
 48
0.5
100
AcDbLine
 10
-456.4800375208617
 20
-55.18770955413799
 30
0.0
 11
-416.4800375208615
 21
-55.18770955413799
 31
0.0
  0
LINE
  5
15F6
330
1F
100
AcDbEntity
  8
0
  6
DASHED
 62
     2
 48
0.5
100
AcDbLine
 10
-616.480037520862
 20
-55.18770955413822
 30
0.0
 11
-576.4800375208618
 21
-55.18770955413822
 31
0.0
  0
ARC
  5
15F7
330
1F
100
AcDbEntity
  8
0
100
AcDbCircle
 10
-376.4800375208618
 20
-158.1877095541383
 30
0.0
 40
3.0
100
AcDbArc
 50
0.0
 51
89.99999999999982
  0
ARC
  5
15F8
330
1F
100
AcDbEntity
  8
0
100
AcDbCircle
 10
-656.4800375208617
 20
-158.1877095541381
 30
0.0
 40
3.0
100
AcDbArc
 50
90.0
 51
180.0
  0
LINE
  5
15F9
330
1F
100
AcDbEntity
  8
0
  6
DASHED
 62
     2
 48
0.5
100
AcDbLine
 10
-421.480037520862
 20
-67.18770955413777
 30
0.0
 11
-412.480037520862
 21
-175.1877095541383
 31
0.0
  0
LINE
  5
15FA
330
1F
100
AcDbEntity
  8
0
  6
DASHED
 62
     2
 48
0.5
100
AcDbLine
 10
-611.4800375208617
 20
-67.18770955413822
 30
0.0
 11
-620.4800375208617
 21
-175.1877095541383
 31
0.0
  0
LINE
  5
15FB
330
1F
100
AcDbEntity
  8
0
  6
DASH_CENTER
 62
    30
100
AcDbLine
 10
-391.480037520862
 20
-181.8106444772943
 30
0.0
 11
-391.480037520862
 21
-146.943109324945
 31
0.0
  0
LINE
  5
15FC
330
1F
100
AcDbEntity
  8
0
  6
DASHED
 62
     2
 48
0.5
100
AcDbLine
 10
-385.480037520862
 20
-175.1877095541381
 30
0.0
 11
-385.480037520862
 21
-155.1877095541381
 31
0.0
  0
LINE
  5
15FD
330
1F
100
AcDbEntity
  8
0
  6
DASHED
 62
     2
 48
0.5
100
AcDbLine
 10
-397.480037520862
 20
-175.1877095541381
 30
0.0
 11
-397.480037520862
 21
-155.1877095541381
 31
0.0
  0
LINE
  5
15FE
330
1F
100
AcDbEntity
  8
0
  6
DASHED
 62
     2
 48
0.5
100
AcDbLine
 10
-635.4800375208617
 20
-175.1877095541381
 30
0.0
 11
-635.4800375208617
 21
-155.1877095541381
 31
0.0
  0
LINE
  5
15FF
330
1F
100
AcDbEntity
  8
0
  6
DASHED
 62
     2
 48
0.5
100
AcDbLine
 10
-647.4800375208617
 20
-175.1877095541381
 30
0.0
 11
-647.4800375208617
 21
-155.1877095541381
 31
0.0
  0
LINE
  5
1600
330
1F
100
AcDbEntity
  8
0
  6
DASH_CENTER
 62
    30
100
AcDbLine
 10
-641.4800375208617
 20
-181.8106444772943
 30
0.0
 11
-641.4800375208617
 21
-146.943109324945
 31
0.0
  0
ARC
  5
1601
330
1F
100
AcDbEntity
  8
0
100
AcDbCircle
 10
-629.4140352620253
 20
-150.187709554138
 30
0.0
 40
5.0
100
AcDbArc
 50
270.0
 51
355.2363583092738
  0
LINE
  5
1602
330
1F
100
AcDbEntity
  8
0
100
AcDbLine
 10
-623.3940473810084
 20
-138.1558278758973
 30
0.0
 11
-624.431306470801
 21
-150.6029369534067
 31
0.0
  0
ARC
  5
1603
330
1F
100
AcDbEntity
  8
0
100
AcDbCircle
 10
-617.480037520862
 20
-175.1877095541383
 30
0.0
 40
3.0
100
AcDbArc
 50
90.0
 51
180.0
  0
ARC
  5
1604
330
1F
100
AcDbEntity
  8
0
100
AcDbCircle
 10
-415.4800375208617
 20
-175.1877095541382
 30
0.0
 40
3.0
100
AcDbArc
 50
0.0
 51
90.0
  0
LINE
  5
1605
330
1F
100
AcDbEntity
  8
0
100
AcDbLine
 10
-373.4800375208618
 20
-175.1877095541381
 30
0.0
 11
-412.4800375208618
 21
-175.187709554138
 31
0.0
  0
ARC
  5
1606
330
1F
100
AcDbEntity
  8
0
100
AcDbCircle
 10
-403.5460397796983
 20
-150.187709554138
 30
0.0
 40
5.0
100
AcDbArc
 50
184.7636416907262
 51
270.0
  0
LINE
  5
1607
330
1F
100
AcDbEntity
  8
0
100
AcDbLine
 10
-409.5660276610436
 20
-138.155827871955
 30
0.0
 11
-408.5287685709227
 21
-150.6029369534067
 31
0.0
  0
LINE
  5
1608
330
1F
100
AcDbEntity
  8
0
  6
DASHED
 62
     2
 48
0.5
100
AcDbLine
 10
-616.480037520862
 20
-55.18770955413788
 30
0.0
 11
-576.4800375208618
 21
-55.18770955413788
 31
0.0
  0
LINE
  5
1609
330
1F
100
AcDbEntity
  8
0
100
AcDbLine
 10
-617.480037520862
 20
-172.1877095541383
 30
0.0
 11
-558.4800375208616
 21
-172.1877095541383
 31
0.0
  0
LINE
  5
160A
330
1F
100
AcDbEntity
  8
0
100
AcDbLine
 10
-412.4800375208618
 20
-175.1877095541382
 30
0.0
 11
-412.4800375208618
 21
-175.187709554138
 31
0.0
  0
LINE
  5
160B
330
1F
100
AcDbEntity
  8
0
100
AcDbLine
 10
-620.480037520862
 20
-175.1877095541383
 30
0.0
 11
-620.4800375208617
 21
-175.1877095541382
 31
0.0
  0
LINE
  5
160C
330
1F
100
AcDbEntity
  8
0
100
AcDbLine
 10
-656.4800375208617
 20
-155.1877095541381
 30
0.0
 11
-629.4140352620253
 21
-155.1877095541382
 31
0.0
  0
LINE
  5
160D
330
1F
100
AcDbEntity
  8
0
100
AcDbLine
 10
-659.4800375208617
 20
-175.1877095541381
 30
0.0
 11
-659.4800375208617
 21
-158.1877095541381
 31
0.0
  0
LINE
  5
160E
330
1F
100
AcDbEntity
  8
0
100
AcDbLine
 10
-376.4800375208618
 20
-155.1877095541383
 30
0.0
 11
-403.5460397796984
 21
-155.1877095541382
 31
0.0
  0
LINE
  5
160F
330
1F
100
AcDbEntity
  8
0
100
AcDbLine
 10
-373.4800375208618
 20
-175.1877095541381
 30
0.0
 11
-373.4800375208619
 21
-158.1877095541383
 31
0.0
  0
LINE
  5
1610
330
1F
100
AcDbEntity
  8
0
100
AcDbLine
 10
-659.4800375208617
 20
-175.1877095541381
 30
0.0
 11
-620.4800375208617
 21
-175.187709554138
 31
0.0
  0
LINE
  5
1611
330
1F
100
AcDbEntity
  8
0
  6
DASHED
 62
     2
 48
0.5
100
AcDbLine
 10
-616.4803027358896
 20
-55.18775214521521
 30
0.0
 11
-623.39404738068
 21
-138.1558278719548
 31
0.0
  0
LINE
  5
1612
330
1F
100
AcDbEntity
  8
0
  6
DASHED
 62
     2
 48
0.5
100
AcDbLine
 10
-416.479772305834
 20
-55.18775214521525
 30
0.0
 11
-409.5660276610436
 21
-138.155827871955
 31
0.0
  0
MTEXT
  5
162B
330
1F
100
AcDbEntity
  8
0
 62
     2
100
AcDbMText
 10
-595.3375885785167
 20
6.95592436863612
 30
0.0
 40
8.0
 41
0.0
 71
     7
 72
     1
  1
 
  7
CONVERTER_20
 11
0.9486712700853971
 21
0.3162638476249847
 31
0.0
 73
     1
 44
0.6002400960384203
1001
ACAD
1000
MTEXTBEGIN
1070
    73
1070
     1
1070
    44
1040
0.6002400960384203
1070
    74
1070
     0
1000
MTEXTEND
  0
MTEXT
  5
162F
330
1F
100
AcDbEntity
  8
0
 62
     2
100
AcDbMText
 10
-600.9178855276846
 20
-11.68175857338727
 30
0.0
 40
8.0
 41
0.0
 71
     7
 72
     1
  1
 
  7
CONVERTER_20
 11
0.9069771527525654
 21
0.4211798242851263
 31
0.0
 73
     1
 44
0.6002400960384203
1001
ACAD
1000
MTEXTBEGIN
1070
    73
1070
     1
1070
    44
1040
0.6002400960384203
1070
    74
1070
     0
1000
MTEXTEND
  0
ARC
  5
1BA3
330
1F
100
AcDbEntity
  8
0
  6
Continuous
 62
     7
100
AcDbCircle
 10
52.64589937013275
 20
-163.1877095541381
 30
0.0
 40
2.0
100
AcDbArc
 50
270.0
 51
360.0
  0
LINE
  5
1C34
330
1F
100
AcDbEntity
  8
0
  6
Continuous
 62
     7
100
AcDbLine
 10
480.6458993701332
 20
-55.18770955414004
 30
0.0
 11
480.6458993701332
 21
144.7697619876963
 31
0.0
  0
LINE
  5
1C35
330
1F
100
AcDbEntity
  8
0
 62
     7
100
AcDbLine
 10
480.6458993701332
 20
144.7697619876963
 30
0.0
 11
665.0720083362443
 21
144.8122904458599
 31
0.0
  0
LINE
  5
1C5F
330
1F
100
AcDbEntity
  8
0
 62
     7
100
AcDbLine
 10
480.6458993701332
 20
-55.18770955414004
 30
0.0
 11
530.1458993701333
 21
-55.18770955414004
 31
0.0
  0
ARC
  5
1F8B
330
1F
100
AcDbEntity
  8
10
  6
Continuous
 62
     7
100
AcDbCircle
 10
521.1459993663829
 20
-8.608118116895411
 30
0.0
 40
2.00000000625
100
AcDbArc
 50
0.0028646815273226
 51
89.9942703146219
  0
LINE
  5
1F8C
330
1F
100
AcDbEntity
  8
10
  6
Continuous
 62
     7
100
AcDbLine
 10
480.6458993701332
 20
-6.608218120645772
 30
0.0
 11
521.1461993701333
 21
-6.608218120645772
 31
0.0
  0
LINE
  5
1F8D
330
1F
100
AcDbEntity
  8
10
  6
Continuous
 62
     7
100
AcDbLine
 10
523.1458993701331
 20
-37.20897378322189
 30
0.0
 11
523.1458993701331
 21
-8.608018120645795
 31
0.0
  0
LINE
  5
1F8E
330
1F
100
AcDbEntity
  8
10
  6
Continuous
 62
     7
100
AcDbLine
 10
523.1458993701331
 20
-11.74011538456858
 30
0.0
 11
623.1458993701332
 21
-11.74011538456858
 31
0.0
  0
LINE
  5
1F8F
330
1F
100
AcDbEntity
  8
10
  6
Continuous
 62
     7
100
AcDbLine
 10
488.6458993701332
 20
-43.20897378322189
 30
0.0
 11
517.1458993701333
 21
-43.20897378322189
 31
0.0
  0
LINE
  5
1F92
330
1F
100
AcDbEntity
  8
10
  6
Continuous
 62
     7
100
AcDbLine
 10
485.6458993701332
 20
-55.20897378322185
 30
0.0
 11
530.1458993701333
 21
-55.20897378322189
 31
0.0
  0
LINE
  5
1F93
330
1F
100
AcDbEntity
  8
10
  6
Continuous
 62
     7
100
AcDbLine
 10
485.6458993701332
 20
-55.20897378322185
 30
0.0
 11
485.6458993701332
 21
-46.20897378322189
 31
0.0
  0
ARC
  5
1F94
330
1F
100
AcDbEntity
  8
10
  6
Continuous
 62
     7
100
AcDbCircle
 10
488.6458993701332
 20
-46.20897378322189
 30
0.0
 40
3.0
100
AcDbArc
 50
90.0
 51
180.0
  0
LINE
  5
1F95
330
1F
100
AcDbEntity
  8
10
  6
Continuous
 62
     7
100
AcDbLine
 10
623.1458993701332
 20
-8.608218120645771
 30
0.0
 11
623.1458993701332
 21
-37.20897378322189
 31
0.0
  0
LINE
  5
1F96
330
1F
100
AcDbEntity
  8
10
  6
Continuous
 62
     7
100
AcDbLine
 10
625.1458993701333
 20
-6.608218120645772
 30
0.0
 11
665.6458993701333
 21
-6.608218120645772
 31
0.0
  0
ARC
  5
1F97
330
1F
100
AcDbEntity
  8
10
  6
Continuous
 62
     7
100
AcDbCircle
 10
625.1458993701333
 20
-8.608218120645771
 30
0.0
 40
2.0
100
AcDbArc
 50
90.0
 51
180.0
  0
ARC
  5
1F98
330
1F
100
AcDbEntity
  8
0
  6
Continuous
 62
     7
100
AcDbCircle
 10
629.1458993701333
 20
-37.20897378322189
 30
0.0
 40
6.0
100
AcDbArc
 50
180.0
 51
270.0
  0
LINE
  5
1F99
330
1F
100
AcDbEntity
  8
10
  6
Continuous
 62
     7
100
AcDbLine
 10
629.1458993701333
 20
-43.20897378322189
 30
0.0
 11
657.6456993701332
 21
-43.20897378322189
 31
0.0
  0
LINE
  5
1F9B
330
1F
100
AcDbEntity
  8
10
  6
Continuous
 62
     7
100
AcDbLine
 10
616.1458993701333
 20
-55.20897378322189
 30
0.0
 11
660.6456993701332
 21
-55.20897378322185
 31
0.0
  0
ARC
  5
1F9D
330
1F
100
AcDbEntity
  8
10
  6
Continuous
 62
     7
100
AcDbCircle
 10
657.6456993693
 20
-46.2089737823885
 30
0.0
 40
3.000000000833325
100
AcDbArc
 50
359.9999999840836
 51
89.9980901247677
  0
LINE
  5
1F9E
330
1F
100
AcDbEntity
  8
10
  6
Continuous
 62
     7
100
AcDbLine
 10
660.6456993701332
 20
-55.20897378322185
 30
0.0
 11
660.6456993701332
 21
-46.20897378322189
 31
0.0
  0
ARC
  5
1F9F
330
1F
100
AcDbEntity
  8
0
  6
Continuous
 62
     7
100
AcDbCircle
 10
533.1458993701333
 20
-54.20897378322189
 30
0.0
 40
3.0
100
AcDbArc
 50
90.0
 51
180.0
  0
LINE
  5
1FA0
330
1F
100
AcDbEntity
  8
10
  6
Continuous
 62
     7
100
AcDbLine
 10
533.1458993701333
 20
-51.20897378322189
 30
0.0
 11
540.991193619544
 21
-51.20897378322189
 31
0.0
  0
LINE
  5
1FA1
330
1F
100
AcDbEntity
  8
10
  6
Continuous
 62
     7
100
AcDbLine
 10
540.991193619544
 20
-51.20897378322189
 30
0.0
 11
613.1458993701333
 21
-51.20897378322189
 31
0.0
  0
LINE
  5
1FA2
330
1F
100
AcDbEntity
  8
10
  6
Continuous
 62
     7
100
AcDbLine
 10
606.3109993701332
 20
-51.20897378322189
 30
0.0
 11
613.1458993701333
 21
-51.20897378322189
 31
0.0
  0
ARC
  5
1FA3
330
1F
100
AcDbEntity
  8
0
  6
Continuous
 62
     7
100
AcDbCircle
 10
613.1458993701333
 20
-54.20897378322189
 30
0.0
 40
3.0
100
AcDbArc
 50
0.0
 51
90.0
  0
LINE
  5
1FA5
330
1F
100
AcDbEntity
  8
10
  6
DASHED
 62
     7
100
AcDbLine
 10
616.1458993701333
 20
-54.20897378322189
 30
0.0
 11
616.1458993701333
 21
-55.20897378322189
 31
0.0
  0
ARC
  5
1FA6
330
1F
100
AcDbEntity
  8
0
  6
Continuous
 62
     7
100
AcDbCircle
 10
517.1458993701333
 20
-37.20897378322189
 30
0.0
 40
6.0
100
AcDbArc
 50
270.0
 51
0.000000000000007
  0
LINE
  5
1FA7
330
1F
100
AcDbEntity
  8
10
  6
DASHED
 62
     7
100
AcDbLine
 10
530.1458993701333
 20
-54.20897378322189
 30
0.0
 11
530.1458993701333
 21
-55.20897378322189
 31
0.0
  0
LINE
  5
1FAB
330
1F
100
AcDbEntity
  8
0
  6
DASH_CENTER
 62
    30
100
AcDbLine
 10
572.858953853189
 20
170.9795330552924
 30
0.0
 11
572.858953853189
 21
-180.5192411228422
 31
0.0
  0
LINE
  5
1FAC
330
1F
100
AcDbEntity
  8
0
 62
     7
100
AcDbLine
 10
660.6456993701332
 20
-55.20897378322185
 30
0.0
 11
665.8629757456114
 21
-155.9552453876413
 31
0.0
  0
LINE
  5
1FAD
330
1F
100
AcDbEntity
  8
0
 62
     7
100
AcDbLine
 10
485.6458993701332
 20
-55.20897378322185
 30
0.0
 11
479.951596664325
 21
-155.8721127511327
 31
0.0
  0
LINE
  5
1FAE
330
1F
100
AcDbEntity
  8
0
 62
     7
100
AcDbLine
 10
478.8589538531891
 20
-175.1877095541381
 30
0.0
 11
516.858953853189
 21
-175.1877095541381
 31
0.0
  0
LINE
  5
1FB0
330
1F
100
AcDbEntity
  8
0
  6
DASH_CENTER
 62
    30
100
AcDbLine
 10
542.9533256672348
 20
-115.1877095541381
 30
0.0
 11
603.2407851816342
 21
-115.1877095541381
 31
0.0
  0
CIRCLE
  5
1FB1
330
1F
100
AcDbEntity
  8
0
 62
     7
100
AcDbCircle
 10
572.858953853189
 20
-115.1877095541391
 30
0.0
 40
9.0
  0
LINE
  5
1FC0
330
1F
100
AcDbEntity
  8
0
  6
DASH_CENTER
 62
    30
100
AcDbLine
 10
497.858953853189
 20
-145.8909694065004
 30
0.0
 11
497.858953853189
 21
-185.2866624314738
 31
0.0
  0
ARC
  5
1FDF
330
1F
100
AcDbEntity
  8
0
  6
Continuous
 62
     7
100
AcDbCircle
 10
685.6458993701331
 20
136.2265178550976
 30
0.0
 40
5.0
100
AcDbArc
 50
0.0
 51
79.68975972969653
  0
ARC
  5
1FE0
330
1F
100
AcDbEntity
  8
0
  6
Continuous
 62
     7
100
AcDbCircle
 10
685.6458993701331
 20
-46.60193696337815
 30
0.0
 40
5.0
100
AcDbArc
 50
280.3102402703022
 51
0.0
  0
LINE
  5
1FE1
330
1F
100
AcDbEntity
  8
0
  6
Continuous
 62
     7
100
AcDbLine
 10
698.6458993701331
 20
84.46095341802301
 30
0.0
 11
698.645899370133
 21
5.163627473696461
 31
0.0
  0
LINE
  5
1FE2
330
1F
100
AcDbEntity
  8
0
  6
Continuous
 62
     7
100
AcDbLine
 10
702.645899370133
 20
58.81229044585992
 30
0.0
 11
702.645899370133
 21
30.81229044585993
 31
0.0
  0
LINE
  5
1FE5
330
1F
100
AcDbEntity
  8
0
 62
     7
100
AcDbLine
 10
690.645899370133
 20
87.22651785509766
 30
0.0
 11
696.8939688393117
 21
86.44550917145036
 31
0.0
  0
LINE
  5
1FE6
330
1F
100
AcDbEntity
  8
0
 62
     7
100
AcDbLine
 10
690.645899370133
 20
2.398063036621834
 30
0.0
 11
696.8939688393113
 21
3.179071720269128
 31
0.0
  0
LINE
  5
1FE8
330
1F
100
AcDbEntity
  8
0
 62
     7
100
AcDbLine
 10
698.645899370133
 20
58.81229044585992
 30
0.0
 11
702.645899370133
 21
58.81229044585992
 31
0.0
  0
LINE
  5
1FE9
330
1F
100
AcDbEntity
  8
0
 62
     7
100
AcDbLine
 10
698.645899370133
 20
30.81229044585993
 30
0.0
 11
702.645899370133
 21
30.81229044585993
 31
0.0
  0
ARC
  5
1FED
330
1F
100
AcDbEntity
  8
0
 62
     7
100
AcDbCircle
 10
696.645899370133
 20
5.163627473696465
 30
0.0
 40
2.0
100
AcDbArc
 50
277.1250163489018
 51
359.9999999999998
  0
ARC
  5
1FEE
330
1F
100
AcDbEntity
  8
0
 62
     7
100
AcDbCircle
 10
696.6458993701332
 20
84.46095341802301
 30
0.0
 40
2.0
100
AcDbArc
 50
359.9999999999998
 51
82.87498365109822
  0
LINE
  5
2014
330
1F
100
AcDbEntity
  8
0
 62
     7
100
AcDbLine
 10
481.858953853189
 20
-155.1877095541381
 30
0.0
 11
513.858953853189
 21
-155.1877095541381
 31
0.0
  0
LINE
  5
2015
330
1F
100
AcDbEntity
  8
0
 62
     7
100
AcDbLine
 10
491.858953853189
 20
-55.18770955414004
 30
0.0
 11
491.8589538531891
 21
-55.20897378322189
 31
0.0
  0
LINE
  5
2016
330
1F
100
AcDbEntity
  8
0
 62
     7
100
AcDbLine
 10
503.8589538531891
 20
-55.18770955414004
 30
0.0
 11
503.8589538531891
 21
-55.20897378322189
 31
0.0
  0
LINE
  5
2017
330
1F
100
AcDbEntity
  8
0
 62
     7
100
AcDbLine
 10
641.858953853189
 20
-55.18770955414004
 30
0.0
 11
641.858953853189
 21
-55.20897378322189
 31
0.0
  0
LINE
  5
2018
330
1F
100
AcDbEntity
  8
0
 62
     7
100
AcDbLine
 10
653.8589538531891
 20
-55.18770955414004
 30
0.0
 11
653.8589538531892
 21
-55.20897378322189
 31
0.0
  0
LINE
  5
2019
330
1F
100
AcDbEntity
  8
0
 62
     7
100
AcDbLine
 10
516.858953853189
 20
-55.18770955414004
 30
0.0
 11
516.8589538531891
 21
-55.20897378322189
 31
0.0
  0
LINE
  5
201A
330
1F
100
AcDbEntity
  8
0
 62
     7
100
AcDbLine
 10
628.8589538531891
 20
-55.18770955414004
 30
0.0
 11
628.8589538531891
 21
-55.20897378322189
 31
0.0
  0
LINE
  5
201B
330
1F
100
AcDbEntity
  8
0
  6
DASHED
 62
     2
 48
0.5
100
AcDbLine
 10
491.858953853189
 20
-155.1877095541381
 30
0.0
 11
491.858953853189
 21
-175.1877095541381
 31
0.0
  0
LINE
  5
201C
330
1F
100
AcDbEntity
  8
0
  6
DASHED
 62
     2
 48
0.5
100
AcDbLine
 10
503.8589538531891
 20
-155.1877095541381
 30
0.0
 11
503.8589538531891
 21
-175.1877095541381
 31
0.0
  0
LINE
  5
201D
330
1F
100
AcDbEntity
  8
0
 62
     7
100
AcDbLine
 10
628.8589538531891
 20
-175.1877095541382
 30
0.0
 11
628.8589538531891
 21
-175.1877095541381
 31
0.0
  0
LINE
  5
201E
330
1F
100
AcDbEntity
  8
0
 62
     7
100
AcDbLine
 10
516.858953853189
 20
-175.1877095541382
 30
0.0
 11
516.858953853189
 21
-175.1877095541381
 31
0.0
  0
LINE
  5
201F
330
1F
100
AcDbEntity
  8
0
  6
DASHED
 62
     2
 48
0.5
100
AcDbLine
 10
641.858953853189
 20
-155.1877095541381
 30
0.0
 11
641.858953853189
 21
-175.1877095541381
 31
0.0
  0
LINE
  5
2020
330
1F
100
AcDbEntity
  8
0
  6
DASHED
 62
     2
 48
0.5
100
AcDbLine
 10
653.8589538531891
 20
-155.1877095541381
 30
0.0
 11
653.8589538531891
 21
-175.1877095541381
 31
0.0
  0
LINE
  5
2021
330
1F
100
AcDbEntity
  8
0
  6
DASH_CENTER
 62
    30
100
AcDbLine
 10
647.8589538531893
 20
-145.8909694065004
 30
0.0
 11
647.8589538531893
 21
-185.2866624314738
 31
0.0
  0
LINE
  5
2022
330
1F
100
AcDbEntity
  8
0
 62
     7
100
AcDbLine
 10
628.8589538531891
 20
-155.1877095541381
 30
0.0
 11
663.858953853189
 21
-155.1877095541381
 31
0.0
  0
LINE
  5
2024
330
1F
100
AcDbEntity
  8
0
 62
     7
100
AcDbLine
 10
628.8589538531891
 20
-175.1877095541381
 30
0.0
 11
666.858953853189
 21
-175.1877095541381
 31
0.0
  0
LINE
  5
2025
330
1F
100
AcDbEntity
  8
0
 62
     7
100
AcDbLine
 10
519.8589538531892
 20
-172.1877095541382
 30
0.0
 11
625.858953853189
 21
-172.1877095541382
 31
0.0
  0
LINE
  5
205F
330
1F
100
AcDbEntity
  8
0
  6
Continuous
 62
     7
100
AcDbLine
 10
461.6458993701333
 20
-51.20897378322187
 30
0.0
 11
461.6458993701333
 21
-43.55047829251982
 31
0.0
  0
LINE
  5
2062
330
1F
100
AcDbEntity
  8
0
 62
     7
100
AcDbLine
 10
480.6458993701332
 20
141.791026216778
 30
0.0
 11
461.6458993701333
 21
140.7910262167781
 31
0.0
  0
LINE
  5
2063
330
1F
100
AcDbEntity
  8
0
 62
     7
100
AcDbLine
 10
480.6458993701332
 20
-52.20897378322189
 30
0.0
 11
461.6458993701333
 21
-51.20897378322187
 31
0.0
  0
LINE
  5
2064
330
1F
100
AcDbEntity
  8
0
 62
     7
100
AcDbLine
 10
439.6464454157311
 20
133.791026216778
 30
0.0
 11
426.6464454157312
 21
133.791026216778
 31
0.0
  0
LINE
  5
2067
330
1F
100
AcDbEntity
  8
0
 62
     7
100
AcDbLine
 10
439.6464454157312
 20
-44.20897378322189
 30
0.0
 11
426.6464454157312
 21
-44.20897378322188
 31
0.0
  0
LINE
  5
2069
330
1F
100
AcDbEntity
  8
0
 62
     7
100
AcDbLine
 10
439.6464454157312
 20
133.791026216778
 30
0.0
 11
461.6458993701333
 21
140.7910262167781
 31
0.0
  0
LINE
  5
206A
330
1F
100
AcDbEntity
  8
0
 62
     7
100
AcDbLine
 10
439.6464454157312
 20
-44.20897378322186
 30
0.0
 11
461.6458993701333
 21
-51.20897378322187
 31
0.0
  0
LINE
  5
206E
330
1F
100
AcDbEntity
  8
0
  6
Continuous
 62
     7
100
AcDbLine
 10
472.6458993701333
 20
-39.39860082090915
 30
0.0
 11
472.6458993701335
 21
-15.20897378322189
 31
0.0
  0
LINE
  5
206F
330
1F
100
AcDbEntity
  8
0
  6
Continuous
 62
     7
100
AcDbLine
 10
447.6458993701331
 20
-37.13701606086079
 30
0.0
 11
447.6458993701332
 21
-15.20897378322188
 31
0.0
  0
LINE
  5
2070
330
1F
100
AcDbEntity
  8
0
 62
     7
100
AcDbLine
 10
470.6458993701335
 20
44.79102621677813
 30
0.0
 11
449.6458993701333
 21
44.7910262167781
 31
0.0
  0
LINE
  5
2071
330
1F
100
AcDbEntity
  8
0
 62
     7
100
AcDbLine
 10
470.6458993701335
 20
14.79102621677812
 30
0.0
 11
449.6458993701332
 21
14.79102621677812
 31
0.0
  0
LINE
  5
2072
330
1F
100
AcDbEntity
  8
0
 62
     7
100
AcDbLine
 10
466.9004629113961
 20
-44.34272101422819
 30
0.0
 11
451.9004629113958
 21
-42.08113625417985
 31
0.0
  0
LINE
  5
2073
330
1F
100
AcDbEntity
  8
0
 62
     7
100
AcDbLine
 10
467.6458993701335
 20
-10.20897378322188
 30
0.0
 11
452.6458993701332
 21
-10.20897378322188
 31
0.0
  0
LINE
  5
2074
330
1F
100
AcDbEntity
  8
0
  6
Continuous
 62
     7
100
AcDbLine
 10
447.6458993701332
 20
16.79102621677811
 30
0.0
 11
447.6458993701332
 21
42.79102621677811
 31
0.0
  0
LINE
  5
2075
330
1F
100
AcDbEntity
  8
0
  6
Continuous
 62
     7
100
AcDbLine
 10
472.6458993701335
 20
16.79102621677811
 30
0.0
 11
472.6458993701335
 21
42.79102621677813
 31
0.0
  0
ARC
  5
2076
330
1F
100
AcDbEntity
  8
0
 62
     7
100
AcDbCircle
 10
449.6458993701333
 20
42.79102621677811
 30
0.0
 40
2.0
100
AcDbArc
 50
90.0
 51
179.9999999999999
  0
ARC
  5
2077
330
1F
100
AcDbEntity
  8
0
 62
     7
100
AcDbCircle
 10
470.6458993701335
 20
42.79102621677813
 30
0.0
 40
2.0
100
AcDbArc
 50
0.0
 51
90.0
  0
ARC
  5
2078
330
1F
100
AcDbEntity
  8
0
 62
     7
100
AcDbCircle
 10
449.6458993701332
 20
16.79102621677811
 30
0.0
 40
2.0
100
AcDbArc
 50
179.9999999999999
 51
270.0
  0
ARC
  5
2079
330
1F
100
AcDbEntity
  8
0
 62
     7
100
AcDbCircle
 10
470.6458993701335
 20
16.79102621677811
 30
0.0
 40
2.0
100
AcDbArc
 50
270.0
 51
359.9999999999998
  0
ARC
  5
207A
330
1F
100
AcDbEntity
  8
0
 62
     7
100
AcDbCircle
 10
452.6458993701332
 20
-15.20897378322188
 30
0.0
 40
5.0
100
AcDbArc
 50
90.0
 51
180.0
  0
ARC
  5
207B
330
1F
100
AcDbEntity
  8
0
 62
     7
100
AcDbCircle
 10
467.6458993701335
 20
-15.20897378322188
 30
0.0
 40
5.0
100
AcDbArc
 50
359.9999999999998
 51
90.0
  0
ARC
  5
207C
330
1F
100
AcDbEntity
  8
0
 62
     7
100
AcDbCircle
 10
467.6458993701333
 20
-39.39860082090913
 30
0.0
 40
5.0
100
AcDbArc
 50
261.4259625049939
 51
359.9999999999997
  0
ARC
  5
207D
330
1F
100
AcDbEntity
  8
0
 62
     7
100
AcDbCircle
 10
452.6458993701331
 20
-37.13701606086079
 30
0.0
 40
5.0
100
AcDbArc
 50
180.0
 51
261.4259625049939
  0
LINE
  5
207F
330
1F
100
AcDbEntity
  8
0
  6
Continuous
 62
     7
100
AcDbLine
 10
461.6458993701333
 20
44.79102621677811
 30
0.0
 11
461.6458993701333
 21
140.7910262167781
 31
0.0
  0
LINE
  5
2080
330
1F
100
AcDbEntity
  8
0
  6
Continuous
 62
     7
100
AcDbLine
 10
461.6458993701333
 20
-10.20897378322188
 30
0.0
 11
461.6458993701333
 21
14.79102621677812
 31
0.0
  0
LINE
  5
2081
330
1F
100
AcDbEntity
  8
0
 62
     7
100
AcDbLine
 10
439.6464454157311
 20
33.07518830324492
 30
0.0
 11
439.6464454157311
 21
26.50686413031135
 31
0.0
  0
LINE
  5
2087
330
1F
100
AcDbEntity
  8
0
 62
     7
100
AcDbLine
 10
426.6464454157312
 20
36.79102621677812
 30
0.0
 11
437.9505597842391
 21
35.05193169854614
 31
0.0
  0
LINE
  5
2088
330
1F
100
AcDbEntity
  8
0
 62
     7
100
AcDbLine
 10
426.6464454157312
 20
22.79102621677813
 30
0.0
 11
437.9505597842391
 21
24.5301207350101
 31
0.0
  0
ARC
  5
2089
330
1F
100
AcDbEntity
  8
0
 62
     7
100
AcDbCircle
 10
437.6464454157312
 20
33.07518830324491
 30
0.0
 40
2.0
100
AcDbArc
 50
0.0000000000003053
 51
81.25383773744474
  0
ARC
  5
208A
330
1F
100
AcDbEntity
  8
0
 62
     7
100
AcDbCircle
 10
437.6464454157312
 20
26.50686413031134
 30
0.0
 40
2.0
100
AcDbArc
 50
278.7461622625552
 51
0.0000000000003944
  0
LINE
  5
209D
330
1F
100
AcDbEntity
  8
0
  6
Continuous
 62
     7
100
AcDbLine
 10
436.6464454157314
 20
123.2986721190005
 30
0.0
 11
436.6464454157312
 21
90.61176683111904
 31
0.0
  0
LINE
  5
209E
330
1F
100
AcDbEntity
  8
0
 62
     7
100
AcDbLine
 10
436.6464454157314
 20
123.2986721190005
 30
0.0
 11
426.6464454157313
 21
123.2986721190005
 31
0.0
  0
LINE
  5
209F
330
1F
100
AcDbEntity
  8
0
 62
     7
100
AcDbLine
 10
436.6464454157314
 20
90.61176683111904
 30
0.0
 11
426.6464454157312
 21
90.61176683111902
 31
0.0
  0
LINE
  5
20A0
330
1F
100
AcDbEntity
  8
0
 62
     7
100
AcDbLine
 10
436.6464454157311
 20
-0.987185939399268
 30
0.0
 11
426.646445415731
 21
-0.9871859393992108
 31
0.0
  0
LINE
  5
20A1
330
1F
100
AcDbEntity
  8
0
 62
     7
100
AcDbLine
 10
436.6464454157309
 20
-33.67409122728072
 30
0.0
 11
426.646445415731
 21
-33.67409122728068
 31
0.0
  0
LINE
  5
20A2
330
1F
100
AcDbEntity
  8
0
  6
Continuous
 62
     7
100
AcDbLine
 10
436.6464454157309
 20
-33.67409122728072
 30
0.0
 11
436.6464454157309
 21
-0.987185939399268
 31
0.0
  0
ARC
  5
20B0
330
1F
100
AcDbEntity
  8
0
  6
Continuous
 62
     7
100
AcDbCircle
 10
440.3223454157314
 20
102.7051694750597
 30
0.0
 40
1.824085319413543
100
AcDbArc
 50
316.7449211691293
 51
43.2550788308707
  0
LINE
  5
20B1
330
1F
100
AcDbEntity
  8
0
  6
Continuous
 62
     7
100
AcDbLine
 10
441.6508454157312
 20
101.4552194750597
 30
0.0
 11
438.1464454157312
 21
101.4552194750597
 31
0.0
  0
LINE
  5
20B2
330
1F
100
AcDbEntity
  8
0
  6
Continuous
 62
     7
100
AcDbLine
 10
441.6508454157312
 20
103.9552194750597
 30
0.0
 11
438.1464454157312
 21
103.9552194750597
 31
0.0
  0
ARC
  5
20B3
330
1F
100
AcDbEntity
  8
0
  6
Continuous
 62
     7
100
AcDbCircle
 10
432.8191454157312
 20
106.9551194750597
 30
0.0
 40
9.327321420965411
100
AcDbArc
 50
341.2381231435893
 51
18.76187685641063
  0
LINE
  5
20B4
330
1F
100
AcDbEntity
  8
0
  6
Continuous
 62
     7
100
AcDbLine
 10
442.1464454157312
 20
102.7051194750597
 30
0.0
 11
442.1464454157312
 21
111.2051194750597
 31
0.0
  0
ARC
  5
20B5
330
1F
100
AcDbEntity
  8
0
  6
Continuous
 62
     7
100
AcDbCircle
 10
440.3223454157314
 20
111.2051694750597
 30
0.0
 40
1.824085319413543
100
AcDbArc
 50
316.7449211691293
 51
43.2550788308707
  0
LINE
  5
20B6
330
1F
100
AcDbEntity
  8
0
  6
Continuous
 62
     7
100
AcDbLine
 10
441.6508454157312
 20
109.9552194750597
 30
0.0
 11
438.1464454157312
 21
109.9552194750597
 31
0.0
  0
LINE
  5
20B7
330
1F
100
AcDbEntity
  8
0
  6
Continuous
 62
     7
100
AcDbLine
 10
441.6508454157312
 20
112.4552194750597
 30
0.0
 11
438.1464454157312
 21
112.4552194750597
 31
0.0
  0
LINE
  5
20C6
330
1F
100
AcDbEntity
  8
0
  6
Continuous
 62
     7
100
AcDbLine
 10
438.1464454157312
 20
113.0552194750597
 30
0.0
 11
438.1464454157312
 21
100.8552194750597
 31
0.0
  0
LINE
  5
20C8
330
1F
100
AcDbEntity
  8
0
 62
     7
100
AcDbLine
 10
438.1464454157312
 20
113.0552194750597
 30
0.0
 11
436.6464454157314
 21
113.0552194750597
 31
0.0
  0
LINE
  5
20C9
330
1F
100
AcDbEntity
  8
0
 62
     7
100
AcDbLine
 10
438.1464454157312
 20
100.8552194750597
 30
0.0
 11
436.6464454157314
 21
100.8552194750597
 31
0.0
  0
LINE
  5
20CA
330
1F
100
AcDbEntity
  8
0
 62
     7
100
AcDbLine
 10
438.1464454157309
 20
-23.43063858333998
 30
0.0
 11
436.6464454157309
 21
-23.43063858333998
 31
0.0
  0
LINE
  5
20CB
330
1F
100
AcDbEntity
  8
0
 62
     7
100
AcDbLine
 10
438.1464454157309
 20
-11.23063858333999
 30
0.0
 11
436.6464454157309
 21
-11.23063858333999
 31
0.0
  0
LINE
  5
20CC
330
1F
100
AcDbEntity
  8
0
  6
Continuous
 62
     7
100
AcDbLine
 10
438.1464454157309
 20
-11.23063858334001
 30
0.0
 11
438.1464454157309
 21
-23.43063858333998
 31
0.0
  0
LINE
  5
20CD
330
1F
100
AcDbEntity
  8
0
  6
Continuous
 62
     7
100
AcDbLine
 10
441.650845415731
 20
-11.83063858333999
 30
0.0
 11
438.1464454157309
 21
-11.83063858333999
 31
0.0
  0
LINE
  5
20CE
330
1F
100
AcDbEntity
  8
0
  6
Continuous
 62
     7
100
AcDbLine
 10
441.650845415731
 20
-14.33063858333999
 30
0.0
 11
438.1464454157309
 21
-14.33063858333999
 31
0.0
  0
ARC
  5
20CF
330
1F
100
AcDbEntity
  8
0
  6
Continuous
 62
     7
100
AcDbCircle
 10
440.3223454157309
 20
-13.08068858333999
 30
0.0
 40
1.824085319413543
100
AcDbArc
 50
316.7449211691293
 51
43.2550788308707
  0
LINE
  5
20D0
330
1F
100
AcDbEntity
  8
0
  6
Continuous
 62
     7
100
AcDbLine
 10
442.1464454157309
 20
-21.58073858333999
 30
0.0
 11
442.1464454157309
 21
-13.08073858333999
 31
0.0
  0
ARC
  5
20D1
330
1F
100
AcDbEntity
  8
0
  6
Continuous
 62
     7
100
AcDbCircle
 10
432.819145415731
 20
-17.33073858333999
 30
0.0
 40
9.327321420965411
100
AcDbArc
 50
341.2381231435893
 51
18.76187685641063
  0
LINE
  5
20D2
330
1F
100
AcDbEntity
  8
0
  6
Continuous
 62
     7
100
AcDbLine
 10
441.650845415731
 20
-20.33063858333999
 30
0.0
 11
438.1464454157309
 21
-20.33063858333999
 31
0.0
  0
LINE
  5
20D3
330
1F
100
AcDbEntity
  8
0
  6
Continuous
 62
     7
100
AcDbLine
 10
441.650845415731
 20
-22.83063858333999
 30
0.0
 11
438.1464454157309
 21
-22.83063858333999
 31
0.0
  0
ARC
  5
20D4
330
1F
100
AcDbEntity
  8
0
  6
Continuous
 62
     7
100
AcDbCircle
 10
440.3223454157309
 20
-21.58068858333999
 30
0.0
 40
1.824085319413543
100
AcDbArc
 50
316.7449211691293
 51
43.2550788308707
  0
LINE
  5
20D5
330
1F
100
AcDbEntity
  8
0
  6
DASH_CENTER
 62
    30
100
AcDbLine
 10
421.5799024004672
 20
106.9552194750597
 30
0.0
 11
452.1444731243791
 21
106.9552194750597
 31
0.0
  0
LINE
  5
20D6
330
1F
100
AcDbEntity
  8
0
  6
DASH_CENTER
 62
    30
100
AcDbLine
 10
421.5799024004668
 20
-17.33063858333999
 30
0.0
 11
452.1444731243786
 21
-17.33063858333999
 31
0.0
  0
LINE
  5
20D8
330
1F
100
AcDbEntity
  8
0
  6
Continuous
 62
     7
100
AcDbLine
 10
694.645899370133
 20
114.9240193971693
 30
0.0
 11
694.645899370133
 21
123.4240193971693
 31
0.0
  0
ARC
  5
20D9
330
1F
100
AcDbEntity
  8
0
  6
Continuous
 62
     7
100
AcDbCircle
 10
685.3185993701331
 20
119.1740193971693
 30
0.0
 40
9.327321420965411
100
AcDbArc
 50
341.2381231435893
 51
18.76187685641063
  0
LINE
  5
20DA
330
1F
100
AcDbEntity
  8
0
  6
Continuous
 62
     7
100
AcDbLine
 10
694.1502993701332
 20
116.1741193971693
 30
0.0
 11
690.645899370133
 21
116.1741193971693
 31
0.0
  0
LINE
  5
20DB
330
1F
100
AcDbEntity
  8
0
  6
Continuous
 62
     7
100
AcDbLine
 10
694.1502993701332
 20
113.6741193971693
 30
0.0
 11
690.645899370133
 21
113.6741193971693
 31
0.0
  0
ARC
  5
20DC
330
1F
100
AcDbEntity
  8
0
  6
Continuous
 62
     7
100
AcDbCircle
 10
692.8217993701332
 20
114.9240693971693
 30
0.0
 40
1.824085319413543
100
AcDbArc
 50
316.7449211691293
 51
43.2550788308707
  0
LINE
  5
20DD
330
1F
100
AcDbEntity
  8
0
  6
Continuous
 62
     7
100
AcDbLine
 10
694.1502993701332
 20
124.6741193971693
 30
0.0
 11
690.645899370133
 21
124.6741193971693
 31
0.0
  0
LINE
  5
20DE
330
1F
100
AcDbEntity
  8
0
  6
Continuous
 62
     7
100
AcDbLine
 10
694.1502993701332
 20
122.1741193971693
 30
0.0
 11
690.645899370133
 21
122.1741193971693
 31
0.0
  0
ARC
  5
20DF
330
1F
100
AcDbEntity
  8
0
  6
Continuous
 62
     7
100
AcDbCircle
 10
692.8217993701332
 20
123.4240693971693
 30
0.0
 40
1.824085319413543
100
AcDbArc
 50
316.7449211691293
 51
43.2550788308707
  0
LINE
  5
20E0
330
1F
100
AcDbEntity
  8
0
  6
DASH_CENTER
 62
    30
100
AcDbLine
 10
678.2281776614691
 20
119.1741193971693
 30
0.0
 11
704.6439270787808
 21
119.1741193971693
 31
0.0
  0
LINE
  5
20E1
330
1F
100
AcDbEntity
  8
0
  6
DASH_CENTER
 62
    30
100
AcDbLine
 10
678.2281776614691
 20
-11.84794433668777
 30
0.0
 11
704.6439270787811
 21
-11.84794433668777
 31
0.0
  0
ARC
  5
20E2
330
1F
100
AcDbEntity
  8
0
  6
Continuous
 62
     7
100
AcDbCircle
 10
692.8217993701332
 20
-7.597994336687776
 30
0.0
 40
1.824085319413543
100
AcDbArc
 50
316.7449211691293
 51
43.2550788308707
  0
LINE
  5
20E3
330
1F
100
AcDbEntity
  8
0
  6
Continuous
 62
     7
100
AcDbLine
 10
694.1502993701332
 20
-8.847944336687772
 30
0.0
 11
690.6458993701331
 21
-8.847944336687772
 31
0.0
  0
LINE
  5
20E4
330
1F
100
AcDbEntity
  8
0
  6
Continuous
 62
     7
100
AcDbLine
 10
694.1502993701332
 20
-6.347944336687773
 30
0.0
 11
690.6458993701331
 21
-6.347944336687773
 31
0.0
  0
ARC
  5
20E5
330
1F
100
AcDbEntity
  8
0
  6
Continuous
 62
     7
100
AcDbCircle
 10
692.8217993701332
 20
-16.09799433668777
 30
0.0
 40
1.824085319413543
100
AcDbArc
 50
316.7449211691293
 51
43.2550788308707
  0
LINE
  5
20E6
330
1F
100
AcDbEntity
  8
0
  6
Continuous
 62
     7
100
AcDbLine
 10
694.1502993701332
 20
-17.34794433668777
 30
0.0
 11
690.6458993701331
 21
-17.34794433668777
 31
0.0
  0
LINE
  5
20E7
330
1F
100
AcDbEntity
  8
0
  6
Continuous
 62
     7
100
AcDbLine
 10
694.1502993701332
 20
-14.84794433668777
 30
0.0
 11
690.6458993701331
 21
-14.84794433668777
 31
0.0
  0
ARC
  5
20E8
330
1F
100
AcDbEntity
  8
0
  6
Continuous
 62
     7
100
AcDbCircle
 10
685.3185993701332
 20
-11.84804433668777
 30
0.0
 40
9.327321420965411
100
AcDbArc
 50
341.2381231435893
 51
18.76187685641063
  0
LINE
  5
20E9
330
1F
100
AcDbEntity
  8
0
  6
Continuous
 62
     7
100
AcDbLine
 10
694.6458993701331
 20
-16.09804433668777
 30
0.0
 11
694.6458993701331
 21
-7.598044336687777
 31
0.0
  0
ARC
  5
20EB
330
1F
100
AcDbEntity
  8
0
 62
     7
100
AcDbCircle
 10
625.858953853189
 20
-175.1877095541382
 30
0.0
 40
3.0
100
AcDbArc
 50
0.0
 51
90.0
  0
LINE
  5
20EC
330
1F
100
AcDbEntity
  8
0
 62
     7
100
AcDbLine
 10
628.8589538531891
 20
-155.1877095541381
 30
0.0
 11
628.8589538531891
 21
-175.1877095541382
 31
0.0
  0
ARC
  5
20ED
330
1F
100
AcDbEntity
  8
0
 62
     7
100
AcDbCircle
 10
519.8589538531892
 20
-175.1877095541382
 30
0.0
 40
3.0
100
AcDbArc
 50
90.0
 51
180.0
  0
LINE
  5
20EE
330
1F
100
AcDbEntity
  8
0
 62
     7
100
AcDbLine
 10
516.858953853189
 20
-158.1877095541381
 30
0.0
 11
516.858953853189
 21
-175.1877095541381
 31
0.0
  0
LINE
  5
20F0
330
1F
100
AcDbEntity
  8
0
  6
DASHED
 62
     2
 48
0.5
100
AcDbLine
 10
489.3585087471991
 20
-69.0233943063905
 30
0.0
 11
484.9903119181552
 21
-155.1877095541381
 31
0.0
  0
LINE
  5
20F1
330
1F
100
AcDbEntity
  8
0
  6
DASHED
 62
     2
 48
0.5
100
AcDbLine
 10
656.3653510692006
 20
-69.10553979141574
 30
0.0
 11
660.8232279067317
 21
-155.1877095541381
 31
0.0
  0
LINE
  5
20F2
330
1F
100
AcDbEntity
  8
0
 62
     7
100
AcDbLine
 10
533.1458993701334
 20
-59.18770955414004
 30
0.0
 11
613.1458993701333
 21
-59.18770955414004
 31
0.0
  0
LINE
  5
20F3
330
1F
100
AcDbEntity
  8
0
 62
     7
100
AcDbLine
 10
530.1458993701333
 20
-54.70897378322189
 30
0.0
 11
530.1458993701333
 21
-56.18770955414004
 31
0.0
  0
LINE
  5
20F4
330
1F
100
AcDbEntity
  8
0
 62
     7
100
AcDbLine
 10
616.1458993701333
 20
-55.20897378322189
 30
0.0
 11
616.1458993701334
 21
-56.18770955414004
 31
0.0
  0
ARC
  5
20F5
330
1F
100
AcDbEntity
  8
0
 62
     7
100
AcDbCircle
 10
533.1458993701334
 20
-56.18770955414004
 30
0.0
 40
3.0
100
AcDbArc
 50
180.0
 51
270.0
  0
ARC
  5
20F6
330
1F
100
AcDbEntity
  8
0
 62
     7
100
AcDbCircle
 10
613.1458993701333
 20
-56.18770955414004
 30
0.0
 40
3.0
100
AcDbArc
 50
270.0
 51
0.0
  0
LINE
  5
20F7
330
1F
100
AcDbEntity
  8
0
 62
     7
100
AcDbLine
 10
616.1458993701334
 20
-55.18770955414007
 30
0.0
 11
665.072008336245
 21
-55.18770955414007
 31
0.0
  0
LINE
  5
20F9
330
1F
100
AcDbEntity
  8
0
 62
     7
 48
0.5
100
AcDbLine
 10
638.9456341551055
 20
-34.20897378322178
 30
0.0
 11
638.1456341551055
 21
-35.00897378322174
 31
0.0
  0
LINE
  5
20FA
330
1F
100
AcDbEntity
  8
0
 62
     7
 48
0.5
100
AcDbLine
 10
648.1456341551055
 20
-35.00897378322196
 30
0.0
 11
647.3456341551053
 21
-34.20897378322178
 31
0.0
  0
LINE
  5
20FB
330
1F
100
AcDbEntity
  8
0
 62
     7
 48
0.5
100
AcDbLine
 10
647.3456341551056
 20
-34.20897378322178
 30
0.0
 11
638.9456341551055
 21
-34.20897378322178
 31
0.0
  0
LINE
  5
20FC
330
1F
100
AcDbEntity
  8
0
 62
     7
 48
0.5
100
AcDbLine
 10
638.1456341551057
 20
-35.00897378322139
 30
0.0
 11
638.1456341551057
 21
-38.20897378322178
 31
0.0
  0
LINE
  5
20FD
330
1F
100
AcDbEntity
  8
0
 62
     7
 48
0.5
100
AcDbLine
 10
634.9956341551053
 20
-43.20897378322189
 30
0.0
 11
634.9956341551053
 21
-38.2089737832219
 31
0.0
  0
LINE
  5
20FE
330
1F
100
AcDbEntity
  8
0
 62
     7
 48
0.5
100
AcDbLine
 10
651.2956341551054
 20
-38.2089737832219
 30
0.0
 11
651.2956341551054
 21
-43.20897378322189
 31
0.0
  0
LINE
  5
20FF
330
1F
100
AcDbEntity
  8
0
 62
     7
 48
0.5
100
AcDbLine
 10
651.2956341551054
 20
-38.2089737832219
 30
0.0
 11
634.9956341551053
 21
-38.2089737832219
 31
0.0
  0
LINE
  5
2100
330
1F
100
AcDbEntity
  8
0
 62
     7
 48
0.5
100
AcDbLine
 10
648.1456341551052
 20
-38.20897378322201
 30
0.0
 11
648.1456341551055
 21
-35.00897378322185
 31
0.0
  0
LINE
  5
2101
330
1F
100
AcDbEntity
  8
0
  6
DASH_CENTER
 62
    30
100
AcDbLine
 10
643.1456341551057
 20
-79.18853123778768
 30
0.0
 11
643.1456341551051
 21
-29.64695588462206
 31
0.0
  0
LINE
  5
2102
330
1F
100
AcDbEntity
  8
100
  6
DASH_CENTER
 62
    30
100
AcDbLine
 10
643.1458993701332
 20
-72.23772511072053
 30
0.0
 11
643.1458993701332
 21
-33.47810785606333
 31
0.0
  0
LINE
  5
2103
330
1F
100
AcDbEntity
  8
0
  6
DASHED
 62
     2
 48
0.5
100
AcDbLine
 10
634.9956341551053
 20
-74.20897378322178
 30
0.0
 11
634.9956341551053
 21
-67.20897378322177
 31
0.0
  0
LINE
  5
2104
330
1F
100
AcDbEntity
  8
0
  6
DASHED
 62
     2
 48
0.5
100
AcDbLine
 10
651.2956341551054
 20
-67.20897378322177
 30
0.0
 11
651.2956341551054
 21
-74.20897378322178
 31
0.0
  0
LINE
  5
2105
330
1F
100
AcDbEntity
  8
0
  6
DASHED
 62
     2
 48
0.5
100
AcDbLine
 10
651.2956341551054
 20
-74.20897378322178
 30
0.0
 11
634.9956341551053
 21
-74.20897378322178
 31
0.0
  0
LINE
  5
2107
330
1F
100
AcDbEntity
  8
0
  6
DASHED
 62
     2
 48
0.5
100
AcDbLine
 10
632.8589538531891
 20
-64.18770955413811
 30
0.0
 11
632.8589538531891
 21
-67.20897378322177
 31
0.0
  0
LINE
  5
2108
330
1F
100
AcDbEntity
  8
0
  6
DASHED
 62
     2
 48
0.5
100
AcDbLine
 10
654.3680275076966
 20
-67.20897378322177
 30
0.0
 11
632.8589538531891
 21
-67.20897378322177
 31
0.0
  0
ARC
  5
210A
330
1F
100
AcDbEntity
  8
0
  6
DASHED
 62
     2
 48
0.5
100
AcDbCircle
 10
654.3680275076966
 20
-69.20897378322178
 30
0.0
 40
2.0
100
AcDbArc
 50
2.964488090692681
 51
90.0
  0
LINE
  5
210B
330
1F
100
AcDbEntity
  8
0
  6
DASHED
 62
     2
 48
0.5
100
AcDbLine
 10
632.8589538531891
 20
-64.18770955413811
 30
0.0
 11
622.1553433789948
 21
-64.18770955413811
 31
0.0
  0
LINE
  5
211D
330
1F
100
AcDbEntity
  8
0
 62
     7
 48
0.5
100
AcDbLine
 10
497.5722735512728
 20
-38.20897378322201
 30
0.0
 11
497.5722735512726
 21
-35.00897378322185
 31
0.0
  0
LINE
  5
211E
330
1F
100
AcDbEntity
  8
0
 62
     7
 48
0.5
100
AcDbLine
 10
494.4222735512728
 20
-38.2089737832219
 30
0.0
 11
510.7222735512729
 21
-38.2089737832219
 31
0.0
  0
LINE
  5
211F
330
1F
100
AcDbEntity
  8
0
 62
     7
 48
0.5
100
AcDbLine
 10
494.4222735512727
 20
-38.2089737832219
 30
0.0
 11
494.4222735512728
 21
-43.20897378322189
 31
0.0
  0
LINE
  5
2120
330
1F
100
AcDbEntity
  8
0
 62
     7
 48
0.5
100
AcDbLine
 10
510.7222735512729
 20
-43.20897378322189
 30
0.0
 11
510.7222735512729
 21
-38.2089737832219
 31
0.0
  0
LINE
  5
2121
330
1F
100
AcDbEntity
  8
0
 62
     7
 48
0.5
100
AcDbLine
 10
507.5722735512726
 20
-35.00897378322139
 30
0.0
 11
507.5722735512726
 21
-38.20897378322178
 31
0.0
  0
LINE
  5
2122
330
1F
100
AcDbEntity
  8
0
 62
     7
 48
0.5
100
AcDbLine
 10
498.3722735512726
 20
-34.20897378322178
 30
0.0
 11
506.7722735512727
 21
-34.20897378322178
 31
0.0
  0
LINE
  5
2123
330
1F
100
AcDbEntity
  8
0
 62
     7
 48
0.5
100
AcDbLine
 10
497.5722735512726
 20
-35.00897378322196
 30
0.0
 11
498.3722735512726
 21
-34.20897378322178
 31
0.0
  0
LINE
  5
2124
330
1F
100
AcDbEntity
  8
0
 62
     7
 48
0.5
100
AcDbLine
 10
506.7722735512727
 20
-34.20897378322178
 30
0.0
 11
507.5722735512726
 21
-35.00897378322174
 31
0.0
  0
LINE
  5
2125
330
1F
100
AcDbEntity
  8
100
  6
DASH_CENTER
 62
    30
100
AcDbLine
 10
502.572008336245
 20
-72.23772511072053
 30
0.0
 11
502.572008336245
 21
-33.47810785606333
 31
0.0
  0
LINE
  5
2126
330
1F
100
AcDbEntity
  8
0
  6
DASH_CENTER
 62
    30
100
AcDbLine
 10
502.5722735512723
 20
-79.18853123778768
 30
0.0
 11
502.572273551273
 21
-29.64695588462206
 31
0.0
  0
LINE
  5
2127
330
1F
100
AcDbEntity
  8
0
  6
DASHED
 62
     2
 48
0.5
100
AcDbLine
 10
512.858953853189
 20
-64.18770955413811
 30
0.0
 11
523.5625643273833
 21
-64.18770955413811
 31
0.0
  0
LINE
  5
2128
330
1F
100
AcDbEntity
  8
0
  6
DASHED
 62
     2
 48
0.5
100
AcDbLine
 10
491.3498801986817
 20
-67.20897378322177
 30
0.0
 11
512.858953853189
 21
-67.20897378322177
 31
0.0
  0
LINE
  5
2129
330
1F
100
AcDbEntity
  8
0
  6
DASHED
 62
     2
 48
0.5
100
AcDbLine
 10
512.858953853189
 20
-64.18770955413811
 30
0.0
 11
512.858953853189
 21
-67.20897378322177
 31
0.0
  0
LINE
  5
212A
330
1F
100
AcDbEntity
  8
0
  6
DASHED
 62
     2
 48
0.5
100
AcDbLine
 10
494.4222735512728
 20
-74.20897378322178
 30
0.0
 11
510.7222735512729
 21
-74.20897378322178
 31
0.0
  0
LINE
  5
212B
330
1F
100
AcDbEntity
  8
0
  6
DASHED
 62
     2
 48
0.5
100
AcDbLine
 10
494.4222735512728
 20
-67.20897378322177
 30
0.0
 11
494.4222735512727
 21
-74.20897378322178
 31
0.0
  0
LINE
  5
212C
330
1F
100
AcDbEntity
  8
0
  6
DASHED
 62
     2
 48
0.5
100
AcDbLine
 10
510.7222735512729
 20
-74.20897378322178
 30
0.0
 11
510.7222735512729
 21
-67.20897378322177
 31
0.0
  0
ARC
  5
212D
330
1F
100
AcDbEntity
  8
0
  6
DASHED
 62
     2
 48
0.5
100
AcDbCircle
 10
491.3498801986817
 20
-69.20897378322178
 30
0.0
 40
2.0
100
AcDbArc
 50
90.0
 51
177.0355119093073
  0
LINE
  5
221B
330
1F
100
AcDbEntity
  8
0
 62
     7
100
AcDbLine
 10
478.8589538531891
 20
-175.1877095541381
 30
0.0
 11
478.8589538531891
 21
-158.1877095541381
 31
0.0
  0
ARC
  5
221C
330
1F
100
AcDbEntity
  8
0
 62
     7
100
AcDbCircle
 10
513.858953853189
 20
-158.1877095541381
 30
0.0
 40
3.0
100
AcDbArc
 50
0.0
 51
89.99999999999994
  0
ARC
  5
221D
330
1F
100
AcDbEntity
  8
0
 62
     7
100
AcDbCircle
 10
481.858953853189
 20
-158.1877095541381
 30
0.0
 40
3.0
100
AcDbArc
 50
89.99999999999994
 51
180.0000000000001
  0
LINE
  5
221E
330
1F
100
AcDbEntity
  8
0
 62
     7
100
AcDbLine
 10
666.858953853189
 20
-175.1877095541381
 30
0.0
 11
666.858953853189
 21
-158.1877095541381
 31
0.0
  0
ARC
  5
221F
330
1F
100
AcDbEntity
  8
0
 62
     7
100
AcDbCircle
 10
663.858953853189
 20
-158.1877095541381
 30
0.0
 40
3.0
100
AcDbArc
 50
359.9999999999998
 51
90.00000000000005
  0
LINE
  5
2229
330
1F
100
AcDbEntity
  8
0
 62
     7
100
AcDbLine
 10
546.3631857333719
 20
105.9598074277573
 30
0.0
 11
599.354721973006
 21
105.9598074277573
 31
0.0
  0
LINE
  5
222A
330
1F
100
AcDbEntity
  8
0
  6
Continuous
 62
     7
100
AcDbLine
 10
599.3547219730059
 20
79.08559359127932
 30
0.0
 11
546.3631857333719
 21
79.08559359127926
 31
0.0
  0
ARC
  5
2265
330
1F
100
AcDbEntity
  8
10
  6
DASHED
 62
   171
 48
0.5
100
AcDbCircle
 10
-383.1522907791145
 20
1.647210580174288
 30
0.0
 40
300.5998931516941
100
AcDbArc
 50
160.2269375073385
 51
173.4638542781752
  0
LINE
  5
2266
330
1F
100
AcDbEntity
  8
10
  6
DASHED
 62
   171
 48
0.5
100
AcDbLine
 10
-626.9354551243804
 20
107.5523517981092
 30
0.0
 11
-682.4066907791142
 21
29.1431105801742
 31
0.0
  0
LINE
  5
2267
330
1F
100
AcDbEntity
  8
10
  6
DASHED
 62
   171
 48
0.5
100
AcDbLine
 10
-623.0691093988362
 20
106.7705915958661
 30
0.0
 11
-680.1607907791143
 21
26.0843105801742
 31
0.0
  0
LINE
  5
2268
330
1F
100
AcDbEntity
  8
110
  6
DASH_CENTER
 62
    30
 48
0.5
100
AcDbLine
 10
-610.5666498819459
 20
61.40197501873192
 30
0.0
 11
-679.9036356182355
 21
73.62778557615829
 31
0.0
  0
ARC
  5
2269
330
1F
100
AcDbEntity
  8
10
  6
DASHED
 62
   171
 48
0.5
100
AcDbCircle
 10
-657.9349532656635
 20
100.4299719486334
 30
0.0
 40
8.599993538927414
100
AcDbArc
 50
83.22489748812847
 51
160.2269427165673
  0
ARC
  5
226A
330
1F
100
AcDbEntity
  8
10
  6
DASHED
 62
   171
 48
0.5
100
AcDbCircle
 10
-625.6427907791142
 20
106.6094105801742
 30
0.0
 40
1.60003726518994
100
AcDbArc
 50
53.75462623232099
 51
144.7216602362573
  0
ARC
  5
226B
330
1F
100
AcDbEntity
  8
10
  6
DASHED
 62
   171
 48
0.5
100
AcDbCircle
 10
-629.4697271381001
 20
108.1260388786291
 30
0.0
 40
2.39999141043238
100
AcDbArc
 50
263.2241588344548
 51
324.7212056971668
  0
ARC
  5
226C
330
1F
100
AcDbEntity
  8
10
  6
DASHED
 62
   171
 48
0.5
100
AcDbCircle
 10
-628.8112010951307
 20
98.39214832659022
 30
0.0
 40
5.800021198105173
100
AcDbArc
 50
350.0002544353182
 51
40.57083665711582
  0
LINE
  5
226D
330
1F
100
AcDbEntity
  8
0
  6
DASHED
 62
   171
 48
0.5
100
AcDbLine
 10
-624.6890880163314
 20
107.9168496946243
 30
0.0
 11
-623.0691093988362
 21
106.7705915958661
 31
0.0
  0
LINE
  5
226E
330
1F
100
AcDbEntity
  8
10
  6
DASHED
 62
   171
 48
0.5
100
AcDbLine
 10
-623.0992142256564
 20
97.38499708165917
 30
0.0
 11
-634.2579338356373
 21
34.10110054833128
 31
0.0
  0
LINE
  5
226F
330
1F
100
AcDbEntity
  8
10
  6
DASHED
 62
   171
 48
0.5
100
AcDbLine
 10
-629.7528907791153
 20
105.7427105801742
 30
0.0
 11
-656.9203907791155
 21
108.9700105801742
 31
0.0
  0
LINE
  5
2270
330
1F
100
AcDbEntity
  8
10
  6
DASHED
 62
   171
 48
0.5
100
AcDbLine
 10
-624.4054907791144
 20
102.1641105801741
 30
0.0
 11
-625.4187907791154
 21
103.3477105801742
 31
0.0
  0
ARC
  5
2271
330
1F
100
AcDbEntity
  8
10
  6
DASHED
 62
   171
 48
0.5
100
AcDbCircle
 10
-620.8268240149005
 20
90.76175969021424
 30
0.0
 40
0.9999601049460109
100
AcDbArc
 50
169.9994391254222
 51
258.1778218788908
  0
LINE
  5
2272
330
1F
100
AcDbEntity
  8
10
  6
DASHED
 62
   171
 48
0.5
100
AcDbLine
 10
-626.5229098795022
 20
64.21545486330211
 30
0.0
 11
-621.3133907791142
 21
93.76081058017419
 31
0.0
  0
LINE
  5
2273
330
1F
100
AcDbEntity
  8
10
  6
DASHED
 62
   171
 48
0.5
100
AcDbLine
 10
-622.3100564074925
 20
94.95050451562031
 30
0.0
 11
-632.9023907791154
 21
34.87871058017418
 31
0.0
  0
LINE
  5
2274
330
1F
100
AcDbEntity
  8
10
  6
DASHED
 62
   171
 48
0.5
100
AcDbLine
 10
-622.4951907791144
 20
93.96901058017432
 30
0.0
 11
-621.3133907791142
 21
93.76081058017419
 31
0.0
  0
LINE
  5
2275
330
1F
100
AcDbEntity
  8
10
  6
DASHED
 62
   171
 48
0.5
100
AcDbLine
 10
-621.0316907791142
 20
89.78301058017411
 30
0.0
 11
-612.8991907791144
 21
88.0806105801742
 31
0.0
  0
LINE
  5
2276
330
1F
100
AcDbEntity
  8
10
  6
DASHED
 62
   171
 48
0.5
100
AcDbLine
 10
-623.4917907791142
 20
95.15901058017432
 30
0.0
 11
-622.3100907791152
 21
94.95051058017413
 31
0.0
  0
ARC
  5
2277
330
1F
100
AcDbEntity
  8
10
  6
DASHED
 62
   171
 48
0.5
100
AcDbCircle
 10
-613.9646627365191
 20
82.9907539749613
 30
0.0
 40
5.199984120264681
100
AcDbArc
 50
3.477396803070521
 51
78.17640870137394
  0
ARC
  5
2278
330
1F
100
AcDbEntity
  8
10
  6
DASHED
 62
   171
 48
0.5
100
AcDbCircle
 10
-640.6420807204629
 20
37.05451762320939
 30
0.0
 40
6.800014530488137
100
AcDbArc
 50
260.0000006218081
 51
349.9991708404025
  0
ARC
  5
2279
330
1F
100
AcDbEntity
  8
10
  6
DASHED
 62
   171
 48
0.5
100
AcDbCircle
 10
-630.2493033277779
 20
37.3240014921366
 30
0.0
 40
0.9999732195207704
100
AcDbArc
 50
81.8238823459872
 51
170.0020037111987
  0
LINE
  5
227A
330
1F
100
AcDbEntity
  8
10
  6
DASHED
 62
   171
 48
0.5
100
AcDbLine
 10
-626.5226346539892
 20
64.21540633429621
 30
0.0
 11
-631.7322907791143
 21
34.6724105801741
 31
0.0
  0
LINE
  5
227B
330
1F
100
AcDbEntity
  8
10
  6
DASHED
 62
   171
 48
0.5
100
AcDbLine
 10
-630.1070907791154
 20
38.31381058017411
 30
0.0
 11
-621.8827907791144
 21
37.13211058017418
 31
0.0
  0
LINE
  5
227C
330
1F
100
AcDbEntity
  8
10
  6
DASHED
 62
   171
 48
0.5
100
AcDbLine
 10
-632.9139907791153
 20
34.88061058017418
 30
0.0
 11
-631.7322907791143
 21
34.6724105801741
 31
0.0
  0
LINE
  5
227D
330
1F
100
AcDbEntity
  8
10
  6
DASHED
 62
   171
 48
0.5
100
AcDbLine
 10
-634.2579907791144
 20
34.10111058017429
 30
0.0
 11
-633.0761907791153
 21
33.89291058017428
 31
0.0
  0
LINE
  5
227E
330
1F
100
AcDbEntity
  8
10
  6
DASHED
 62
   171
 48
0.5
100
AcDbLine
 10
-633.0780907791154
 20
33.89311058017419
 30
0.0
 11
-632.9042907791154
 21
34.87871058017418
 31
0.0
  0
ARC
  5
227F
330
1F
100
AcDbEntity
  8
10
  6
DASHED
 62
   171
 48
0.5
100
AcDbCircle
 10
-644.1630907791155
 20
29.75491058017406
 30
0.0
 40
2.999969361510008
100
AcDbArc
 50
260.0007604670524
 51
350.0007604670528
  0
LINE
  5
2280
330
1F
100
AcDbEntity
  8
10
  6
DASHED
 62
   171
 48
0.5
100
AcDbLine
 10
-673.2209466179893
 20
35.89222309303119
 30
0.0
 11
-641.0349877962683
 21
30.21882749327627
 31
0.0
  0
LINE
  5
2281
330
1F
100
AcDbEntity
  8
110
  6
DASH_CENTER
 62
    30
 48
0.5
100
AcDbLine
 10
-654.2920907791143
 20
41.41561058017429
 30
0.0
 11
-657.4482907791142
 21
23.51611058017419
 31
0.0
  0
LINE
  5
2282
330
1F
100
AcDbEntity
  8
10
  6
DASHED
 62
   171
 48
0.5
100
AcDbLine
 10
-668.3193907791144
 20
30.96801058017427
 30
0.0
 11
-644.6840907791154
 21
26.80031058017426
 31
0.0
  0
ARC
  5
2283
330
1F
100
AcDbEntity
  8
0
  6
DASHED
 62
   171
 48
0.5
100
AcDbCircle
 10
-682.4123935184302
 20
32.59800528273519
 30
0.0
 40
1.999999999999444
100
AcDbArc
 50
324.7222015060037
 51
49.43836263821347
  0
ARC
  5
2284
330
1F
100
AcDbEntity
  8
0
  6
DASHED
 62
   171
 48
0.5
100
AcDbCircle
 10
-679.8113307263182
 20
35.63683274600029
 30
0.0
 40
1.999999999999934
100
AcDbArc
 50
173.4638542781768
 51
229.4383626381891
  0
ARC
  5
2285
330
1F
100
AcDbEntity
  8
10
  6
DASHED
 62
   171
 48
0.5
100
AcDbCircle
 10
-681.42699767577
 20
28.45025083151541
 30
0.0
 40
1.199972692743707
100
AcDbArc
 50
144.7206857042792
 51
234.7245836526576
  0
ARC
  5
2286
330
1F
100
AcDbEntity
  8
10
  6
DASHED
 62
   171
 48
0.5
100
AcDbCircle
 10
-682.7228902604774
 20
31.63770649844734
 30
0.0
 40
1.59999628280218
100
AcDbArc
 50
144.7423730709411
 51
229.7404019407538
  0
ARC
  5
2287
330
1F
100
AcDbEntity
  8
10
  6
DASHED
 62
   171
 48
0.5
100
AcDbCircle
 10
-667.7984978219411
 20
33.92242063837869
 30
0.0
 40
2.999978044061666
100
AcDbArc
 50
169.9990454301178
 51
260.0009262880623
  0
LINE
  5
2288
330
1F
100
AcDbEntity
  8
10
  6
DASHED
 62
   171
 48
0.5
100
AcDbLine
 10
-681.8184007987333
 20
35.68887020406807
 30
0.0
 11
-684.0292907791154
 21
32.56131058017427
 31
0.0
  0
LINE
  5
2289
330
1F
100
AcDbEntity
  8
10
  6
DASHED
 62
   171
 48
0.5
100
AcDbLine
 10
-678.2541198832242
 20
28.77896205987918
 30
0.0
 11
-676.7004907791154
 21
27.68071058017429
 31
0.0
  0
LINE
  5
228A
330
1F
100
AcDbEntity
  8
110
  6
DASHED
 62
   171
 48
0.5
100
AcDbLine
 10
-677.9665459101784
 20
29.1853833429992
 30
0.0
 11
-676.0064907791153
 21
27.79981058017418
 31
0.0
  0
LINE
  5
228B
330
1F
100
AcDbEntity
  8
110
  6
DASHED
 62
   171
 48
0.5
100
AcDbLine
 10
-675.6561749872693
 20
32.45057422596829
 30
0.0
 11
-673.6974907791155
 21
31.06591058017428
 31
0.0
  0
LINE
  5
228C
330
1F
100
AcDbEntity
  8
10
  6
DASHED
 62
   171
 48
0.5
100
AcDbLine
 10
-675.3660702790384
 20
32.8605721354082
 30
0.0
 11
-673.8140907791144
 21
31.7635105801742
 31
0.0
  0
LINE
  5
228D
330
1F
100
AcDbEntity
  8
10
  6
DASHED
 62
   171
 48
0.5
100
AcDbLine
 10
-680.1607907791143
 20
26.0843105801742
 30
0.0
 11
-682.1200907791144
 21
27.4705105801741
 31
0.0
  0
LINE
  5
228E
330
1F
100
AcDbEntity
  8
110
  6
DASH_CENTER
 62
    30
 48
0.5
100
AcDbLine
 10
-673.3764907791144
 20
28.38891058017409
 30
0.0
 11
-683.9519907791155
 21
35.8706105801742
 31
0.0
  0
LINE
  5
228F
330
1F
100
AcDbEntity
  8
10
  6
DASHED
 62
   171
 48
0.5
100
AcDbLine
 10
-682.3476907791143
 20
29.22341058017428
 30
0.0
 11
-683.7568907791144
 21
30.41701058017409
 31
0.0
  0
LINE
  5
2290
330
1F
100
AcDbEntity
  8
10
  6
DASHED
 62
   171
 48
0.5
100
AcDbLine
 10
-670.5791907791144
 20
35.42831058017418
 30
0.0
 11
-670.7528907791153
 21
34.44341058017428
 31
0.0
  0
LINE
  5
2291
330
1F
100
AcDbEntity
  8
10
  6
DASHED
 62
   171
 48
0.5
100
AcDbLine
 10
-673.6974907791155
 20
31.06591058017428
 30
0.0
 11
-676.0064907791153
 21
27.79981058017418
 31
0.0
  0
LINE
  5
2292
330
1F
100
AcDbEntity
  8
10
  6
DASHED
 62
   171
 48
0.5
100
AcDbLine
 10
-676.7004907791154
 20
27.68071058017429
 30
0.0
 11
-676.0062907791144
 21
27.79961058017428
 31
0.0
  0
LINE
  5
2293
330
1F
100
AcDbEntity
  8
10
  6
DASHED
 62
   171
 48
0.5
100
AcDbLine
 10
-673.8142907791142
 20
31.76371058017418
 30
0.0
 11
-673.6974907791155
 21
31.06591058017428
 31
0.0
  0
LINE
  5
2294
330
1F
100
AcDbEntity
  8
10
  6
DASHED
 62
   171
 48
0.5
100
AcDbLine
 10
-676.7004907791154
 20
27.68071058017429
 30
0.0
 11
-673.8140907791144
 21
31.7635105801742
 31
0.0
  0
LINE
  5
2295
330
1F
100
AcDbEntity
  8
10
  6
DASHED
 62
   171
 48
0.5
100
AcDbLine
 10
-641.0349907791144
 20
30.2188105801743
 30
0.0
 11
-641.2086907791152
 21
29.23391058017418
 31
0.0
  0
ARC
  5
2296
330
1F
100
AcDbEntity
  8
10
  6
DASHED
 62
   171
 48
0.5
100
AcDbCircle
 10
-621.1431818222258
 20
42.2793191235733
 30
0.0
 40
5.199961524362543
100
AcDbArc
 50
261.8240006656662
 51
336.5155065609021
  0
CIRCLE
  5
229F
330
1F
100
AcDbEntity
  8
0
 62
     7
100
AcDbCircle
 10
549.363185733372
 20
93.13624028452975
 30
0.0
 40
1.399999999999999
  0
CIRCLE
  5
22A0
330
1F
100
AcDbEntity
  8
0
 62
     7
100
AcDbCircle
 10
596.3547219730058
 20
93.13624028453054
 30
0.0
 40
1.399999999999999
  0
LINE
  5
2323
330
1F
100
AcDbEntity
  8
0
  6
Continuous
 62
     7
100
AcDbLine
 10
25.3348836845138
 20
104.81229044586
 30
0.0
 11
10.64589941573116
 21
104.81229044586
 31
0.0
  0
SPLINE
  5
2324
330
1F
100
AcDbEntity
  8
0
  6
Continuous
 62
     2
100
AcDbSpline
210
0.0
220
0.0
230
1.0
 70
  1064
 71
     3
 72
    19
 73
    15
 74
    13
 42
0.0000000001
 43
0.0000000001
 44
0.00000001
 40
0.0
 40
0.0
 40
0.0
 40
0.0
 40
4.820319278937093
 40
9.813544834038641
 40
11.59187901207644
 40
13.1801496384077
 40
14.69762220315074
 40
16.33162450704279
 40
17.94440735849065
 40
19.54369682652921
 40
21.66510073944358
 40
23.61446178803997
 40
25.48985349605632
 40
28.25724926031242
 40
28.25724926031242
 40
28.25724926031242
 40
28.25724926031242
 10
10.64589941573113
 20
92.95699716826289
 30
0.0
 10
11.86555985625881
 20
94.00119606616021
 30
0.0
 10
14.34863032685338
 20
96.12704957327103
 30
0.0
 10
17.75580522795765
 20
98.09404232984668
 30
0.0
 10
20.38689941353056
 20
98.93215864264057
 30
0.0
 10
21.857799350923
 20
99.83404781452527
 30
0.0
 10
22.33878859726071
 20
101.4075405701466
 30
0.0
 10
22.73206006778289
 20
102.9459496120121
 30
0.0
 10
23.80229817564043
 20
104.2371314636605
 30
0.0
 10
25.48613590236247
 20
105.0185045304029
 30
0.0
 10
27.38828732933466
 20
104.7792159669096
 30
0.0
 10
29.43691475497581
 20
104.5624036227099
 30
0.0
 10
31.32778705241587
 20
105.9979498704038
 30
0.0
 10
31.9127711025815
 20
107.4479803321634
 30
0.0
 10
32.26145869339406
 20
108.3122904458599
 30
0.0
 11
10.64589941573113
 21
92.95699716826289
 31
0.0
 11
14.40172637514647
 21
95.97846069084015
 31
0.0
 11
18.77734521565901
 21
98.38392555628068
 31
0.0
 11
20.43397264755686
 21
99.03049960733419
 31
0.0
 11
21.71693142583533
 21
99.96677966945249
 31
0.0
 11
22.31312862284057
 21
101.3622265088315
 31
0.0
 11
22.84754150667231
 21
102.906365879629
 31
0.0
 11
23.88209758762184
 21
104.143605647037
 31
0.0
 11
25.33488368451382
 21
104.81229044586
 31
0.0
 11
27.45601528161117
 21
104.7783006531799
 31
0.0
 11
29.4050799755271
 21
104.81229044586
 31
0.0
 11
30.95008570872646
 21
105.875329168982
 31
0.0
 11
32.26145869339406
 21
108.3122904458599
 31
0.0
  0
ENDSEC
  0
SECTION
  2
OBJECTS
  0
DICTIONARY
  5
C
330
0
100
AcDbDictionary
281
     1
  3
ACAD_CIP_PREVIOUS_PRODUCT_INFO
350
2456
  3
ACAD_COLOR
350
ADB
  3
ACAD_GROUP
350
D
  3
ACAD_LAYOUT
350
1A
  3
ACAD_MATERIAL
350
ADA
  3
ACAD_MLEADERSTYLE
350
2453
  3
ACAD_MLINESTYLE
350
17
  3
ACAD_PLOTSETTINGS
350
19
  3
ACAD_PLOTSTYLENAME
350
E
  3
ACAD_SCALELIST
350
2441
  3
ACAD_TABLESTYLE
350
243F
  3
ACAD_VISUALSTYLE
350
2426
  3
ACDB_RECOMPOSE_DATA
350
246E
  3
AcDbVariableDictionary
350
2463
  3
DWGPROPS
350
246F
  0
DICTIONARY
  5
2457
330
10
100
AcDbDictionary
280
     1
281
     1
  3
ADSK_XREC_LAYER_RECONCILED
360
2458
  0
DICTIONARY
  5
2459
330
32
100
AcDbDictionary
280
     1
281
     1
  3
ADSK_XREC_LAYER_RECONCILED
360
245A
  0
DICTIONARY
  5
245B
330
33
100
AcDbDictionary
280
     1
281
     1
  3
ADSK_XREC_LAYER_RECONCILED
360
245C
  0
DICTIONARY
  5
245D
330
34
100
AcDbDictionary
280
     1
281
     1
  3
ADSK_XREC_LAYER_RECONCILED
360
245E
  0
DICTIONARY
  5
245F
330
35
100
AcDbDictionary
280
     1
281
     1
  3
ADSK_XREC_LAYER_RECONCILED
360
2460
  0
DICTIONARY
  5
2461
330
36
100
AcDbDictionary
280
     1
281
     1
  3
ADSK_XREC_LAYER_RECONCILED
360
2462
  0
XRECORD
  5
2456
102
{ACAD_REACTORS
330
C
102
}
330
C
100
AcDbXrecord
280
     1
300
ACDLT
300
2012
300
ACDLT_F_S
  0
DICTIONARY
  5
ADB
102
{ACAD_REACTORS
330
C
102
}
330
C
100
AcDbDictionary
281
     1
  0
DICTIONARY
  5
D
102
{ACAD_REACTORS
330
C
102
}
330
C
100
AcDbDictionary
281
     1
  0
DICTIONARY
  5
1A
102
{ACAD_REACTORS
330
C
102
}
330
C
100
AcDbDictionary
281
     1
  3
Layout1
350
1E
  3
Layout2
350
26
  3
Model
350
22
  0
DICTIONARY
  5
ADA
102
{ACAD_REACTORS
330
C
102
}
330
C
100
AcDbDictionary
281
     1
  3
ByBlock
350
2416
  3
ByLayer
350
240E
  3
Global
350
241E
  0
DICTIONARY
  5
2453
102
{ACAD_REACTORS
330
C
102
}
330
C
100
AcDbDictionary
281
     1
  3
Standard
350
2454
  0
DICTIONARY
  5
17
102
{ACAD_REACTORS
330
C
102
}
330
C
100
AcDbDictionary
281
     1
  3
Standard
350
18
  0
DICTIONARY
  5
19
102
{ACAD_REACTORS
330
C
102
}
330
C
100
AcDbDictionary
281
     1
  0
ACDBDICTIONARYWDFLT
  5
E
102
{ACAD_REACTORS
330
C
102
}
330
C
100
AcDbDictionary
281
     1
  3
Normal
350
F
100
AcDbDictionaryWithDefault
340
F
  0
DICTIONARY
  5
2441
102
{ACAD_REACTORS
330
C
102
}
330
C
100
AcDbDictionary
281
     1
  3
A0
350
2442
  3
A1
350
2443
  3
A2
350
2444
  3
A3
350
2445
  3
A4
350
2446
  3
A5
350
2447
  3
A6
350
2448
  3
A7
350
2449
  3
A8
350
244A
  3
A9
350
244B
  3
B0
350
244C
  3
B1
350
244D
  3
B2
350
244E
  3
B3
350
244F
  3
B4
350
2450
  3
B5
350
2451
  3
B6
350
2452
  0
DICTIONARY
  5
243F
102
{ACAD_REACTORS
330
C
102
}
330
C
100
AcDbDictionary
281
     1
  3
Standard
350
2440
  0
DICTIONARY
  5
2426
102
{ACAD_REACTORS
330
C
102
}
330
C
100
AcDbDictionary
281
     1
  3
2dWireframe
350
242C
  3
Basic
350
242B
  3
Brighten
350
2432
  3
ColorChange
350
2436
  3
Conceptual
350
242F
  3
Dim
350
2431
  3
EdgeColorOff
350
243E
  3
Facepattern
350
2435
  3
Flat
350
2427
  3
FlatWithEdges
350
2428
  3
Gouraud
350
2429
  3
GouraudWithEdges
350
242A
  3
Hidden
350
242E
  3
JitterOff
350
243C
  3
Linepattern
350
2434
  3
OverhangOff
350
243D
  3
Realistic
350
2430
  3
Shaded
350
243B
  3
Shaded with edges
350
243A
  3
Shades of Gray
350
2437
  3
Sketchy
350
2438
  3
Thicken
350
2433
  3
Wireframe
350
242D
  3
X-Ray
350
2439
  0
XRECORD
  5
246E
102
{ACAD_REACTORS
330
C
102
}
330
C
100
AcDbXrecord
280
     1
 90
        1
330
2440
  0
DICTIONARY
  5
2463
102
{ACAD_REACTORS
330
C
102
}
330
C
100
AcDbDictionary
281
     1
  3
CANNOSCALE
350
2466
  3
CMLEADERSTYLE
350
2465
  3
CTABLESTYLE
350
2464
  3
DIMASSOC
350
246A
  3
INDEXCTL
350
2468
  3
SORTENTS
350
2467
  3
XCLIPFRAME
350
2469
  0
XRECORD
  5
246F
102
{ACAD_REACTORS
330
C
102
}
330
C
100
AcDbXrecord
280
     1
  1
DWGPROPS COOKIE
  2

  3

  4

  6

  7

  8
to.oishi
  9

300
=
301
=
302
=
303
=
304
=
305
=
306
=
307
=
308
=
309
=
 40
0.6584461111111111
 41
2455106.662517535
 42
2458818.41438037
  1

 90
        0
  0
XRECORD
  5
2458
102
{ACAD_REACTORS
330
2457
102
}
330
2457
100
AcDbXrecord
280
     1
290
     1
  0
XRECORD
  5
245A
102
{ACAD_REACTORS
330
2459
102
}
330
2459
100
AcDbXrecord
280
     1
290
     1
  0
XRECORD
  5
245C
102
{ACAD_REACTORS
330
245B
102
}
330
245B
100
AcDbXrecord
280
     1
290
     1
  0
XRECORD
  5
245E
102
{ACAD_REACTORS
330
245D
102
}
330
245D
100
AcDbXrecord
280
     1
290
     1
  0
XRECORD
  5
2460
102
{ACAD_REACTORS
330
245F
102
}
330
245F
100
AcDbXrecord
280
     1
290
     1
  0
XRECORD
  5
2462
102
{ACAD_REACTORS
330
2461
102
}
330
2461
100
AcDbXrecord
280
     1
290
     1
  0
LAYOUT
  5
1E
102
{ACAD_XDICTIONARY
360
2470
102
}
102
{ACAD_REACTORS
330
1A
102
}
330
1A
100
AcDbPlotSettings
  1

  2

  4

  6

 40
0.0
 41
0.0
 42
0.0
 43
0.0
 44
0.0
 45
0.0
 46
0.0
 47
0.0
 48
0.0
 49
0.0
140
0.0
141
0.0
142
1.0
143
1.0
 70
   688
 72
     0
 73
     0
 74
     5
  7
P社図面.ctb
 75
    16
147
1.0
148
0.0
149
0.0
100
AcDbLayout
  1
Layout1
 70
     1
 71
     1
 10
0.0
 20
0.0
 11
12.0
 21
9.0
 12
0.0
 22
0.0
 32
0.0
 14
1.000000000000000E+20
 24
1.000000000000000E+20
 34
1.000000000000000E+20
 15
-1.000000000000000E+20
 25
-1.000000000000000E+20
 35
-1.000000000000000E+20
146
0.0
 13
0.0
 23
0.0
 33
0.0
 16
1.0
 26
0.0
 36
0.0
 17
0.0
 27
1.0
 37
0.0
 76
     0
330
1B
  0
LAYOUT
  5
26
102
{ACAD_XDICTIONARY
360
2474
102
}
102
{ACAD_REACTORS
330
1A
102
}
330
1A
100
AcDbPlotSettings
  1

  2

  4

  6

 40
0.0
 41
0.0
 42
0.0
 43
0.0
 44
0.0
 45
0.0
 46
0.0
 47
0.0
 48
0.0
 49
0.0
140
0.0
141
0.0
142
1.0
143
1.0
 70
   688
 72
     0
 73
     0
 74
     5
  7
P社図面.ctb
 75
    16
147
1.0
148
0.0
149
0.0
100
AcDbLayout
  1
Layout2
 70
     1
 71
     2
 10
0.0
 20
0.0
 11
0.0
 21
0.0
 12
0.0
 22
0.0
 32
0.0
 14
0.0
 24
0.0
 34
0.0
 15
0.0
 25
0.0
 35
0.0
146
0.0
 13
0.0
 23
0.0
 33
0.0
 16
1.0
 26
0.0
 36
0.0
 17
0.0
 27
1.0
 37
0.0
 76
     0
330
23
  0
LAYOUT
  5
22
102
{ACAD_XDICTIONARY
360
2472
102
}
102
{ACAD_REACTORS
330
1A
102
}
330
1A
100
AcDbPlotSettings
  1

  2
Acrobat Distiller
  4
A3
  6

 40
3.174999952316283
 41
3.174999952316283
 42
3.17498779296875
 43
3.17498779296875
 44
297.0318298339844
 45
420.1583251953125
 46
0.0
 47
0.0
 48
-855.9995999999998
 49
-572.0004
140
781.9995999999998
141
571.9996
142
1.0
143
3.958352337929413
 70
 11952
 72
     1
 73
     1
 74
     4
  7
P社図面.ctb
 75
     0
147
0.2526303660282785
148
855.9995999999998
149
572.0004
100
AcDbLayout
  1
Model
 70
     1
 71
     0
 10
0.0
 20
0.0
 11
0.0
 21
0.0
 12
0.0
 22
0.0
 32
0.0
 14
-855.9995999999998
 24
-572.0004
 34
0.0
 15
781.9995999999998
 25
571.9996
 35
0.0
146
0.0
 13
0.0
 23
0.0
 33
0.0
 16
1.0
 26
0.0
 36
0.0
 17
0.0
 27
1.0
 37
0.0
 76
     0
330
1F
331
2408
  0
MATERIAL
  5
2416
102
{ACAD_XDICTIONARY
360
2417
102
}
102
{ACAD_REACTORS
330
ADA
102
}
330
ADA
100
AcDbMaterial
  1
ByBlock
 72
     0
 43
0.0208333333333333
 43
0.0
 43
0.0
 43
0.0
 43
0.0
 43
0.0208333333333333
 43
0.0
 43
0.0
 43
0.0
 43
0.0
 43
1.0
 43
0.0
 43
0.0
 43
0.0
 43
0.0
 43
1.0
 77
     0
 47
0.0208333333333333
 47
0.0
 47
0.0
 47
0.0
 47
0.0
 47
0.0208333333333333
 47
0.0
 47
0.0
 47
0.0
 47
0.0
 47
1.0
 47
0.0
 47
0.0
 47
0.0
 47
0.0
 47
1.0
171
     0
 49
0.0208333333333333
 49
0.0
 49
0.0
 49
0.0
 49
0.0
 49
0.0208333333333333
 49
0.0
 49
0.0
 49
0.0
 49
0.0
 49
1.0
 49
0.0
 49
0.0
 49
0.0
 49
0.0
 49
1.0
175
     0
142
0.0208333333333333
142
0.0
142
0.0
142
0.0
142
0.0
142
0.0208333333333333
142
0.0
142
0.0
142
0.0
142
0.0
142
1.0
142
0.0
142
0.0
142
0.0
142
0.0
142
1.0
179
     0
144
0.0208333333333333
144
0.0
144
0.0
144
0.0
144
0.0
144
0.0208333333333333
144
0.0
144
0.0
144
0.0
144
0.0
144
1.0
144
0.0
144
0.0
144
0.0
144
0.0
144
1.0
147
0.0208333333333333
147
0.0
147
0.0
147
0.0
147
0.0
147
0.0208333333333333
147
0.0
147
0.0
147
0.0
147
0.0
147
1.0
147
0.0
147
0.0
147
0.0
147
0.0
147
1.0
  0
MATERIAL
  5
240E
102
{ACAD_XDICTIONARY
360
240F
102
}
102
{ACAD_REACTORS
330
ADA
102
}
330
ADA
100
AcDbMaterial
  1
ByLayer
 72
     0
 43
0.0208333333333333
 43
0.0
 43
0.0
 43
0.0
 43
0.0
 43
0.0208333333333333
 43
0.0
 43
0.0
 43
0.0
 43
0.0
 43
1.0
 43
0.0
 43
0.0
 43
0.0
 43
0.0
 43
1.0
 77
     0
 47
0.0208333333333333
 47
0.0
 47
0.0
 47
0.0
 47
0.0
 47
0.0208333333333333
 47
0.0
 47
0.0
 47
0.0
 47
0.0
 47
1.0
 47
0.0
 47
0.0
 47
0.0
 47
0.0
 47
1.0
171
     0
 49
0.0208333333333333
 49
0.0
 49
0.0
 49
0.0
 49
0.0
 49
0.0208333333333333
 49
0.0
 49
0.0
 49
0.0
 49
0.0
 49
1.0
 49
0.0
 49
0.0
 49
0.0
 49
0.0
 49
1.0
175
     0
142
0.0208333333333333
142
0.0
142
0.0
142
0.0
142
0.0
142
0.0208333333333333
142
0.0
142
0.0
142
0.0
142
0.0
142
1.0
142
0.0
142
0.0
142
0.0
142
0.0
142
1.0
179
     0
144
0.0208333333333333
144
0.0
144
0.0
144
0.0
144
0.0
144
0.0208333333333333
144
0.0
144
0.0
144
0.0
144
0.0
144
1.0
144
0.0
144
0.0
144
0.0
144
0.0
144
1.0
147
0.0208333333333333
147
0.0
147
0.0
147
0.0
147
0.0
147
0.0208333333333333
147
0.0
147
0.0
147
0.0
147
0.0
147
1.0
147
0.0
147
0.0
147
0.0
147
0.0
147
1.0
  0
MATERIAL
  5
241E
102
{ACAD_XDICTIONARY
360
241F
102
}
102
{ACAD_REACTORS
330
ADA
102
}
330
ADA
100
AcDbMaterial
  1
Global
 72
     0
 43
0.0208333333333333
 43
0.0
 43
0.0
 43
0.0
 43
0.0
 43
0.0208333333333333
 43
0.0
 43
0.0
 43
0.0
 43
0.0
 43
1.0
 43
0.0
 43
0.0
 43
0.0
 43
0.0
 43
1.0
 77
     0
 47
0.0208333333333333
 47
0.0
 47
0.0
 47
0.0
 47
0.0
 47
0.0208333333333333
 47
0.0
 47
0.0
 47
0.0
 47
0.0
 47
1.0
 47
0.0
 47
0.0
 47
0.0
 47
0.0
 47
1.0
171
     0
 49
0.0208333333333333
 49
0.0
 49
0.0
 49
0.0
 49
0.0
 49
0.0208333333333333
 49
0.0
 49
0.0
 49
0.0
 49
0.0
 49
1.0
 49
0.0
 49
0.0
 49
0.0
 49
0.0
 49
1.0
175
     0
142
0.0208333333333333
142
0.0
142
0.0
142
0.0
142
0.0
142
0.0208333333333333
142
0.0
142
0.0
142
0.0
142
0.0
142
1.0
142
0.0
142
0.0
142
0.0
142
0.0
142
1.0
179
     0
144
0.0208333333333333
144
0.0
144
0.0
144
0.0
144
0.0
144
0.0208333333333333
144
0.0
144
0.0
144
0.0
144
0.0
144
1.0
144
0.0
144
0.0
144
0.0
144
0.0
144
1.0
147
0.0208333333333333
147
0.0
147
0.0
147
0.0
147
0.0
147
0.0208333333333333
147
0.0
147
0.0
147
0.0
147
0.0
147
1.0
147
0.0
147
0.0
147
0.0
147
0.0
147
1.0
  0
MLEADERSTYLE
  5
2454
102
{ACAD_REACTORS
330
2453
102
}
330
2453
100
AcDbMLeaderStyle
170
     2
171
     1
172
     0
 90
        2
 40
0.0
 41
0.0
173
     1
 91
-1056964608
340
14
 92
       -2
290
     1
 42
2.0
291
     1
 43
0.36
  3
Standard
 44
4.0
300

342
11
174
     1
178
     6
175
     1
176
     0
 93
-1056964608
 45
4.0
292
     0
297
     0
 46
4.0
 94
-1056964608
 47
1.0
 49
1.0
140
1.0
293
     1
141
0.0
294
     1
177
     0
142
1.0
295
     0
296
     0
143
0.125
1001
ACAD_MLEADERVER
1070
     2
  0
MLINESTYLE
  5
18
102
{ACAD_REACTORS
330
17
102
}
330
17
100
AcDbMlineStyle
  2
STANDARD
 70
     0
  3

 62
   256
 51
90.0
 52
90.0
 71
     2
 49
0.5
 62
   256
  6
BYLAYER
 49
-0.5
 62
   256
  6
BYLAYER
  0
ACDBPLACEHOLDER
  5
F
102
{ACAD_REACTORS
330
E
102
}
330
E
  0
SCALE
  5
2442
102
{ACAD_REACTORS
330
2441
102
}
330
2441
100
AcDbScale
 70
     0
300
1:1
140
1.0
141
1.0
290
     1
  0
SCALE
  5
2443
102
{ACAD_REACTORS
330
2441
102
}
330
2441
100
AcDbScale
 70
     0
300
1:2
140
1.0
141
2.0
290
     0
  0
SCALE
  5
2444
102
{ACAD_REACTORS
330
2441
102
}
330
2441
100
AcDbScale
 70
     0
300
1:4
140
1.0
141
4.0
290
     0
  0
SCALE
  5
2445
102
{ACAD_REACTORS
330
2441
102
}
330
2441
100
AcDbScale
 70
     0
300
1:5
140
1.0
141
5.0
290
     0
  0
SCALE
  5
2446
102
{ACAD_REACTORS
330
2441
102
}
330
2441
100
AcDbScale
 70
     0
300
1:8
140
1.0
141
8.0
290
     0
  0
SCALE
  5
2447
102
{ACAD_REACTORS
330
2441
102
}
330
2441
100
AcDbScale
 70
     0
300
1:10
140
1.0
141
10.0
290
     0
  0
SCALE
  5
2448
102
{ACAD_REACTORS
330
2441
102
}
330
2441
100
AcDbScale
 70
     0
300
1:16
140
1.0
141
16.0
290
     0
  0
SCALE
  5
2449
102
{ACAD_REACTORS
330
2441
102
}
330
2441
100
AcDbScale
 70
     0
300
1:20
140
1.0
141
20.0
290
     0
  0
SCALE
  5
244A
102
{ACAD_REACTORS
330
2441
102
}
330
2441
100
AcDbScale
 70
     0
300
1:30
140
1.0
141
30.0
290
     0
  0
SCALE
  5
244B
102
{ACAD_REACTORS
330
2441
102
}
330
2441
100
AcDbScale
 70
     0
300
1:40
140
1.0
141
40.0
290
     0
  0
SCALE
  5
244C
102
{ACAD_REACTORS
330
2441
102
}
330
2441
100
AcDbScale
 70
     0
300
1:50
140
1.0
141
50.0
290
     0
  0
SCALE
  5
244D
102
{ACAD_REACTORS
330
2441
102
}
330
2441
100
AcDbScale
 70
     0
300
1:100
140
1.0
141
100.0
290
     0
  0
SCALE
  5
244E
102
{ACAD_REACTORS
330
2441
102
}
330
2441
100
AcDbScale
 70
     0
300
2:1
140
2.0
141
1.0
290
     0
  0
SCALE
  5
244F
102
{ACAD_REACTORS
330
2441
102
}
330
2441
100
AcDbScale
 70
     0
300
4:1
140
4.0
141
1.0
290
     0
  0
SCALE
  5
2450
102
{ACAD_REACTORS
330
2441
102
}
330
2441
100
AcDbScale
 70
     0
300
8:1
140
8.0
141
1.0
290
     0
  0
SCALE
  5
2451
102
{ACAD_REACTORS
330
2441
102
}
330
2441
100
AcDbScale
 70
     0
300
10:1
140
10.0
141
1.0
290
     0
  0
SCALE
  5
2452
102
{ACAD_REACTORS
330
2441
102
}
330
2441
100
AcDbScale
 70
     0
300
100:1
140
100.0
141
1.0
290
     0
  0
TABLESTYLE
  5
2440
102
{ACAD_XDICTIONARY
360
246C
102
}
102
{ACAD_REACTORS
330
243F
102
}
330
243F
100
AcDbTableStyle
  3
Standard
 70
     0
 71
     0
 40
1.5
 41
1.5
280
     0
281
     0
  7
Standard
140
4.5
170
     2
 62
     0
 63
     7
283
     0
274
    -2
284
     1
 64
     0
275
    -2
285
     1
 65
     0
276
    -2
286
     1
 66
     0
277
    -2
287
     1
 67
     0
278
    -2
288
     1
 68
     0
279
    -2
289
     1
 69
     0
  7
Standard
140
6.0
170
     5
 62
     0
 63
     7
283
     0
274
    -2
284
     1
 64
     0
275
    -2
285
     1
 65
     0
276
    -2
286
     1
 66
     0
277
    -2
287
     1
 67
     0
278
    -2
288
     1
 68
     0
279
    -2
289
     1
 69
     0
  7
Standard
140
4.5
170
     5
 62
     0
 63
     7
283
     0
274
    -2
284
     1
 64
     0
275
    -2
285
     1
 65
     0
276
    -2
286
     1
 66
     0
277
    -2
287
     1
 67
     0
278
    -2
288
     1
 68
     0
279
    -2
289
     1
 69
     0
  0
VISUALSTYLE
  5
242C
102
{ACAD_XDICTIONARY
360
2483
102
}
102
{ACAD_REACTORS
330
2426
102
}
330
2426
100
AcDbVisualStyle
  2
2dWireframe
 70
     4
 71
     0
 72
     2
 73
     0
 90
        0
 40
-0.6
 41
-30.0
 62
     5
 63
     7
 74
     1
 91
        4
 64
     7
 65
   257
 75
     1
175
     1
 42
1.0
 92
        0
 66
   257
 43
1.0
 76
     1
 77
     6
 78
     2
 67
     7
 79
     5
170
     0
171
     0
290
     0
174
     0
 93
        1
 44
0.0
173
     0
291
     0
 45
0.0
1001
ACAD
1000
AcDbSavedByObjectVersion
1070
     0
  0
VISUALSTYLE
  5
242B
102
{ACAD_XDICTIONARY
360
2481
102
}
102
{ACAD_REACTORS
330
2426
102
}
330
2426
100
AcDbVisualStyle
  2
Basic
 70
     7
 71
     1
 72
     0
 73
     1
 90
        0
 40
-0.6
 41
-30.0
 62
     5
 63
     7
 74
     0
 91
        4
 64
     7
 65
   257
 75
     1
175
     1
 42
1.0
 92
        8
 66
     7
 43
1.0
 76
     1
 77
     6
 78
     2
 67
     7
 79
     5
170
     0
171
     0
290
     0
174
     0
 93
        1
 44
0.0
173
     0
291
     1
 45
0.0
1001
ACAD
1000
AcDbSavedByObjectVersion
1070
     0
  0
VISUALSTYLE
  5
2432
102
{ACAD_XDICTIONARY
360
248F
102
}
102
{ACAD_REACTORS
330
2426
102
}
330
2426
100
AcDbVisualStyle
  2
Brighten
 70
    12
 71
     2
 72
     2
 73
     0
 90
        0
 40
-0.6
 41
-30.0
 62
     5
 63
     7
 74
     1
 91
        4
 64
     7
 65
   257
 75
     1
175
     1
 42
1.0
 92
        8
 66
     7
 43
1.0
 76
     1
 77
     6
 78
     2
 67
     7
 79
     5
170
     0
171
     0
290
     0
174
     0
 93
        1
 44
50.0
173
     0
291
     1
 45
0.0
1001
ACAD
1000
AcDbSavedByObjectVersion
1070
     0
  0
VISUALSTYLE
  5
2436
102
{ACAD_XDICTIONARY
360
2497
102
}
102
{ACAD_REACTORS
330
2426
102
}
330
2426
100
AcDbVisualStyle
  2
ColorChange
 70
    16
 71
     2
 72
     2
 73
     3
 90
        0
 40
-0.6
 41
-30.0
 62
     5
 63
     8
 74
     1
 91
        4
 64
     7
 65
   257
 75
     1
175
     1
 42
1.0
 92
        8
 66
     8
 43
1.0
 76
     1
 77
     6
 78
     2
 67
     7
 79
     5
170
     0
171
     0
290
     0
174
     0
 93
        1
 44
0.0
173
     0
291
     1
 45
0.0
1001
ACAD
1000
AcDbSavedByObjectVersion
1070
     0
  0
VISUALSTYLE
  5
242F
102
{ACAD_XDICTIONARY
360
2489
102
}
102
{ACAD_REACTORS
330
2426
102
}
330
2426
100
AcDbVisualStyle
  2
Conceptual
 70
     9
 71
     3
 72
     2
 73
     0
 90
        0
 40
-0.6
 41
-30.0
 62
     5
 63
     7
 74
     2
 91
        2
 64
     7
 65
   257
 75
     1
175
     1
 42
179.0
 92
        8
 66
     7
 43
1.0
 76
     1
 77
     6
 78
     2
 67
     7
 79
     3
170
     0
171
     0
290
     0
174
     0
 93
        1
 44
0.0
173
     0
291
     0
 45
0.0
1001
ACAD
1000
AcDbSavedByObjectVersion
1070
     0
  0
VISUALSTYLE
  5
2431
102
{ACAD_XDICTIONARY
360
248D
102
}
102
{ACAD_REACTORS
330
2426
102
}
330
2426
100
AcDbVisualStyle
  2
Dim
 70
    11
 71
     2
 72
     2
 73
     0
 90
        0
 40
-0.6
 41
-30.0
 62
     5
 63
     7
 74
     1
 91
        4
 64
     7
 65
   257
 75
     1
175
     1
 42
1.0
 92
        8
 66
     7
 43
1.0
 76
     1
 77
     6
 78
     2
 67
     7
 79
     5
170
     0
171
     0
290
     0
174
     0
 93
        1
 44
-50.0
173
     0
291
     1
 45
0.0
1001
ACAD
1000
AcDbSavedByObjectVersion
1070
     0
  0
VISUALSTYLE
  5
243E
102
{ACAD_XDICTIONARY
360
24A7
102
}
102
{ACAD_REACTORS
330
2426
102
}
330
2426
100
AcDbVisualStyle
  2
EdgeColorOff
 70
    22
 71
     2
 72
     2
 73
     0
 90
        0
 40
-0.6
 41
-30.0
 62
     5
 63
     7
 74
     1
 91
        4
 64
     7
 65
   257
 75
     1
175
     1
 42
1.0
 92
        8
 66
     7
 43
1.0
 76
     1
 77
     6
 78
     2
 67
     7
 79
     5
170
     0
171
     0
290
     0
174
     0
 93
        1
 44
0.0
173
     0
291
     1
 45
0.0
1001
ACAD
1000
AcDbSavedByObjectVersion
1070
     0
  0
VISUALSTYLE
  5
2435
102
{ACAD_XDICTIONARY
360
2495
102
}
102
{ACAD_REACTORS
330
2426
102
}
330
2426
100
AcDbVisualStyle
  2
Facepattern
 70
    15
 71
     2
 72
     2
 73
     0
 90
        0
 40
-0.6
 41
-30.0
 62
     5
 63
     7
 74
     1
 91
        4
 64
     7
 65
   257
 75
     1
175
     1
 42
1.0
 92
        8
 66
     7
 43
1.0
 76
     1
 77
     6
 78
     2
 67
     7
 79
     5
170
     0
171
     0
290
     0
174
     0
 93
        1
 44
0.0
173
     0
291
     1
 45
0.0
1001
ACAD
1000
AcDbSavedByObjectVersion
1070
     0
  0
VISUALSTYLE
  5
2427
102
{ACAD_XDICTIONARY
360
2479
102
}
102
{ACAD_REACTORS
330
2426
102
}
330
2426
100
AcDbVisualStyle
  2
Flat
 70
     0
 71
     2
 72
     1
 73
     1
 90
        2
 40
-0.6
 41
30.0
 62
     5
 63
     7
 74
     0
 91
        0
 64
     7
 65
   257
 75
     1
175
     1
 42
1.0
 92
        8
 66
     7
 43
1.0
 76
     1
 77
     6
 78
     2
 67
     7
 79
     5
170
     0
171
     0
290
     0
174
     0
 93
       13
 44
0.0
173
     0
291
     1
 45
0.0
1001
ACAD
1000
AcDbSavedByObjectVersion
1070
     0
  0
VISUALSTYLE
  5
2428
102
{ACAD_XDICTIONARY
360
247B
102
}
102
{ACAD_REACTORS
330
2426
102
}
330
2426
100
AcDbVisualStyle
  2
FlatWithEdges
 70
     1
 71
     2
 72
     1
 73
     1
 90
        2
 40
-0.6
 41
30.0
 62
     5
 63
     7
 74
     1
 91
        0
 64
     7
 65
   257
 75
     1
175
     1
 42
1.0
 92
        0
 66
   257
 43
1.0
 76
     1
 77
     6
 78
     2
 67
     7
 79
     5
170
     0
171
     0
290
     0
174
     0
 93
       13
 44
0.0
173
     0
291
     1
 45
0.0
1001
ACAD
1000
AcDbSavedByObjectVersion
1070
     0
  0
VISUALSTYLE
  5
2429
102
{ACAD_XDICTIONARY
360
247D
102
}
102
{ACAD_REACTORS
330
2426
102
}
330
2426
100
AcDbVisualStyle
  2
Gouraud
 70
     2
 71
     2
 72
     2
 73
     1
 90
        2
 40
-0.6
 41
30.0
 62
     5
 63
     7
 74
     0
 91
        0
 64
     7
 65
   257
 75
     1
175
     1
 42
1.0
 92
        0
 66
     7
 43
1.0
 76
     1
 77
     6
 78
     2
 67
     7
 79
     5
170
     0
171
     0
290
     0
174
     0
 93
       13
 44
0.0
173
     0
291
     1
 45
0.0
1001
ACAD
1000
AcDbSavedByObjectVersion
1070
     0
  0
VISUALSTYLE
  5
242A
102
{ACAD_XDICTIONARY
360
247F
102
}
102
{ACAD_REACTORS
330
2426
102
}
330
2426
100
AcDbVisualStyle
  2
GouraudWithEdges
 70
     3
 71
     2
 72
     2
 73
     1
 90
        2
 40
-0.6
 41
30.0
 62
     5
 63
     7
 74
     1
 91
        0
 64
     7
 65
   257
 75
     1
175
     1
 42
1.0
 92
        0
 66
   257
 43
1.0
 76
     1
 77
     6
 78
     2
 67
     7
 79
     5
170
     0
171
     0
290
     0
174
     0
 93
       13
 44
0.0
173
     0
291
     1
 45
0.0
1001
ACAD
1000
AcDbSavedByObjectVersion
1070
     0
  0
VISUALSTYLE
  5
242E
102
{ACAD_XDICTIONARY
360
2487
102
}
102
{ACAD_REACTORS
330
2426
102
}
330
2426
100
AcDbVisualStyle
  2
Hidden
 70
     6
 71
     1
 72
     2
 73
     2
 90
        0
 40
-0.6
 41
-30.0
 62
     5
 63
     7
 74
     2
 91
        2
 64
     7
 65
   257
 75
     2
175
     1
 42
40.0
 92
        0
 66
   257
 43
1.0
 76
     1
 77
     6
 78
     2
 67
     7
 79
     3
170
     0
171
     0
290
     0
174
     0
 93
        1
 44
0.0
173
     0
291
     0
 45
0.0
1001
ACAD
1000
AcDbSavedByObjectVersion
1070
     0
  0
VISUALSTYLE
  5
243C
102
{ACAD_XDICTIONARY
360
24A3
102
}
102
{ACAD_REACTORS
330
2426
102
}
330
2426
100
AcDbVisualStyle
  2
JitterOff
 70
    20
 71
     2
 72
     2
 73
     0
 90
        0
 40
-0.6
 41
-30.0
 62
     5
 63
     7
 74
     1
 91
        4
 64
     7
 65
   257
 75
     1
175
     1
 42
1.0
 92
       10
 66
     7
 43
1.0
 76
     1
 77
     6
 78
     2
 67
     7
 79
     5
170
     0
171
     0
290
     0
174
     0
 93
        1
 44
0.0
173
     0
291
     1
 45
0.0
1001
ACAD
1000
AcDbSavedByObjectVersion
1070
     0
  0
VISUALSTYLE
  5
2434
102
{ACAD_XDICTIONARY
360
2493
102
}
102
{ACAD_REACTORS
330
2426
102
}
330
2426
100
AcDbVisualStyle
  2
Linepattern
 70
    14
 71
     2
 72
     2
 73
     0
 90
        0
 40
-0.6
 41
-30.0
 62
     5
 63
     7
 74
     1
 91
        4
 64
     7
 65
   257
 75
     7
175
     7
 42
1.0
 92
        8
 66
     7
 43
1.0
 76
     1
 77
     6
 78
     2
 67
     7
 79
     5
170
     0
171
     0
290
     0
174
     0
 93
        1
 44
0.0
173
     0
291
     1
 45
0.0
1001
ACAD
1000
AcDbSavedByObjectVersion
1070
     0
  0
VISUALSTYLE
  5
243D
102
{ACAD_XDICTIONARY
360
24A5
102
}
102
{ACAD_REACTORS
330
2426
102
}
330
2426
100
AcDbVisualStyle
  2
OverhangOff
 70
    21
 71
     2
 72
     2
 73
     0
 90
        0
 40
-0.6
 41
-30.0
 62
     5
 63
     7
 74
     1
 91
        4
 64
     7
 65
   257
 75
     1
175
     1
 42
1.0
 92
        9
 66
     7
 43
1.0
 76
     1
 77
     6
 78
     2
 67
     7
 79
     5
170
     0
171
     0
290
     0
174
     0
 93
        1
 44
0.0
173
     0
291
     1
 45
0.0
1001
ACAD
1000
AcDbSavedByObjectVersion
1070
     0
  0
VISUALSTYLE
  5
2430
102
{ACAD_XDICTIONARY
360
248B
102
}
102
{ACAD_REACTORS
330
2426
102
}
330
2426
100
AcDbVisualStyle
  2
Realistic
 70
     8
 71
     2
 72
     3
 73
     0
 90
        2
 40
-0.6
 41
30.0
 62
     5
 63
     7
 74
     0
 91
        0
 64
     7
 65
   257
 75
     1
175
     1
 42
1.0
 92
        8
 66
   257
 43
1.0
 76
     1
 77
     6
 78
     2
 67
     7
 79
     3
170
     0
171
     0
290
     0
174
     0
 93
       13
 44
0.0
173
     0
291
     0
 45
0.0
1001
ACAD
1000
AcDbSavedByObjectVersion
1070
     0
  0
VISUALSTYLE
  5
243B
102
{ACAD_XDICTIONARY
360
24A1
102
}
102
{ACAD_REACTORS
330
2426
102
}
330
2426
100
AcDbVisualStyle
  2
Shaded
 70
    27
 71
     2
 72
     2
 73
     1
 90
        2
 40
-0.6
 41
30.0
 62
     5
 63
     7
 74
     0
 91
        4
 64
     7
 65
   257
 75
     1
175
     1
 42
1.0
 92
        8
 66
   257
 43
1.0
 76
     1
 77
     6
 78
     2
 67
     8
 79
     3
170
     0
171
     0
290
     0
174
     0
 93
        5
 44
0.0
173
     0
291
     0
 45
0.0
1001
ACAD
1000
AcDbSavedByObjectVersion
1070
     0
  0
VISUALSTYLE
  5
243A
102
{ACAD_XDICTIONARY
360
249F
102
}
102
{ACAD_REACTORS
330
2426
102
}
330
2426
100
AcDbVisualStyle
  2
Shaded with edges
 70
    26
 71
     2
 72
     2
 73
     1
 90
        2
 40
-0.6
 41
30.0
 62
     5
 63
     7
 74
     1
 91
       10
 64
     7
 65
   257
 75
     2
175
     1
 42
1.0
 92
        8
 66
   257
 43
1.0
 76
     1
 77
     6
 78
     2
 67
     7
 79
     3
170
     0
171
     0
290
     0
174
     0
 93
        5
 44
0.0
173
     0
291
     0
 45
0.0
1001
ACAD
1000
AcDbSavedByObjectVersion
1070
     0
  0
VISUALSTYLE
  5
2437
102
{ACAD_XDICTIONARY
360
2499
102
}
102
{ACAD_REACTORS
330
2426
102
}
330
2426
100
AcDbVisualStyle
  2
Shades of Gray
 70
    23
 71
     2
 72
     2
 73
     3
 90
        0
 40
-0.6
 41
-30.0
 62
     5
 63
     7
 74
     2
 91
        2
 64
     7
 65
     7
 75
     1
175
     1
 42
40.0
 92
        8
 66
     7
 43
1.0
 76
     1
 77
     6
 78
     2
 67
     7
 79
     3
170
     0
171
     0
290
     0
174
     0
 93
        1
 44
0.0
173
     0
291
     0
 45
0.0
1001
ACAD
1000
AcDbSavedByObjectVersion
1070
     0
  0
VISUALSTYLE
  5
2438
102
{ACAD_XDICTIONARY
360
249B
102
}
102
{ACAD_REACTORS
330
2426
102
}
330
2426
100
AcDbVisualStyle
  2
Sketchy
 70
    24
 71
     1
 72
     2
 73
     2
 90
        0
 40
-0.6
 41
-30.0
 62
     5
 63
     7
 74
     2
 91
        2
 64
     7
 65
     7
 75
     1
175
     1
 42
40.0
 92
       11
 66
     7
 43
1.0
 76
     1
 77
     6
 78
     2
 67
     7
 79
     6
170
     0
171
     0
290
     0
174
     0
 93
        1
 44
0.0
173
     0
291
     0
 45
0.0
1001
ACAD
1000
AcDbSavedByObjectVersion
1070
     0
  0
VISUALSTYLE
  5
2433
102
{ACAD_XDICTIONARY
360
2491
102
}
102
{ACAD_REACTORS
330
2426
102
}
330
2426
100
AcDbVisualStyle
  2
Thicken
 70
    13
 71
     2
 72
     2
 73
     0
 90
        0
 40
-0.6
 41
-30.0
 62
     5
 63
     7
 74
     1
 91
        4
 64
     7
 65
   257
 75
     1
175
     1
 42
1.0
 92
       12
 66
     7
 43
1.0
 76
     1
 77
     6
 78
     2
 67
     7
 79
     5
170
     0
171
     0
290
     0
174
     0
 93
        1
 44
0.0
173
     0
291
     1
 45
0.0
1001
ACAD
1000
AcDbSavedByObjectVersion
1070
     0
  0
VISUALSTYLE
  5
242D
102
{ACAD_XDICTIONARY
360
2485
102
}
102
{ACAD_REACTORS
330
2426
102
}
330
2426
100
AcDbVisualStyle
  2
Wireframe
 70
     5
 71
     0
 72
     2
 73
     0
 90
        0
 40
-0.6
 41
-30.0
 62
     5
 63
     7
 74
     1
 91
        4
 64
     7
 65
   257
 75
     1
175
     1
 42
1.0
 92
        0
 66
   257
 43
1.0
 76
     1
 77
     6
 78
     2
 67
     7
 79
     3
170
     0
171
     0
290
     0
174
     0
 93
        1
 44
0.0
173
     0
291
     0
 45
0.0
1001
ACAD
1000
AcDbSavedByObjectVersion
1070
     0
  0
VISUALSTYLE
  5
2439
102
{ACAD_XDICTIONARY
360
249D
102
}
102
{ACAD_REACTORS
330
2426
102
}
330
2426
100
AcDbVisualStyle
  2
X-Ray
 70
    25
 71
     2
 72
     2
 73
     1
 90
        1
 40
0.5
 41
-30.0
 62
     5
 63
     7
 74
     1
 91
        0
 64
     7
 65
   257
 75
     1
175
     1
 42
1.0
 92
        8
 66
     7
 43
1.0
 76
     1
 77
     6
 78
     2
 67
     7
 79
     3
170
     0
171
     0
290
     0
174
     0
 93
       13
 44
0.0
173
     0
291
     0
 45
0.0
1001
ACAD
1000
AcDbSavedByObjectVersion
1070
     0
  0
DICTIONARYVAR
  5
2466
102
{ACAD_REACTORS
330
2463
102
}
330
2463
100
DictionaryVariables
280
     0
  1
1:1
  0
DICTIONARYVAR
  5
2465
102
{ACAD_REACTORS
330
2463
102
}
330
2463
100
DictionaryVariables
280
     0
  1
STANDARD
  0
DICTIONARYVAR
  5
2464
102
{ACAD_REACTORS
330
2463
102
}
330
2463
100
DictionaryVariables
280
     0
  1
STANDARD
  0
DICTIONARYVAR
  5
246A
102
{ACAD_REACTORS
330
2463
102
}
330
2463
100
DictionaryVariables
280
     0
  1
1
  0
DICTIONARYVAR
  5
2468
102
{ACAD_REACTORS
330
2463
102
}
330
2463
100
DictionaryVariables
280
     0
  1
0
  0
DICTIONARYVAR
  5
2467
102
{ACAD_REACTORS
330
2463
102
}
330
2463
100
DictionaryVariables
280
     0
  1
127
  0
DICTIONARYVAR
  5
2469
102
{ACAD_REACTORS
330
2463
102
}
330
2463
100
DictionaryVariables
280
     0
  1
0
  0
DICTIONARY
  5
2470
330
1E
100
AcDbDictionary
280
     1
281
     1
  3
ACAD_XREC_ROUNDTRIP
360
2471
  0
DICTIONARY
  5
2474
330
26
100
AcDbDictionary
280
     1
281
     1
  3
ACAD_XREC_ROUNDTRIP
360
2475
  0
DICTIONARY
  5
2472
330
22
100
AcDbDictionary
280
     1
281
     1
  3
ACAD_XREC_ROUNDTRIP
360
2473
  0
DICTIONARY
  5
2417
330
2416
100
AcDbDictionary
280
     1
281
     1
  3
ACAD_XREC_ROUNDTRIP
360
2477
  3
BUMPTILE
360
2419
  3
DIFFUSETILE
360
2418
  3
OPACITYTILE
360
241C
  3
REFLECTIONTILE
360
241B
  3
REFRACTIONTILE
360
241D
  3
SPECULARTILE
360
241A
  0
DICTIONARY
  5
240F
330
240E
100
AcDbDictionary
280
     1
281
     1
  3
ACAD_XREC_ROUNDTRIP
360
2476
  3
BUMPTILE
360
2411
  3
DIFFUSETILE
360
2410
  3
OPACITYTILE
360
2414
  3
REFLECTIONTILE
360
2413
  3
REFRACTIONTILE
360
2415
  3
SPECULARTILE
360
2412
  0
DICTIONARY
  5
241F
330
241E
100
AcDbDictionary
280
     1
281
     1
  3
ACAD_XREC_ROUNDTRIP
360
2478
  3
BUMPTILE
360
2421
  3
DIFFUSETILE
360
2420
  3
OPACITYTILE
360
2424
  3
REFLECTIONTILE
360
2423
  3
REFRACTIONTILE
360
2425
  3
SPECULARTILE
360
2422
  0
DICTIONARY
  5
246C
330
2440
100
AcDbDictionary
280
     1
281
     1
  3
ACAD_ROUNDTRIP_2008_TABLESTYLE_CELLSTYLEMAP
360
246D
  3
ACAD_XREC_ROUNDTRIP
360
24A9
  0
DICTIONARY
  5
2483
330
242C
100
AcDbDictionary
280
     1
281
     1
  3
ACAD_XREC_ROUNDTRIP
360
2484
  0
DICTIONARY
  5
2481
330
242B
100
AcDbDictionary
280
     1
281
     1
  3
ACAD_XREC_ROUNDTRIP
360
2482
  0
DICTIONARY
  5
248F
330
2432
100
AcDbDictionary
280
     1
281
     1
  3
ACAD_XREC_ROUNDTRIP
360
2490
  0
DICTIONARY
  5
2497
330
2436
100
AcDbDictionary
280
     1
281
     1
  3
ACAD_XREC_ROUNDTRIP
360
2498
  0
DICTIONARY
  5
2489
330
242F
100
AcDbDictionary
280
     1
281
     1
  3
ACAD_XREC_ROUNDTRIP
360
248A
  0
DICTIONARY
  5
248D
330
2431
100
AcDbDictionary
280
     1
281
     1
  3
ACAD_XREC_ROUNDTRIP
360
248E
  0
DICTIONARY
  5
24A7
330
243E
100
AcDbDictionary
280
     1
281
     1
  3
ACAD_XREC_ROUNDTRIP
360
24A8
  0
DICTIONARY
  5
2495
330
2435
100
AcDbDictionary
280
     1
281
     1
  3
ACAD_XREC_ROUNDTRIP
360
2496
  0
DICTIONARY
  5
2479
330
2427
100
AcDbDictionary
280
     1
281
     1
  3
ACAD_XREC_ROUNDTRIP
360
247A
  0
DICTIONARY
  5
247B
330
2428
100
AcDbDictionary
280
     1
281
     1
  3
ACAD_XREC_ROUNDTRIP
360
247C
  0
DICTIONARY
  5
247D
330
2429
100
AcDbDictionary
280
     1
281
     1
  3
ACAD_XREC_ROUNDTRIP
360
247E
  0
DICTIONARY
  5
247F
330
242A
100
AcDbDictionary
280
     1
281
     1
  3
ACAD_XREC_ROUNDTRIP
360
2480
  0
DICTIONARY
  5
2487
330
242E
100
AcDbDictionary
280
     1
281
     1
  3
ACAD_XREC_ROUNDTRIP
360
2488
  0
DICTIONARY
  5
24A3
330
243C
100
AcDbDictionary
280
     1
281
     1
  3
ACAD_XREC_ROUNDTRIP
360
24A4
  0
DICTIONARY
  5
2493
330
2434
100
AcDbDictionary
280
     1
281
     1
  3
ACAD_XREC_ROUNDTRIP
360
2494
  0
DICTIONARY
  5
24A5
330
243D
100
AcDbDictionary
280
     1
281
     1
  3
ACAD_XREC_ROUNDTRIP
360
24A6
  0
DICTIONARY
  5
248B
330
2430
100
AcDbDictionary
280
     1
281
     1
  3
ACAD_XREC_ROUNDTRIP
360
248C
  0
DICTIONARY
  5
24A1
330
243B
100
AcDbDictionary
280
     1
281
     1
  3
ACAD_XREC_ROUNDTRIP
360
24A2
  0
DICTIONARY
  5
249F
330
243A
100
AcDbDictionary
280
     1
281
     1
  3
ACAD_XREC_ROUNDTRIP
360
24A0
  0
DICTIONARY
  5
2499
330
2437
100
AcDbDictionary
280
     1
281
     1
  3
ACAD_XREC_ROUNDTRIP
360
249A
  0
DICTIONARY
  5
249B
330
2438
100
AcDbDictionary
280
     1
281
     1
  3
ACAD_XREC_ROUNDTRIP
360
249C
  0
DICTIONARY
  5
2491
330
2433
100
AcDbDictionary
280
     1
281
     1
  3
ACAD_XREC_ROUNDTRIP
360
2492
  0
DICTIONARY
  5
2485
330
242D
100
AcDbDictionary
280
     1
281
     1
  3
ACAD_XREC_ROUNDTRIP
360
2486
  0
DICTIONARY
  5
249D
330
2439
100
AcDbDictionary
280
     1
281
     1
  3
ACAD_XREC_ROUNDTRIP
360
249E
  0
XRECORD
  5
2471
102
{ACAD_REACTORS
330
2470
102
}
330
2470
100
AcDbXrecord
280
     1
102
SHADEPLOT
 70
     0
102
SHADEPLOTRESLEVEL
 70
     2
102
SHADEPLOTCUSTOMDPI
 70
   300
  0
XRECORD
  5
2475
102
{ACAD_REACTORS
330
2474
102
}
330
2474
100
AcDbXrecord
280
     1
102
SHADEPLOT
 70
     0
102
SHADEPLOTRESLEVEL
 70
     2
102
SHADEPLOTCUSTOMDPI
 70
   300
  0
XRECORD
  5
2473
102
{ACAD_REACTORS
330
2472
102
}
330
2472
100
AcDbXrecord
280
     1
102
SHADEPLOT
 70
     0
102
SHADEPLOTRESLEVEL
 70
     2
102
SHADEPLOTCUSTOMDPI
 70
   300
  0
XRECORD
  5
2477
102
{ACAD_REACTORS
330
2417
102
}
330
2417
100
AcDbXrecord
280
     1
102
MATERIAL
148
0.0
149
0.0
149
0.0
 93
        0
 94
      127
282
     0
 72
     0
 77
     0
171
     0
175
     0
179
     0
273
     0
  0
XRECORD
  5
2419
102
{ACAD_REACTORS
330
2417
102
}
330
2417
100
AcDbXrecord
280
     1
270
     1
271
     1
  0
XRECORD
  5
2418
102
{ACAD_REACTORS
330
2417
102
}
330
2417
100
AcDbXrecord
280
     1
270
     1
271
     1
  0
XRECORD
  5
241C
102
{ACAD_REACTORS
330
2417
102
}
330
2417
100
AcDbXrecord
280
     1
270
     1
271
     1
  0
XRECORD
  5
241B
102
{ACAD_REACTORS
330
2417
102
}
330
2417
100
AcDbXrecord
280
     1
270
     1
271
     1
  0
XRECORD
  5
241D
102
{ACAD_REACTORS
330
2417
102
}
330
2417
100
AcDbXrecord
280
     1
270
     1
271
     1
  0
XRECORD
  5
241A
102
{ACAD_REACTORS
330
2417
102
}
330
2417
100
AcDbXrecord
280
     1
270
     1
271
     1
  0
XRECORD
  5
2476
102
{ACAD_REACTORS
330
240F
102
}
330
240F
100
AcDbXrecord
280
     1
102
MATERIAL
148
0.0
149
0.0
149
0.0
 93
        0
 94
      127
282
     0
 72
     0
 77
     0
171
     0
175
     0
179
     0
273
     0
  0
XRECORD
  5
2411
102
{ACAD_REACTORS
330
240F
102
}
330
240F
100
AcDbXrecord
280
     1
270
     1
271
     1
  0
XRECORD
  5
2410
102
{ACAD_REACTORS
330
240F
102
}
330
240F
100
AcDbXrecord
280
     1
270
     1
271
     1
  0
XRECORD
  5
2414
102
{ACAD_REACTORS
330
240F
102
}
330
240F
100
AcDbXrecord
280
     1
270
     1
271
     1
  0
XRECORD
  5
2413
102
{ACAD_REACTORS
330
240F
102
}
330
240F
100
AcDbXrecord
280
     1
270
     1
271
     1
  0
XRECORD
  5
2415
102
{ACAD_REACTORS
330
240F
102
}
330
240F
100
AcDbXrecord
280
     1
270
     1
271
     1
  0
XRECORD
  5
2412
102
{ACAD_REACTORS
330
240F
102
}
330
240F
100
AcDbXrecord
280
     1
270
     1
271
     1
  0
XRECORD
  5
2478
102
{ACAD_REACTORS
330
241F
102
}
330
241F
100
AcDbXrecord
280
     1
102
MATERIAL
148
0.0
149
0.0
149
0.0
 93
        0
 94
      127
282
     0
 72
     0
 77
     0
171
     0
175
     0
179
     0
273
     0
  0
XRECORD
  5
2421
102
{ACAD_REACTORS
330
241F
102
}
330
241F
100
AcDbXrecord
280
     1
270
     1
271
     1
  0
XRECORD
  5
2420
102
{ACAD_REACTORS
330
241F
102
}
330
241F
100
AcDbXrecord
280
     1
270
     1
271
     1
  0
XRECORD
  5
2424
102
{ACAD_REACTORS
330
241F
102
}
330
241F
100
AcDbXrecord
280
     1
270
     1
271
     1
  0
XRECORD
  5
2423
102
{ACAD_REACTORS
330
241F
102
}
330
241F
100
AcDbXrecord
280
     1
270
     1
271
     1
  0
XRECORD
  5
2425
102
{ACAD_REACTORS
330
241F
102
}
330
241F
100
AcDbXrecord
280
     1
270
     1
271
     1
  0
XRECORD
  5
2422
102
{ACAD_REACTORS
330
241F
102
}
330
241F
100
AcDbXrecord
280
     1
270
     1
271
     1
  0
CELLSTYLEMAP
  5
246D
102
{ACAD_REACTORS
330
246C
102
}
330
246C
100
AcDbCellStyleMap
 90
        3
300
CELLSTYLE
  1
TABLEFORMAT_BEGIN
 90
        5
170
     1
 91
        0
 92
    32768
 62
   257
 93
        1
300
CONTENTFORMAT
  1
CONTENTFORMAT_BEGIN
 90
        0
 91
        0
 92
      512
 93
        0
300

 40
0.0
140
1.0
 94
        5
 62
     0
340
11
144
6.0
309
CONTENTFORMAT_END
171
     1
301
MARGIN
  1
CELLMARGIN_BEGIN
 40
1.5
 40
1.5
 40
1.5
 40
1.5
 40
4.5
 40
4.5
309
CELLMARGIN_END
 94
        6
 95
        1
302
GRIDFORMAT
  1
GRIDFORMAT_BEGIN
 90
        0
 91
        1
 62
     0
 92
       -2
340
0
 93
        0
 40
1.125
309
GRIDFORMAT_END
 95
        2
302
GRIDFORMAT
  1
GRIDFORMAT_BEGIN
 90
        0
 91
        1
 62
     0
 92
       -2
340
0
 93
        0
 40
1.125
309
GRIDFORMAT_END
 95
        4
302
GRIDFORMAT
  1
GRIDFORMAT_BEGIN
 90
        0
 91
        1
 62
     0
 92
       -2
340
0
 93
        0
 40
1.125
309
GRIDFORMAT_END
 95
        8
302
GRIDFORMAT
  1
GRIDFORMAT_BEGIN
 90
        0
 91
        1
 62
     0
 92
       -2
340
0
 93
        0
 40
1.125
309
GRIDFORMAT_END
 95
       16
302
GRIDFORMAT
  1
GRIDFORMAT_BEGIN
 90
        0
 91
        1
 62
     0
 92
       -2
340
0
 93
        0
 40
1.125
309
GRIDFORMAT_END
 95
       32
302
GRIDFORMAT
  1
GRIDFORMAT_BEGIN
 90
        0
 91
        1
 62
     0
 92
       -2
340
0
 93
        0
 40
1.125
309
GRIDFORMAT_END
309
TABLEFORMAT_END
  1
CELLSTYLE_BEGIN
 90
        1
 91
        1
300
_TITLE
309
CELLSTYLE_END
300
CELLSTYLE
  1
TABLEFORMAT_BEGIN
 90
        5
170
     1
 91
        0
 92
        0
 62
   257
 93
        1
300
CONTENTFORMAT
  1
CONTENTFORMAT_BEGIN
 90
        0
 91
        0
 92
      512
 93
        0
300

 40
0.0
140
1.0
 94
        5
 62
     0
340
11
144
4.5
309
CONTENTFORMAT_END
171
     1
301
MARGIN
  1
CELLMARGIN_BEGIN
 40
1.5
 40
1.5
 40
1.5
 40
1.5
 40
4.5
 40
4.5
309
CELLMARGIN_END
 94
        6
 95
        1
302
GRIDFORMAT
  1
GRIDFORMAT_BEGIN
 90
        0
 91
        1
 62
     0
 92
       -2
340
0
 93
        0
 40
1.125
309
GRIDFORMAT_END
 95
        2
302
GRIDFORMAT
  1
GRIDFORMAT_BEGIN
 90
        0
 91
        1
 62
     0
 92
       -2
340
0
 93
        0
 40
1.125
309
GRIDFORMAT_END
 95
        4
302
GRIDFORMAT
  1
GRIDFORMAT_BEGIN
 90
        0
 91
        1
 62
     0
 92
       -2
340
0
 93
        0
 40
1.125
309
GRIDFORMAT_END
 95
        8
302
GRIDFORMAT
  1
GRIDFORMAT_BEGIN
 90
        0
 91
        1
 62
     0
 92
       -2
340
0
 93
        0
 40
1.125
309
GRIDFORMAT_END
 95
       16
302
GRIDFORMAT
  1
GRIDFORMAT_BEGIN
 90
        0
 91
        1
 62
     0
 92
       -2
340
0
 93
        0
 40
1.125
309
GRIDFORMAT_END
 95
       32
302
GRIDFORMAT
  1
GRIDFORMAT_BEGIN
 90
        0
 91
        1
 62
     0
 92
       -2
340
0
 93
        0
 40
1.125
309
GRIDFORMAT_END
309
TABLEFORMAT_END
  1
CELLSTYLE_BEGIN
 90
        2
 91
        1
300
_HEADER
309
CELLSTYLE_END
300
CELLSTYLE
  1
TABLEFORMAT_BEGIN
 90
        5
170
     1
 91
        0
 92
        0
 62
   257
 93
        1
300
CONTENTFORMAT
  1
CONTENTFORMAT_BEGIN
 90
        0
 91
        0
 92
      512
 93
        0
300

 40
0.0
140
1.0
 94
        2
 62
     0
340
11
144
4.5
309
CONTENTFORMAT_END
171
     1
301
MARGIN
  1
CELLMARGIN_BEGIN
 40
1.5
 40
1.5
 40
1.5
 40
1.5
 40
4.5
 40
4.5
309
CELLMARGIN_END
 94
        6
 95
        1
302
GRIDFORMAT
  1
GRIDFORMAT_BEGIN
 90
        0
 91
        1
 62
     0
 92
       -2
340
0
 93
        0
 40
1.125
309
GRIDFORMAT_END
 95
        2
302
GRIDFORMAT
  1
GRIDFORMAT_BEGIN
 90
        0
 91
        1
 62
     0
 92
       -2
340
0
 93
        0
 40
1.125
309
GRIDFORMAT_END
 95
        4
302
GRIDFORMAT
  1
GRIDFORMAT_BEGIN
 90
        0
 91
        1
 62
     0
 92
       -2
340
0
 93
        0
 40
1.125
309
GRIDFORMAT_END
 95
        8
302
GRIDFORMAT
  1
GRIDFORMAT_BEGIN
 90
        0
 91
        1
 62
     0
 92
       -2
340
0
 93
        0
 40
1.125
309
GRIDFORMAT_END
 95
       16
302
GRIDFORMAT
  1
GRIDFORMAT_BEGIN
 90
        0
 91
        1
 62
     0
 92
       -2
340
0
 93
        0
 40
1.125
309
GRIDFORMAT_END
 95
       32
302
GRIDFORMAT
  1
GRIDFORMAT_BEGIN
 90
        0
 91
        1
 62
     0
 92
       -2
340
0
 93
        0
 40
1.125
309
GRIDFORMAT_END
309
TABLEFORMAT_END
  1
CELLSTYLE_BEGIN
 90
        3
 91
        2
300
_DATA
309
CELLSTYLE_END
  0
XRECORD
  5
24A9
102
{ACAD_REACTORS
330
246C
102
}
330
246C
100
AcDbXrecord
280
     1
102
ACAD_ROUNDTRIP_PRE2007_TABLESTYLE
 90
      512
 91
        0
  1

 92
      512
 93
        0
  2

 94
      512
 95
        0
  3

  0
XRECORD
  5
2484
102
{ACAD_REACTORS
330
2483
102
}
330
2483
100
AcDbXrecord
280
     1
102
RTVSPropertyOp0
 70
     1
102
RTVSPropertyOp1
 70
     1
102
RTVSPropertyOp2
 70
     1
102
RTVSPropertyOp3
 70
     1
102
RTVSPropertyOp4
 70
     1
102
RTVSPropertyOp5
 70
     1
102
RTVSPropertyOp6
 70
     1
102
RTVSPropertyOp7
 70
     1
102
RTVSPropertyOp8
 70
     1
102
RTVSPropertyOp9
 70
     1
102
RTVSPropertyOp10
 70
     1
102
RTVSPropertyOp11
 70
     1
102
RTVSPropertyOp12
 70
     1
102
RTVSPropertyOp13
 70
     1
102
RTVSPropertyOp14
 70
     1
102
RTVSPropertyOp15
 70
     1
102
RTVSPropertyOp16
 70
     1
102
RTVSPropertyOp17
 70
     1
102
RTVSPropertyOp18
 70
     1
102
RTVSPropertyOp19
 70
     1
102
RTVSPropertyOp20
 70
     1
102
RTVSPropertyOp21
 70
     1
102
RTVSPropertyOp22
 70
     1
102
RTVSPropertyOp23
 70
     1
102
RTVSPropertyOp24
 70
     1
102
RTVSPropertyOp25
 70
     1
102
RTVSPropertyOp26
 70
     1
102
RTVSPropertyOp27
 70
     1
102
RTVSPropertyOp28
 70
     1
102
RTVSPropertyOp29
 70
     1
102
RTVSPropertyOp30
 70
     1
102
RTVSPropertyOp31
 70
     1
102
RTVSPropertyOp32
 70
     1
  0
XRECORD
  5
2482
102
{ACAD_REACTORS
330
2481
102
}
330
2481
100
AcDbXrecord
280
     1
102
RTVSPropertyOp0
 70
     1
102
RTVSPropertyOp1
 70
     1
102
RTVSPropertyOp2
 70
     1
102
RTVSPropertyOp3
 70
     1
102
RTVSPropertyOp4
 70
     1
102
RTVSPropertyOp5
 70
     1
102
RTVSPropertyOp6
 70
     1
102
RTVSPropertyOp7
 70
     1
102
RTVSPropertyOp8
 70
     1
102
RTVSPropertyOp9
 70
     1
102
RTVSPropertyOp10
 70
     1
102
RTVSPropertyOp11
 70
     1
102
RTVSPropertyOp12
 70
     1
102
RTVSPropertyOp13
 70
     1
102
RTVSPropertyOp14
 70
     1
102
RTVSPropertyOp15
 70
     1
102
RTVSPropertyOp16
 70
     1
102
RTVSPropertyOp17
 70
     1
102
RTVSPropertyOp18
 70
     1
102
RTVSPropertyOp19
 70
     1
102
RTVSPropertyOp20
 70
     1
102
RTVSPropertyOp21
 70
     1
102
RTVSPropertyOp22
 70
     1
102
RTVSPropertyOp23
 70
     1
102
RTVSPropertyOp24
 70
     1
102
RTVSPropertyOp25
 70
     1
102
RTVSPropertyOp26
 70
     1
102
RTVSPropertyOp27
 70
     1
102
RTVSPropertyOp28
 70
     1
102
RTVSPropertyOp29
 70
     1
102
RTVSPropertyOp30
 70
     1
102
RTVSPropertyOp31
 70
     1
102
RTVSPropertyOp32
 70
     1
  0
XRECORD
  5
2490
102
{ACAD_REACTORS
330
248F
102
}
330
248F
100
AcDbXrecord
280
     1
102
RTVSPropertyOp0
 70
     1
102
RTVSPropertyOp1
 70
     1
102
RTVSPropertyOp2
 70
     1
102
RTVSPropertyOp3
 70
     1
102
RTVSPropertyOp4
 70
     1
102
RTVSPropertyOp5
 70
     1
102
RTVSPropertyOp6
 70
     1
102
RTVSPropertyOp7
 70
     1
102
RTVSPropertyOp8
 70
     1
102
RTVSPropertyOp9
 70
     1
102
RTVSPropertyOp10
 70
     1
102
RTVSPropertyOp11
 70
     1
102
RTVSPropertyOp12
 70
     1
102
RTVSPropertyOp13
 70
     1
102
RTVSPropertyOp14
 70
     1
102
RTVSPropertyOp15
 70
     1
102
RTVSPropertyOp16
 70
     1
102
RTVSPropertyOp17
 70
     1
102
RTVSPropertyOp18
 70
     1
102
RTVSPropertyOp19
 70
     1
102
RTVSPropertyOp20
 70
     1
102
RTVSPropertyOp21
 70
     1
102
RTVSPropertyOp22
 70
     1
102
RTVSPropertyOp23
 70
     1
102
RTVSPropertyOp24
 70
     1
102
RTVSPropertyOp25
 70
     1
102
RTVSPropertyOp26
 70
     1
102
RTVSPropertyOp27
 70
     1
102
RTVSPropertyOp28
 70
     1
102
RTVSPropertyOp29
 70
     1
102
RTVSPropertyOp30
 70
     1
102
RTVSPropertyOp31
 70
     1
102
RTVSPropertyOp32
 70
     1
  0
XRECORD
  5
2498
102
{ACAD_REACTORS
330
2497
102
}
330
2497
100
AcDbXrecord
280
     1
102
RTVSPropertyOp0
 70
     1
102
RTVSPropertyOp1
 70
     1
102
RTVSPropertyOp2
 70
     1
102
RTVSPropertyOp3
 70
     1
102
RTVSPropertyOp4
 70
     1
102
RTVSPropertyOp5
 70
     1
102
RTVSPropertyOp6
 70
     1
102
RTVSPropertyOp7
 70
     1
102
RTVSPropertyOp8
 70
     1
102
RTVSPropertyOp9
 70
     1
102
RTVSPropertyOp10
 70
     1
102
RTVSPropertyOp11
 70
     1
102
RTVSPropertyOp12
 70
     1
102
RTVSPropertyOp13
 70
     1
102
RTVSPropertyOp14
 70
     1
102
RTVSPropertyOp15
 70
     1
102
RTVSPropertyOp16
 70
     1
102
RTVSPropertyOp17
 70
     1
102
RTVSPropertyOp18
 70
     1
102
RTVSPropertyOp19
 70
     1
102
RTVSPropertyOp20
 70
     1
102
RTVSPropertyOp21
 70
     1
102
RTVSPropertyOp22
 70
     1
102
RTVSPropertyOp23
 70
     1
102
RTVSPropertyOp24
 70
     1
102
RTVSPropertyOp25
 70
     1
102
RTVSPropertyOp26
 70
     1
102
RTVSPropertyOp27
 70
     1
102
RTVSPropertyOp28
 70
     1
102
RTVSPropertyOp29
 70
     1
102
RTVSPropertyOp30
 70
     1
102
RTVSPropertyOp31
 70
     1
102
RTVSPropertyOp32
 70
     1
  0
XRECORD
  5
248A
102
{ACAD_REACTORS
330
2489
102
}
330
2489
100
AcDbXrecord
280
     1
102
RTVSPropertyOp0
 70
     1
102
RTVSPropertyOp1
 70
     1
102
RTVSPropertyOp2
 70
     1
102
RTVSPropertyOp3
 70
     1
102
RTVSPropertyOp4
 70
     1
102
RTVSPropertyOp5
 70
     1
102
RTVSPropertyOp6
 70
     1
102
RTVSPropertyOp7
 70
     1
102
RTVSPropertyOp8
 70
     1
102
RTVSPropertyOp9
 70
     1
102
RTVSPropertyOp10
 70
     1
102
RTVSPropertyOp11
 70
     1
102
RTVSPropertyOp12
 70
     1
102
RTVSPropertyOp13
 70
     1
102
RTVSPropertyOp14
 70
     1
102
RTVSPropertyOp15
 70
     1
102
RTVSPropertyOp16
 70
     1
102
RTVSPropertyOp17
 70
     1
102
RTVSPropertyOp18
 70
     1
102
RTVSPropertyOp19
 70
     1
102
RTVSPropertyOp20
 70
     1
102
RTVSPropertyOp21
 70
     1
102
RTVSPropertyOp22
 70
     1
102
RTVSPropertyOp23
 70
     1
102
RTVSPropertyOp24
 70
     1
102
RTVSPropertyOp25
 70
     1
102
RTVSPropertyOp26
 70
     1
102
RTVSPropertyOp27
 70
     1
102
RTVSPropertyOp28
 70
     1
102
RTVSPropertyOp29
 70
     1
102
RTVSPropertyOp30
 70
     1
102
RTVSPropertyOp31
 70
     1
102
RTVSPropertyOp32
 70
     1
  0
XRECORD
  5
248E
102
{ACAD_REACTORS
330
248D
102
}
330
248D
100
AcDbXrecord
280
     1
102
RTVSPropertyOp0
 70
     1
102
RTVSPropertyOp1
 70
     1
102
RTVSPropertyOp2
 70
     1
102
RTVSPropertyOp3
 70
     1
102
RTVSPropertyOp4
 70
     1
102
RTVSPropertyOp5
 70
     1
102
RTVSPropertyOp6
 70
     1
102
RTVSPropertyOp7
 70
     1
102
RTVSPropertyOp8
 70
     1
102
RTVSPropertyOp9
 70
     1
102
RTVSPropertyOp10
 70
     1
102
RTVSPropertyOp11
 70
     1
102
RTVSPropertyOp12
 70
     1
102
RTVSPropertyOp13
 70
     1
102
RTVSPropertyOp14
 70
     1
102
RTVSPropertyOp15
 70
     1
102
RTVSPropertyOp16
 70
     1
102
RTVSPropertyOp17
 70
     1
102
RTVSPropertyOp18
 70
     1
102
RTVSPropertyOp19
 70
     1
102
RTVSPropertyOp20
 70
     1
102
RTVSPropertyOp21
 70
     1
102
RTVSPropertyOp22
 70
     1
102
RTVSPropertyOp23
 70
     1
102
RTVSPropertyOp24
 70
     1
102
RTVSPropertyOp25
 70
     1
102
RTVSPropertyOp26
 70
     1
102
RTVSPropertyOp27
 70
     1
102
RTVSPropertyOp28
 70
     1
102
RTVSPropertyOp29
 70
     1
102
RTVSPropertyOp30
 70
     1
102
RTVSPropertyOp31
 70
     1
102
RTVSPropertyOp32
 70
     1
  0
XRECORD
  5
24A8
102
{ACAD_REACTORS
330
24A7
102
}
330
24A7
100
AcDbXrecord
280
     1
102
RTVSPropertyOp0
 70
     0
102
RTVSPropertyOp1
 70
     0
102
RTVSPropertyOp2
 70
     0
102
RTVSPropertyOp3
 70
     0
102
RTVSPropertyOp4
 70
     0
102
RTVSPropertyOp5
 70
     0
102
RTVSPropertyOp6
 70
     0
102
RTVSPropertyOp7
 70
     0
102
RTVSPropertyOp8
 70
     0
102
RTVSPropertyOp9
 70
     0
102
RTVSPropertyOp10
 70
     0
102
RTVSPropertyOp11
 70
     0
102
RTVSPropertyOp12
 70
     0
102
RTVSPropertyOp13
 70
     0
102
RTVSPropertyOp14
 70
     2
102
RTVSPropertyOp15
 70
     0
102
RTVSPropertyOp16
 70
     0
102
RTVSPropertyOp17
 70
     0
102
RTVSPropertyOp18
 70
     0
102
RTVSPropertyOp19
 70
     0
102
RTVSPropertyOp20
 70
     0
102
RTVSPropertyOp21
 70
     0
102
RTVSPropertyOp22
 70
     0
102
RTVSPropertyOp23
 70
     0
102
RTVSPropertyOp24
 70
     0
102
RTVSPropertyOp25
 70
     0
102
RTVSPropertyOp26
 70
     0
102
RTVSPropertyOp27
 70
     0
102
RTVSPropertyOp28
 70
     0
102
RTVSPropertyOp29
 70
     0
102
RTVSPropertyOp30
 70
     0
102
RTVSPropertyOp31
 70
     0
102
RTVSPropertyOp32
 70
     0
  0
XRECORD
  5
2496
102
{ACAD_REACTORS
330
2495
102
}
330
2495
100
AcDbXrecord
280
     1
102
RTVSPropertyOp0
 70
     1
102
RTVSPropertyOp1
 70
     1
102
RTVSPropertyOp2
 70
     1
102
RTVSPropertyOp3
 70
     1
102
RTVSPropertyOp4
 70
     1
102
RTVSPropertyOp5
 70
     1
102
RTVSPropertyOp6
 70
     1
102
RTVSPropertyOp7
 70
     1
102
RTVSPropertyOp8
 70
     1
102
RTVSPropertyOp9
 70
     1
102
RTVSPropertyOp10
 70
     1
102
RTVSPropertyOp11
 70
     1
102
RTVSPropertyOp12
 70
     1
102
RTVSPropertyOp13
 70
     1
102
RTVSPropertyOp14
 70
     1
102
RTVSPropertyOp15
 70
     1
102
RTVSPropertyOp16
 70
     1
102
RTVSPropertyOp17
 70
     1
102
RTVSPropertyOp18
 70
     1
102
RTVSPropertyOp19
 70
     1
102
RTVSPropertyOp20
 70
     1
102
RTVSPropertyOp21
 70
     1
102
RTVSPropertyOp22
 70
     1
102
RTVSPropertyOp23
 70
     1
102
RTVSPropertyOp24
 70
     1
102
RTVSPropertyOp25
 70
     1
102
RTVSPropertyOp26
 70
     1
102
RTVSPropertyOp27
 70
     1
102
RTVSPropertyOp28
 70
     1
102
RTVSPropertyOp29
 70
     1
102
RTVSPropertyOp30
 70
     1
102
RTVSPropertyOp31
 70
     1
102
RTVSPropertyOp32
 70
     1
  0
XRECORD
  5
247A
102
{ACAD_REACTORS
330
2479
102
}
330
2479
100
AcDbXrecord
280
     1
102
RTVSPropertyOp0
 70
     1
102
RTVSPropertyOp1
 70
     1
102
RTVSPropertyOp2
 70
     1
102
RTVSPropertyOp3
 70
     1
102
RTVSPropertyOp4
 70
     1
102
RTVSPropertyOp5
 70
     1
102
RTVSPropertyOp6
 70
     1
102
RTVSPropertyOp7
 70
     1
102
RTVSPropertyOp8
 70
     1
102
RTVSPropertyOp9
 70
     1
102
RTVSPropertyOp10
 70
     1
102
RTVSPropertyOp11
 70
     1
102
RTVSPropertyOp12
 70
     1
102
RTVSPropertyOp13
 70
     1
102
RTVSPropertyOp14
 70
     1
102
RTVSPropertyOp15
 70
     1
102
RTVSPropertyOp16
 70
     1
102
RTVSPropertyOp17
 70
     1
102
RTVSPropertyOp18
 70
     1
102
RTVSPropertyOp19
 70
     1
102
RTVSPropertyOp20
 70
     1
102
RTVSPropertyOp21
 70
     1
102
RTVSPropertyOp22
 70
     1
102
RTVSPropertyOp23
 70
     1
102
RTVSPropertyOp24
 70
     1
102
RTVSPropertyOp25
 70
     1
102
RTVSPropertyOp26
 70
     1
102
RTVSPropertyOp27
 70
     1
102
RTVSPropertyOp28
 70
     1
102
RTVSPropertyOp29
 70
     1
102
RTVSPropertyOp30
 70
     1
102
RTVSPropertyOp31
 70
     1
102
RTVSPropertyOp32
 70
     1
  0
XRECORD
  5
247C
102
{ACAD_REACTORS
330
247B
102
}
330
247B
100
AcDbXrecord
280
     1
102
RTVSPropertyOp0
 70
     1
102
RTVSPropertyOp1
 70
     1
102
RTVSPropertyOp2
 70
     1
102
RTVSPropertyOp3
 70
     1
102
RTVSPropertyOp4
 70
     1
102
RTVSPropertyOp5
 70
     1
102
RTVSPropertyOp6
 70
     1
102
RTVSPropertyOp7
 70
     1
102
RTVSPropertyOp8
 70
     1
102
RTVSPropertyOp9
 70
     1
102
RTVSPropertyOp10
 70
     1
102
RTVSPropertyOp11
 70
     1
102
RTVSPropertyOp12
 70
     1
102
RTVSPropertyOp13
 70
     1
102
RTVSPropertyOp14
 70
     1
102
RTVSPropertyOp15
 70
     1
102
RTVSPropertyOp16
 70
     1
102
RTVSPropertyOp17
 70
     1
102
RTVSPropertyOp18
 70
     1
102
RTVSPropertyOp19
 70
     1
102
RTVSPropertyOp20
 70
     1
102
RTVSPropertyOp21
 70
     1
102
RTVSPropertyOp22
 70
     1
102
RTVSPropertyOp23
 70
     1
102
RTVSPropertyOp24
 70
     1
102
RTVSPropertyOp25
 70
     1
102
RTVSPropertyOp26
 70
     1
102
RTVSPropertyOp27
 70
     1
102
RTVSPropertyOp28
 70
     1
102
RTVSPropertyOp29
 70
     1
102
RTVSPropertyOp30
 70
     1
102
RTVSPropertyOp31
 70
     1
102
RTVSPropertyOp32
 70
     1
  0
XRECORD
  5
247E
102
{ACAD_REACTORS
330
247D
102
}
330
247D
100
AcDbXrecord
280
     1
102
RTVSPropertyOp0
 70
     1
102
RTVSPropertyOp1
 70
     1
102
RTVSPropertyOp2
 70
     1
102
RTVSPropertyOp3
 70
     1
102
RTVSPropertyOp4
 70
     1
102
RTVSPropertyOp5
 70
     1
102
RTVSPropertyOp6
 70
     1
102
RTVSPropertyOp7
 70
     1
102
RTVSPropertyOp8
 70
     1
102
RTVSPropertyOp9
 70
     1
102
RTVSPropertyOp10
 70
     1
102
RTVSPropertyOp11
 70
     1
102
RTVSPropertyOp12
 70
     1
102
RTVSPropertyOp13
 70
     1
102
RTVSPropertyOp14
 70
     1
102
RTVSPropertyOp15
 70
     1
102
RTVSPropertyOp16
 70
     1
102
RTVSPropertyOp17
 70
     1
102
RTVSPropertyOp18
 70
     1
102
RTVSPropertyOp19
 70
     1
102
RTVSPropertyOp20
 70
     1
102
RTVSPropertyOp21
 70
     1
102
RTVSPropertyOp22
 70
     1
102
RTVSPropertyOp23
 70
     1
102
RTVSPropertyOp24
 70
     1
102
RTVSPropertyOp25
 70
     1
102
RTVSPropertyOp26
 70
     1
102
RTVSPropertyOp27
 70
     1
102
RTVSPropertyOp28
 70
     1
102
RTVSPropertyOp29
 70
     1
102
RTVSPropertyOp30
 70
     1
102
RTVSPropertyOp31
 70
     1
102
RTVSPropertyOp32
 70
     1
  0
XRECORD
  5
2480
102
{ACAD_REACTORS
330
247F
102
}
330
247F
100
AcDbXrecord
280
     1
102
RTVSPropertyOp0
 70
     1
102
RTVSPropertyOp1
 70
     1
102
RTVSPropertyOp2
 70
     1
102
RTVSPropertyOp3
 70
     1
102
RTVSPropertyOp4
 70
     1
102
RTVSPropertyOp5
 70
     1
102
RTVSPropertyOp6
 70
     1
102
RTVSPropertyOp7
 70
     1
102
RTVSPropertyOp8
 70
     1
102
RTVSPropertyOp9
 70
     1
102
RTVSPropertyOp10
 70
     1
102
RTVSPropertyOp11
 70
     1
102
RTVSPropertyOp12
 70
     1
102
RTVSPropertyOp13
 70
     1
102
RTVSPropertyOp14
 70
     1
102
RTVSPropertyOp15
 70
     1
102
RTVSPropertyOp16
 70
     1
102
RTVSPropertyOp17
 70
     1
102
RTVSPropertyOp18
 70
     1
102
RTVSPropertyOp19
 70
     1
102
RTVSPropertyOp20
 70
     1
102
RTVSPropertyOp21
 70
     1
102
RTVSPropertyOp22
 70
     1
102
RTVSPropertyOp23
 70
     1
102
RTVSPropertyOp24
 70
     1
102
RTVSPropertyOp25
 70
     1
102
RTVSPropertyOp26
 70
     1
102
RTVSPropertyOp27
 70
     1
102
RTVSPropertyOp28
 70
     1
102
RTVSPropertyOp29
 70
     1
102
RTVSPropertyOp30
 70
     1
102
RTVSPropertyOp31
 70
     1
102
RTVSPropertyOp32
 70
     1
  0
XRECORD
  5
2488
102
{ACAD_REACTORS
330
2487
102
}
330
2487
100
AcDbXrecord
280
     1
102
RTVSPropertyOp0
 70
     1
102
RTVSPropertyOp1
 70
     1
102
RTVSPropertyOp2
 70
     1
102
RTVSPropertyOp3
 70
     1
102
RTVSPropertyOp4
 70
     1
102
RTVSPropertyOp5
 70
     1
102
RTVSPropertyOp6
 70
     1
102
RTVSPropertyOp7
 70
     1
102
RTVSPropertyOp8
 70
     1
102
RTVSPropertyOp9
 70
     1
102
RTVSPropertyOp10
 70
     1
102
RTVSPropertyOp11
 70
     1
102
RTVSPropertyOp12
 70
     1
102
RTVSPropertyOp13
 70
     1
102
RTVSPropertyOp14
 70
     1
102
RTVSPropertyOp15
 70
     1
102
RTVSPropertyOp16
 70
     1
102
RTVSPropertyOp17
 70
     1
102
RTVSPropertyOp18
 70
     1
102
RTVSPropertyOp19
 70
     1
102
RTVSPropertyOp20
 70
     1
102
RTVSPropertyOp21
 70
     1
102
RTVSPropertyOp22
 70
     1
102
RTVSPropertyOp23
 70
     1
102
RTVSPropertyOp24
 70
     1
102
RTVSPropertyOp25
 70
     1
102
RTVSPropertyOp26
 70
     1
102
RTVSPropertyOp27
 70
     1
102
RTVSPropertyOp28
 70
     1
102
RTVSPropertyOp29
 70
     1
102
RTVSPropertyOp30
 70
     1
102
RTVSPropertyOp31
 70
     1
102
RTVSPropertyOp32
 70
     1
  0
XRECORD
  5
24A4
102
{ACAD_REACTORS
330
24A3
102
}
330
24A3
100
AcDbXrecord
280
     1
102
RTVSPropertyOp0
 70
     0
102
RTVSPropertyOp1
 70
     0
102
RTVSPropertyOp2
 70
     0
102
RTVSPropertyOp3
 70
     0
102
RTVSPropertyOp4
 70
     0
102
RTVSPropertyOp5
 70
     0
102
RTVSPropertyOp6
 70
     0
102
RTVSPropertyOp7
 70
     0
102
RTVSPropertyOp8
 70
     0
102
RTVSPropertyOp9
 70
     0
102
RTVSPropertyOp10
 70
     0
102
RTVSPropertyOp11
 70
     0
102
RTVSPropertyOp12
 70
     0
102
RTVSPropertyOp13
 70
     0
102
RTVSPropertyOp14
 70
     2
102
RTVSPropertyOp15
 70
     0
102
RTVSPropertyOp16
 70
     0
102
RTVSPropertyOp17
 70
     0
102
RTVSPropertyOp18
 70
     0
102
RTVSPropertyOp19
 70
     0
102
RTVSPropertyOp20
 70
     0
102
RTVSPropertyOp21
 70
     0
102
RTVSPropertyOp22
 70
     0
102
RTVSPropertyOp23
 70
     0
102
RTVSPropertyOp24
 70
     0
102
RTVSPropertyOp25
 70
     0
102
RTVSPropertyOp26
 70
     0
102
RTVSPropertyOp27
 70
     0
102
RTVSPropertyOp28
 70
     0
102
RTVSPropertyOp29
 70
     0
102
RTVSPropertyOp30
 70
     0
102
RTVSPropertyOp31
 70
     0
102
RTVSPropertyOp32
 70
     0
  0
XRECORD
  5
2494
102
{ACAD_REACTORS
330
2493
102
}
330
2493
100
AcDbXrecord
280
     1
102
RTVSPropertyOp0
 70
     1
102
RTVSPropertyOp1
 70
     1
102
RTVSPropertyOp2
 70
     1
102
RTVSPropertyOp3
 70
     1
102
RTVSPropertyOp4
 70
     1
102
RTVSPropertyOp5
 70
     1
102
RTVSPropertyOp6
 70
     1
102
RTVSPropertyOp7
 70
     1
102
RTVSPropertyOp8
 70
     1
102
RTVSPropertyOp9
 70
     1
102
RTVSPropertyOp10
 70
     1
102
RTVSPropertyOp11
 70
     1
102
RTVSPropertyOp12
 70
     1
102
RTVSPropertyOp13
 70
     1
102
RTVSPropertyOp14
 70
     1
102
RTVSPropertyOp15
 70
     1
102
RTVSPropertyOp16
 70
     1
102
RTVSPropertyOp17
 70
     1
102
RTVSPropertyOp18
 70
     1
102
RTVSPropertyOp19
 70
     1
102
RTVSPropertyOp20
 70
     1
102
RTVSPropertyOp21
 70
     1
102
RTVSPropertyOp22
 70
     1
102
RTVSPropertyOp23
 70
     1
102
RTVSPropertyOp24
 70
     1
102
RTVSPropertyOp25
 70
     1
102
RTVSPropertyOp26
 70
     1
102
RTVSPropertyOp27
 70
     1
102
RTVSPropertyOp28
 70
     1
102
RTVSPropertyOp29
 70
     1
102
RTVSPropertyOp30
 70
     1
102
RTVSPropertyOp31
 70
     1
102
RTVSPropertyOp32
 70
     1
  0
XRECORD
  5
24A6
102
{ACAD_REACTORS
330
24A5
102
}
330
24A5
100
AcDbXrecord
280
     1
102
RTVSPropertyOp0
 70
     0
102
RTVSPropertyOp1
 70
     0
102
RTVSPropertyOp2
 70
     0
102
RTVSPropertyOp3
 70
     0
102
RTVSPropertyOp4
 70
     0
102
RTVSPropertyOp5
 70
     0
102
RTVSPropertyOp6
 70
     0
102
RTVSPropertyOp7
 70
     0
102
RTVSPropertyOp8
 70
     0
102
RTVSPropertyOp9
 70
     0
102
RTVSPropertyOp10
 70
     0
102
RTVSPropertyOp11
 70
     0
102
RTVSPropertyOp12
 70
     0
102
RTVSPropertyOp13
 70
     0
102
RTVSPropertyOp14
 70
     2
102
RTVSPropertyOp15
 70
     0
102
RTVSPropertyOp16
 70
     0
102
RTVSPropertyOp17
 70
     0
102
RTVSPropertyOp18
 70
     0
102
RTVSPropertyOp19
 70
     0
102
RTVSPropertyOp20
 70
     0
102
RTVSPropertyOp21
 70
     0
102
RTVSPropertyOp22
 70
     0
102
RTVSPropertyOp23
 70
     0
102
RTVSPropertyOp24
 70
     0
102
RTVSPropertyOp25
 70
     0
102
RTVSPropertyOp26
 70
     0
102
RTVSPropertyOp27
 70
     0
102
RTVSPropertyOp28
 70
     0
102
RTVSPropertyOp29
 70
     0
102
RTVSPropertyOp30
 70
     0
102
RTVSPropertyOp31
 70
     0
102
RTVSPropertyOp32
 70
     0
  0
XRECORD
  5
248C
102
{ACAD_REACTORS
330
248B
102
}
330
248B
100
AcDbXrecord
280
     1
102
RTVSPropertyOp0
 70
     1
102
RTVSPropertyOp1
 70
     1
102
RTVSPropertyOp2
 70
     1
102
RTVSPropertyOp3
 70
     1
102
RTVSPropertyOp4
 70
     1
102
RTVSPropertyOp5
 70
     1
102
RTVSPropertyOp6
 70
     1
102
RTVSPropertyOp7
 70
     1
102
RTVSPropertyOp8
 70
     1
102
RTVSPropertyOp9
 70
     1
102
RTVSPropertyOp10
 70
     1
102
RTVSPropertyOp11
 70
     1
102
RTVSPropertyOp12
 70
     1
102
RTVSPropertyOp13
 70
     1
102
RTVSPropertyOp14
 70
     1
102
RTVSPropertyOp15
 70
     1
102
RTVSPropertyOp16
 70
     1
102
RTVSPropertyOp17
 70
     1
102
RTVSPropertyOp18
 70
     1
102
RTVSPropertyOp19
 70
     1
102
RTVSPropertyOp20
 70
     1
102
RTVSPropertyOp21
 70
     1
102
RTVSPropertyOp22
 70
     1
102
RTVSPropertyOp23
 70
     1
102
RTVSPropertyOp24
 70
     1
102
RTVSPropertyOp25
 70
     1
102
RTVSPropertyOp26
 70
     1
102
RTVSPropertyOp27
 70
     1
102
RTVSPropertyOp28
 70
     1
102
RTVSPropertyOp29
 70
     1
102
RTVSPropertyOp30
 70
     1
102
RTVSPropertyOp31
 70
     1
102
RTVSPropertyOp32
 70
     1
  0
XRECORD
  5
24A2
102
{ACAD_REACTORS
330
24A1
102
}
330
24A1
100
AcDbXrecord
280
     1
102
RTVSPropertyOp0
 70
     1
102
RTVSPropertyOp1
 70
     1
102
RTVSPropertyOp2
 70
     1
102
RTVSPropertyOp3
 70
     1
102
RTVSPropertyOp4
 70
     1
102
RTVSPropertyOp5
 70
     1
102
RTVSPropertyOp6
 70
     1
102
RTVSPropertyOp7
 70
     1
102
RTVSPropertyOp8
 70
     1
102
RTVSPropertyOp9
 70
     1
102
RTVSPropertyOp10
 70
     1
102
RTVSPropertyOp11
 70
     1
102
RTVSPropertyOp12
 70
     1
102
RTVSPropertyOp13
 70
     1
102
RTVSPropertyOp14
 70
     1
102
RTVSPropertyOp15
 70
     1
102
RTVSPropertyOp16
 70
     1
102
RTVSPropertyOp17
 70
     1
102
RTVSPropertyOp18
 70
     1
102
RTVSPropertyOp19
 70
     1
102
RTVSPropertyOp20
 70
     1
102
RTVSPropertyOp21
 70
     1
102
RTVSPropertyOp22
 70
     1
102
RTVSPropertyOp23
 70
     1
102
RTVSPropertyOp24
 70
     1
102
RTVSPropertyOp25
 70
     1
102
RTVSPropertyOp26
 70
     1
102
RTVSPropertyOp27
 70
     1
102
RTVSPropertyOp28
 70
     1
102
RTVSPropertyOp29
 70
     1
102
RTVSPropertyOp30
 70
     1
102
RTVSPropertyOp31
 70
     1
102
RTVSPropertyOp32
 70
     1
  0
XRECORD
  5
24A0
102
{ACAD_REACTORS
330
249F
102
}
330
249F
100
AcDbXrecord
280
     1
102
RTVSPropertyOp0
 70
     1
102
RTVSPropertyOp1
 70
     1
102
RTVSPropertyOp2
 70
     1
102
RTVSPropertyOp3
 70
     1
102
RTVSPropertyOp4
 70
     1
102
RTVSPropertyOp5
 70
     1
102
RTVSPropertyOp6
 70
     1
102
RTVSPropertyOp7
 70
     1
102
RTVSPropertyOp8
 70
     1
102
RTVSPropertyOp9
 70
     1
102
RTVSPropertyOp10
 70
     1
102
RTVSPropertyOp11
 70
     1
102
RTVSPropertyOp12
 70
     1
102
RTVSPropertyOp13
 70
     1
102
RTVSPropertyOp14
 70
     1
102
RTVSPropertyOp15
 70
     1
102
RTVSPropertyOp16
 70
     1
102
RTVSPropertyOp17
 70
     1
102
RTVSPropertyOp18
 70
     1
102
RTVSPropertyOp19
 70
     1
102
RTVSPropertyOp20
 70
     1
102
RTVSPropertyOp21
 70
     1
102
RTVSPropertyOp22
 70
     1
102
RTVSPropertyOp23
 70
     1
102
RTVSPropertyOp24
 70
     1
102
RTVSPropertyOp25
 70
     1
102
RTVSPropertyOp26
 70
     1
102
RTVSPropertyOp27
 70
     1
102
RTVSPropertyOp28
 70
     1
102
RTVSPropertyOp29
 70
     1
102
RTVSPropertyOp30
 70
     1
102
RTVSPropertyOp31
 70
     1
102
RTVSPropertyOp32
 70
     1
  0
XRECORD
  5
249A
102
{ACAD_REACTORS
330
2499
102
}
330
2499
100
AcDbXrecord
280
     1
102
RTVSPropertyOp0
 70
     1
102
RTVSPropertyOp1
 70
     1
102
RTVSPropertyOp2
 70
     1
102
RTVSPropertyOp3
 70
     1
102
RTVSPropertyOp4
 70
     1
102
RTVSPropertyOp5
 70
     1
102
RTVSPropertyOp6
 70
     1
102
RTVSPropertyOp7
 70
     1
102
RTVSPropertyOp8
 70
     1
102
RTVSPropertyOp9
 70
     1
102
RTVSPropertyOp10
 70
     1
102
RTVSPropertyOp11
 70
     1
102
RTVSPropertyOp12
 70
     1
102
RTVSPropertyOp13
 70
     1
102
RTVSPropertyOp14
 70
     1
102
RTVSPropertyOp15
 70
     1
102
RTVSPropertyOp16
 70
     1
102
RTVSPropertyOp17
 70
     1
102
RTVSPropertyOp18
 70
     1
102
RTVSPropertyOp19
 70
     1
102
RTVSPropertyOp20
 70
     1
102
RTVSPropertyOp21
 70
     1
102
RTVSPropertyOp22
 70
     1
102
RTVSPropertyOp23
 70
     1
102
RTVSPropertyOp24
 70
     1
102
RTVSPropertyOp25
 70
     1
102
RTVSPropertyOp26
 70
     1
102
RTVSPropertyOp27
 70
     1
102
RTVSPropertyOp28
 70
     1
102
RTVSPropertyOp29
 70
     1
102
RTVSPropertyOp30
 70
     1
102
RTVSPropertyOp31
 70
     1
102
RTVSPropertyOp32
 70
     1
  0
XRECORD
  5
249C
102
{ACAD_REACTORS
330
249B
102
}
330
249B
100
AcDbXrecord
280
     1
102
RTVSPropertyOp0
 70
     1
102
RTVSPropertyOp1
 70
     1
102
RTVSPropertyOp2
 70
     1
102
RTVSPropertyOp3
 70
     1
102
RTVSPropertyOp4
 70
     1
102
RTVSPropertyOp5
 70
     1
102
RTVSPropertyOp6
 70
     1
102
RTVSPropertyOp7
 70
     1
102
RTVSPropertyOp8
 70
     1
102
RTVSPropertyOp9
 70
     1
102
RTVSPropertyOp10
 70
     1
102
RTVSPropertyOp11
 70
     1
102
RTVSPropertyOp12
 70
     1
102
RTVSPropertyOp13
 70
     1
102
RTVSPropertyOp14
 70
     1
102
RTVSPropertyOp15
 70
     1
102
RTVSPropertyOp16
 70
     1
102
RTVSPropertyOp17
 70
     1
102
RTVSPropertyOp18
 70
     1
102
RTVSPropertyOp19
 70
     1
102
RTVSPropertyOp20
 70
     1
102
RTVSPropertyOp21
 70
     1
102
RTVSPropertyOp22
 70
     1
102
RTVSPropertyOp23
 70
     1
102
RTVSPropertyOp24
 70
     1
102
RTVSPropertyOp25
 70
     1
102
RTVSPropertyOp26
 70
     1
102
RTVSPropertyOp27
 70
     1
102
RTVSPropertyOp28
 70
     1
102
RTVSPropertyOp29
 70
     1
102
RTVSPropertyOp30
 70
     1
102
RTVSPropertyOp31
 70
     1
102
RTVSPropertyOp32
 70
     1
  0
XRECORD
  5
2492
102
{ACAD_REACTORS
330
2491
102
}
330
2491
100
AcDbXrecord
280
     1
102
RTVSPropertyOp0
 70
     1
102
RTVSPropertyOp1
 70
     1
102
RTVSPropertyOp2
 70
     1
102
RTVSPropertyOp3
 70
     1
102
RTVSPropertyOp4
 70
     1
102
RTVSPropertyOp5
 70
     1
102
RTVSPropertyOp6
 70
     1
102
RTVSPropertyOp7
 70
     1
102
RTVSPropertyOp8
 70
     1
102
RTVSPropertyOp9
 70
     1
102
RTVSPropertyOp10
 70
     1
102
RTVSPropertyOp11
 70
     1
102
RTVSPropertyOp12
 70
     1
102
RTVSPropertyOp13
 70
     1
102
RTVSPropertyOp14
 70
     1
102
RTVSPropertyOp15
 70
     1
102
RTVSPropertyOp16
 70
     1
102
RTVSPropertyOp17
 70
     1
102
RTVSPropertyOp18
 70
     1
102
RTVSPropertyOp19
 70
     1
102
RTVSPropertyOp20
 70
     1
102
RTVSPropertyOp21
 70
     1
102
RTVSPropertyOp22
 70
     1
102
RTVSPropertyOp23
 70
     1
102
RTVSPropertyOp24
 70
     1
102
RTVSPropertyOp25
 70
     1
102
RTVSPropertyOp26
 70
     1
102
RTVSPropertyOp27
 70
     1
102
RTVSPropertyOp28
 70
     1
102
RTVSPropertyOp29
 70
     1
102
RTVSPropertyOp30
 70
     1
102
RTVSPropertyOp31
 70
     1
102
RTVSPropertyOp32
 70
     1
  0
XRECORD
  5
2486
102
{ACAD_REACTORS
330
2485
102
}
330
2485
100
AcDbXrecord
280
     1
102
RTVSPropertyOp0
 70
     1
102
RTVSPropertyOp1
 70
     1
102
RTVSPropertyOp2
 70
     1
102
RTVSPropertyOp3
 70
     1
102
RTVSPropertyOp4
 70
     1
102
RTVSPropertyOp5
 70
     1
102
RTVSPropertyOp6
 70
     1
102
RTVSPropertyOp7
 70
     1
102
RTVSPropertyOp8
 70
     1
102
RTVSPropertyOp9
 70
     1
102
RTVSPropertyOp10
 70
     1
102
RTVSPropertyOp11
 70
     1
102
RTVSPropertyOp12
 70
     1
102
RTVSPropertyOp13
 70
     1
102
RTVSPropertyOp14
 70
     1
102
RTVSPropertyOp15
 70
     1
102
RTVSPropertyOp16
 70
     1
102
RTVSPropertyOp17
 70
     1
102
RTVSPropertyOp18
 70
     1
102
RTVSPropertyOp19
 70
     1
102
RTVSPropertyOp20
 70
     1
102
RTVSPropertyOp21
 70
     1
102
RTVSPropertyOp22
 70
     1
102
RTVSPropertyOp23
 70
     1
102
RTVSPropertyOp24
 70
     1
102
RTVSPropertyOp25
 70
     1
102
RTVSPropertyOp26
 70
     1
102
RTVSPropertyOp27
 70
     1
102
RTVSPropertyOp28
 70
     1
102
RTVSPropertyOp29
 70
     1
102
RTVSPropertyOp30
 70
     1
102
RTVSPropertyOp31
 70
     1
102
RTVSPropertyOp32
 70
     1
  0
XRECORD
  5
249E
102
{ACAD_REACTORS
330
249D
102
}
330
249D
100
AcDbXrecord
280
     1
102
RTVSPropertyOp0
 70
     1
102
RTVSPropertyOp1
 70
     1
102
RTVSPropertyOp2
 70
     1
102
RTVSPropertyOp3
 70
     1
102
RTVSPropertyOp4
 70
     1
102
RTVSPropertyOp5
 70
     1
102
RTVSPropertyOp6
 70
     1
102
RTVSPropertyOp7
 70
     1
102
RTVSPropertyOp8
 70
     1
102
RTVSPropertyOp9
 70
     1
102
RTVSPropertyOp10
 70
     1
102
RTVSPropertyOp11
 70
     1
102
RTVSPropertyOp12
 70
     1
102
RTVSPropertyOp13
 70
     1
102
RTVSPropertyOp14
 70
     1
102
RTVSPropertyOp15
 70
     1
102
RTVSPropertyOp16
 70
     1
102
RTVSPropertyOp17
 70
     1
102
RTVSPropertyOp18
 70
     1
102
RTVSPropertyOp19
 70
     1
102
RTVSPropertyOp20
 70
     1
102
RTVSPropertyOp21
 70
     1
102
RTVSPropertyOp22
 70
     1
102
RTVSPropertyOp23
 70
     1
102
RTVSPropertyOp24
 70
     1
102
RTVSPropertyOp25
 70
     1
102
RTVSPropertyOp26
 70
     1
102
RTVSPropertyOp27
 70
     1
102
RTVSPropertyOp28
 70
     1
102
RTVSPropertyOp29
 70
     1
102
RTVSPropertyOp30
 70
     1
102
RTVSPropertyOp31
 70
     1
102
RTVSPropertyOp32
 70
     1
  0
ENDSEC
  0
EOF
